  0
SECTION
  2
HEADER
  9
$ACADVER
  1
AC1021
  9
$ACADMAINTVER
 70
    25
  9
$DWGCODEPAGE
  3
ANSI_1250
  9
$COMMENTS
  1
File was created by Mastercam X3
  9
$INSBASE
 10
0.0
 20
0.0
 30
0.0
  9
$EXTMIN
 10
1.000000000000000E+20
 20
1.000000000000000E+20
 30
1.000000000000000E+20
  9
$EXTMAX
 10
-1.000000000000000E+20
 20
-1.000000000000000E+20
 30
-1.000000000000000E+20
  9
$LIMMIN
 10
0.0
 20
0.0
  9
$LIMMAX
 10
420.0
 20
297.0
  9
$ORTHOMODE
 70
     0
  9
$REGENMODE
 70
     1
  9
$FILLMODE
 70
     1
  9
$QTEXTMODE
 70
     0
  9
$MIRRTEXT
 70
     1
  9
$LTSCALE
 40
1.0
  9
$ATTMODE
 70
     1
  9
$TEXTSIZE
 40
2.5
  9
$TRACEWID
 40
1.0
  9
$TEXTSTYLE
  7
Standard
  9
$CLAYER
  8
0
  9
$CELTYPE
  6
ByLayer
  9
$CECOLOR
 62
   256
  9
$CELTSCALE
 40
1.0
  9
$DISPSILH
 70
     0
  9
$DIMSCALE
 40
1.0
  9
$DIMASZ
 40
2.5
  9
$DIMEXO
 40
0.625
  9
$DIMDLI
 40
3.75
  9
$DIMRND
 40
0.0
  9
$DIMDLE
 40
0.0
  9
$DIMEXE
 40
1.25
  9
$DIMTP
 40
0.0
  9
$DIMTM
 40
0.0
  9
$DIMTXT
 40
2.5
  9
$DIMCEN
 40
2.5
  9
$DIMTSZ
 40
0.0
  9
$DIMTOL
 70
     0
  9
$DIMLIM
 70
     0
  9
$DIMTIH
 70
     0
  9
$DIMTOH
 70
     0
  9
$DIMSE1
 70
     0
  9
$DIMSE2
 70
     0
  9
$DIMTAD
 70
     1
  9
$DIMZIN
 70
     8
  9
$DIMBLK
  1

  9
$DIMASO
 70
     1
  9
$DIMSHO
 70
     1
  9
$DIMPOST
  1

  9
$DIMAPOST
  1

  9
$DIMALT
 70
     0
  9
$DIMALTD
 70
     3
  9
$DIMALTF
 40
0.03937007874016
  9
$DIMLFAC
 40
1.0
  9
$DIMTOFL
 70
     1
  9
$DIMTVP
 40
0.0
  9
$DIMTIX
 70
     0
  9
$DIMSOXD
 70
     0
  9
$DIMSAH
 70
     0
  9
$DIMBLK1
  1

  9
$DIMBLK2
  1

  9
$DIMSTYLE
  2
ISO-25
  9
$DIMCLRD
 70
     0
  9
$DIMCLRE
 70
     0
  9
$DIMCLRT
 70
     0
  9
$DIMTFAC
 40
1.0
  9
$DIMGAP
 40
0.625
  9
$DIMJUST
 70
     0
  9
$DIMSD1
 70
     0
  9
$DIMSD2
 70
     0
  9
$DIMTOLJ
 70
     0
  9
$DIMTZIN
 70
     8
  9
$DIMALTZ
 70
     0
  9
$DIMALTTZ
 70
     0
  9
$DIMUPT
 70
     0
  9
$DIMDEC
 70
     2
  9
$DIMTDEC
 70
     2
  9
$DIMALTU
 70
     2
  9
$DIMALTTD
 70
     3
  9
$DIMTXSTY
  7
Standard
  9
$DIMAUNIT
 70
     0
  9
$DIMADEC
 70
     0
  9
$DIMALTRND
 40
0.0
  9
$DIMAZIN
 70
     0
  9
$DIMDSEP
 70
    44
  9
$DIMATFIT
 70
     3
  9
$DIMFRAC
 70
     0
  9
$DIMLDRBLK
  1

  9
$DIMLUNIT
 70
     2
  9
$DIMLWD
 70
    -2
  9
$DIMLWE
 70
    -2
  9
$DIMTMOVE
 70
     0
  9
$DIMFXL
 40
1.0
  9
$DIMFXLON
 70
     0
  9
$DIMJOGANG
 40
0.7853981633974483
  9
$DIMTFILL
 70
     0
  9
$DIMTFILLCLR
 70
     0
  9
$DIMARCSYM
 70
     0
  9
$DIMLTYPE
  6

  9
$DIMLTEX1
  6

  9
$DIMLTEX2
  6

  9
$LUNITS
 70
     2
  9
$LUPREC
 70
     4
  9
$SKETCHINC
 40
1.0
  9
$FILLETRAD
 40
10.0
  9
$AUNITS
 70
     0
  9
$AUPREC
 70
     0
  9
$MENU
  1
.
  9
$ELEVATION
 40
0.0
  9
$PELEVATION
 40
0.0
  9
$THICKNESS
 40
0.0
  9
$LIMCHECK
 70
     0
  9
$CHAMFERA
 40
10.0
  9
$CHAMFERB
 40
10.0
  9
$CHAMFERC
 40
20.0
  9
$CHAMFERD
 40
0.0
  9
$SKPOLY
 70
     0
  9
$TDCREATE
 40
2453737.5
  9
$TDUCREATE
 40
2453737.458333333
  9
$TDUPDATE
 40
2456237.635190243
  9
$TDUUPDATE
 40
2456237.593523576
  9
$TDINDWG
 40
0.0000000116
  9
$TDUSRTIMER
 40
0.0000000116
  9
$USRTIMER
 70
     1
  9
$ANGBASE
 50
0.0
  9
$ANGDIR
 70
     0
  9
$PDMODE
 70
     2
  9
$PDSIZE
 40
0.1
  9
$PLINEWID
 40
0.0
  9
$SPLFRAME
 70
     0
  9
$SPLINETYPE
 70
     6
  9
$SPLINESEGS
 70
     8
  9
$HANDSEED
  5
16C
  9
$SURFTAB1
 70
     6
  9
$SURFTAB2
 70
     6
  9
$SURFTYPE
 70
     6
  9
$SURFU
 70
     6
  9
$SURFV
 70
     6
  9
$UCSBASE
  2

  9
$UCSNAME
  2

  9
$UCSORG
 10
0.0
 20
0.0
 30
0.0
  9
$UCSXDIR
 10
1.0
 20
0.0
 30
0.0
  9
$UCSYDIR
 10
0.0
 20
1.0
 30
0.0
  9
$UCSORTHOREF
  2

  9
$UCSORTHOVIEW
 70
     0
  9
$UCSORGTOP
 10
0.0
 20
0.0
 30
0.0
  9
$UCSORGBOTTOM
 10
0.0
 20
0.0
 30
0.0
  9
$UCSORGLEFT
 10
0.0
 20
0.0
 30
0.0
  9
$UCSORGRIGHT
 10
0.0
 20
0.0
 30
0.0
  9
$UCSORGFRONT
 10
0.0
 20
0.0
 30
0.0
  9
$UCSORGBACK
 10
0.0
 20
0.0
 30
0.0
  9
$PUCSBASE
  2

  9
$PUCSNAME
  2

  9
$PUCSORG
 10
0.0
 20
0.0
 30
0.0
  9
$PUCSXDIR
 10
1.0
 20
0.0
 30
0.0
  9
$PUCSYDIR
 10
0.0
 20
1.0
 30
0.0
  9
$PUCSORTHOREF
  2

  9
$PUCSORTHOVIEW
 70
     0
  9
$PUCSORGTOP
 10
0.0
 20
0.0
 30
0.0
  9
$PUCSORGBOTTOM
 10
0.0
 20
0.0
 30
0.0
  9
$PUCSORGLEFT
 10
0.0
 20
0.0
 30
0.0
  9
$PUCSORGRIGHT
 10
0.0
 20
0.0
 30
0.0
  9
$PUCSORGFRONT
 10
0.0
 20
0.0
 30
0.0
  9
$PUCSORGBACK
 10
0.0
 20
0.0
 30
0.0
  9
$USERI1
 70
     0
  9
$USERI2
 70
     0
  9
$USERI3
 70
     0
  9
$USERI4
 70
     0
  9
$USERI5
 70
     0
  9
$USERR1
 40
0.0
  9
$USERR2
 40
0.0
  9
$USERR3
 40
0.0
  9
$USERR4
 40
0.0
  9
$USERR5
 40
0.0
  9
$WORLDVIEW
 70
     1
  9
$SHADEDGE
 70
     3
  9
$SHADEDIF
 70
    70
  9
$TILEMODE
 70
     1
  9
$MAXACTVP
 70
    64
  9
$PINSBASE
 10
0.0
 20
0.0
 30
0.0
  9
$PLIMCHECK
 70
     0
  9
$PEXTMIN
 10
1.000000000000000E+20
 20
1.000000000000000E+20
 30
1.000000000000000E+20
  9
$PEXTMAX
 10
-1.000000000000000E+20
 20
-1.000000000000000E+20
 30
-1.000000000000000E+20
  9
$PLIMMIN
 10
0.0
 20
0.0
  9
$PLIMMAX
 10
420.0
 20
297.0
  9
$UNITMODE
 70
     0
  9
$VISRETAIN
 70
     1
  9
$PLINEGEN
 70
     0
  9
$PSLTSCALE
 70
     1
  9
$TREEDEPTH
 70
  3020
  9
$CMLSTYLE
  2
Standard
  9
$CMLJUST
 70
     0
  9
$CMLSCALE
 40
20.0
  9
$PROXYGRAPHICS
 70
     1
  9
$MEASUREMENT
 70
     1
  9
$CELWEIGHT
370
    -1
  9
$ENDCAPS
280
     0
  9
$JOINSTYLE
280
     0
  9
$LWDISPLAY
290
     0
  9
$INSUNITS
 70
     4
  9
$HYPERLINKBASE
  1

  9
$STYLESHEET
  1

  9
$XEDIT
290
     1
  9
$CEPSNTYPE
380
     0
  9
$PSTYLEMODE
290
     1
  9
$FINGERPRINTGUID
  2
{1C4C0CFD-C6EF-4E05-B112-245114ECFE0A}
  9
$VERSIONGUID
  2
{FAEB1C32-E019-11D5-929B-00C0DF256EC4}
  9
$EXTNAMES
290
     1
  9
$PSVPSCALE
 40
0.0
  9
$OLESTARTUP
290
     0
  9
$SORTENTS
280
   127
  9
$INDEXCTL
280
     0
  9
$HIDETEXT
280
     1
  9
$XCLIPFRAME
290
     0
  9
$HALOGAP
280
     0
  9
$OBSCOLOR
 70
   257
  9
$OBSLTYPE
280
     0
  9
$INTERSECTIONDISPLAY
280
     0
  9
$INTERSECTIONCOLOR
 70
   257
  9
$DIMASSOC
280
     2
  9
$PROJECTNAME
  1

  9
$CAMERADISPLAY
290
     0
  9
$LENSLENGTH
 40
50.0
  9
$CAMERAHEIGHT
 40
0.0
  9
$STEPSPERSEC
 40
2.0
  9
$STEPSIZE
 40
6.0
  9
$3DDWFPREC
 40
2.0
  9
$PSOLWIDTH
 40
5.0
  9
$PSOLHEIGHT
 40
80.0
  9
$LOFTANG1
 40
1.570796326794897
  9
$LOFTANG2
 40
1.570796326794897
  9
$LOFTMAG1
 40
0.0
  9
$LOFTMAG2
 40
0.0
  9
$LOFTPARAM
 70
     7
  9
$LOFTNORMALS
280
     1
  9
$LATITUDE
 40
37.795
  9
$LONGITUDE
 40
-122.394
  9
$NORTHDIRECTION
 40
0.0
  9
$TIMEZONE
 70
 -8000
  9
$LIGHTGLYPHDISPLAY
280
     1
  9
$TILEMODELIGHTSYNCH
280
     1
  9
$SOLIDHIST
280
     1
  9
$SHOWHIST
280
     1
  9
$DWFFRAME
280
     2
  9
$DGNFRAME
280
     2
  9
$REALWORLDSCALE
290
     1
  9
$INTERFERECOLOR
 62
   256
  9
$CSHADOW
280
     0
  9
$SHADOWPLANELOCATION
 40
0.0
  0
ENDSEC
  0
SECTION
  2
CLASSES
  0
CLASS
  1
ACDBDICTIONARYWDFLT
  2
AcDbDictionaryWithDefault
  3
ObjectDBX Classes
 90
        0
 91
        4
280
     0
281
     0
  0
CLASS
  1
VISUALSTYLE
  2
AcDbVisualStyle
  3
ObjectDBX Classes
 90
     4095
 91
        4
280
     0
281
     0
  0
ENDSEC
  0
SECTION
  2
TABLES
  0
TABLE
  2
VPORT
  5
8
330
0
100
AcDbSymbolTable
 70
     1
  0
VPORT
  5
29
330
8
100
AcDbSymbolTableRecord
100
AcDbViewportTableRecord
  2
*Active
 70
     0
 10
0.0
 20
0.0
 11
1.0
 21
1.0
 12
344.1869158878504
 22
148.5
 13
0.0
 23
0.0
 14
10.0
 24
10.0
 15
10.0
 25
10.0
 16
0.0
 26
0.0
 36
1.0
 17
0.0
 27
0.0
 37
0.0
 40
297.0
 41
1.972972972850329
 42
50.0
 43
0.0
 44
0.0
 50
0.0
 51
0.0
 71
     0
 72
   100
 73
     1
 74
     3
 75
     0
 76
     0
 77
     0
 78
     0
281
     0
 65
     1
110
0.0
120
0.0
130
0.0
111
1.0
121
0.0
131
0.0
112
0.0
122
1.0
132
0.0
 79
     0
146
0.0
 60
     3
 61
     5
292
     1
282
     1
141
0.0
142
0.0
 63
   256
  0
ENDTAB
  0
TABLE
  2
LTYPE
  5
5
330
0
100
AcDbSymbolTable
 70
     5
  0
LTYPE
  5
14
330
5
100
AcDbSymbolTableRecord
100
AcDbLinetypeTableRecord
  2
ByBlock
 70
     0
  3

 72
    65
 73
     0
 40
0.0
  0
LTYPE
  5
15
330
5
100
AcDbSymbolTableRecord
100
AcDbLinetypeTableRecord
  2
ByLayer
 70
     0
  3

 72
    65
 73
     0
 40
0.0
  0
LTYPE
  5
16
330
5
100
AcDbSymbolTableRecord
100
AcDbLinetypeTableRecord
  2
Continuous
 70
     0
  3
Solid line
 72
    65
 73
     0
 40
0.0
  0
LTYPE
  5
3C
330
5
100
AcDbSymbolTableRecord
100
AcDbLinetypeTableRecord
  2
Continuous2
 70
     0
  3
Solid Line
 72
    65
 73
     0
 40
0.0
  0
LTYPE
  5
3D
330
5
100
AcDbSymbolTableRecord
100
AcDbLinetypeTableRecord
  2
DASHED
 70
     0
  3
__ __ __ __ __ __ __ __ __ __ __ __ __ __ __ __
 72
    83
 73
     2
 40
0.5
 49
0.375
 74
     0
 49
-0.125
 74
     0
  0
LTYPE
  5
3E
330
5
100
AcDbSymbolTableRecord
100
AcDbLinetypeTableRecord
  2
CENTER
 70
     0
  3
____ _ ____ _ ____ _ ____ _ ____ _ ____ _ ____ _
 72
    83
 73
     4
 40
1.0
 49
0.625
 74
     0
 49
-0.125
 74
     0
 49
0.125
 74
     0
 49
-0.125
 74
     0
  0
LTYPE
  5
3F
330
5
100
AcDbSymbolTableRecord
100
AcDbLinetypeTableRecord
  2
PHANTOM
 70
     0
  3
___ _ _ ___ _ _ ___ _ _ ___ _ _ ___ _ _ ___ _ _ 
 72
    83
 73
     6
 40
1.0
 49
0.5
 74
     0
 49
-0.1
 74
     0
 49
0.1
 74
     0
 49
-0.1
 74
     0
 49
0.1
 74
     0
 49
-0.1
 74
     0
  0
ENDTAB
  0
TABLE
  2
LAYER
  5
2
330
0
100
AcDbSymbolTable
 70
     2
  0
LAYER
  5
10
330
2
100
AcDbSymbolTableRecord
100
AcDbLayerTableRecord
  2
0
 70
     0
 62
     7
  6
Continuous
370
    -3
390
F
347
0
  0
LAYER
  5
40
330
2
100
AcDbSymbolTableRecord
100
AcDbLayerTableRecord
  2
Unnamed Level 1
 70
     0
 62
     1
  6
Continuous
370
    -3
390
F
347
0
  0
ENDTAB
  0
TABLE
  2
STYLE
  5
3
330
0
100
AcDbSymbolTable
 70
     1
  0
STYLE
  5
11
330
3
100
AcDbSymbolTableRecord
100
AcDbTextStyleTableRecord
  2
Standard
 70
     0
 40
0.0
 41
1.0
 50
0.0
 71
     0
 42
2.5
  3
txt
  4

  0
ENDTAB
  0
TABLE
  2
VIEW
  5
6
330
0
100
AcDbSymbolTable
 70
     0
  0
ENDTAB
  0
TABLE
  2
UCS
  5
7
330
0
100
AcDbSymbolTable
 70
     0
  0
ENDTAB
  0
TABLE
  2
APPID
  5
9
330
0
100
AcDbSymbolTable
 70
     2
  0
APPID
  5
12
330
9
100
AcDbSymbolTableRecord
100
AcDbRegAppTableRecord
  2
ACAD
 70
     0
  0
APPID
  5
3B
330
9
100
AcDbSymbolTableRecord
100
AcDbRegAppTableRecord
  2
Mastercam X3
 70
     0
  0
ENDTAB
  0
TABLE
  2
DIMSTYLE
  5
A
330
0
100
AcDbSymbolTable
 70
     1
100
AcDbDimStyleTable
  0
DIMSTYLE
105
27
330
A
100
AcDbSymbolTableRecord
100
AcDbDimStyleTableRecord
  2
ISO-25
 70
     0
 41
2.5
 42
0.625
 43
3.75
 44
1.25
 73
     0
 74
     0
 77
     1
 78
     8
140
2.5
141
2.5
143
0.03937007874016
147
0.625
171
     3
172
     1
271
     2
272
     2
274
     3
278
    44
283
     0
284
     8
340
11
  0
ENDTAB
  0
TABLE
  2
BLOCK_RECORD
  5
1
330
0
100
AcDbSymbolTable
 70
     1
  0
BLOCK_RECORD
  5
1F
330
1
100
AcDbSymbolTableRecord
100
AcDbBlockTableRecord
  2
*Model_Space
340
22
 70
     0
280
     1
281
     0
  0
BLOCK_RECORD
  5
1B
330
1
100
AcDbSymbolTableRecord
100
AcDbBlockTableRecord
  2
*Paper_Space
340
1E
 70
     0
280
     1
281
     0
  0
BLOCK_RECORD
  5
23
330
1
100
AcDbSymbolTableRecord
100
AcDbBlockTableRecord
  2
*Paper_Space0
340
26
 70
     0
280
     1
281
     0
  0
ENDTAB
  0
ENDSEC
  0
SECTION
  2
BLOCKS
  0
BLOCK
  5
20
330
1F
100
AcDbEntity
  8
0
100
AcDbBlockBegin
  2
*Model_Space
 70
     0
 10
0.0
 20
0.0
 30
0.0
  3
*Model_Space
  1

  0
ENDBLK
  5
21
330
1F
100
AcDbEntity
  8
0
100
AcDbBlockEnd
  0
BLOCK
  5
1C
330
1B
100
AcDbEntity
 67
     1
  8
0
100
AcDbBlockBegin
  2
*Paper_Space
 70
     0
 10
0.0
 20
0.0
 30
0.0
  3
*Paper_Space
  1

  0
ENDBLK
  5
1D
330
1B
100
AcDbEntity
 67
     1
  8
0
100
AcDbBlockEnd
  0
BLOCK
  5
24
330
23
100
AcDbEntity
  8
0
100
AcDbBlockBegin
  2
*Paper_Space0
 70
     0
 10
0.0
 20
0.0
 30
0.0
  3
*Paper_Space0
  1

  0
ENDBLK
  5
25
330
23
100
AcDbEntity
  8
0
100
AcDbBlockEnd
  0
ENDSEC
  0
SECTION
  2
ENTITIES
  0
LINE
  5
41
330
1F
100
AcDbEntity
  8
Unnamed Level 1
  6
Continuous2
 62
     3
370
    -3
100
AcDbLine
 10
-17.84034459426006
 20
14.70548446668518
 30
0.0
 11
-17.84034459426006
 21
34.70548446668518
 31
0.0
  0
LINE
  5
42
330
1F
100
AcDbEntity
  8
Unnamed Level 1
  6
Continuous2
 62
     3
370
    -3
100
AcDbLine
 10
-17.84034459426006
 20
34.70548446668518
 30
0.0
 11
-15.23164894208615
 21
34.70548446668518
 31
0.0
  0
LINE
  5
43
330
1F
100
AcDbEntity
  8
Unnamed Level 1
  6
Continuous2
 62
     3
370
    -3
100
AcDbLine
 10
-15.23164894208615
 20
34.70548446668518
 30
0.0
 11
-15.23164894208615
 21
32.40148446668518
 31
0.0
  0
SPLINE
  5
44
330
1F
100
AcDbEntity
  8
Unnamed Level 1
  6
Continuous2
 62
     3
370
    -3
100
AcDbSpline
210
0.0
220
0.0
230
1.0
 70
     8
 71
     2
 72
     7
 73
     4
 74
     0
 42
0.000000001
 43
0.000001
 40
0.0
 40
0.0
 40
0.0
 40
1.0
 40
2.0
 40
2.0
 40
2.0
 10
-15.23164894208615
 20
32.40148446668518
 30
0.0
 10
-14.53618227541948
 20
33.64994823480112
 30
0.0
 10
-12.59327213049194
 20
34.99533953914894
 30
0.0
 10
-11.30919097107165
 20
34.99533953914894
 30
0.0
  0
SPLINE
  5
45
330
1F
100
AcDbEntity
  8
Unnamed Level 1
  6
Continuous2
 62
     3
370
    -3
100
AcDbSpline
210
0.0
220
0.0
230
1.0
 70
     8
 71
     2
 72
     8
 73
     5
 74
     0
 42
0.000000001
 43
0.000001
 40
0.0
 40
0.0
 40
0.0
 40
1.0
 40
2.0
 40
3.0
 40
3.0
 40
3.0
 10
-11.30919097107165
 20
34.99533953914894
 30
0.0
 10
-9.549283724694842
 20
34.99533953914894
 30
0.0
 10
-6.778361985564407
 20
33.04946127827938
 30
0.0
 10
-5.376576478318031
 20
29.58307287248228
 30
0.0
 10
-5.376576478318031
 20
27.53034243769967
 30
0.0
  0
SPLINE
  5
46
330
1F
100
AcDbEntity
  8
Unnamed Level 1
  6
Continuous2
 62
     3
370
    -3
100
AcDbSpline
210
0.0
220
0.0
230
1.0
 70
     8
 71
     2
 72
     8
 73
     5
 74
     0
 42
0.000000001
 43
0.000001
 40
0.0
 40
0.0
 40
0.0
 40
1.0
 40
2.0
 40
3.0
 40
3.0
 40
3.0
 10
-5.376576478318031
 20
27.53034243769967
 30
0.0
 10
-5.376576478318031
 20
25.27976852465619
 30
0.0
 10
-6.994014159477452
 20
21.75995403190257
 30
0.0
 10
-9.934118507303538
 20
19.922875771033
 30
0.0
 10
-11.60498227541948
 20
19.922875771033
 30
0.0
  0
SPLINE
  5
47
330
1F
100
AcDbEntity
  8
Unnamed Level 1
  6
Continuous2
 62
     3
370
    -3
100
AcDbSpline
210
0.0
220
0.0
230
1.0
 70
     8
 71
     2
 72
     7
 73
     4
 74
     0
 42
0.000000001
 43
0.000001
 40
0.0
 40
0.0
 40
0.0
 40
1.0
 40
2.0
 40
2.0
 40
2.0
 10
-11.60498227541948
 20
19.922875771033
 30
0.0
 10
-12.78814749281078
 20
19.922875771033
 30
0.0
 10
-14.63116198556441
 20
21.10307287248228
 30
0.0
 10
-15.23164894208615
 20
21.99935113335184
 30
0.0
  0
LINE
  5
48
330
1F
100
AcDbEntity
  8
Unnamed Level 1
  6
Continuous2
 62
     3
370
    -3
100
AcDbLine
 10
-15.23164894208615
 20
21.99935113335184
 30
0.0
 11
-15.23164894208615
 21
14.70548446668518
 31
0.0
  0
LINE
  5
49
330
1F
100
AcDbEntity
  8
Unnamed Level 1
  6
Continuous2
 62
     3
370
    -3
100
AcDbLine
 10
-17.84034459426006
 20
14.70548446668518
 30
0.0
 11
-15.23164894208615
 21
14.70548446668518
 31
0.0
  0
SPLINE
  5
4A
330
1F
100
AcDbEntity
  8
Unnamed Level 1
  6
Continuous2
 62
     3
370
    -3
100
AcDbSpline
210
0.0
220
0.0
230
1.0
 70
     8
 71
     2
 72
     7
 73
     4
 74
     0
 42
0.000000001
 43
0.000001
 40
0.0
 40
0.0
 40
0.0
 40
1.0
 40
2.0
 40
2.0
 40
2.0
 10
-15.23164894208615
 20
27.27907287248228
 30
0.0
 10
-15.23164894208615
 20
24.6733453362504
 30
0.0
 10
-13.16110981165136
 20
22.24171635074315
 30
0.0
 10
-11.68808952179629
 20
22.24171635074315
 30
0.0
  0
SPLINE
  5
4B
330
1F
100
AcDbEntity
  8
Unnamed Level 1
  6
Continuous2
 62
     3
370
    -3
100
AcDbSpline
210
0.0
220
0.0
230
1.0
 70
     8
 71
     2
 72
     7
 73
     4
 74
     0
 42
0.000000001
 43
0.000001
 40
0.0
 40
0.0
 40
0.0
 40
1.0
 40
2.0
 40
2.0
 40
2.0
 10
-11.68808952179629
 20
22.24171635074315
 30
0.0
 10
-10.19726053628905
 20
22.24171635074315
 30
0.0
 10
-7.985272130491945
 20
24.73270765509098
 30
0.0
 10
-7.985272130491945
 20
27.50362939422141
 30
0.0
  0
SPLINE
  5
4C
330
1F
100
AcDbEntity
  8
Unnamed Level 1
  6
Continuous2
 62
     3
370
    -3
100
AcDbSpline
210
0.0
220
0.0
230
1.0
 70
     8
 71
     2
 72
     7
 73
     4
 74
     0
 42
0.000000001
 43
0.000001
 40
0.0
 40
0.0
 40
0.0
 40
1.0
 40
2.0
 40
2.0
 40
2.0
 10
-7.985272130491945
 20
27.50362939422141
 30
0.0
 10
-7.985272130491945
 20
30.09451635074315
 30
0.0
 10
-10.16461126092673
 20
32.6764989594388
 30
0.0
 10
-11.61982285512963
 20
32.6764989594388
 30
0.0
  0
SPLINE
  5
4D
330
1F
100
AcDbEntity
  8
Unnamed Level 1
  6
Continuous2
 62
     3
370
    -3
100
AcDbSpline
210
0.0
220
0.0
230
1.0
 70
     8
 71
     2
 72
     7
 73
     4
 74
     0
 42
0.000000001
 43
0.000001
 40
0.0
 40
0.0
 40
0.0
 40
1.0
 40
2.0
 40
2.0
 40
2.0
 10
-11.61982285512963
 20
32.6764989594388
 30
0.0
 10
-13.06909821744847
 20
32.6764989594388
 30
0.0
 10
-15.23164894208615
 20
29.8877685246562
 30
0.0
 10
-15.23164894208615
 20
27.27907287248228
 30
0.0
  0
LINE
  5
4E
330
1F
100
AcDbEntity
  8
Unnamed Level 1
  6
Continuous2
 62
     3
370
    -3
100
AcDbLine
 10
-2.912808478318031
 20
20.21273084349677
 30
0.0
 11
-2.912808478318031
 21
34.70548446668518
 31
0.0
  0
LINE
  5
4F
330
1F
100
AcDbEntity
  8
Unnamed Level 1
  6
Continuous2
 62
     3
370
    -3
100
AcDbLine
 10
-2.912808478318031
 20
34.70548446668518
 30
0.0
 11
-0.593967898607886
 21
34.70548446668518
 31
0.0
  0
LINE
  5
50
330
1F
100
AcDbEntity
  8
Unnamed Level 1
  6
Continuous2
 62
     3
370
    -3
100
AcDbLine
 10
-0.593967898607886
 20
34.70548446668518
 30
0.0
 11
-0.593967898607886
 21
32.68540330726489
 31
0.0
  0
SPLINE
  5
51
330
1F
100
AcDbEntity
  8
Unnamed Level 1
  6
Continuous2
 62
     3
370
    -3
100
AcDbSpline
210
0.0
220
0.0
230
1.0
 70
     8
 71
     2
 72
     7
 73
     4
 74
     0
 42
0.000000001
 43
0.000001
 40
0.0
 40
0.0
 40
0.0
 40
1.0
 40
2.0
 40
2.0
 40
2.0
 10
-0.593967898607886
 20
32.68540330726489
 30
0.0
 10
0.1163393477689256
 20
34.00806997393155
 30
0.0
 10
1.482507463710955
 20
34.99533953914894
 30
0.0
 10
2.198750941971825
 20
34.99533953914894
 30
0.0
  0
SPLINE
  5
52
330
1F
100
AcDbEntity
  8
Unnamed Level 1
  6
Continuous2
 62
     3
370
    -3
100
AcDbSpline
210
0.0
220
0.0
230
1.0
 70
     8
 71
     2
 72
     6
 73
     3
 74
     0
 42
0.000000001
 43
0.000001
 40
0.0
 40
0.0
 40
0.0
 40
1.0
 40
1.0
 40
1.0
 10
2.198750941971825
 20
34.99533953914894
 30
0.0
 10
3.34926688400081
 20
34.99533953914894
 30
0.0
 10
4.62342340573994
 20
34.22669026378663
 30
0.0
  0
LINE
  5
53
330
1F
100
AcDbEntity
  8
Unnamed Level 1
  6
Continuous2
 62
     3
370
    -3
100
AcDbLine
 10
4.62342340573994
 20
34.22669026378663
 30
0.0
 11
3.807284275305157
 21
31.95830765509097
 31
0.0
  0
SPLINE
  5
54
330
1F
100
AcDbEntity
  8
Unnamed Level 1
  6
Continuous2
 62
     3
370
    -3
100
AcDbSpline
210
0.0
220
0.0
230
1.0
 70
     8
 71
     2
 72
     6
 73
     3
 74
     0
 42
0.000000001
 43
0.000001
 40
0.0
 40
0.0
 40
0.0
 40
1.0
 40
1.0
 40
1.0
 10
3.807284275305157
 20
31.95830765509097
 30
0.0
 10
2.97630456516023
 20
32.6764989594388
 30
0.0
 10
2.142356739073274
 20
32.6764989594388
 30
0.0
  0
SPLINE
  5
55
330
1F
100
AcDbEntity
  8
Unnamed Level 1
  6
Continuous2
 62
     3
370
    -3
100
AcDbSpline
210
0.0
220
0.0
230
1.0
 70
     8
 71
     2
 72
     7
 73
     4
 74
     0
 42
0.000000001
 43
0.000001
 40
0.0
 40
0.0
 40
0.0
 40
1.0
 40
2.0
 40
2.0
 40
2.0
 10
2.142356739073274
 20
32.6764989594388
 30
0.0
 10
1.46766688400081
 20
32.6764989594388
 30
0.0
 10
0.3082465941457375
 20
31.63283519132286
 30
0.0
 10
0.0421364492182015
 20
30.76030185798952
 30
0.0
  0
SPLINE
  5
56
330
1F
100
AcDbEntity
  8
Unnamed Level 1
  6
Continuous2
 62
     3
370
    -3
100
AcDbSpline
210
0.0
220
0.0
230
1.0
 70
     8
 71
     2
 72
     6
 73
     3
 74
     0
 42
0.000000001
 43
0.000001
 40
0.0
 40
0.0
 40
0.0
 40
1.0
 40
1.0
 40
1.0
 10
0.0421364492182015
 20
30.76030185798952
 30
0.0
 10
-0.3041128261441175
 20
29.49106127827938
 30
0.0
 10
-0.3041128261441175
 20
27.85581490146779
 30
0.0
  0
LINE
  5
57
330
1F
100
AcDbEntity
  8
Unnamed Level 1
  6
Continuous2
 62
     3
370
    -3
100
AcDbLine
 10
-0.3041128261441175
 20
27.85581490146779
 30
0.0
 11
-0.3041128261441175
 21
20.21273084349677
 31
0.0
  0
LINE
  5
58
330
1F
100
AcDbEntity
  8
Unnamed Level 1
  6
Continuous2
 62
     3
370
    -3
100
AcDbLine
 10
-2.912808478318031
 20
20.21273084349677
 30
0.0
 11
-0.3041128261441175
 21
20.21273084349677
 31
0.0
  0
SPLINE
  5
59
330
1F
100
AcDbEntity
  8
Unnamed Level 1
  6
Continuous2
 62
     3
370
    -3
100
AcDbSpline
210
0.0
220
0.0
230
1.0
 70
     8
 71
     2
 72
     6
 73
     3
 74
     0
 42
0.000000001
 43
0.000001
 40
0.0
 40
0.0
 40
0.0
 40
1.0
 40
1.0
 40
1.0
 10
7.08719140573994
 20
27.45910765509097
 30
0.0
 10
7.08719140573994
 20
31.38156562610547
 30
0.0
 10
9.196316043421099
 20
33.34525258262721
 30
0.0
  0
SPLINE
  5
5A
330
1F
100
AcDbEntity
  8
Unnamed Level 1
  6
Continuous2
 62
     3
370
    -3
100
AcDbSpline
210
0.0
220
0.0
230
1.0
 70
     8
 71
     2
 72
     6
 73
     3
 74
     0
 42
0.000000001
 43
0.000001
 40
0.0
 40
0.0
 40
0.0
 40
1.0
 40
1.0
 40
1.0
 10
9.196316043421099
 20
33.34525258262721
 30
0.0
 10
10.97106386950806
 20
34.99533953914894
 30
0.0
 10
13.5619508260298
 20
34.99533953914894
 30
0.0
  0
SPLINE
  5
5B
330
1F
100
AcDbEntity
  8
Unnamed Level 1
  6
Continuous2
 62
     3
370
    -3
100
AcDbSpline
210
0.0
220
0.0
230
1.0
 70
     8
 71
     2
 72
     7
 73
     4
 74
     0
 42
0.000000001
 43
0.000001
 40
0.0
 40
0.0
 40
0.0
 40
1.0
 40
2.0
 40
2.0
 40
2.0
 10
13.5619508260298
 20
34.99533953914894
 30
0.0
 10
16.4426928550153
 20
34.99533953914894
 30
0.0
 10
20.13066966660951
 20
31.04422069856923
 30
0.0
 10
20.13066966660951
 20
27.59267287248228
 30
0.0
  0
SPLINE
  5
5C
330
1F
100
AcDbEntity
  8
Unnamed Level 1
  6
Continuous2
 62
     3
370
    -3
100
AcDbSpline
210
0.0
220
0.0
230
1.0
 70
     8
 71
     2
 72
     8
 73
     5
 74
     0
 42
0.000000001
 43
0.000001
 40
0.0
 40
0.0
 40
0.0
 40
1.0
 40
2.0
 40
3.0
 40
3.0
 40
3.0
 10
20.13066966660951
 20
27.59267287248228
 30
0.0
 10
20.13066966660951
 20
24.86822069856924
 30
0.0
 10
18.47464647820371
 20
21.67981490146779
 30
0.0
 10
15.35747546371095
 20
19.922875771033
 30
0.0
 10
13.5619508260298
 20
19.922875771033
 30
0.0
  0
SPLINE
  5
5D
330
1F
100
AcDbEntity
  8
Unnamed Level 1
  6
Continuous2
 62
     3
370
    -3
100
AcDbSpline
210
0.0
220
0.0
230
1.0
 70
     8
 71
     2
 72
     7
 73
     4
 74
     0
 42
0.000000001
 43
0.000001
 40
0.0
 40
0.0
 40
0.0
 40
1.0
 40
2.0
 40
2.0
 40
2.0
 10
13.5619508260298
 20
19.922875771033
 30
0.0
 10
10.64855952168197
 20
19.922875771033
 30
0.0
 10
7.08719140573994
 20
23.76519461161271
 30
0.0
 10
7.08719140573994
 20
27.45910765509097
 30
0.0
  0
SPLINE
  5
5E
330
1F
100
AcDbEntity
  8
Unnamed Level 1
  6
Continuous2
 62
     3
370
    -3
100
AcDbSpline
210
0.0
220
0.0
230
1.0
 70
     8
 71
     2
 72
     7
 73
     4
 74
     0
 42
0.000000001
 43
0.000001
 40
0.0
 40
0.0
 40
0.0
 40
1.0
 40
2.0
 40
2.0
 40
2.0
 10
9.695887057913854
 20
27.462075771033
 30
0.0
 10
9.695887057913854
 20
24.74754823480112
 30
0.0
 10
11.8554696666095
 20
22.24171635074315
 30
0.0
 10
13.5619508260298
 20
22.24171635074315
 30
0.0
  0
SPLINE
  5
5F
330
1F
100
AcDbEntity
  8
Unnamed Level 1
  6
Continuous2
 62
     3
370
    -3
100
AcDbSpline
210
0.0
220
0.0
230
1.0
 70
     8
 71
     2
 72
     7
 73
     4
 74
     0
 42
0.000000001
 43
0.000001
 40
0.0
 40
0.0
 40
0.0
 40
1.0
 40
2.0
 40
2.0
 40
2.0
 10
13.5619508260298
 20
22.24171635074315
 30
0.0
 10
15.26249575356603
 20
22.24171635074315
 30
0.0
 10
17.52197401443559
 20
24.85634823480112
 30
0.0
 10
17.52197401443559
 20
27.51253374204749
 30
0.0
  0
SPLINE
  5
60
330
1F
100
AcDbEntity
  8
Unnamed Level 1
  6
Continuous2
 62
     3
370
    -3
100
AcDbSpline
210
0.0
220
0.0
230
1.0
 70
     8
 71
     2
 72
     7
 73
     4
 74
     0
 42
0.000000001
 43
0.000001
 40
0.0
 40
0.0
 40
0.0
 40
1.0
 40
2.0
 40
2.0
 40
2.0
 10
17.52197401443559
 20
27.51253374204749
 30
0.0
 10
17.52197401443559
 20
30.07077142320692
 30
0.0
 10
15.25359140573994
 20
32.6764989594388
 30
0.0
 10
13.5619508260298
 20
32.6764989594388
 30
0.0
  0
SPLINE
  5
61
330
1F
100
AcDbEntity
  8
Unnamed Level 1
  6
Continuous2
 62
     3
370
    -3
100
AcDbSpline
210
0.0
220
0.0
230
1.0
 70
     8
 71
     2
 72
     7
 73
     4
 74
     0
 42
0.000000001
 43
0.000001
 40
0.0
 40
0.0
 40
0.0
 40
1.0
 40
2.0
 40
2.0
 40
2.0
 10
13.5619508260298
 20
32.6764989594388
 30
0.0
 10
11.8554696666095
 20
32.6764989594388
 30
0.0
 10
9.695887057913854
 20
30.079675771033
 30
0.0
 10
9.695887057913854
 20
27.462075771033
 30
0.0
  0
LINE
  5
62
330
1F
100
AcDbEntity
  8
Unnamed Level 1
  6
Continuous2
 62
     3
370
    -3
100
AcDbLine
 10
12.014727637624
 20
36.44461490146779
 30
0.0
 11
13.75385807240661
 21
40.21273084349677
 31
0.0
  0
LINE
  5
63
330
1F
100
AcDbEntity
  8
Unnamed Level 1
  6
Continuous2
 62
     3
370
    -3
100
AcDbLine
 10
13.75385807240661
 20
40.21273084349677
 30
0.0
 11
16.94226386950806
 21
40.21273084349677
 31
0.0
  0
LINE
  5
64
330
1F
100
AcDbEntity
  8
Unnamed Level 1
  6
Continuous2
 62
     3
370
    -3
100
AcDbLine
 10
16.94226386950806
 20
40.21273084349677
 30
0.0
 11
13.75385807240661
 21
36.44461490146779
 31
0.0
  0
LINE
  5
65
330
1F
100
AcDbEntity
  8
Unnamed Level 1
  6
Continuous2
 62
     3
370
    -3
100
AcDbLine
 10
12.014727637624
 20
36.44461490146779
 30
0.0
 11
13.75385807240661
 21
36.44461490146779
 31
0.0
  0
LINE
  5
66
330
1F
100
AcDbEntity
  8
Unnamed Level 1
  6
Continuous2
 62
     3
370
    -3
100
AcDbLine
 10
25.20313331878342
 20
20.21273084349677
 30
0.0
 11
22.59443766660951
 21
20.21273084349677
 31
0.0
  0
LINE
  5
67
330
1F
100
AcDbEntity
  8
Unnamed Level 1
  6
Continuous2
 62
     3
370
    -3
100
AcDbLine
 10
22.59443766660951
 20
20.21273084349677
 30
0.0
 11
22.59443766660951
 21
40.21273084349677
 31
0.0
  0
LINE
  5
68
330
1F
100
AcDbEntity
  8
Unnamed Level 1
  6
Continuous2
 62
     3
370
    -3
100
AcDbLine
 10
22.59443766660951
 20
40.21273084349677
 30
0.0
 11
25.20313331878342
 21
40.21273084349677
 31
0.0
  0
LINE
  5
69
330
1F
100
AcDbEntity
  8
Unnamed Level 1
  6
Continuous2
 62
     3
370
    -3
100
AcDbLine
 10
25.20313331878342
 20
40.21273084349677
 30
0.0
 11
25.20313331878342
 21
32.7269569304533
 31
0.0
  0
SPLINE
  5
6A
330
1F
100
AcDbEntity
  8
Unnamed Level 1
  6
Continuous2
 62
     3
370
    -3
100
AcDbSpline
210
0.0
220
0.0
230
1.0
 70
     8
 71
     2
 72
     6
 73
     3
 74
     0
 42
0.000000001
 43
0.000001
 40
0.0
 40
0.0
 40
0.0
 40
1.0
 40
1.0
 40
1.0
 10
25.20313331878342
 20
32.7269569304533
 30
0.0
 10
26.6969304202327
 20
34.99533953914894
 30
0.0
 10
29.03951592747907
 20
34.99533953914894
 30
0.0
  0
SPLINE
  5
6B
330
1F
100
AcDbEntity
  8
Unnamed Level 1
  6
Continuous2
 62
     3
370
    -3
100
AcDbSpline
210
0.0
220
0.0
230
1.0
 70
     8
 71
     2
 72
     9
 73
     6
 74
     0
 42
0.000000001
 43
0.000001
 40
0.0
 40
0.0
 40
0.0
 40
1.0
 40
2.0
 40
3.0
 40
4.0
 40
4.0
 40
4.0
 10
29.03951592747907
 20
34.99533953914894
 30
0.0
 10
30.29094781153704
 20
34.99533953914894
 30
0.0
 10
32.61572462313124
 20
33.89231345219243
 30
0.0
 10
34.20051302892835
 20
31.9197221478446
 30
0.0
 10
35.05820578255154
 20
29.22495113335184
 30
0.0
 10
35.05820578255154
 20
27.60157722030837
 30
0.0
  0
SPLINE
  5
6C
330
1F
100
AcDbEntity
  8
Unnamed Level 1
  6
Continuous2
 62
     3
370
    -3
100
AcDbSpline
210
0.0
220
0.0
230
1.0
 70
     8
 71
     2
 72
     7
 73
     4
 74
     0
 42
0.000000001
 43
0.000001
 40
0.0
 40
0.0
 40
0.0
 40
1.0
 40
2.0
 40
2.0
 40
2.0
 10
35.05820578255154
 20
27.60157722030837
 30
0.0
 10
35.05820578255154
 20
23.87204678552576
 30
0.0
 10
31.44739998545009
 20
19.922875771033
 30
0.0
 10
29.02764346371096
 20
19.922875771033
 30
0.0
  0
SPLINE
  5
6D
330
1F
100
AcDbEntity
  8
Unnamed Level 1
  6
Continuous2
 62
     3
370
    -3
100
AcDbSpline
210
0.0
220
0.0
230
1.0
 70
     8
 71
     2
 72
     6
 73
     3
 74
     0
 42
0.000000001
 43
0.000001
 40
0.0
 40
0.0
 40
0.0
 40
1.0
 40
1.0
 40
1.0
 10
29.02764346371096
 20
19.922875771033
 30
0.0
 10
26.51986375356603
 20
19.922875771033
 30
0.0
 10
25.20313331878342
 20
22.33372794494605
 30
0.0
  0
LINE
  5
6E
330
1F
100
AcDbEntity
  8
Unnamed Level 1
  6
Continuous2
 62
     3
370
    -3
100
AcDbLine
 10
25.20313331878342
 20
20.21273084349677
 30
0.0
 11
25.20313331878342
 21
22.33372794494605
 31
0.0
  0
SPLINE
  5
6F
330
1F
100
AcDbEntity
  8
Unnamed Level 1
  6
Continuous2
 62
     3
370
    -3
100
AcDbSpline
210
0.0
220
0.0
230
1.0
 70
     8
 71
     2
 72
     6
 73
     3
 74
     0
 42
0.000000001
 43
0.000001
 40
0.0
 40
0.0
 40
0.0
 40
1.0
 40
1.0
 40
1.0
 10
25.20313331878342
 20
27.52737432175764
 30
0.0
 10
25.20313331878342
 20
25.02256272755474
 30
0.0
 10
25.83330143472545
 20
24.00755982900402
 30
0.0
  0
SPLINE
  5
70
330
1F
100
AcDbEntity
  8
Unnamed Level 1
  6
Continuous2
 62
     3
370
    -3
100
AcDbSpline
210
0.0
220
0.0
230
1.0
 70
     8
 71
     2
 72
     6
 73
     3
 74
     0
 42
0.000000001
 43
0.000001
 40
0.0
 40
0.0
 40
0.0
 40
1.0
 40
1.0
 40
1.0
 10
25.83330143472545
 20
24.00755982900402
 30
0.0
 10
26.83939998545009
 20
22.24171635074315
 30
0.0
 10
28.74372462313125
 20
22.24171635074315
 30
0.0
  0
SPLINE
  5
71
330
1F
100
AcDbEntity
  8
Unnamed Level 1
  6
Continuous2
 62
     3
370
    -3
100
AcDbSpline
210
0.0
220
0.0
230
1.0
 70
     8
 71
     2
 72
     7
 73
     4
 74
     0
 42
0.000000001
 43
0.000001
 40
0.0
 40
0.0
 40
0.0
 40
1.0
 40
2.0
 40
2.0
 40
2.0
 10
28.74372462313125
 20
22.24171635074315
 30
0.0
 10
30.22268114487038
 20
22.24171635074315
 30
0.0
 10
32.44951013037763
 20
24.86228446668518
 30
0.0
 10
32.44951013037763
 20
27.46801200291706
 30
0.0
  0
SPLINE
  5
72
330
1F
100
AcDbEntity
  8
Unnamed Level 1
  6
Continuous2
 62
     3
370
    -3
100
AcDbSpline
210
0.0
220
0.0
230
1.0
 70
     8
 71
     2
 72
     7
 73
     4
 74
     0
 42
0.000000001
 43
0.000001
 40
0.0
 40
0.0
 40
0.0
 40
1.0
 40
2.0
 40
2.0
 40
2.0
 10
32.44951013037763
 20
27.46801200291706
 30
0.0
 10
32.44951013037763
 20
30.11529316233735
 30
0.0
 10
30.27907534776893
 20
32.6764989594388
 30
0.0
 10
28.80902317385588
 20
32.6764989594388
 30
0.0
  0
SPLINE
  5
73
330
1F
100
AcDbEntity
  8
Unnamed Level 1
  6
Continuous2
 62
     3
370
    -3
100
AcDbSpline
210
0.0
220
0.0
230
1.0
 70
     8
 71
     2
 72
     7
 73
     4
 74
     0
 42
0.000000001
 43
0.000001
 40
0.0
 40
0.0
 40
0.0
 40
1.0
 40
2.0
 40
2.0
 40
2.0
 10
28.80902317385588
 20
32.6764989594388
 30
0.0
 10
27.33006665211676
 20
32.6764989594388
 30
0.0
 10
25.20313331878342
 20
29.95603519132286
 30
0.0
 10
25.20313331878342
 20
27.52737432175764
 30
0.0
  0
SPLINE
  5
74
330
1F
100
AcDbEntity
  8
Unnamed Level 1
  6
Continuous2
 62
     3
370
    -3
100
AcDbSpline
210
0.0
220
0.0
230
1.0
 70
     8
 71
     2
 72
     7
 73
     4
 74
     0
 42
0.000000001
 43
0.000001
 40
0.0
 40
0.0
 40
0.0
 40
1.0
 40
2.0
 40
2.0
 40
2.0
 10
47.08719117385589
 20
21.95186127827938
 30
0.0
 10
45.71211871008778
 20
20.8221221478446
 30
0.0
 10
43.38734189849357
 20
19.922875771033
 30
0.0
 10
42.01523755066749
 20
19.922875771033
 30
0.0
  0
SPLINE
  5
75
330
1F
100
AcDbEntity
  8
Unnamed Level 1
  6
Continuous2
 62
     3
370
    -3
100
AcDbSpline
210
0.0
220
0.0
230
1.0
 70
     8
 71
     2
 72
     7
 73
     4
 74
     0
 42
0.000000001
 43
0.000001
 40
0.0
 40
0.0
 40
0.0
 40
1.0
 40
2.0
 40
2.0
 40
2.0
 10
42.01523755066749
 20
19.922875771033
 30
0.0
 10
39.87049552168197
 20
19.922875771033
 30
0.0
 10
37.52197378255154
 20
22.25655693045329
 30
0.0
 10
37.52197378255154
 20
24.05208156813445
 30
0.0
  0
SPLINE
  5
76
330
1F
100
AcDbEntity
  8
Unnamed Level 1
  6
Continuous2
 62
     3
370
    -3
100
AcDbSpline
210
0.0
220
0.0
230
1.0
 70
     8
 71
     2
 72
     8
 73
     5
 74
     0
 42
0.000000001
 43
0.000001
 40
0.0
 40
0.0
 40
0.0
 40
1.0
 40
2.0
 40
3.0
 40
3.0
 40
3.0
 10
37.52197378255154
 20
24.05208156813445
 30
0.0
 10
37.52197378255154
 20
25.15213953914894
 30
0.0
 10
38.40341146371097
 20
26.90907866958373
 30
0.0
 10
39.84971871008778
 20
27.90924098842431
 30
0.0
 10
40.74006073907329
 20
28.19019171306199
 30
0.0
  0
SPLINE
  5
77
330
1F
100
AcDbEntity
  8
Unnamed Level 1
  6
Continuous2
 62
     3
370
    -3
100
AcDbSpline
210
0.0
220
0.0
230
1.0
 70
     8
 71
     2
 72
     6
 73
     3
 74
     0
 42
0.000000001
 43
0.000001
 40
0.0
 40
0.0
 40
0.0
 40
1.0
 40
1.0
 40
1.0
 10
40.74006073907329
 20
28.19019171306199
 30
0.0
 10
41.37616508689937
 20
28.41474823480112
 30
0.0
 10
42.75420566660951
 20
28.63040040871416
 30
0.0
  0
SPLINE
  5
78
330
1F
100
AcDbEntity
  8
Unnamed Level 1
  6
Continuous2
 62
     3
370
    -3
100
AcDbSpline
210
0.0
220
0.0
230
1.0
 70
     8
 71
     2
 72
     6
 73
     3
 74
     0
 42
0.000000001
 43
0.000001
 40
0.0
 40
0.0
 40
0.0
 40
1.0
 40
1.0
 40
1.0
 10
42.75420566660951
 20
28.63040040871416
 30
0.0
 10
45.44304044921821
 20
28.96477722030836
 30
0.0
 10
46.68853610139212
 20
29.48809316233735
 30
0.0
  0
SPLINE
  5
79
330
1F
100
AcDbEntity
  8
Unnamed Level 1
  6
Continuous2
 62
     3
370
    -3
100
AcDbSpline
210
0.0
220
0.0
230
1.0
 70
     8
 71
     2
 72
     6
 73
     3
 74
     0
 42
0.000000001
 43
0.000001
 40
0.0
 40
0.0
 40
0.0
 40
1.0
 40
1.0
 40
1.0
 10
46.68853610139212
 20
29.48809316233735
 30
0.0
 10
46.79733610139212
 20
29.88183229277213
 30
0.0
 10
46.79733610139212
 20
29.96197142320692
 30
0.0
  0
SPLINE
  5
7A
330
1F
100
AcDbEntity
  8
Unnamed Level 1
  6
Continuous2
 62
     3
370
    -3
100
AcDbSpline
210
0.0
220
0.0
230
1.0
 70
     8
 71
     2
 72
     6
 73
     3
 74
     0
 42
0.000000001
 43
0.000001
 40
0.0
 40
0.0
 40
0.0
 40
1.0
 40
1.0
 40
1.0
 10
46.79733610139212
 20
29.96197142320692
 30
0.0
 10
46.79733610139212
 20
31.334075771033
 30
0.0
 10
46.09695349269647
 20
31.89300910436634
 30
0.0
  0
SPLINE
  5
7B
330
1F
100
AcDbEntity
  8
Unnamed Level 1
  6
Continuous2
 62
     3
370
    -3
100
AcDbSpline
210
0.0
220
0.0
230
1.0
 70
     8
 71
     2
 72
     6
 73
     3
 74
     0
 42
0.000000001
 43
0.000001
 40
0.0
 40
0.0
 40
0.0
 40
1.0
 40
1.0
 40
1.0
 10
46.09695349269647
 20
31.89300910436634
 30
0.0
 10
45.35696508689936
 20
32.6764989594388
 30
0.0
 10
43.69203755066749
 20
32.6764989594388
 30
0.0
  0
SPLINE
  5
7C
330
1F
100
AcDbEntity
  8
Unnamed Level 1
  6
Continuous2
 62
     3
370
    -3
100
AcDbSpline
210
0.0
220
0.0
230
1.0
 70
     8
 71
     2
 72
     7
 73
     4
 74
     0
 42
0.000000001
 43
0.000001
 40
0.0
 40
0.0
 40
0.0
 40
1.0
 40
2.0
 40
2.0
 40
2.0
 10
43.69203755066749
 20
32.6764989594388
 30
0.0
 10
42.19527233327618
 20
32.6764989594388
 30
0.0
 10
40.74896508689937
 20
31.6061221478446
 30
0.0
 10
40.42052450718923
 20
30.35765837972865
 30
0.0
  0
LINE
  5
7D
330
1F
100
AcDbEntity
  8
Unnamed Level 1
  6
Continuous2
 62
     3
370
    -3
100
AcDbLine
 10
40.42052450718923
 20
30.35765837972865
 30
0.0
 11
37.81182885501531
 21
30.64751345219242
 31
0.0
  0
SPLINE
  5
7E
330
1F
100
AcDbEntity
  8
Unnamed Level 1
  6
Continuous2
 62
     3
370
    -3
100
AcDbSpline
210
0.0
220
0.0
230
1.0
 70
     8
 71
     2
 72
     8
 73
     5
 74
     0
 42
0.000000001
 43
0.000001
 40
0.0
 40
0.0
 40
0.0
 40
1.0
 40
2.0
 40
3.0
 40
3.0
 40
3.0
 10
37.81182885501531
 20
30.64751345219242
 30
0.0
 10
38.12246073907328
 20
32.13240620581561
 30
0.0
 10
39.58360856516024
 20
33.94277142320692
 30
0.0
 10
42.30212450718923
 20
34.99533953914894
 30
0.0
 10
44.20051291298633
 20
34.99533953914894
 30
0.0
  0
SPLINE
  5
7F
330
1F
100
AcDbEntity
  8
Unnamed Level 1
  6
Continuous2
 62
     3
370
    -3
100
AcDbSpline
210
0.0
220
0.0
230
1.0
 70
     8
 71
     2
 72
     8
 73
     5
 74
     0
 42
0.000000001
 43
0.000001
 40
0.0
 40
0.0
 40
0.0
 40
1.0
 40
2.0
 40
3.0
 40
3.0
 40
3.0
 10
44.20051291298633
 20
34.99533953914894
 30
0.0
 10
45.99010131878343
 20
34.99533953914894
 30
0.0
 10
48.27629262313125
 20
34.12577432175765
 30
0.0
 10
49.27645494197183
 20
32.75960620581561
 30
0.0
 10
49.51585204342111
 20
31.70110185798953
 30
0.0
  0
SPLINE
  5
80
330
1F
100
AcDbEntity
  8
Unnamed Level 1
  6
Continuous2
 62
     3
370
    -3
100
AcDbSpline
210
0.0
220
0.0
230
1.0
 70
     8
 71
     2
 72
     6
 73
     3
 74
     0
 42
0.000000001
 43
0.000001
 40
0.0
 40
0.0
 40
0.0
 40
1.0
 40
1.0
 40
1.0
 10
49.51585204342111
 20
31.70110185798953
 30
0.0
 10
49.69588682602981
 20
31.0917105536417
 30
0.0
 10
49.69588682602981
 20
29.57120040871416
 30
0.0
  0
LINE
  5
81
330
1F
100
AcDbEntity
  8
Unnamed Level 1
  6
Continuous2
 62
     3
370
    -3
100
AcDbLine
 10
49.69588682602981
 20
29.57120040871416
 30
0.0
 11
49.69588682602981
 21
26.4332525826272
 31
0.0
  0
SPLINE
  5
82
330
1F
100
AcDbEntity
  8
Unnamed Level 1
  6
Continuous2
 62
     3
370
    -3
100
AcDbSpline
210
0.0
220
0.0
230
1.0
 70
     8
 71
     2
 72
     7
 73
     4
 74
     0
 42
0.000000001
 43
0.000001
 40
0.0
 40
0.0
 40
0.0
 40
1.0
 40
2.0
 40
2.0
 40
2.0
 10
49.69588682602981
 20
26.4332525826272
 30
0.0
 10
49.69588682602981
 20
23.20329316233735
 30
0.0
 10
50.02432740573995
 20
21.13869026378663
 30
0.0
 10
50.56545204342111
 20
20.21273084349677
 30
0.0
  0
LINE
  5
83
330
1F
100
AcDbEntity
  8
Unnamed Level 1
  6
Continuous2
 62
     3
370
    -3
100
AcDbLine
 10
50.56545204342111
 20
20.21273084349677
 30
0.0
 11
47.9567563912472
 21
20.21273084349677
 31
0.0
  0
SPLINE
  5
84
330
1F
100
AcDbEntity
  8
Unnamed Level 1
  6
Continuous2
 62
     3
370
    -3
100
AcDbSpline
210
0.0
220
0.0
230
1.0
 70
     8
 71
     2
 72
     6
 73
     3
 74
     0
 42
0.000000001
 43
0.000001
 40
0.0
 40
0.0
 40
0.0
 40
1.0
 40
1.0
 40
1.0
 10
47.9567563912472
 20
20.21273084349677
 30
0.0
 10
47.21482015936314
 20
20.89929316233735
 30
0.0
 10
47.08719117385589
 20
21.95186127827938
 30
0.0
  0
SPLINE
  5
85
330
1F
100
AcDbEntity
  8
Unnamed Level 1
  6
Continuous2
 62
     3
370
    -3
100
AcDbSpline
210
0.0
220
0.0
230
1.0
 70
     8
 71
     2
 72
     6
 73
     3
 74
     0
 42
0.000000001
 43
0.000001
 40
0.0
 40
0.0
 40
0.0
 40
1.0
 40
1.0
 40
1.0
 10
46.79733610139212
 20
27.16925258262721
 30
0.0
 10
45.51427523182691
 20
26.65780910436634
 30
0.0
 10
43.15091291298633
 20
26.34124098842431
 30
0.0
  0
SPLINE
  5
86
330
1F
100
AcDbEntity
  8
Unnamed Level 1
  6
Continuous2
 62
     3
370
    -3
100
AcDbSpline
210
0.0
220
0.0
230
1.0
 70
     8
 71
     2
 72
     8
 73
     5
 74
     0
 42
0.000000001
 43
0.000001
 40
0.0
 40
0.0
 40
0.0
 40
1.0
 40
2.0
 40
3.0
 40
3.0
 40
3.0
 10
43.15091291298633
 20
26.34124098842431
 30
0.0
 10
41.76396798545009
 20
26.11668446668518
 30
0.0
 10
40.7311563912472
 20
25.60820910436634
 30
0.0
 10
40.13066943472545
 20
24.70896272755474
 30
0.0
 10
40.13066943472545
 20
24.14409316233735
 30
0.0
  0
SPLINE
  5
87
330
1F
100
AcDbEntity
  8
Unnamed Level 1
  6
Continuous2
 62
     3
370
    -3
100
AcDbSpline
210
0.0
220
0.0
230
1.0
 70
     8
 71
     2
 72
     7
 73
     4
 74
     0
 42
0.000000001
 43
0.000001
 40
0.0
 40
0.0
 40
0.0
 40
1.0
 40
2.0
 40
2.0
 40
2.0
 10
40.13066943472545
 20
24.14409316233735
 30
0.0
 10
40.13066943472545
 20
23.28640040871416
 30
0.0
 10
41.3999100144356
 20
22.24171635074315
 30
0.0
 10
42.63650131878343
 20
22.24171635074315
 30
0.0
  0
SPLINE
  5
88
330
1F
100
AcDbEntity
  8
Unnamed Level 1
  6
Continuous2
 62
     3
370
    -3
100
AcDbSpline
210
0.0
220
0.0
230
1.0
 70
     8
 71
     2
 72
     7
 73
     4
 74
     0
 42
0.000000001
 43
0.000001
 40
0.0
 40
0.0
 40
0.0
 40
1.0
 40
2.0
 40
2.0
 40
2.0
 10
42.63650131878343
 20
22.24171635074315
 30
0.0
 10
43.96408392747908
 20
22.24171635074315
 30
0.0
 10
45.95448392747908
 20
23.42488156813445
 30
0.0
 10
46.35712740573994
 20
24.31819171306199
 30
0.0
  0
SPLINE
  5
89
330
1F
100
AcDbEntity
  8
Unnamed Level 1
  6
Continuous2
 62
     3
370
    -3
100
AcDbSpline
210
0.0
220
0.0
230
1.0
 70
     8
 71
     2
 72
     6
 73
     3
 74
     0
 42
0.000000001
 43
0.000001
 40
0.0
 40
0.0
 40
0.0
 40
1.0
 40
1.0
 40
1.0
 10
46.35712740573994
 20
24.31819171306199
 30
0.0
 10
46.68853610139212
 20
24.97804098842431
 30
0.0
 10
46.68853610139212
 20
26.37389026378663
 30
0.0
  0
LINE
  5
8A
330
1F
100
AcDbEntity
  8
Unnamed Level 1
  6
Continuous2
 62
     3
370
    -3
100
AcDbLine
 10
46.79733610139212
 20
27.16925258262721
 30
0.0
 11
46.68853610139212
 21
26.37389026378663
 31
0.0
  0
SPLINE
  5
8B
330
1F
100
AcDbEntity
  8
Unnamed Level 1
  6
Continuous2
 62
     3
370
    -3
100
AcDbSpline
210
0.0
220
0.0
230
1.0
 70
     8
 71
     2
 72
     7
 73
     4
 74
     0
 42
0.000000001
 43
0.000001
 40
0.0
 40
0.0
 40
0.0
 40
1.0
 40
2.0
 40
2.0
 40
2.0
 10
-19.06263458705461
 20
98.09509602195833
 30
0.0
 10
-18.18416502183722
 20
98.90233080456701
 30
0.0
 10
-16.15814763053287
 20
99.75705544224817
 30
0.0
 10
-14.72964907980823
 20
99.75705544224817
 30
0.0
  0
SPLINE
  5
8C
330
1F
100
AcDbEntity
  8
Unnamed Level 1
  6
Continuous2
 62
     3
370
    -3
100
AcDbSpline
210
0.0
220
0.0
230
1.0
 70
     8
 71
     2
 72
     7
 73
     4
 74
     0
 42
0.000000001
 43
0.000001
 40
0.0
 40
0.0
 40
0.0
 40
1.0
 40
2.0
 40
2.0
 40
2.0
 10
-14.72964907980823
 20
99.75705544224817
 30
0.0
 10
-12.10611284792417
 20
99.75705544224817
 30
0.0
 10
-9.373776616040114
 20
96.43016848572644
 30
0.0
 10
-9.373776616040114
 20
93.82444094949454
 30
0.0
  0
SPLINE
  5
8D
330
1F
100
AcDbEntity
  8
Unnamed Level 1
  6
Continuous2
 62
     3
370
    -3
100
AcDbSpline
210
0.0
220
0.0
230
1.0
 70
     8
 71
     2
 72
     7
 73
     4
 74
     0
 42
0.000000001
 43
0.000001
 40
0.0
 40
0.0
 40
0.0
 40
1.0
 40
2.0
 40
2.0
 40
2.0
 10
-9.373776616040114
 20
93.82444094949454
 30
0.0
 10
-9.373776616040114
 20
90.21558297848006
 30
0.0
 10
-13.41690705082272
 20
84.68459167413224
 30
0.0
 10
-16.55782299285171
 20
84.68459167413224
 30
0.0
  0
SPLINE
  5
8E
330
1F
100
AcDbEntity
  8
Unnamed Level 1
  6
Continuous2
 62
     3
370
    -3
100
AcDbSpline
210
0.0
220
0.0
230
1.0
 70
     8
 71
     2
 72
     6
 73
     3
 74
     0
 42
0.000000001
 43
0.000001
 40
0.0
 40
0.0
 40
0.0
 40
1.0
 40
1.0
 40
1.0
 10
-16.55782299285171
 20
84.68459167413224
 30
0.0
 10
-19.74326067401113
 20
84.68459167413224
 30
0.0
 10
-20.96204328270678
 20
86.89166413790035
 30
0.0
  0
LINE
  5
8F
330
1F
100
AcDbEntity
  8
Unnamed Level 1
  6
Continuous2
 62
     3
370
    -3
100
AcDbLine
 10
-20.96204328270678
 20
86.89166413790035
 30
0.0
 11
-22.56760850009809
 21
79.46720036978441
 31
0.0
  0
LINE
  5
90
330
1F
100
AcDbEntity
  8
Unnamed Level 1
  6
Continuous2
 62
     3
370
    -3
100
AcDbLine
 10
-22.56760850009809
 20
79.46720036978441
 30
0.0
 11
-28.50421139864881
 21
79.46720036978441
 31
0.0
  0
LINE
  5
91
330
1F
100
AcDbEntity
  8
Unnamed Level 1
  6
Continuous2
 62
     3
370
    -3
100
AcDbLine
 10
-28.50421139864881
 20
79.46720036978441
 30
0.0
 11
-24.31861139864881
 21
99.46720036978441
 31
0.0
  0
LINE
  5
92
330
1F
100
AcDbEntity
  8
Unnamed Level 1
  6
Continuous2
 62
     3
370
    -3
100
AcDbLine
 10
-24.31861139864881
 20
99.46720036978441
 30
0.0
 11
-18.53931864502562
 21
99.46720036978441
 31
0.0
  0
LINE
  5
93
330
1F
100
AcDbEntity
  8
Unnamed Level 1
  6
Continuous2
 62
     3
370
    -3
100
AcDbLine
 10
-18.53931864502562
 20
99.46720036978441
 30
0.0
 11
-18.84698241314156
 21
97.82601776108875
 31
0.0
  0
LINE
  5
94
330
1F
100
AcDbEntity
  8
Unnamed Level 1
  6
Continuous2
 62
     3
370
    -3
100
AcDbLine
 10
-19.06263458705461
 20
98.09509602195833
 30
0.0
 11
-18.84698241314156
 21
97.82601776108875
 31
0.0
  0
SPLINE
  5
95
330
1F
100
AcDbEntity
  8
Unnamed Level 1
  6
Continuous2
 62
     3
370
    -3
100
AcDbSpline
210
0.0
220
0.0
230
1.0
 70
     8
 71
     2
 72
     7
 73
     4
 74
     0
 42
0.000000001
 43
0.000001
 40
0.0
 40
0.0
 40
0.0
 40
1.0
 40
2.0
 40
2.0
 40
2.0
 10
-17.99819400734446
 20
88.74256268862499
 30
0.0
 10
-17.03364907980823
 20
88.74256268862499
 30
0.0
 10
-15.17087806531548
 20
91.47888732630615
 30
0.0
 10
-15.17087806531548
 20
93.55833080456702
 30
0.0
  0
SPLINE
  5
96
330
1F
100
AcDbEntity
  8
Unnamed Level 1
  6
Continuous2
 62
     3
370
    -3
100
AcDbSpline
210
0.0
220
0.0
230
1.0
 70
     8
 71
     2
 72
     7
 73
     4
 74
     0
 42
0.000000001
 43
0.000001
 40
0.0
 40
0.0
 40
0.0
 40
1.0
 40
2.0
 40
2.0
 40
2.0
 10
-15.17087806531548
 20
93.55833080456702
 30
0.0
 10
-15.17087806531548
 20
94.69103805094383
 30
0.0
 10
-16.22047806531548
 20
95.69908442775542
 30
0.0
 10
-16.87439110879374
 20
95.69908442775542
 30
0.0
  0
SPLINE
  5
97
330
1F
100
AcDbEntity
  8
Unnamed Level 1
  6
Continuous2
 62
     3
370
    -3
100
AcDbSpline
210
0.0
220
0.0
230
1.0
 70
     8
 71
     2
 72
     7
 73
     4
 74
     0
 42
0.000000001
 43
0.000001
 40
0.0
 40
0.0
 40
0.0
 40
1.0
 40
2.0
 40
2.0
 40
2.0
 10
-16.87439110879374
 20
95.69908442775542
 30
0.0
 10
-18.31179400734446
 20
95.69908442775542
 30
0.0
 10
-19.95891284792417
 20
92.63533950021919
 30
0.0
 10
-19.95891284792417
 20
91.0881163118134
 30
0.0
  0
SPLINE
  5
98
330
1F
100
AcDbEntity
  8
Unnamed Level 1
  6
Continuous2
 62
     3
370
    -3
100
AcDbSpline
210
0.0
220
0.0
230
1.0
 70
     8
 71
     2
 72
     7
 73
     4
 74
     0
 42
0.000000001
 43
0.000001
 40
0.0
 40
0.0
 40
0.0
 40
1.0
 40
2.0
 40
2.0
 40
2.0
 10
-19.95891284792417
 20
91.0881163118134
 30
0.0
 10
-19.95891284792417
 20
89.74866123934963
 30
0.0
 10
-18.64320270299664
 20
88.74256268862499
 30
0.0
 10
-17.99819400734446
 20
88.74256268862499
 30
0.0
  0
LINE
  5
99
330
1F
100
AcDbEntity
  8
Unnamed Level 1
  6
Continuous2
 62
     3
370
    -3
100
AcDbLine
 10
4.727258166568582
 20
99.24264384804528
 30
0.0
 11
2.653750920191772
 21
95.11937428282789
 31
0.0
  0
SPLINE
  5
9A
330
1F
100
AcDbEntity
  8
Unnamed Level 1
  6
Continuous2
 62
     3
370
    -3
100
AcDbSpline
210
0.0
220
0.0
230
1.0
 70
     8
 71
     2
 72
     6
 73
     3
 74
     0
 42
0.000000001
 43
0.000001
 40
0.0
 40
0.0
 40
0.0
 40
1.0
 40
1.0
 40
1.0
 10
2.653750920191772
 20
95.11937428282789
 30
0.0
 10
1.825739325988874
 20
95.40922935529166
 30
0.0
 10
1.455745123090322
 20
95.40922935529166
 30
0.0
  0
SPLINE
  5
9B
330
1F
100
AcDbEntity
  8
Unnamed Level 1
  6
Continuous2
 62
     3
370
    -3
100
AcDbSpline
210
0.0
220
0.0
230
1.0
 70
     8
 71
     2
 72
     7
 73
     4
 74
     0
 42
0.000000001
 43
0.000001
 40
0.0
 40
0.0
 40
0.0
 40
1.0
 40
2.0
 40
2.0
 40
2.0
 10
1.455745123090322
 20
95.40922935529166
 30
0.0
 10
0.0539596158439437
 20
95.40922935529166
 30
0.0
 10
-1.70001139864881
 20
93.17943225384238
 30
0.0
 10
-2.229263572561853
 20
90.63306703645108
 30
0.0
  0
LINE
  5
9C
330
1F
100
AcDbEntity
  8
Unnamed Level 1
  6
Continuous2
 62
     3
370
    -3
100
AcDbLine
 10
-2.229263572561853
 20
90.63306703645108
 30
0.0
 11
-3.436173717489388
 21
84.974446746596
 31
0.0
  0
LINE
  5
9D
330
1F
100
AcDbEntity
  8
Unnamed Level 1
  6
Continuous2
 62
     3
370
    -3
100
AcDbLine
 10
-3.436173717489388
 20
84.974446746596
 30
0.0
 11
-9.372776616040113
 21
84.974446746596
 31
0.0
  0
LINE
  5
9E
330
1F
100
AcDbEntity
  8
Unnamed Level 1
  6
Continuous2
 62
     3
370
    -3
100
AcDbLine
 10
-9.372776616040113
 20
84.974446746596
 30
0.0
 11
-6.379246181257504
 21
99.46720036978441
 31
0.0
  0
LINE
  5
9F
330
1F
100
AcDbEntity
  8
Unnamed Level 1
  6
Continuous2
 62
     3
370
    -3
100
AcDbLine
 10
-6.379246181257504
 20
99.46720036978441
 30
0.0
 11
-0.6474432827067798
 21
99.46720036978441
 31
0.0
  0
LINE
  5
A0
330
1F
100
AcDbEntity
  8
Unnamed Level 1
  6
Continuous2
 62
     3
370
    -3
100
AcDbLine
 10
-0.6474432827067798
 20
99.46720036978441
 30
0.0
 11
-1.392347630532868
 21
96.88521776108875
 31
0.0
  0
LINE
  5
A1
330
1F
100
AcDbEntity
  8
Unnamed Level 1
  6
Continuous2
 62
     3
370
    -3
100
AcDbLine
 10
-1.392347630532868
 20
96.88521776108875
 30
0.0
 11
-1.649553427634316
 21
97.16616848572643
 31
0.0
  0
SPLINE
  5
A2
330
1F
100
AcDbEntity
  8
Unnamed Level 1
  6
Continuous2
 62
     3
370
    -3
100
AcDbSpline
210
0.0
220
0.0
230
1.0
 70
     8
 71
     2
 72
     7
 73
     4
 74
     0
 42
0.000000001
 43
0.000001
 40
0.0
 40
0.0
 40
0.0
 40
1.0
 40
2.0
 40
2.0
 40
2.0
 10
-1.649553427634316
 20
97.16616848572643
 30
0.0
 10
-0.5851128479241723
 20
98.43244094949455
 30
0.0
 10
1.423095847728002
 20
99.75705544224817
 30
0.0
 10
2.653750920191772
 20
99.75705544224817
 30
0.0
  0
SPLINE
  5
A3
330
1F
100
AcDbEntity
  8
Unnamed Level 1
  6
Continuous2
 62
     3
370
    -3
100
AcDbSpline
210
0.0
220
0.0
230
1.0
 70
     8
 71
     2
 72
     6
 73
     3
 74
     0
 42
0.000000001
 43
0.000001
 40
0.0
 40
0.0
 40
0.0
 40
1.0
 40
1.0
 40
1.0
 10
2.653750920191772
 20
99.75705544224817
 30
0.0
 10
3.67663787671351
 20
99.75705544224817
 30
0.0
 10
4.727258166568582
 20
99.24264384804528
 30
0.0
  0
SPLINE
  5
A4
330
1F
100
AcDbEntity
  8
Unnamed Level 1
  6
Continuous2
 62
     3
370
    -3
100
AcDbSpline
210
0.0
220
0.0
230
1.0
 70
     8
 71
     2
 72
     7
 73
     4
 74
     0
 42
0.000000001
 43
0.000001
 40
0.0
 40
0.0
 40
0.0
 40
1.0
 40
2.0
 40
2.0
 40
2.0
 10
13.97987555787293
 20
99.75705544224817
 30
0.0
 10
18.01113352888742
 20
99.75705544224817
 30
0.0
 10
21.64271613758308
 20
95.78812790601629
 30
0.0
 10
21.64271613758308
 20
93.26253950021919
 30
0.0
  0
SPLINE
  5
A5
330
1F
100
AcDbEntity
  8
Unnamed Level 1
  6
Continuous2
 62
     3
370
    -3
100
AcDbSpline
210
0.0
220
0.0
230
1.0
 70
     8
 71
     2
 72
     8
 73
     5
 74
     0
 42
0.000000001
 43
0.000001
 40
0.0
 40
0.0
 40
0.0
 40
1.0
 40
2.0
 40
3.0
 40
3.0
 40
3.0
 10
21.64271613758308
 20
93.26253950021919
 30
0.0
 10
21.64271613758308
 20
91.23355399297282
 30
0.0
 10
19.48712193468452
 20
87.08950761616121
 30
0.0
 10
15.36682048540916
 20
84.68459167413224
 30
0.0
 10
12.38516251439467
 20
84.68459167413224
 30
0.0
  0
SPLINE
  5
A6
330
1F
100
AcDbEntity
  8
Unnamed Level 1
  6
Continuous2
 62
     3
370
    -3
100
AcDbSpline
210
0.0
220
0.0
230
1.0
 70
     8
 71
     2
 72
     7
 73
     4
 74
     0
 42
0.000000001
 43
0.000001
 40
0.0
 40
0.0
 40
0.0
 40
1.0
 40
2.0
 40
2.0
 40
2.0
 10
12.38516251439467
 20
84.68459167413224
 30
0.0
 10
8.463724833235249
 20
84.68459167413224
 30
0.0
 10
4.831121934684525
 20
88.49426123934963
 30
0.0
 10
4.831121934684525
 20
91.36016268862498
 30
0.0
  0
SPLINE
  5
A7
330
1F
100
AcDbEntity
  8
Unnamed Level 1
  6
Continuous2
 62
     3
370
    -3
100
AcDbSpline
210
0.0
220
0.0
230
1.0
 70
     8
 71
     2
 72
     8
 73
     5
 74
     0
 42
0.000000001
 43
0.000001
 40
0.0
 40
0.0
 40
0.0
 40
1.0
 40
2.0
 40
3.0
 40
3.0
 40
3.0
 10
4.831121934684525
 20
91.36016268862498
 30
0.0
 10
4.831121934684525
 20
93.42773370311774
 30
0.0
 10
6.92243787671351
 20
97.32347863065397
 30
0.0
 10
11.05757990569902
 20
99.75705544224817
 30
0.0
 10
13.97987555787293
 20
99.75705544224817
 30
0.0
  0
SPLINE
  5
A8
330
1F
100
AcDbEntity
  8
Unnamed Level 1
  6
Continuous2
 62
     3
370
    -3
100
AcDbSpline
210
0.0
220
0.0
230
1.0
 70
     8
 71
     2
 72
     7
 73
     4
 74
     0
 42
0.000000001
 43
0.000001
 40
0.0
 40
0.0
 40
0.0
 40
1.0
 40
2.0
 40
2.0
 40
2.0
 10
12.70469874627873
 20
88.74256268862499
 30
0.0
 10
13.96800309410481
 20
88.74256268862499
 30
0.0
 10
15.84561468830771
 20
91.67079457268295
 30
0.0
 10
15.84561468830771
 20
93.51677718137861
 30
0.0
  0
SPLINE
  5
A9
330
1F
100
AcDbEntity
  8
Unnamed Level 1
  6
Continuous2
 62
     3
370
    -3
100
AcDbSpline
210
0.0
220
0.0
230
1.0
 70
     8
 71
     2
 72
     7
 73
     4
 74
     0
 42
0.000000001
 43
0.000001
 40
0.0
 40
0.0
 40
0.0
 40
1.0
 40
2.0
 40
2.0
 40
2.0
 10
15.84561468830771
 20
93.51677718137861
 30
0.0
 10
15.84561468830771
 20
94.69103805094383
 30
0.0
 10
14.55364947091641
 20
95.69908442775542
 30
0.0
 10
13.86115092019177
 20
95.69908442775542
 30
0.0
  0
SPLINE
  5
AA
330
1F
100
AcDbEntity
  8
Unnamed Level 1
  6
Continuous2
 62
     3
370
    -3
100
AcDbSpline
210
0.0
220
0.0
230
1.0
 70
     8
 71
     2
 72
     7
 73
     4
 74
     0
 42
0.000000001
 43
0.000001
 40
0.0
 40
0.0
 40
0.0
 40
1.0
 40
2.0
 40
2.0
 40
2.0
 10
13.86115092019177
 20
95.69908442775542
 30
0.0
 10
12.208095847728
 20
95.69908442775542
 30
0.0
 10
10.62822338395989
 20
92.85989602195832
 30
0.0
 10
10.62822338395989
 20
91.37797138427716
 30
0.0
  0
SPLINE
  5
AB
330
1F
100
AcDbEntity
  8
Unnamed Level 1
  6
Continuous2
 62
     3
370
    -3
100
AcDbSpline
210
0.0
220
0.0
230
1.0
 70
     8
 71
     2
 72
     7
 73
     4
 74
     0
 42
0.000000001
 43
0.000001
 40
0.0
 40
0.0
 40
0.0
 40
1.0
 40
2.0
 40
2.0
 40
2.0
 10
10.62822338395989
 20
91.37797138427716
 30
0.0
 10
10.62822338395989
 20
90.07710181905978
 30
0.0
 10
11.88559149990192
 20
88.74256268862499
 30
0.0
 10
12.70469874627873
 20
88.74256268862499
 30
0.0
  0
LINE
  5
AC
330
1F
100
AcDbEntity
  8
Unnamed Level 1
  6
Continuous2
 62
     3
370
    -3
100
AcDbLine
 10
19.90358570280047
 20
104.974446746596
 30
0.0
 11
14.78711034048163
 21
100.9164757321033
 31
0.0
  0
LINE
  5
AD
330
1F
100
AcDbEntity
  8
Unnamed Level 1
  6
Continuous2
 62
     3
370
    -3
100
AcDbLine
 10
14.78711034048163
 20
100.9164757321033
 30
0.0
 11
11.78764367381496
 21
100.9164757321033
 31
0.0
  0
LINE
  5
AE
330
1F
100
AcDbEntity
  8
Unnamed Level 1
  6
Continuous2
 62
     3
370
    -3
100
AcDbLine
 10
11.78764367381496
 20
100.9164757321033
 30
0.0
 11
14.72477990569902
 21
104.974446746596
 31
0.0
  0
LINE
  5
AF
330
1F
100
AcDbEntity
  8
Unnamed Level 1
  6
Continuous2
 62
     3
370
    -3
100
AcDbLine
 10
19.90358570280047
 20
104.974446746596
 30
0.0
 11
14.72477990569902
 21
104.974446746596
 31
0.0
  0
SPLINE
  5
B0
330
1F
100
AcDbEntity
  8
Unnamed Level 1
  6
Continuous2
 62
     3
370
    -3
100
AcDbSpline
210
0.0
220
0.0
230
1.0
 70
     8
 71
     2
 72
     7
 73
     4
 74
     0
 42
0.000000001
 43
0.000001
 40
0.0
 40
0.0
 40
0.0
 40
1.0
 40
2.0
 40
2.0
 40
2.0
 10
30.4699654129454
 20
98.61841196398731
 30
0.0
 10
30.92204657236569
 20
98.99434239876992
 30
0.0
 10
32.72053932598887
 20
99.75705544224817
 30
0.0
 10
34.12232483323525
 20
99.75705544224817
 30
0.0
  0
SPLINE
  5
B1
330
1F
100
AcDbEntity
  8
Unnamed Level 1
  6
Continuous2
 62
     3
370
    -3
100
AcDbSpline
210
0.0
220
0.0
230
1.0
 70
     8
 71
     2
 72
     7
 73
     4
 74
     0
 42
0.000000001
 43
0.000001
 40
0.0
 40
0.0
 40
0.0
 40
1.0
 40
2.0
 40
2.0
 40
2.0
 10
34.12232483323525
 20
99.75705544224817
 30
0.0
 10
36.76366976077149
 20
99.75705544224817
 30
0.0
 10
39.32487555787293
 20
96.34409312340759
 30
0.0
 10
39.32487555787293
 20
93.78288732630614
 30
0.0
  0
SPLINE
  5
B2
330
1F
100
AcDbEntity
  8
Unnamed Level 1
  6
Continuous2
 62
     3
370
    -3
100
AcDbSpline
210
0.0
220
0.0
230
1.0
 70
     8
 71
     2
 72
     7
 73
     4
 74
     0
 42
0.000000001
 43
0.000001
 40
0.0
 40
0.0
 40
0.0
 40
1.0
 40
2.0
 40
2.0
 40
2.0
 10
39.32487555787293
 20
93.78288732630614
 30
0.0
 10
39.32487555787293
 20
90.32540326833514
 30
0.0
 10
35.40640599265554
 20
84.68459167413224
 30
0.0
 10
32.21206396367003
 20
84.68459167413224
 30
0.0
  0
SPLINE
  5
B3
330
1F
100
AcDbEntity
  8
Unnamed Level 1
  6
Continuous2
 62
     3
370
    -3
100
AcDbSpline
210
0.0
220
0.0
230
1.0
 70
     8
 71
     2
 72
     6
 73
     3
 74
     0
 42
0.000000001
 43
0.000001
 40
0.0
 40
0.0
 40
0.0
 40
1.0
 40
1.0
 40
1.0
 10
32.21206396367003
 20
84.68459167413224
 30
0.0
 10
28.9435190361338
 20
84.68459167413224
 30
0.0
 10
27.73957700714829
 20
87.3704583407989
 30
0.0
  0
LINE
  5
B4
330
1F
100
AcDbEntity
  8
Unnamed Level 1
  6
Continuous2
 62
     3
370
    -3
100
AcDbLine
 10
27.73957700714829
 20
87.3704583407989
 30
0.0
 11
27.27265526801786
 21
84.974446746596
 31
0.0
  0
LINE
  5
B5
330
1F
100
AcDbEntity
  8
Unnamed Level 1
  6
Continuous2
 62
     3
370
    -3
100
AcDbLine
 10
27.27265526801786
 20
84.974446746596
 30
0.0
 11
21.64371613758308
 21
84.974446746596
 31
0.0
  0
LINE
  5
B6
330
1F
100
AcDbEntity
  8
Unnamed Level 1
  6
Continuous2
 62
     3
370
    -3
100
AcDbLine
 10
21.64371613758308
 20
84.974446746596
 30
0.0
 11
25.79369874627873
 21
104.974446746596
 31
0.0
  0
LINE
  5
B7
330
1F
100
AcDbEntity
  8
Unnamed Level 1
  6
Continuous2
 62
     3
370
    -3
100
AcDbLine
 10
25.79369874627873
 20
104.974446746596
 30
0.0
 11
31.8539422245396
 21
104.974446746596
 31
0.0
  0
LINE
  5
B8
330
1F
100
AcDbEntity
  8
Unnamed Level 1
  6
Continuous2
 62
     3
370
    -3
100
AcDbLine
 10
30.4699654129454
 20
98.61841196398731
 30
0.0
 11
31.8539422245396
 21
104.974446746596
 31
0.0
  0
SPLINE
  5
B9
330
1F
100
AcDbEntity
  8
Unnamed Level 1
  6
Continuous2
 62
     3
370
    -3
100
AcDbSpline
210
0.0
220
0.0
230
1.0
 70
     8
 71
     2
 72
     7
 73
     4
 74
     0
 42
0.000000001
 43
0.000001
 40
0.0
 40
0.0
 40
0.0
 40
1.0
 40
2.0
 40
2.0
 40
2.0
 10
30.80137410859757
 20
88.74256268862499
 30
0.0
 10
31.81535671729322
 20
88.74256268862499
 30
0.0
 10
33.52777410859757
 20
91.44030181905977
 30
0.0
 10
33.52777410859757
 20
93.68790761616123
 30
0.0
  0
SPLINE
  5
BA
330
1F
100
AcDbEntity
  8
Unnamed Level 1
  6
Continuous2
 62
     3
370
    -3
100
AcDbSpline
210
0.0
220
0.0
230
1.0
 70
     8
 71
     2
 72
     6
 73
     3
 74
     0
 42
0.000000001
 43
0.000001
 40
0.0
 40
0.0
 40
0.0
 40
1.0
 40
1.0
 40
1.0
 10
33.52777410859757
 20
93.68790761616123
 30
0.0
 10
33.52777410859757
 20
95.69908442775542
 30
0.0
 10
31.8539422245396
 20
95.69908442775542
 30
0.0
  0
SPLINE
  5
BB
330
1F
100
AcDbEntity
  8
Unnamed Level 1
  6
Continuous2
 62
     3
370
    -3
100
AcDbSpline
210
0.0
220
0.0
230
1.0
 70
     8
 71
     2
 72
     7
 73
     4
 74
     0
 42
0.000000001
 43
0.000001
 40
0.0
 40
0.0
 40
0.0
 40
1.0
 40
2.0
 40
2.0
 40
2.0
 10
31.8539422245396
 20
95.69908442775542
 30
0.0
 10
30.64703207961206
 20
95.69908442775542
 30
0.0
 10
29.0147538187425
 20
92.8480235581902
 30
0.0
 10
29.0147538187425
 20
91.09405254369744
 30
0.0
  0
SPLINE
  5
BC
330
1F
100
AcDbEntity
  8
Unnamed Level 1
  6
Continuous2
 62
     3
370
    -3
100
AcDbSpline
210
0.0
220
0.0
230
1.0
 70
     8
 71
     2
 72
     7
 73
     4
 74
     0
 42
0.000000001
 43
0.000001
 40
0.0
 40
0.0
 40
0.0
 40
1.0
 40
2.0
 40
2.0
 40
2.0
 10
29.0147538187425
 20
91.09405254369744
 30
0.0
 10
29.0147538187425
 20
89.7664699350018
 30
0.0
 10
30.19198280424974
 20
88.74256268862499
 30
0.0
 10
30.80137410859757
 20
88.74256268862499
 30
0.0
  0
SPLINE
  5
BD
330
1F
100
AcDbEntity
  8
Unnamed Level 1
  6
Continuous2
 62
     3
370
    -3
100
AcDbSpline
210
0.0
220
0.0
230
1.0
 70
     8
 71
     2
 72
     7
 73
     4
 74
     0
 42
0.000000001
 43
0.000001
 40
0.0
 40
0.0
 40
0.0
 40
1.0
 40
2.0
 40
2.0
 40
2.0
 10
40.77515092019177
 20
95.30339747123368
 30
0.0
 10
41.19857121004684
 20
97.49460906543658
 30
0.0
 10
44.88654802164105
 20
99.75705544224817
 30
0.0
 10
48.69918570280046
 20
99.75705544224817
 30
0.0
  0
SPLINE
  5
BE
330
1F
100
AcDbEntity
  8
Unnamed Level 1
  6
Continuous2
 62
     3
370
    -3
100
AcDbSpline
210
0.0
220
0.0
230
1.0
 70
     8
 71
     2
 72
     7
 73
     4
 74
     0
 42
0.000000001
 43
0.000001
 40
0.0
 40
0.0
 40
0.0
 40
1.0
 40
2.0
 40
2.0
 40
2.0
 10
48.69918570280046
 20
99.75705544224817
 30
0.0
 10
53.04404367381496
 20
99.75705544224817
 30
0.0
 10
56.13746976077148
 20
97.52725834079891
 30
0.0
 10
56.13746976077148
 20
95.57247573210324
 30
0.0
  0
SPLINE
  5
BF
330
1F
100
AcDbEntity
  8
Unnamed Level 1
  6
Continuous2
 62
     3
370
    -3
100
AcDbSpline
210
0.0
220
0.0
230
1.0
 70
     8
 71
     2
 72
     6
 73
     3
 74
     0
 42
0.000000001
 43
0.000001
 40
0.0
 40
0.0
 40
0.0
 40
1.0
 40
1.0
 40
1.0
 10
56.13746976077148
 20
95.57247573210324
 30
0.0
 10
56.13746976077148
 20
94.27355399297281
 30
0.0
 10
55.33913932598887
 20
91.14451051471194
 30
0.0
  0
SPLINE
  5
C0
330
1F
100
AcDbEntity
  8
Unnamed Level 1
  6
Continuous2
 62
     3
370
    -3
100
AcDbSpline
210
0.0
220
0.0
230
1.0
 70
     8
 71
     2
 72
     6
 73
     3
 74
     0
 42
0.000000001
 43
0.000001
 40
0.0
 40
0.0
 40
0.0
 40
1.0
 40
1.0
 40
1.0
 10
55.33913932598887
 20
91.14451051471194
 30
0.0
 10
54.68819439845264
 20
88.2697047176105
 30
0.0
 10
54.68819439845264
 20
87.15183805094382
 30
0.0
  0
SPLINE
  5
C1
330
1F
100
AcDbEntity
  8
Unnamed Level 1
  6
Continuous2
 62
     3
370
    -3
100
AcDbSpline
210
0.0
220
0.0
230
1.0
 70
     8
 71
     2
 72
     6
 73
     3
 74
     0
 42
0.000000001
 43
0.000001
 40
0.0
 40
0.0
 40
0.0
 40
1.0
 40
1.0
 40
1.0
 10
54.68819439845264
 20
87.15183805094382
 30
0.0
 10
54.68819439845264
 20
86.19026123934962
 30
0.0
 10
54.97804947091641
 20
84.974446746596
 30
0.0
  0
LINE
  5
C2
330
1F
100
AcDbEntity
  8
Unnamed Level 1
  6
Continuous2
 62
     3
370
    -3
100
AcDbLine
 10
54.97804947091641
 20
84.974446746596
 30
0.0
 11
49.3293538187425
 21
84.974446746596
 31
0.0
  0
SPLINE
  5
C3
330
1F
100
AcDbEntity
  8
Unnamed Level 1
  6
Continuous2
 62
     3
370
    -3
100
AcDbSpline
210
0.0
220
0.0
230
1.0
 70
     8
 71
     2
 72
     6
 73
     3
 74
     0
 42
0.000000001
 43
0.000001
 40
0.0
 40
0.0
 40
0.0
 40
1.0
 40
1.0
 40
1.0
 10
49.3293538187425
 20
84.974446746596
 30
0.0
 10
49.18094802164104
 20
85.98944964514672
 30
0.0
 10
49.18094802164104
 20
86.53947863065397
 30
0.0
  0
SPLINE
  5
C4
330
1F
100
AcDbEntity
  8
Unnamed Level 1
  6
Continuous2
 62
     3
370
    -3
100
AcDbSpline
210
0.0
220
0.0
230
1.0
 70
     8
 71
     2
 72
     6
 73
     3
 74
     0
 42
0.000000001
 43
0.000001
 40
0.0
 40
0.0
 40
0.0
 40
1.0
 40
1.0
 40
1.0
 10
49.18094802164104
 20
86.53947863065397
 30
0.0
 10
47.33598570280047
 20
84.68459167413224
 30
0.0
 10
44.63231034048162
 20
84.68459167413224
 30
0.0
  0
SPLINE
  5
C5
330
1F
100
AcDbEntity
  8
Unnamed Level 1
  6
Continuous2
 62
     3
370
    -3
100
AcDbSpline
210
0.0
220
0.0
230
1.0
 70
     8
 71
     2
 72
     7
 73
     4
 74
     0
 42
0.000000001
 43
0.000001
 40
0.0
 40
0.0
 40
0.0
 40
1.0
 40
2.0
 40
2.0
 40
2.0
 10
44.63231034048162
 20
84.68459167413224
 30
0.0
 10
41.78124947091641
 20
84.68459167413224
 30
0.0
 10
39.32587555787293
 20
87.35264964514673
 30
0.0
 10
39.32587555787293
 20
89.12442935529165
 30
0.0
  0
SPLINE
  5
C6
330
1F
100
AcDbEntity
  8
Unnamed Level 1
  6
Continuous2
 62
     3
370
    -3
100
AcDbSpline
210
0.0
220
0.0
230
1.0
 70
     8
 71
     2
 72
     8
 73
     5
 74
     0
 42
0.000000001
 43
0.000001
 40
0.0
 40
0.0
 40
0.0
 40
1.0
 40
2.0
 40
3.0
 40
3.0
 40
3.0
 10
39.32587555787293
 20
89.12442935529165
 30
0.0
 10
39.32587555787293
 20
90.91401776108876
 30
0.0
 10
41.41422338395989
 20
92.94300326833513
 30
0.0
 10
44.60262918106134
 20
93.73242935529166
 30
0.0
 10
47.27068715207583
 20
94.01338007992933
 30
0.0
  0
SPLINE
  5
C7
330
1F
100
AcDbEntity
  8
Unnamed Level 1
  6
Continuous2
 62
     3
370
    -3
100
AcDbSpline
210
0.0
220
0.0
230
1.0
 70
     8
 71
     2
 72
     6
 73
     3
 74
     0
 42
0.000000001
 43
0.000001
 40
0.0
 40
0.0
 40
0.0
 40
1.0
 40
1.0
 40
1.0
 10
47.27068715207583
 20
94.01338007992933
 30
0.0
 10
49.55687845642365
 20
94.27652210891485
 30
0.0
 10
50.14846106511931
 20
94.395246746596
 30
0.0
  0
SPLINE
  5
C8
330
1F
100
AcDbEntity
  8
Unnamed Level 1
  6
Continuous2
 62
     3
370
    -3
100
AcDbSpline
210
0.0
220
0.0
230
1.0
 70
     8
 71
     2
 72
     6
 73
     3
 74
     0
 42
0.000000001
 43
0.000001
 40
0.0
 40
0.0
 40
0.0
 40
1.0
 40
1.0
 40
1.0
 10
50.14846106511931
 20
94.395246746596
 30
0.0
 10
50.34036831149612
 20
95.131246746596
 30
0.0
 10
50.34036831149612
 20
95.43891051471195
 30
0.0
  0
SPLINE
  5
C9
330
1F
100
AcDbEntity
  8
Unnamed Level 1
  6
Continuous2
 62
     3
370
    -3
100
AcDbSpline
210
0.0
220
0.0
230
1.0
 70
     8
 71
     2
 72
     7
 73
     4
 74
     0
 42
0.000000001
 43
0.000001
 40
0.0
 40
0.0
 40
0.0
 40
1.0
 40
2.0
 40
2.0
 40
2.0
 10
50.34036831149612
 20
95.43891051471195
 30
0.0
 10
50.34036831149612
 20
95.75547863065397
 30
0.0
 10
49.3501306303367
 20
96.27879457268295
 30
0.0
 10
48.60123787671351
 20
96.27879457268295
 30
0.0
  0
SPLINE
  5
CA
330
1F
100
AcDbEntity
  8
Unnamed Level 1
  6
Continuous2
 62
     3
370
    -3
100
AcDbSpline
210
0.0
220
0.0
230
1.0
 70
     8
 71
     2
 72
     7
 73
     4
 74
     0
 42
0.000000001
 43
0.000001
 40
0.0
 40
0.0
 40
0.0
 40
1.0
 40
2.0
 40
2.0
 40
2.0
 10
48.60123787671351
 20
96.27879457268295
 30
0.0
 10
47.61990454338018
 20
96.27879457268295
 30
0.0
 10
46.62567845642366
 20
95.75547863065397
 30
0.0
 10
46.10236251439467
 20
94.82951921036411
 30
0.0
  0
LINE
  5
CB
330
1F
100
AcDbEntity
  8
Unnamed Level 1
  6
Continuous2
 62
     3
370
    -3
100
AcDbLine
 10
40.77515092019177
 20
95.30339747123368
 30
0.0
 11
46.10236251439467
 21
94.82951921036411
 31
0.0
  0
SPLINE
  5
CC
330
1F
100
AcDbEntity
  8
Unnamed Level 1
  6
Continuous2
 62
     3
370
    -3
100
AcDbSpline
210
0.0
220
0.0
230
1.0
 70
     8
 71
     2
 72
     7
 73
     4
 74
     0
 42
0.000000001
 43
0.000001
 40
0.0
 40
0.0
 40
0.0
 40
1.0
 40
2.0
 40
2.0
 40
2.0
 10
49.60733642743815
 20
91.64111341326267
 30
0.0
 10
46.17656541294539
 20
90.93182645674094
 30
0.0
 10
45.12297700714829
 20
90.0800699350018
 30
0.0
 10
45.12297700714829
 20
89.63884094949455
 30
0.0
  0
SPLINE
  5
CD
330
1F
100
AcDbEntity
  8
Unnamed Level 1
  6
Continuous2
 62
     3
370
    -3
100
AcDbSpline
210
0.0
220
0.0
230
1.0
 70
     8
 71
     2
 72
     7
 73
     4
 74
     0
 42
0.000000001
 43
0.000001
 40
0.0
 40
0.0
 40
0.0
 40
1.0
 40
2.0
 40
2.0
 40
2.0
 10
45.12297700714829
 20
89.63884094949455
 30
0.0
 10
45.12297700714829
 20
88.83160616688586
 30
0.0
 10
45.87483787671351
 20
88.16285254369745
 30
0.0
 10
46.44267555787293
 20
88.16285254369745
 30
0.0
  0
SPLINE
  5
CE
330
1F
100
AcDbEntity
  8
Unnamed Level 1
  6
Continuous2
 62
     3
370
    -3
100
AcDbSpline
210
0.0
220
0.0
230
1.0
 70
     8
 71
     2
 72
     7
 73
     4
 74
     0
 42
0.000000001
 43
0.000001
 40
0.0
 40
0.0
 40
0.0
 40
1.0
 40
2.0
 40
2.0
 40
2.0
 10
46.44267555787293
 20
88.16285254369745
 30
0.0
 10
47.30333642743815
 20
88.16285254369745
 30
0.0
 10
49.27592773178598
 20
89.70710761616122
 30
0.0
 10
49.60733642743815
 20
91.64111341326267
 30
0.0
  0
LINE
  5
CF
330
1F
100
AcDbEntity
  8
Unnamed Level 1
  6
Continuous2
 62
     3
370
    -3
100
AcDbLine
 10
-13.77005044320711
 20
57.6902940573482
 30
0.0
 11
-13.6916190706581
 21
58.9402940573482
 31
0.0
  0
LINE
  5
D0
330
1F
100
AcDbEntity
  8
Unnamed Level 1
  6
Continuous2
 62
     3
370
    -3
100
AcDbLine
 10
-14.00534456085417
 20
56.53644790350205
 30
0.0
 11
-13.77005044320711
 21
57.6902940573482
 31
0.0
  0
LINE
  5
D1
330
1F
100
AcDbEntity
  8
Unnamed Level 1
  6
Continuous2
 62
     3
370
    -3
100
AcDbLine
 10
-14.35828573732476
 20
55.3826017496559
 30
0.0
 11
-14.00534456085417
 21
56.53644790350205
 31
0.0
  0
LINE
  5
D2
330
1F
100
AcDbEntity
  8
Unnamed Level 1
  6
Continuous2
 62
     3
370
    -3
100
AcDbLine
 10
-14.86808965889339
 20
54.42106328811744
 30
0.0
 11
-14.35828573732476
 21
55.3826017496559
 31
0.0
  0
LINE
  5
D3
330
1F
100
AcDbEntity
  8
Unnamed Level 1
  6
Continuous2
 62
     3
370
    -3
100
AcDbLine
 10
-15.49554063928555
 20
53.55567867273282
 30
0.0
 11
-14.86808965889339
 21
54.42106328811744
 31
0.0
  0
LINE
  5
D4
330
1F
100
AcDbEntity
  8
Unnamed Level 1
  6
Continuous2
 62
     3
370
    -3
100
AcDbLine
 10
-16.20142299222672
 20
52.8826017496559
 30
0.0
 11
-15.49554063928555
 21
53.55567867273282
 31
0.0
  0
LINE
  5
D5
330
1F
100
AcDbEntity
  8
Unnamed Level 1
  6
Continuous2
 62
     3
370
    -3
100
AcDbLine
 10
-16.98573671771692
 20
52.30567867273282
 30
0.0
 11
-16.20142299222672
 21
52.8826017496559
 31
0.0
  0
LINE
  5
D6
330
1F
100
AcDbEntity
  8
Unnamed Level 1
  6
Continuous2
 62
     3
370
    -3
100
AcDbLine
 10
-17.80926612948162
 20
52.01721713427128
 30
0.0
 11
-16.98573671771692
 21
52.30567867273282
 31
0.0
  0
LINE
  5
D7
330
1F
100
AcDbEntity
  8
Unnamed Level 1
  6
Continuous2
 62
     3
370
    -3
100
AcDbLine
 10
-18.71122691379535
 20
51.92106328811744
 30
0.0
 11
-17.80926612948162
 21
52.01721713427128
 31
0.0
  0
LINE
  5
D8
330
1F
100
AcDbEntity
  8
Unnamed Level 1
  6
Continuous2
 62
     3
370
    -3
100
AcDbLine
 10
-19.57397201183457
 20
52.01721713427128
 30
0.0
 11
-18.71122691379535
 21
51.92106328811744
 31
0.0
  0
LINE
  5
D9
330
1F
100
AcDbEntity
  8
Unnamed Level 1
  6
Continuous2
 62
     3
370
    -3
100
AcDbLine
 10
-20.39750142359927
 20
52.30567867273282
 30
0.0
 11
-19.57397201183457
 21
52.01721713427128
 31
0.0
  0
LINE
  5
DA
330
1F
100
AcDbEntity
  8
Unnamed Level 1
  6
Continuous2
 62
     3
370
    -3
100
AcDbLine
 10
-21.18181514908947
 20
52.8826017496559
 30
0.0
 11
-20.39750142359927
 21
52.30567867273282
 31
0.0
  0
LINE
  5
DB
330
1F
100
AcDbEntity
  8
Unnamed Level 1
  6
Continuous2
 62
     3
370
    -3
100
AcDbLine
 10
-21.88769750203064
 20
53.55567867273282
 30
0.0
 11
-21.18181514908947
 21
52.8826017496559
 31
0.0
  0
LINE
  5
DC
330
1F
100
AcDbEntity
  8
Unnamed Level 1
  6
Continuous2
 62
     3
370
    -3
100
AcDbLine
 10
-22.5151484824228
 20
54.42106328811744
 30
0.0
 11
-21.88769750203064
 21
53.55567867273282
 31
0.0
  0
LINE
  5
DD
330
1F
100
AcDbEntity
  8
Unnamed Level 1
  6
Continuous2
 62
     3
370
    -3
100
AcDbLine
 10
-23.02495240399143
 20
55.3826017496559
 30
0.0
 11
-22.5151484824228
 21
54.42106328811744
 31
0.0
  0
LINE
  5
DE
330
1F
100
AcDbEntity
  8
Unnamed Level 1
  6
Continuous2
 62
     3
370
    -3
100
AcDbLine
 10
-23.6916190706581
 20
57.40183251888667
 30
0.0
 11
-23.02495240399143
 21
55.3826017496559
 31
0.0
  0
LINE
  5
DF
330
1F
100
AcDbEntity
  8
Unnamed Level 1
  6
Continuous2
 62
     3
370
    -3
100
AcDbLine
 10
-23.02495240399143
 20
62.49798636504052
 30
0.0
 11
-23.6916190706581
 21
60.47875559580974
 31
0.0
  0
LINE
  5
E0
330
1F
100
AcDbEntity
  8
Unnamed Level 1
  6
Continuous2
 62
     3
370
    -3
100
AcDbLine
 10
-22.5151484824228
 20
63.45952482657898
 30
0.0
 11
-23.02495240399143
 21
62.49798636504052
 31
0.0
  0
LINE
  5
E1
330
1F
100
AcDbEntity
  8
Unnamed Level 1
  6
Continuous2
 62
     3
370
    -3
100
AcDbLine
 10
-21.88769750203064
 20
64.3249094419636
 30
0.0
 11
-22.5151484824228
 21
63.45952482657898
 31
0.0
  0
LINE
  5
E2
330
1F
100
AcDbEntity
  8
Unnamed Level 1
  6
Continuous2
 62
     3
370
    -3
100
AcDbLine
 10
-21.18181514908947
 20
64.99798636504052
 30
0.0
 11
-21.88769750203064
 21
64.3249094419636
 31
0.0
  0
LINE
  5
E3
330
1F
100
AcDbEntity
  8
Unnamed Level 1
  6
Continuous2
 62
     3
370
    -3
100
AcDbLine
 10
-20.39750142359927
 20
65.5749094419636
 30
0.0
 11
-21.18181514908947
 21
64.99798636504052
 31
0.0
  0
LINE
  5
E4
330
1F
100
AcDbEntity
  8
Unnamed Level 1
  6
Continuous2
 62
     3
370
    -3
100
AcDbLine
 10
-19.57397201183457
 20
65.86337098042513
 30
0.0
 11
-20.39750142359927
 21
65.5749094419636
 31
0.0
  0
LINE
  5
E5
330
1F
100
AcDbEntity
  8
Unnamed Level 1
  6
Continuous2
 62
     3
370
    -3
100
AcDbLine
 10
-18.71122691379535
 20
65.95952482657897
 30
0.0
 11
-19.57397201183457
 21
65.86337098042513
 31
0.0
  0
LINE
  5
E6
330
1F
100
AcDbEntity
  8
Unnamed Level 1
  6
Continuous2
 62
     3
370
    -3
100
AcDbLine
 10
-17.80926612948162
 20
65.86337098042513
 30
0.0
 11
-18.71122691379535
 21
65.95952482657897
 31
0.0
  0
LINE
  5
E7
330
1F
100
AcDbEntity
  8
Unnamed Level 1
  6
Continuous2
 62
     3
370
    -3
100
AcDbLine
 10
-16.98573671771692
 20
65.5749094419636
 30
0.0
 11
-17.80926612948162
 21
65.86337098042513
 31
0.0
  0
LINE
  5
E8
330
1F
100
AcDbEntity
  8
Unnamed Level 1
  6
Continuous2
 62
     3
370
    -3
100
AcDbLine
 10
-16.20142299222672
 20
64.99798636504052
 30
0.0
 11
-16.98573671771692
 21
65.5749094419636
 31
0.0
  0
LINE
  5
E9
330
1F
100
AcDbEntity
  8
Unnamed Level 1
  6
Continuous2
 62
     3
370
    -3
100
AcDbLine
 10
-15.49554063928555
 20
64.3249094419636
 30
0.0
 11
-16.20142299222672
 21
64.99798636504052
 31
0.0
  0
LINE
  5
EA
330
1F
100
AcDbEntity
  8
Unnamed Level 1
  6
Continuous2
 62
     3
370
    -3
100
AcDbLine
 10
-14.86808965889339
 20
63.45952482657898
 30
0.0
 11
-15.49554063928555
 21
64.3249094419636
 31
0.0
  0
LINE
  5
EB
330
1F
100
AcDbEntity
  8
Unnamed Level 1
  6
Continuous2
 62
     3
370
    -3
100
AcDbLine
 10
-14.35828573732476
 20
62.49798636504052
 30
0.0
 11
-14.86808965889339
 21
63.45952482657898
 31
0.0
  0
LINE
  5
EC
330
1F
100
AcDbEntity
  8
Unnamed Level 1
  6
Continuous2
 62
     3
370
    -3
100
AcDbLine
 10
-14.00534456085417
 20
61.34414021119436
 30
0.0
 11
-14.35828573732476
 21
62.49798636504052
 31
0.0
  0
LINE
  5
ED
330
1F
100
AcDbEntity
  8
Unnamed Level 1
  6
Continuous2
 62
     3
370
    -3
100
AcDbLine
 10
-13.77005044320711
 20
60.19029405734821
 30
0.0
 11
-14.00534456085417
 21
61.34414021119436
 31
0.0
  0
LINE
  5
EE
330
1F
100
AcDbEntity
  8
Unnamed Level 1
  6
Continuous2
 62
     3
370
    -3
100
AcDbLine
 10
-13.6916190706581
 20
58.9402940573482
 30
0.0
 11
-13.77005044320711
 21
60.19029405734821
 31
0.0
  0
LINE
  5
EF
330
1F
100
AcDbEntity
  8
Unnamed Level 1
  6
Continuous2
 62
     3
370
    -3
100
AcDbLine
 10
-23.6916190706581
 20
47.40183251888666
 30
0.0
 11
-23.6916190706581
 21
65.95952482657897
 31
0.0
  0
LINE
  5
F0
330
1F
100
AcDbEntity
  8
Unnamed Level 1
  6
Continuous2
 62
     3
370
    -3
100
AcDbLine
 10
-11.6916190706581
 20
51.92106328811744
 30
0.0
 11
-11.6916190706581
 21
65.95952482657897
 31
0.0
  0
LINE
  5
F1
330
1F
100
AcDbEntity
  8
Unnamed Level 1
  6
Continuous2
 62
     3
370
    -3
100
AcDbLine
 10
-7.887697502030646
 20
65.95952482657897
 30
0.0
 11
-4.397501423599273
 21
65.95952482657897
 31
0.0
  0
LINE
  5
F2
330
1F
100
AcDbEntity
  8
Unnamed Level 1
  6
Continuous2
 62
     3
370
    -3
100
AcDbLine
 10
-7.887697502030646
 20
65.95952482657897
 30
0.0
 11
-8.319070051050254
 21
65.86337098042513
 31
0.0
  0
LINE
  5
F3
330
1F
100
AcDbEntity
  8
Unnamed Level 1
  6
Continuous2
 62
     3
370
    -3
100
AcDbLine
 10
-8.319070051050254
 20
65.86337098042513
 30
0.0
 11
-8.71122691379535
 21
65.76721713427128
 31
0.0
  0
LINE
  5
F4
330
1F
100
AcDbEntity
  8
Unnamed Level 1
  6
Continuous2
 62
     3
370
    -3
100
AcDbLine
 10
-8.71122691379535
 20
65.76721713427128
 30
0.0
 11
-9.142599462814958
 21
65.47875559580974
 31
0.0
  0
LINE
  5
F5
330
1F
100
AcDbEntity
  8
Unnamed Level 1
  6
Continuous2
 62
     3
370
    -3
100
AcDbLine
 10
-9.142599462814958
 20
65.47875559580974
 30
0.0
 11
-9.534756325560057
 21
65.09414021119436
 31
0.0
  0
LINE
  5
F6
330
1F
100
AcDbEntity
  8
Unnamed Level 1
  6
Continuous2
 62
     3
370
    -3
100
AcDbLine
 10
-9.534756325560057
 20
65.09414021119436
 30
0.0
 11
-9.926913188305154
 21
64.70952482657898
 31
0.0
  0
LINE
  5
F7
330
1F
100
AcDbEntity
  8
Unnamed Level 1
  6
Continuous2
 62
     3
370
    -3
100
AcDbLine
 10
-9.926913188305154
 20
64.70952482657898
 30
0.0
 11
-10.24063867850123
 21
64.1326017496559
 31
0.0
  0
LINE
  5
F8
330
1F
100
AcDbEntity
  8
Unnamed Level 1
  6
Continuous2
 62
     3
370
    -3
100
AcDbLine
 10
-10.24063867850123
 20
64.1326017496559
 30
0.0
 11
-10.59357985497182
 21
63.45952482657898
 31
0.0
  0
LINE
  5
F9
330
1F
100
AcDbEntity
  8
Unnamed Level 1
  6
Continuous2
 62
     3
370
    -3
100
AcDbLine
 10
-10.59357985497182
 20
63.45952482657898
 30
0.0
 11
-10.86808965889339
 21
62.78644790350205
 31
0.0
  0
LINE
  5
FA
330
1F
100
AcDbEntity
  8
Unnamed Level 1
  6
Continuous2
 62
     3
370
    -3
100
AcDbLine
 10
-10.86808965889339
 20
62.78644790350205
 30
0.0
 11
-11.10338377654045
 21
62.01721713427128
 31
0.0
  0
LINE
  5
FB
330
1F
100
AcDbEntity
  8
Unnamed Level 1
  6
Continuous2
 62
     3
370
    -3
100
AcDbLine
 10
-11.10338377654045
 20
62.01721713427128
 30
0.0
 11
-11.299462207913
 21
61.24798636504052
 31
0.0
  0
LINE
  5
FC
330
1F
100
AcDbEntity
  8
Unnamed Level 1
  6
Continuous2
 62
     3
370
    -3
100
AcDbLine
 10
-11.299462207913
 20
61.24798636504052
 30
0.0
 11
-11.6916190706581
 21
59.22875559580974
 31
0.0
  0
LINE
  5
FD
330
1F
100
AcDbEntity
  8
Unnamed Level 1
  6
Continuous2
 62
     3
370
    -3
100
AcDbLine
 10
-1.691619070658096
 20
63.45952482657898
 30
0.0
 11
-2.005344560854176
 21
64.1326017496559
 31
0.0
  0
LINE
  5
FE
330
1F
100
AcDbEntity
  8
Unnamed Level 1
  6
Continuous2
 62
     3
370
    -3
100
AcDbLine
 10
-2.005344560854176
 20
64.1326017496559
 30
0.0
 11
-2.358285737324763
 21
64.70952482657898
 31
0.0
  0
LINE
  5
FF
330
1F
100
AcDbEntity
  8
Unnamed Level 1
  6
Continuous2
 62
     3
370
    -3
100
AcDbLine
 10
-2.358285737324763
 20
64.70952482657898
 30
0.0
 11
-2.75044260006986
 21
65.09414021119436
 31
0.0
  0
LINE
  5
100
330
1F
100
AcDbEntity
  8
Unnamed Level 1
  6
Continuous2
 62
     3
370
    -3
100
AcDbLine
 10
-2.75044260006986
 20
65.09414021119436
 30
0.0
 11
-3.14259946281496
 21
65.47875559580974
 31
0.0
  0
LINE
  5
101
330
1F
100
AcDbEntity
  8
Unnamed Level 1
  6
Continuous2
 62
     3
370
    -3
100
AcDbLine
 10
-3.14259946281496
 20
65.47875559580974
 30
0.0
 11
-3.534756325560057
 21
65.76721713427128
 31
0.0
  0
LINE
  5
102
330
1F
100
AcDbEntity
  8
Unnamed Level 1
  6
Continuous2
 62
     3
370
    -3
100
AcDbLine
 10
-3.534756325560057
 20
65.76721713427128
 30
0.0
 11
-3.966128874579663
 21
65.86337098042513
 31
0.0
  0
LINE
  5
103
330
1F
100
AcDbEntity
  8
Unnamed Level 1
  6
Continuous2
 62
     3
370
    -3
100
AcDbLine
 10
-3.966128874579663
 20
65.86337098042513
 30
0.0
 11
-4.397501423599273
 21
65.95952482657897
 31
0.0
  0
LINE
  5
104
330
1F
100
AcDbEntity
  8
Unnamed Level 1
  6
Continuous2
 62
     3
370
    -3
100
AcDbLine
 10
10.22994955679289
 20
57.6902940573482
 30
0.0
 11
10.3083809293419
 21
58.9402940573482
 31
0.0
  0
LINE
  5
105
330
1F
100
AcDbEntity
  8
Unnamed Level 1
  6
Continuous2
 62
     3
370
    -3
100
AcDbLine
 10
9.994655439145827
 20
56.53644790350205
 30
0.0
 11
10.22994955679289
 21
57.6902940573482
 31
0.0
  0
LINE
  5
106
330
1F
100
AcDbEntity
  8
Unnamed Level 1
  6
Continuous2
 62
     3
370
    -3
100
AcDbLine
 10
9.641714262675233
 20
55.47875559580974
 30
0.0
 11
9.994655439145827
 21
56.53644790350205
 31
0.0
  0
LINE
  5
107
330
1F
100
AcDbEntity
  8
Unnamed Level 1
  6
Continuous2
 62
     3
370
    -3
100
AcDbLine
 10
9.131910341106607
 20
54.42106328811744
 30
0.0
 11
9.641714262675233
 21
55.47875559580974
 31
0.0
  0
LINE
  5
108
330
1F
100
AcDbEntity
  8
Unnamed Level 1
  6
Continuous2
 62
     3
370
    -3
100
AcDbLine
 10
8.504459360714453
 20
53.55567867273282
 30
0.0
 11
9.131910341106607
 21
54.42106328811744
 31
0.0
  0
LINE
  5
109
330
1F
100
AcDbEntity
  8
Unnamed Level 1
  6
Continuous2
 62
     3
370
    -3
100
AcDbLine
 10
7.798577007773275
 20
52.8826017496559
 30
0.0
 11
8.504459360714453
 21
53.55567867273282
 31
0.0
  0
LINE
  5
10A
330
1F
100
AcDbEntity
  8
Unnamed Level 1
  6
Continuous2
 62
     3
370
    -3
100
AcDbLine
 10
7.014263282283078
 20
52.30567867273282
 30
0.0
 11
7.798577007773275
 21
52.8826017496559
 31
0.0
  0
LINE
  5
10B
330
1F
100
AcDbEntity
  8
Unnamed Level 1
  6
Continuous2
 62
     3
370
    -3
100
AcDbLine
 10
6.190733870518375
 20
52.01721713427128
 30
0.0
 11
7.014263282283078
 21
52.30567867273282
 31
0.0
  0
LINE
  5
10C
330
1F
100
AcDbEntity
  8
Unnamed Level 1
  6
Continuous2
 62
     3
370
    -3
100
AcDbLine
 10
5.327988772479159
 20
51.92106328811744
 30
0.0
 11
6.190733870518375
 21
52.01721713427128
 31
0.0
  0
LINE
  5
10D
330
1F
100
AcDbEntity
  8
Unnamed Level 1
  6
Continuous2
 62
     3
370
    -3
100
AcDbLine
 10
4.426027988165433
 20
52.01721713427128
 30
0.0
 11
5.327988772479159
 21
51.92106328811744
 31
0.0
  0
LINE
  5
10E
330
1F
100
AcDbEntity
  8
Unnamed Level 1
  6
Continuous2
 62
     3
370
    -3
100
AcDbLine
 10
3.60249857640073
 20
52.30567867273282
 30
0.0
 11
4.426027988165433
 21
52.01721713427128
 31
0.0
  0
LINE
  5
10F
330
1F
100
AcDbEntity
  8
Unnamed Level 1
  6
Continuous2
 62
     3
370
    -3
100
AcDbLine
 10
2.81818485091053
 20
52.8826017496559
 30
0.0
 11
3.60249857640073
 21
52.30567867273282
 31
0.0
  0
LINE
  5
110
330
1F
100
AcDbEntity
  8
Unnamed Level 1
  6
Continuous2
 62
     3
370
    -3
100
AcDbLine
 10
2.112302497969353
 20
53.55567867273282
 30
0.0
 11
2.81818485091053
 21
52.8826017496559
 31
0.0
  0
LINE
  5
111
330
1F
100
AcDbEntity
  8
Unnamed Level 1
  6
Continuous2
 62
     3
370
    -3
100
AcDbLine
 10
1.484851517577198
 20
54.42106328811744
 30
0.0
 11
2.112302497969353
 21
53.55567867273282
 31
0.0
  0
LINE
  5
112
330
1F
100
AcDbEntity
  8
Unnamed Level 1
  6
Continuous2
 62
     3
370
    -3
100
AcDbLine
 10
0.9750475960085723
 20
55.47875559580974
 30
0.0
 11
1.484851517577198
 21
54.42106328811744
 31
0.0
  0
LINE
  5
113
330
1F
100
AcDbEntity
  8
Unnamed Level 1
  6
Continuous2
 62
     3
370
    -3
100
AcDbLine
 10
0.6221064195379817
 20
56.53644790350205
 30
0.0
 11
0.9750475960085723
 21
55.47875559580974
 31
0.0
  0
LINE
  5
114
330
1F
100
AcDbEntity
  8
Unnamed Level 1
  6
Continuous2
 62
     3
370
    -3
100
AcDbLine
 10
0.3868123018909237
 20
57.6902940573482
 30
0.0
 11
0.6221064195379817
 21
56.53644790350205
 31
0.0
  0
LINE
  5
115
330
1F
100
AcDbEntity
  8
Unnamed Level 1
  6
Continuous2
 62
     3
370
    -3
100
AcDbLine
 10
0.3083809293419044
 20
58.9402940573482
 30
0.0
 11
0.3868123018909237
 21
57.6902940573482
 31
0.0
  0
LINE
  5
116
330
1F
100
AcDbEntity
  8
Unnamed Level 1
  6
Continuous2
 62
     3
370
    -3
100
AcDbLine
 10
0.3868123018909237
 20
60.19029405734821
 30
0.0
 11
0.3083809293419044
 21
58.9402940573482
 31
0.0
  0
LINE
  5
117
330
1F
100
AcDbEntity
  8
Unnamed Level 1
  6
Continuous2
 62
     3
370
    -3
100
AcDbLine
 10
0.6221064195379817
 20
61.34414021119436
 30
0.0
 11
0.3868123018909237
 21
60.19029405734821
 31
0.0
  0
LINE
  5
118
330
1F
100
AcDbEntity
  8
Unnamed Level 1
  6
Continuous2
 62
     3
370
    -3
100
AcDbLine
 10
0.9750475960085723
 20
62.49798636504052
 30
0.0
 11
0.6221064195379817
 21
61.34414021119436
 31
0.0
  0
LINE
  5
119
330
1F
100
AcDbEntity
  8
Unnamed Level 1
  6
Continuous2
 62
     3
370
    -3
100
AcDbLine
 10
1.484851517577198
 20
63.45952482657898
 30
0.0
 11
0.9750475960085723
 21
62.49798636504052
 31
0.0
  0
LINE
  5
11A
330
1F
100
AcDbEntity
  8
Unnamed Level 1
  6
Continuous2
 62
     3
370
    -3
100
AcDbLine
 10
2.112302497969353
 20
64.3249094419636
 30
0.0
 11
1.484851517577198
 21
63.45952482657898
 31
0.0
  0
LINE
  5
11B
330
1F
100
AcDbEntity
  8
Unnamed Level 1
  6
Continuous2
 62
     3
370
    -3
100
AcDbLine
 10
2.81818485091053
 20
64.99798636504052
 30
0.0
 11
2.112302497969353
 21
64.3249094419636
 31
0.0
  0
LINE
  5
11C
330
1F
100
AcDbEntity
  8
Unnamed Level 1
  6
Continuous2
 62
     3
370
    -3
100
AcDbLine
 10
3.60249857640073
 20
65.5749094419636
 30
0.0
 11
2.81818485091053
 21
64.99798636504052
 31
0.0
  0
LINE
  5
11D
330
1F
100
AcDbEntity
  8
Unnamed Level 1
  6
Continuous2
 62
     3
370
    -3
100
AcDbLine
 10
4.426027988165433
 20
65.86337098042513
 30
0.0
 11
3.60249857640073
 21
65.5749094419636
 31
0.0
  0
LINE
  5
11E
330
1F
100
AcDbEntity
  8
Unnamed Level 1
  6
Continuous2
 62
     3
370
    -3
100
AcDbLine
 10
5.327988772479159
 20
65.95952482657897
 30
0.0
 11
4.426027988165433
 21
65.86337098042513
 31
0.0
  0
LINE
  5
11F
330
1F
100
AcDbEntity
  8
Unnamed Level 1
  6
Continuous2
 62
     3
370
    -3
100
AcDbLine
 10
6.190733870518375
 20
65.86337098042513
 30
0.0
 11
5.327988772479159
 21
65.95952482657897
 31
0.0
  0
LINE
  5
120
330
1F
100
AcDbEntity
  8
Unnamed Level 1
  6
Continuous2
 62
     3
370
    -3
100
AcDbLine
 10
7.014263282283078
 20
65.5749094419636
 30
0.0
 11
6.190733870518375
 21
65.86337098042513
 31
0.0
  0
LINE
  5
121
330
1F
100
AcDbEntity
  8
Unnamed Level 1
  6
Continuous2
 62
     3
370
    -3
100
AcDbLine
 10
7.798577007773275
 20
64.99798636504052
 30
0.0
 11
7.014263282283078
 21
65.5749094419636
 31
0.0
  0
LINE
  5
122
330
1F
100
AcDbEntity
  8
Unnamed Level 1
  6
Continuous2
 62
     3
370
    -3
100
AcDbLine
 10
8.504459360714453
 20
64.3249094419636
 30
0.0
 11
7.798577007773275
 21
64.99798636504052
 31
0.0
  0
LINE
  5
123
330
1F
100
AcDbEntity
  8
Unnamed Level 1
  6
Continuous2
 62
     3
370
    -3
100
AcDbLine
 10
9.131910341106607
 20
63.45952482657898
 30
0.0
 11
8.504459360714453
 21
64.3249094419636
 31
0.0
  0
LINE
  5
124
330
1F
100
AcDbEntity
  8
Unnamed Level 1
  6
Continuous2
 62
     3
370
    -3
100
AcDbLine
 10
9.641714262675233
 20
62.49798636504052
 30
0.0
 11
9.131910341106607
 21
63.45952482657898
 31
0.0
  0
LINE
  5
125
330
1F
100
AcDbEntity
  8
Unnamed Level 1
  6
Continuous2
 62
     3
370
    -3
100
AcDbLine
 10
9.994655439145827
 20
61.34414021119436
 30
0.0
 11
9.641714262675233
 21
62.49798636504052
 31
0.0
  0
LINE
  5
126
330
1F
100
AcDbEntity
  8
Unnamed Level 1
  6
Continuous2
 62
     3
370
    -3
100
AcDbLine
 10
10.22994955679289
 20
60.19029405734821
 30
0.0
 11
9.994655439145827
 21
61.34414021119436
 31
0.0
  0
LINE
  5
127
330
1F
100
AcDbEntity
  8
Unnamed Level 1
  6
Continuous2
 62
     3
370
    -3
100
AcDbLine
 10
10.3083809293419
 20
58.9402940573482
 30
0.0
 11
10.22994955679289
 21
60.19029405734821
 31
0.0
  0
LINE
  5
128
330
1F
100
AcDbEntity
  8
Unnamed Level 1
  6
Continuous2
 62
     3
370
    -3
100
AcDbLine
 10
22.22994955679289
 20
57.6902940573482
 30
0.0
 11
22.3083809293419
 21
58.9402940573482
 31
0.0
  0
LINE
  5
129
330
1F
100
AcDbEntity
  8
Unnamed Level 1
  6
Continuous2
 62
     3
370
    -3
100
AcDbLine
 10
21.99465543914583
 20
56.53644790350205
 30
0.0
 11
22.22994955679289
 21
57.6902940573482
 31
0.0
  0
LINE
  5
12A
330
1F
100
AcDbEntity
  8
Unnamed Level 1
  6
Continuous2
 62
     3
370
    -3
100
AcDbLine
 10
21.64171426267523
 20
55.47875559580974
 30
0.0
 11
21.99465543914583
 21
56.53644790350205
 31
0.0
  0
LINE
  5
12B
330
1F
100
AcDbEntity
  8
Unnamed Level 1
  6
Continuous2
 62
     3
370
    -3
100
AcDbLine
 10
21.13191034110661
 20
54.42106328811744
 30
0.0
 11
21.64171426267523
 21
55.47875559580974
 31
0.0
  0
LINE
  5
12C
330
1F
100
AcDbEntity
  8
Unnamed Level 1
  6
Continuous2
 62
     3
370
    -3
100
AcDbLine
 10
20.50445936071445
 20
53.55567867273282
 30
0.0
 11
21.13191034110661
 21
54.42106328811744
 31
0.0
  0
LINE
  5
12D
330
1F
100
AcDbEntity
  8
Unnamed Level 1
  6
Continuous2
 62
     3
370
    -3
100
AcDbLine
 10
19.79857700777327
 20
52.8826017496559
 30
0.0
 11
20.50445936071445
 21
53.55567867273282
 31
0.0
  0
LINE
  5
12E
330
1F
100
AcDbEntity
  8
Unnamed Level 1
  6
Continuous2
 62
     3
370
    -3
100
AcDbLine
 10
19.01426328228308
 20
52.30567867273282
 30
0.0
 11
19.79857700777327
 21
52.8826017496559
 31
0.0
  0
LINE
  5
12F
330
1F
100
AcDbEntity
  8
Unnamed Level 1
  6
Continuous2
 62
     3
370
    -3
100
AcDbLine
 10
18.19073387051837
 20
52.01721713427128
 30
0.0
 11
19.01426328228308
 21
52.30567867273282
 31
0.0
  0
LINE
  5
130
330
1F
100
AcDbEntity
  8
Unnamed Level 1
  6
Continuous2
 62
     3
370
    -3
100
AcDbLine
 10
17.32798877247916
 20
51.92106328811744
 30
0.0
 11
18.19073387051837
 21
52.01721713427128
 31
0.0
  0
LINE
  5
131
330
1F
100
AcDbEntity
  8
Unnamed Level 1
  6
Continuous2
 62
     3
370
    -3
100
AcDbLine
 10
16.42602798816543
 20
52.01721713427128
 30
0.0
 11
17.32798877247916
 21
51.92106328811744
 31
0.0
  0
LINE
  5
132
330
1F
100
AcDbEntity
  8
Unnamed Level 1
  6
Continuous2
 62
     3
370
    -3
100
AcDbLine
 10
15.60249857640072
 20
52.30567867273282
 30
0.0
 11
16.42602798816543
 21
52.01721713427128
 31
0.0
  0
LINE
  5
133
330
1F
100
AcDbEntity
  8
Unnamed Level 1
  6
Continuous2
 62
     3
370
    -3
100
AcDbLine
 10
14.81818485091053
 20
52.8826017496559
 30
0.0
 11
15.60249857640072
 21
52.30567867273282
 31
0.0
  0
LINE
  5
134
330
1F
100
AcDbEntity
  8
Unnamed Level 1
  6
Continuous2
 62
     3
370
    -3
100
AcDbLine
 10
14.11230249796935
 20
53.55567867273282
 30
0.0
 11
14.81818485091053
 21
52.8826017496559
 31
0.0
  0
LINE
  5
135
330
1F
100
AcDbEntity
  8
Unnamed Level 1
  6
Continuous2
 62
     3
370
    -3
100
AcDbLine
 10
13.48485151757719
 20
54.42106328811744
 30
0.0
 11
14.11230249796935
 21
53.55567867273282
 31
0.0
  0
LINE
  5
136
330
1F
100
AcDbEntity
  8
Unnamed Level 1
  6
Continuous2
 62
     3
370
    -3
100
AcDbLine
 10
12.97504759600857
 20
55.47875559580974
 30
0.0
 11
13.48485151757719
 21
54.42106328811744
 31
0.0
  0
LINE
  5
137
330
1F
100
AcDbEntity
  8
Unnamed Level 1
  6
Continuous2
 62
     3
370
    -3
100
AcDbLine
 10
12.3083809293419
 20
57.40183251888667
 30
0.0
 11
12.97504759600857
 21
55.47875559580974
 31
0.0
  0
LINE
  5
138
330
1F
100
AcDbEntity
  8
Unnamed Level 1
  6
Continuous2
 62
     3
370
    -3
100
AcDbLine
 10
12.97504759600857
 20
62.49798636504052
 30
0.0
 11
12.3083809293419
 21
60.47875559580974
 31
0.0
  0
LINE
  5
139
330
1F
100
AcDbEntity
  8
Unnamed Level 1
  6
Continuous2
 62
     3
370
    -3
100
AcDbLine
 10
13.48485151757719
 20
63.45952482657898
 30
0.0
 11
12.97504759600857
 21
62.49798636504052
 31
0.0
  0
LINE
  5
13A
330
1F
100
AcDbEntity
  8
Unnamed Level 1
  6
Continuous2
 62
     3
370
    -3
100
AcDbLine
 10
14.11230249796935
 20
64.3249094419636
 30
0.0
 11
13.48485151757719
 21
63.45952482657898
 31
0.0
  0
LINE
  5
13B
330
1F
100
AcDbEntity
  8
Unnamed Level 1
  6
Continuous2
 62
     3
370
    -3
100
AcDbLine
 10
14.81818485091053
 20
64.99798636504052
 30
0.0
 11
14.11230249796935
 21
64.3249094419636
 31
0.0
  0
LINE
  5
13C
330
1F
100
AcDbEntity
  8
Unnamed Level 1
  6
Continuous2
 62
     3
370
    -3
100
AcDbLine
 10
15.60249857640072
 20
65.5749094419636
 30
0.0
 11
14.81818485091053
 21
64.99798636504052
 31
0.0
  0
LINE
  5
13D
330
1F
100
AcDbEntity
  8
Unnamed Level 1
  6
Continuous2
 62
     3
370
    -3
100
AcDbLine
 10
16.42602798816543
 20
65.86337098042513
 30
0.0
 11
15.60249857640072
 21
65.5749094419636
 31
0.0
  0
LINE
  5
13E
330
1F
100
AcDbEntity
  8
Unnamed Level 1
  6
Continuous2
 62
     3
370
    -3
100
AcDbLine
 10
17.32798877247916
 20
65.95952482657897
 30
0.0
 11
16.42602798816543
 21
65.86337098042513
 31
0.0
  0
LINE
  5
13F
330
1F
100
AcDbEntity
  8
Unnamed Level 1
  6
Continuous2
 62
     3
370
    -3
100
AcDbLine
 10
18.19073387051837
 20
65.86337098042513
 30
0.0
 11
17.32798877247916
 21
65.95952482657897
 31
0.0
  0
LINE
  5
140
330
1F
100
AcDbEntity
  8
Unnamed Level 1
  6
Continuous2
 62
     3
370
    -3
100
AcDbLine
 10
19.01426328228308
 20
65.5749094419636
 30
0.0
 11
18.19073387051837
 21
65.86337098042513
 31
0.0
  0
LINE
  5
141
330
1F
100
AcDbEntity
  8
Unnamed Level 1
  6
Continuous2
 62
     3
370
    -3
100
AcDbLine
 10
19.79857700777327
 20
64.99798636504052
 30
0.0
 11
19.01426328228308
 21
65.5749094419636
 31
0.0
  0
LINE
  5
142
330
1F
100
AcDbEntity
  8
Unnamed Level 1
  6
Continuous2
 62
     3
370
    -3
100
AcDbLine
 10
20.50445936071445
 20
64.3249094419636
 30
0.0
 11
19.79857700777327
 21
64.99798636504052
 31
0.0
  0
LINE
  5
143
330
1F
100
AcDbEntity
  8
Unnamed Level 1
  6
Continuous2
 62
     3
370
    -3
100
AcDbLine
 10
21.13191034110661
 20
63.45952482657898
 30
0.0
 11
20.50445936071445
 21
64.3249094419636
 31
0.0
  0
LINE
  5
144
330
1F
100
AcDbEntity
  8
Unnamed Level 1
  6
Continuous2
 62
     3
370
    -3
100
AcDbLine
 10
21.64171426267523
 20
62.49798636504052
 30
0.0
 11
21.13191034110661
 21
63.45952482657898
 31
0.0
  0
LINE
  5
145
330
1F
100
AcDbEntity
  8
Unnamed Level 1
  6
Continuous2
 62
     3
370
    -3
100
AcDbLine
 10
21.99465543914583
 20
61.34414021119436
 30
0.0
 11
21.64171426267523
 21
62.49798636504052
 31
0.0
  0
LINE
  5
146
330
1F
100
AcDbEntity
  8
Unnamed Level 1
  6
Continuous2
 62
     3
370
    -3
100
AcDbLine
 10
22.22994955679289
 20
60.19029405734821
 30
0.0
 11
21.99465543914583
 21
61.34414021119436
 31
0.0
  0
LINE
  5
147
330
1F
100
AcDbEntity
  8
Unnamed Level 1
  6
Continuous2
 62
     3
370
    -3
100
AcDbLine
 10
22.3083809293419
 20
58.9402940573482
 30
0.0
 11
22.22994955679289
 21
60.19029405734821
 31
0.0
  0
LINE
  5
148
330
1F
100
AcDbEntity
  8
Unnamed Level 1
  6
Continuous2
 62
     3
370
    -3
100
AcDbLine
 10
12.3083809293419
 20
71.92106328811744
 30
0.0
 11
12.3083809293419
 21
51.92106328811744
 31
0.0
  0
LINE
  5
149
330
1F
100
AcDbEntity
  8
Unnamed Level 1
  6
Continuous2
 62
     3
370
    -3
100
AcDbLine
 10
34.30838092934191
 20
65.95952482657897
 30
0.0
 11
34.30838092934191
 21
51.92106328811744
 31
0.0
  0
LINE
  5
14A
330
1F
100
AcDbEntity
  8
Unnamed Level 1
  6
Continuous2
 62
     3
370
    -3
100
AcDbLine
 10
33.64171426267524
 20
55.47875559580974
 30
0.0
 11
34.30838092934191
 21
57.40183251888667
 31
0.0
  0
LINE
  5
14B
330
1F
100
AcDbEntity
  8
Unnamed Level 1
  6
Continuous2
 62
     3
370
    -3
100
AcDbLine
 10
33.1319103411066
 20
54.42106328811744
 30
0.0
 11
33.64171426267524
 21
55.47875559580974
 31
0.0
  0
LINE
  5
14C
330
1F
100
AcDbEntity
  8
Unnamed Level 1
  6
Continuous2
 62
     3
370
    -3
100
AcDbLine
 10
32.50445936071445
 20
53.55567867273282
 30
0.0
 11
33.1319103411066
 21
54.42106328811744
 31
0.0
  0
LINE
  5
14D
330
1F
100
AcDbEntity
  8
Unnamed Level 1
  6
Continuous2
 62
     3
370
    -3
100
AcDbLine
 10
31.79857700777327
 20
52.8826017496559
 30
0.0
 11
32.50445936071445
 21
53.55567867273282
 31
0.0
  0
LINE
  5
14E
330
1F
100
AcDbEntity
  8
Unnamed Level 1
  6
Continuous2
 62
     3
370
    -3
100
AcDbLine
 10
31.01426328228308
 20
52.30567867273282
 30
0.0
 11
31.79857700777327
 21
52.8826017496559
 31
0.0
  0
LINE
  5
14F
330
1F
100
AcDbEntity
  8
Unnamed Level 1
  6
Continuous2
 62
     3
370
    -3
100
AcDbLine
 10
29.32798877247916
 20
51.92106328811744
 30
0.0
 11
30.19073387051837
 21
52.01721713427128
 31
0.0
  0
LINE
  5
150
330
1F
100
AcDbEntity
  8
Unnamed Level 1
  6
Continuous2
 62
     3
370
    -3
100
AcDbLine
 10
28.42602798816543
 20
52.01721713427128
 30
0.0
 11
29.32798877247916
 21
51.92106328811744
 31
0.0
  0
LINE
  5
151
330
1F
100
AcDbEntity
  8
Unnamed Level 1
  6
Continuous2
 62
     3
370
    -3
100
AcDbLine
 10
27.60249857640072
 20
52.30567867273282
 30
0.0
 11
28.42602798816543
 21
52.01721713427128
 31
0.0
  0
LINE
  5
152
330
1F
100
AcDbEntity
  8
Unnamed Level 1
  6
Continuous2
 62
     3
370
    -3
100
AcDbLine
 10
26.81818485091053
 20
52.8826017496559
 30
0.0
 11
27.60249857640072
 21
52.30567867273282
 31
0.0
  0
LINE
  5
153
330
1F
100
AcDbEntity
  8
Unnamed Level 1
  6
Continuous2
 62
     3
370
    -3
100
AcDbLine
 10
26.11230249796936
 20
53.55567867273282
 30
0.0
 11
26.81818485091053
 21
52.8826017496559
 31
0.0
  0
LINE
  5
154
330
1F
100
AcDbEntity
  8
Unnamed Level 1
  6
Continuous2
 62
     3
370
    -3
100
AcDbLine
 10
25.48485151757719
 20
54.42106328811744
 30
0.0
 11
26.11230249796936
 21
53.55567867273282
 31
0.0
  0
LINE
  5
155
330
1F
100
AcDbEntity
  8
Unnamed Level 1
  6
Continuous2
 62
     3
370
    -3
100
AcDbLine
 10
24.97504759600857
 20
55.47875559580974
 30
0.0
 11
25.48485151757719
 21
54.42106328811744
 31
0.0
  0
LINE
  5
156
330
1F
100
AcDbEntity
  8
Unnamed Level 1
  6
Continuous2
 62
     3
370
    -3
100
AcDbLine
 10
24.62210641953798
 20
56.53644790350205
 30
0.0
 11
24.97504759600857
 21
55.47875559580974
 31
0.0
  0
LINE
  5
157
330
1F
100
AcDbEntity
  8
Unnamed Level 1
  6
Continuous2
 62
     3
370
    -3
100
AcDbLine
 10
24.38681230189092
 20
57.6902940573482
 30
0.0
 11
24.62210641953798
 21
56.53644790350205
 31
0.0
  0
LINE
  5
158
330
1F
100
AcDbEntity
  8
Unnamed Level 1
  6
Continuous2
 62
     3
370
    -3
100
AcDbLine
 10
24.3083809293419
 20
58.9402940573482
 30
0.0
 11
24.38681230189092
 21
57.6902940573482
 31
0.0
  0
LINE
  5
159
330
1F
100
AcDbEntity
  8
Unnamed Level 1
  6
Continuous2
 62
     3
370
    -3
100
AcDbLine
 10
24.38681230189092
 20
60.19029405734821
 30
0.0
 11
24.3083809293419
 21
58.9402940573482
 31
0.0
  0
LINE
  5
15A
330
1F
100
AcDbEntity
  8
Unnamed Level 1
  6
Continuous2
 62
     3
370
    -3
100
AcDbLine
 10
24.62210641953798
 20
61.34414021119436
 30
0.0
 11
24.38681230189092
 21
60.19029405734821
 31
0.0
  0
LINE
  5
15B
330
1F
100
AcDbEntity
  8
Unnamed Level 1
  6
Continuous2
 62
     3
370
    -3
100
AcDbLine
 10
24.97504759600857
 20
62.49798636504052
 30
0.0
 11
24.62210641953798
 21
61.34414021119436
 31
0.0
  0
LINE
  5
15C
330
1F
100
AcDbEntity
  8
Unnamed Level 1
  6
Continuous2
 62
     3
370
    -3
100
AcDbLine
 10
25.48485151757719
 20
63.45952482657898
 30
0.0
 11
24.97504759600857
 21
62.49798636504052
 31
0.0
  0
LINE
  5
15D
330
1F
100
AcDbEntity
  8
Unnamed Level 1
  6
Continuous2
 62
     3
370
    -3
100
AcDbLine
 10
26.11230249796936
 20
64.3249094419636
 30
0.0
 11
25.48485151757719
 21
63.45952482657898
 31
0.0
  0
LINE
  5
15E
330
1F
100
AcDbEntity
  8
Unnamed Level 1
  6
Continuous2
 62
     3
370
    -3
100
AcDbLine
 10
26.81818485091053
 20
64.99798636504052
 30
0.0
 11
26.11230249796936
 21
64.3249094419636
 31
0.0
  0
LINE
  5
15F
330
1F
100
AcDbEntity
  8
Unnamed Level 1
  6
Continuous2
 62
     3
370
    -3
100
AcDbLine
 10
27.60249857640072
 20
65.5749094419636
 30
0.0
 11
26.81818485091053
 21
64.99798636504052
 31
0.0
  0
LINE
  5
160
330
1F
100
AcDbEntity
  8
Unnamed Level 1
  6
Continuous2
 62
     3
370
    -3
100
AcDbLine
 10
28.42602798816543
 20
65.86337098042513
 30
0.0
 11
27.60249857640072
 21
65.5749094419636
 31
0.0
  0
LINE
  5
161
330
1F
100
AcDbEntity
  8
Unnamed Level 1
  6
Continuous2
 62
     3
370
    -3
100
AcDbLine
 10
30.19073387051837
 20
65.86337098042513
 30
0.0
 11
29.32798877247916
 21
65.95952482657897
 31
0.0
  0
LINE
  5
162
330
1F
100
AcDbEntity
  8
Unnamed Level 1
  6
Continuous2
 62
     3
370
    -3
100
AcDbLine
 10
31.01426328228308
 20
65.5749094419636
 30
0.0
 11
30.19073387051837
 21
65.86337098042513
 31
0.0
  0
LINE
  5
163
330
1F
100
AcDbEntity
  8
Unnamed Level 1
  6
Continuous2
 62
     3
370
    -3
100
AcDbLine
 10
31.79857700777327
 20
64.99798636504052
 30
0.0
 11
31.01426328228308
 21
65.5749094419636
 31
0.0
  0
LINE
  5
164
330
1F
100
AcDbEntity
  8
Unnamed Level 1
  6
Continuous2
 62
     3
370
    -3
100
AcDbLine
 10
32.50445936071445
 20
64.3249094419636
 30
0.0
 11
31.79857700777327
 21
64.99798636504052
 31
0.0
  0
LINE
  5
165
330
1F
100
AcDbEntity
  8
Unnamed Level 1
  6
Continuous2
 62
     3
370
    -3
100
AcDbLine
 10
33.1319103411066
 20
63.45952482657898
 30
0.0
 11
32.50445936071445
 21
64.3249094419636
 31
0.0
  0
LINE
  5
166
330
1F
100
AcDbEntity
  8
Unnamed Level 1
  6
Continuous2
 62
     3
370
    -3
100
AcDbLine
 10
33.64171426267524
 20
62.49798636504052
 30
0.0
 11
33.1319103411066
 21
63.45952482657898
 31
0.0
  0
LINE
  5
167
330
1F
100
AcDbEntity
  8
Unnamed Level 1
  6
Continuous2
 62
     3
370
    -3
100
AcDbLine
 10
34.30838092934191
 20
60.47875559580974
 30
0.0
 11
33.64171426267524
 21
62.49798636504052
 31
0.0
  0
LINE
  5
168
330
1F
100
AcDbEntity
  8
Unnamed Level 1
  6
Continuous2
 62
     3
370
    -3
100
AcDbLine
 10
29.32798877247916
 20
65.95952482657897
 30
0.0
 11
28.42602798816543
 21
65.86337098042513
 31
0.0
  0
LINE
  5
169
330
1F
100
AcDbEntity
  8
Unnamed Level 1
  6
Continuous2
 62
     3
370
    -3
100
AcDbLine
 10
30.19073387051837
 20
52.01721713427128
 30
0.0
 11
31.01426328228308
 21
52.30567867273282
 31
0.0
  0
ENDSEC
  0
SECTION
  2
OBJECTS
  0
DICTIONARY
  5
C
330
0
100
AcDbDictionary
281
     1
  3
ACAD_GROUP
350
D
  3
ACAD_LAYOUT
350
1A
  3
ACAD_MLEADERSTYLE
350
16B
  3
ACAD_MLINESTYLE
350
17
  3
ACAD_PLOTSETTINGS
350
19
  3
ACAD_PLOTSTYLENAME
350
E
  3
ACAD_TABLESTYLE
350
16A
  3
ACAD_VISUALSTYLE
350
2A
  0
DICTIONARY
  5
D
102
{ACAD_REACTORS
330
C
102
}
330
C
100
AcDbDictionary
281
     1
  0
DICTIONARY
  5
1A
102
{ACAD_REACTORS
330
C
102
}
330
C
100
AcDbDictionary
281
     1
  3
Layout1
350
1E
  3
Layout2
350
26
  3
Model
350
22
  0
DICTIONARY
  5
16B
102
{ACAD_REACTORS
330
C
102
}
330
C
100
AcDbDictionary
281
     1
  0
DICTIONARY
  5
17
102
{ACAD_REACTORS
330
C
102
}
330
C
100
AcDbDictionary
281
     1
  3
Standard
350
18
  0
DICTIONARY
  5
19
102
{ACAD_REACTORS
330
C
102
}
330
C
100
AcDbDictionary
281
     1
  0
ACDBDICTIONARYWDFLT
  5
E
102
{ACAD_REACTORS
330
C
102
}
330
C
100
AcDbDictionary
281
     1
  3
Normal
350
F
100
AcDbDictionaryWithDefault
340
F
  0
DICTIONARY
  5
16A
102
{ACAD_REACTORS
330
C
102
}
330
C
100
AcDbDictionary
281
     1
  0
DICTIONARY
  5
2A
102
{ACAD_REACTORS
330
C
102
}
330
C
100
AcDbDictionary
281
     1
  3
2dWireframe
350
2F
  3
3D Hidden
350
31
  3
3dWireframe
350
30
  3
Basic
350
32
  3
Brighten
350
36
  3
ColorChange
350
3A
  3
Conceptual
350
34
  3
Dim
350
35
  3
Facepattern
350
39
  3
Flat
350
2B
  3
FlatWithEdges
350
2C
  3
Gouraud
350
2D
  3
GouraudWithEdges
350
2E
  3
Linepattern
350
38
  3
Realistic
350
33
  3
Thicken
350
37
  0
LAYOUT
  5
1E
102
{ACAD_REACTORS
330
1A
102
}
330
1A
100
AcDbPlotSettings
  1

  2
none_device
  4

  6

 40
0.0
 41
0.0
 42
0.0
 43
0.0
 44
0.0
 45
0.0
 46
0.0
 47
0.0
 48
0.0
 49
0.0
140
0.0
141
0.0
142
1.0
143
1.0
 70
   688
 72
     0
 73
     0
 74
     5
  7

 75
    16
 76
     0
 77
     2
 78
   300
147
1.0
148
0.0
149
0.0
100
AcDbLayout
  1
Layout1
 70
     1
 71
     1
 10
0.0
 20
0.0
 11
420.0
 21
297.0
 12
0.0
 22
0.0
 32
0.0
 14
1.000000000000000E+20
 24
1.000000000000000E+20
 34
1.000000000000000E+20
 15
-1.000000000000000E+20
 25
-1.000000000000000E+20
 35
-1.000000000000000E+20
146
0.0
 13
0.0
 23
0.0
 33
0.0
 16
1.0
 26
0.0
 36
0.0
 17
0.0
 27
1.0
 37
0.0
 76
     0
330
1B
  0
LAYOUT
  5
26
102
{ACAD_REACTORS
330
1A
102
}
330
1A
100
AcDbPlotSettings
  1

  2
none_device
  4

  6

 40
0.0
 41
0.0
 42
0.0
 43
0.0
 44
0.0
 45
0.0
 46
0.0
 47
0.0
 48
0.0
 49
0.0
140
0.0
141
0.0
142
1.0
143
1.0
 70
   688
 72
     0
 73
     0
 74
     5
  7

 75
    16
 76
     0
 77
     2
 78
   300
147
1.0
148
0.0
149
0.0
100
AcDbLayout
  1
Layout2
 70
     1
 71
     2
 10
0.0
 20
0.0
 11
0.0
 21
0.0
 12
0.0
 22
0.0
 32
0.0
 14
0.0
 24
0.0
 34
0.0
 15
0.0
 25
0.0
 35
0.0
146
0.0
 13
0.0
 23
0.0
 33
0.0
 16
1.0
 26
0.0
 36
0.0
 17
0.0
 27
1.0
 37
0.0
 76
     0
330
23
  0
LAYOUT
  5
22
102
{ACAD_REACTORS
330
1A
102
}
330
1A
100
AcDbPlotSettings
  1

  2
none_device
  4

  6

 40
0.0
 41
0.0
 42
0.0
 43
0.0
 44
0.0
 45
0.0
 46
0.0
 47
0.0
 48
0.0
 49
0.0
140
0.0
141
0.0
142
1.0
143
1.0
 70
  1712
 72
     0
 73
     0
 74
     0
  7

 75
     0
 76
     0
 77
     2
 78
   300
147
1.0
148
0.0
149
0.0
100
AcDbLayout
  1
Model
 70
     1
 71
     0
 10
0.0
 20
0.0
 11
420.0
 21
297.0
 12
0.0
 22
0.0
 32
0.0
 14
1.000000000000000E+20
 24
1.000000000000000E+20
 34
1.000000000000000E+20
 15
-1.000000000000000E+20
 25
-1.000000000000000E+20
 35
-1.000000000000000E+20
146
0.0
 13
0.0
 23
0.0
 33
0.0
 16
1.0
 26
0.0
 36
0.0
 17
0.0
 27
1.0
 37
0.0
 76
     0
330
1F
331
29
  0
MLINESTYLE
  5
18
102
{ACAD_REACTORS
330
17
102
}
330
17
100
AcDbMlineStyle
  2
Standard
 70
     0
  3

 62
   256
 51
90.0
 52
90.0
 71
     2
 49
0.5
 62
   256
  6
BYLAYER
 49
-0.5
 62
   256
  6
BYLAYER
  0
ACDBPLACEHOLDER
  5
F
102
{ACAD_REACTORS
330
E
102
}
330
E
  0
VISUALSTYLE
  5
2F
102
{ACAD_REACTORS
330
2A
102
}
330
2A
100
AcDbVisualStyle
  2
2dWireframe
 70
     4
 71
     0
 72
     2
 73
     0
 90
        0
 40
-0.6
 41
-30.0
 62
     5
 63
     7
421
 16777215
 74
     1
 91
        4
 64
     7
 65
   257
 75
     1
175
     1
 42
1.0
 92
        0
 66
   257
 43
1.0
 76
     1
 77
     6
 78
     2
 67
     7
 79
     5
170
     0
171
     0
290
     0
174
     0
 93
        1
 44
0.0
173
     0
291
     0
 45
0.0
  0
VISUALSTYLE
  5
31
102
{ACAD_REACTORS
330
2A
102
}
330
2A
100
AcDbVisualStyle
  2
3D Hidden
 70
     6
 71
     1
 72
     2
 73
     2
 90
        0
 40
-0.6
 41
-30.0
 62
     5
 63
     7
421
 16777215
 74
     2
 91
        2
 64
     7
 65
   257
 75
     2
175
     1
 42
40.0
 92
        0
 66
   257
 43
1.0
 76
     1
 77
     6
 78
     2
 67
     7
 79
     3
170
     0
171
     0
290
     0
174
     0
 93
        1
 44
0.0
173
     0
291
     0
 45
0.0
  0
VISUALSTYLE
  5
30
102
{ACAD_REACTORS
330
2A
102
}
330
2A
100
AcDbVisualStyle
  2
3dWireframe
 70
     5
 71
     0
 72
     2
 73
     0
 90
        0
 40
-0.6
 41
-30.0
 62
     5
 63
     7
421
 16777215
 74
     1
 91
        4
 64
     7
 65
   257
 75
     1
175
     1
 42
1.0
 92
        0
 66
   257
 43
1.0
 76
     1
 77
     6
 78
     2
 67
     7
 79
     5
170
     0
171
     0
290
     0
174
     0
 93
        1
 44
0.0
173
     0
291
     0
 45
0.0
  0
VISUALSTYLE
  5
32
102
{ACAD_REACTORS
330
2A
102
}
330
2A
100
AcDbVisualStyle
  2
Basic
 70
     7
 71
     1
 72
     0
 73
     1
 90
        0
 40
-0.6
 41
-30.0
 62
     5
 63
     7
421
 16777215
 74
     0
 91
        4
 64
     7
 65
   257
 75
     1
175
     1
 42
1.0
 92
        8
 66
     7
 43
1.0
 76
     1
 77
     6
 78
     2
 67
     7
 79
     5
170
     0
171
     0
290
     0
174
     0
 93
        1
 44
0.0
173
     0
291
     1
 45
0.0
  0
VISUALSTYLE
  5
36
102
{ACAD_REACTORS
330
2A
102
}
330
2A
100
AcDbVisualStyle
  2
Brighten
 70
    12
 71
     2
 72
     2
 73
     0
 90
        0
 40
-0.6
 41
-30.0
 62
     5
 63
     7
421
 16777215
 74
     1
 91
        4
 64
     7
 65
   257
 75
     1
175
     1
 42
1.0
 92
        8
 66
     7
 43
1.0
 76
     1
 77
     6
 78
     2
 67
     7
 79
     5
170
     0
171
     0
290
     0
174
     0
 93
        1
 44
50.0
173
     0
291
     1
 45
0.0
  0
VISUALSTYLE
  5
3A
102
{ACAD_REACTORS
330
2A
102
}
330
2A
100
AcDbVisualStyle
  2
ColorChange
 70
    16
 71
     2
 72
     2
 73
     3
 90
        0
 40
-0.6
 41
-30.0
 62
     5
 63
     8
421
  8421504
 74
     1
 91
        4
 64
     7
 65
   257
 75
     1
175
     1
 42
1.0
 92
        8
 66
     8
424
  8421504
 43
1.0
 76
     1
 77
     6
 78
     2
 67
     7
 79
     5
170
     0
171
     0
290
     0
174
     0
 93
        1
 44
0.0
173
     0
291
     1
 45
0.0
  0
VISUALSTYLE
  5
34
102
{ACAD_REACTORS
330
2A
102
}
330
2A
100
AcDbVisualStyle
  2
Conceptual
 70
     9
 71
     3
 72
     2
 73
     0
 90
        0
 40
-0.6
 41
-30.0
 62
     5
 63
     7
421
 16777215
 74
     2
 91
        2
 64
     7
 65
   257
 75
     1
175
     1
 42
40.0
 92
        8
 66
     7
 43
1.0
 76
     1
 77
     6
 78
     2
 67
     7
 79
     3
170
     0
171
     0
290
     0
174
     0
 93
        1
 44
0.0
173
     0
291
     0
 45
0.0
  0
VISUALSTYLE
  5
35
102
{ACAD_REACTORS
330
2A
102
}
330
2A
100
AcDbVisualStyle
  2
Dim
 70
    11
 71
     2
 72
     2
 73
     0
 90
        0
 40
-0.6
 41
-30.0
 62
     5
 63
     7
421
 16777215
 74
     1
 91
        4
 64
     7
 65
   257
 75
     1
175
     1
 42
1.0
 92
        8
 66
     7
 43
1.0
 76
     1
 77
     6
 78
     2
 67
     7
 79
     5
170
     0
171
     0
290
     0
174
     0
 93
        1
 44
-50.0
173
     0
291
     1
 45
0.0
  0
VISUALSTYLE
  5
39
102
{ACAD_REACTORS
330
2A
102
}
330
2A
100
AcDbVisualStyle
  2
Facepattern
 70
    15
 71
     2
 72
     2
 73
     0
 90
        0
 40
-0.6
 41
-30.0
 62
     5
 63
     7
421
 16777215
 74
     1
 91
        4
 64
     7
 65
   257
 75
     1
175
     1
 42
1.0
 92
        8
 66
     7
 43
1.0
 76
     1
 77
     6
 78
     2
 67
     7
 79
     5
170
     0
171
     0
290
     0
174
     0
 93
        1
 44
0.0
173
     0
291
     1
 45
0.0
  0
VISUALSTYLE
  5
2B
102
{ACAD_REACTORS
330
2A
102
}
330
2A
100
AcDbVisualStyle
  2
Flat
 70
     0
 71
     2
 72
     1
 73
     1
 90
        2
 40
-0.6
 41
30.0
 62
     5
 63
     7
421
 16777215
 74
     0
 91
        4
 64
     7
 65
   257
 75
     1
175
     1
 42
1.0
 92
        8
 66
     7
 43
1.0
 76
     1
 77
     6
 78
     2
 67
     7
 79
     5
170
     0
171
     0
290
     0
174
     0
 93
       13
 44
0.0
173
     0
291
     1
 45
0.0
  0
VISUALSTYLE
  5
2C
102
{ACAD_REACTORS
330
2A
102
}
330
2A
100
AcDbVisualStyle
  2
FlatWithEdges
 70
     1
 71
     2
 72
     1
 73
     1
 90
        2
 40
-0.6
 41
30.0
 62
     5
 63
     7
421
 16777215
 74
     1
 91
        4
 64
     7
 65
   257
 75
     1
175
     1
 42
1.0
 92
        0
 66
   257
 43
1.0
 76
     1
 77
     6
 78
     2
 67
     7
 79
     5
170
     0
171
     0
290
     0
174
     0
 93
       13
 44
0.0
173
     0
291
     1
 45
0.0
  0
VISUALSTYLE
  5
2D
102
{ACAD_REACTORS
330
2A
102
}
330
2A
100
AcDbVisualStyle
  2
Gouraud
 70
     2
 71
     2
 72
     2
 73
     1
 90
        2
 40
-0.6
 41
30.0
 62
     5
 63
     7
421
 16777215
 74
     0
 91
        4
 64
     7
 65
   257
 75
     1
175
     1
 42
1.0
 92
        0
 66
     7
 43
1.0
 76
     1
 77
     6
 78
     2
 67
     7
 79
     5
170
     0
171
     0
290
     0
174
     0
 93
       13
 44
0.0
173
     0
291
     1
 45
0.0
  0
VISUALSTYLE
  5
2E
102
{ACAD_REACTORS
330
2A
102
}
330
2A
100
AcDbVisualStyle
  2
GouraudWithEdges
 70
     3
 71
     2
 72
     2
 73
     1
 90
        2
 40
-0.6
 41
30.0
 62
     5
 63
     7
421
 16777215
 74
     1
 91
        4
 64
     7
 65
   257
 75
     1
175
     1
 42
1.0
 92
        0
 66
   257
 43
1.0
 76
     1
 77
     6
 78
     2
 67
     7
 79
     5
170
     0
171
     0
290
     0
174
     0
 93
       13
 44
0.0
173
     0
291
     1
 45
0.0
  0
VISUALSTYLE
  5
38
102
{ACAD_REACTORS
330
2A
102
}
330
2A
100
AcDbVisualStyle
  2
Linepattern
 70
    14
 71
     2
 72
     2
 73
     0
 90
        0
 40
-0.6
 41
-30.0
 62
     5
 63
     7
421
 16777215
 74
     1
 91
        4
 64
     7
 65
   257
 75
     7
175
     7
 42
1.0
 92
        8
 66
     7
 43
1.0
 76
     1
 77
     6
 78
     2
 67
     7
 79
     5
170
     0
171
     0
290
     0
174
     0
 93
        1
 44
0.0
173
     0
291
     1
 45
0.0
  0
VISUALSTYLE
  5
33
102
{ACAD_REACTORS
330
2A
102
}
330
2A
100
AcDbVisualStyle
  2
Realistic
 70
     8
 71
     2
 72
     2
 73
     0
 90
        0
 40
-0.6
 41
-30.0
 62
     5
 63
     7
421
 16777215
 74
     1
 91
        0
 64
     7
 65
   257
 75
     1
175
     1
 42
1.0
 92
        8
 66
     8
424
  7895160
 43
1.0
 76
     1
 77
     6
 78
     2
 67
     7
 79
     5
170
     0
171
     0
290
     0
174
     0
 93
       13
 44
0.0
173
     0
291
     0
 45
0.0
  0
VISUALSTYLE
  5
37
102
{ACAD_REACTORS
330
2A
102
}
330
2A
100
AcDbVisualStyle
  2
Thicken
 70
    13
 71
     2
 72
     2
 73
     0
 90
        0
 40
-0.6
 41
-30.0
 62
     5
 63
     7
421
 16777215
 74
     1
 91
        4
 64
     7
 65
   257
 75
     1
175
     1
 42
1.0
 92
       12
 66
     7
 43
1.0
 76
     1
 77
     6
 78
     2
 67
     7
 79
     5
170
     0
171
     0
290
     0
174
     0
 93
        1
 44
0.0
173
     0
291
     1
 45
0.0
  0
ENDSEC
  0
EOF
