  0
SECTION
  2
HEADER
  9
$ACADVER
  1
AC1018
  9
$ACADMAINTVER
 70
    39
  9
$DWGCODEPAGE
  3
ANSI_1250
  9
$LASTSAVEDBY
  1
Autodesk
  9
$INSBASE
 10
0.0
 20
0.0
 30
0.0
  9
$EXTMIN
 10
0.0
 20
0.0
 30
0.0
  9
$EXTMAX
 10
708.631989457115
 20
519.6634589352177
 30
0.0
  9
$LIMMIN
 10
0.0
 20
0.0
  9
$LIMMAX
 10
420.0
 20
297.0
  9
$ORTHOMODE
 70
     0
  9
$REGENMODE
 70
     1
  9
$FILLMODE
 70
     1
  9
$QTEXTMODE
 70
     0
  9
$MIRRTEXT
 70
     0
  9
$LTSCALE
 40
1.0
  9
$ATTMODE
 70
     1
  9
$TEXTSIZE
 40
2.5
  9
$TRACEWID
 40
1.0
  9
$TEXTSTYLE
  7
Standard
  9
$CLAYER
  8
vastag
  9
$CELTYPE
  6
ByLayer
  9
$CECOLOR
 62
   256
  9
$CELTSCALE
 40
1.0
  9
$DISPSILH
 70
     0
  9
$DIMSCALE
 40
1.0
  9
$DIMASZ
 40
2.5
  9
$DIMEXO
 40
0.625
  9
$DIMDLI
 40
3.75
  9
$DIMRND
 40
0.0
  9
$DIMDLE
 40
0.0
  9
$DIMEXE
 40
1.25
  9
$DIMTP
 40
0.0
  9
$DIMTM
 40
0.0
  9
$DIMTXT
 40
2.5
  9
$DIMCEN
 40
2.5
  9
$DIMTSZ
 40
0.0
  9
$DIMTOL
 70
     0
  9
$DIMLIM
 70
     0
  9
$DIMTIH
 70
     0
  9
$DIMTOH
 70
     0
  9
$DIMSE1
 70
     0
  9
$DIMSE2
 70
     0
  9
$DIMTAD
 70
     1
  9
$DIMZIN
 70
     8
  9
$DIMBLK
  1

  9
$DIMASO
 70
     1
  9
$DIMSHO
 70
     1
  9
$DIMPOST
  1

  9
$DIMAPOST
  1

  9
$DIMALT
 70
     0
  9
$DIMALTD
 70
     3
  9
$DIMALTF
 40
0.03937007874016
  9
$DIMLFAC
 40
1.0
  9
$DIMTOFL
 70
     1
  9
$DIMTVP
 40
0.0
  9
$DIMTIX
 70
     0
  9
$DIMSOXD
 70
     0
  9
$DIMSAH
 70
     0
  9
$DIMBLK1
  1

  9
$DIMBLK2
  1

  9
$DIMSTYLE
  2
ISO-25
  9
$DIMCLRD
 70
     0
  9
$DIMCLRE
 70
     0
  9
$DIMCLRT
 70
     0
  9
$DIMTFAC
 40
1.0
  9
$DIMGAP
 40
0.625
  9
$DIMJUST
 70
     0
  9
$DIMSD1
 70
     0
  9
$DIMSD2
 70
     0
  9
$DIMTOLJ
 70
     0
  9
$DIMTZIN
 70
     8
  9
$DIMALTZ
 70
     0
  9
$DIMALTTZ
 70
     0
  9
$DIMUPT
 70
     0
  9
$DIMDEC
 70
     2
  9
$DIMTDEC
 70
     2
  9
$DIMALTU
 70
     2
  9
$DIMALTTD
 70
     3
  9
$DIMTXSTY
  7
Standard
  9
$DIMAUNIT
 70
     0
  9
$DIMADEC
 70
     0
  9
$DIMALTRND
 40
0.0
  9
$DIMAZIN
 70
     0
  9
$DIMDSEP
 70
    44
  9
$DIMATFIT
 70
     3
  9
$DIMFRAC
 70
     0
  9
$DIMLDRBLK
  1

  9
$DIMLUNIT
 70
     2
  9
$DIMLWD
 70
    -2
  9
$DIMLWE
 70
    -2
  9
$DIMTMOVE
 70
     0
  9
$LUNITS
 70
     2
  9
$LUPREC
 70
     4
  9
$SKETCHINC
 40
1.0
  9
$FILLETRAD
 40
0.0
  9
$AUNITS
 70
     0
  9
$AUPREC
 70
     0
  9
$MENU
  1
.
  9
$ELEVATION
 40
0.0
  9
$PELEVATION
 40
0.0
  9
$THICKNESS
 40
0.0
  9
$LIMCHECK
 70
     0
  9
$CHAMFERA
 40
0.0
  9
$CHAMFERB
 40
0.0
  9
$CHAMFERC
 40
0.0
  9
$CHAMFERD
 40
0.0
  9
$SKPOLY
 70
     0
  9
$TDCREATE
 40
2455334.577354954
  9
$TDUCREATE
 40
2455334.494021621
  9
$TDUPDATE
 40
2455423.919819329
  9
$TDUUPDATE
 40
2455423.836485996
  9
$TDINDWG
 40
0.0235901157
  9
$TDUSRTIMER
 40
0.0235686111
  9
$USRTIMER
 70
     1
  9
$ANGBASE
 50
0.0
  9
$ANGDIR
 70
     0
  9
$PDMODE
 70
     0
  9
$PDSIZE
 40
0.0
  9
$PLINEWID
 40
0.0
  9
$SPLFRAME
 70
     0
  9
$SPLINETYPE
 70
     6
  9
$SPLINESEGS
 70
     8
  9
$HANDSEED
  5
165
  9
$SURFTAB1
 70
     6
  9
$SURFTAB2
 70
     6
  9
$SURFTYPE
 70
     6
  9
$SURFU
 70
     6
  9
$SURFV
 70
     6
  9
$UCSBASE
  2

  9
$UCSNAME
  2

  9
$UCSORG
 10
0.0
 20
0.0
 30
0.0
  9
$UCSXDIR
 10
1.0
 20
0.0
 30
0.0
  9
$UCSYDIR
 10
0.0
 20
1.0
 30
0.0
  9
$UCSORTHOREF
  2

  9
$UCSORTHOVIEW
 70
     0
  9
$UCSORGTOP
 10
0.0
 20
0.0
 30
0.0
  9
$UCSORGBOTTOM
 10
0.0
 20
0.0
 30
0.0
  9
$UCSORGLEFT
 10
0.0
 20
0.0
 30
0.0
  9
$UCSORGRIGHT
 10
0.0
 20
0.0
 30
0.0
  9
$UCSORGFRONT
 10
0.0
 20
0.0
 30
0.0
  9
$UCSORGBACK
 10
0.0
 20
0.0
 30
0.0
  9
$PUCSBASE
  2

  9
$PUCSNAME
  2

  9
$PUCSORG
 10
0.0
 20
0.0
 30
0.0
  9
$PUCSXDIR
 10
1.0
 20
0.0
 30
0.0
  9
$PUCSYDIR
 10
0.0
 20
1.0
 30
0.0
  9
$PUCSORTHOREF
  2

  9
$PUCSORTHOVIEW
 70
     0
  9
$PUCSORGTOP
 10
0.0
 20
0.0
 30
0.0
  9
$PUCSORGBOTTOM
 10
0.0
 20
0.0
 30
0.0
  9
$PUCSORGLEFT
 10
0.0
 20
0.0
 30
0.0
  9
$PUCSORGRIGHT
 10
0.0
 20
0.0
 30
0.0
  9
$PUCSORGFRONT
 10
0.0
 20
0.0
 30
0.0
  9
$PUCSORGBACK
 10
0.0
 20
0.0
 30
0.0
  9
$USERI1
 70
     0
  9
$USERI2
 70
     0
  9
$USERI3
 70
     0
  9
$USERI4
 70
     0
  9
$USERI5
 70
     0
  9
$USERR1
 40
0.0
  9
$USERR2
 40
0.0
  9
$USERR3
 40
0.0
  9
$USERR4
 40
0.0
  9
$USERR5
 40
0.0
  9
$WORLDVIEW
 70
     1
  9
$SHADEDGE
 70
     3
  9
$SHADEDIF
 70
    70
  9
$TILEMODE
 70
     1
  9
$MAXACTVP
 70
    64
  9
$PINSBASE
 10
0.0
 20
0.0
 30
0.0
  9
$PLIMCHECK
 70
     0
  9
$PEXTMIN
 10
0.0
 20
0.0
 30
0.0
  9
$PEXTMAX
 10
0.0
 20
0.0
 30
0.0
  9
$PLIMMIN
 10
0.0
 20
0.0
  9
$PLIMMAX
 10
12.0
 20
9.0
  9
$UNITMODE
 70
     0
  9
$VISRETAIN
 70
     1
  9
$PLINEGEN
 70
     0
  9
$PSLTSCALE
 70
     1
  9
$TREEDEPTH
 70
  3020
  9
$CMLSTYLE
  2
Standard
  9
$CMLJUST
 70
     0
  9
$CMLSCALE
 40
20.0
  9
$PROXYGRAPHICS
 70
     1
  9
$MEASUREMENT
 70
     1
  9
$CELWEIGHT
370
    -1
  9
$ENDCAPS
280
     0
  9
$JOINSTYLE
280
     0
  9
$LWDISPLAY
290
     0
  9
$INSUNITS
 70
     4
  9
$HYPERLINKBASE
  1

  9
$STYLESHEET
  1

  9
$XEDIT
290
     1
  9
$CEPSNTYPE
380
     0
  9
$PSTYLEMODE
290
     1
  9
$FINGERPRINTGUID
  2
{686F3FBB-8F84-4939-BB8C-A1608E1BE2E1}
  9
$VERSIONGUID
  2
{FD239E85-F232-4840-8BAA-B4A749FD26A3}
  9
$EXTNAMES
290
     1
  9
$PSVPSCALE
 40
0.0
  9
$OLESTARTUP
290
     0
  9
$SORTENTS
280
   127
  9
$INDEXCTL
280
     0
  9
$HIDETEXT
280
     1
  9
$XCLIPFRAME
290
     0
  9
$HALOGAP
280
     0
  9
$OBSCOLOR
 70
   257
  9
$OBSLTYPE
280
     0
  9
$INTERSECTIONDISPLAY
280
     0
  9
$INTERSECTIONCOLOR
 70
   257
  9
$DIMASSOC
280
     2
  9
$PROJECTNAME
  1

  0
ENDSEC
  0
SECTION
  2
CLASSES
  0
CLASS
  1
ACDBDICTIONARYWDFLT
  2
AcDbDictionaryWithDefault
  3
ObjectDBX Classes
 90
        0
 91
        1
280
     0
281
     0
  0
CLASS
  1
DICTIONARYVAR
  2
AcDbDictionaryVar
  3
ObjectDBX Classes
 90
        0
 91
        3
280
     0
281
     0
  0
CLASS
  1
TABLESTYLE
  2
AcDbTableStyle
  3
ObjectDBX Classes
 90
     2047
 91
        1
280
     0
281
     0
  0
CLASS
  1
RASTERVARIABLES
  2
AcDbRasterVariables
  3
ISM
 90
        0
 91
        1
280
     0
281
     0
  0
CLASS
  1
IMAGEDEF
  2
AcDbRasterImageDef
  3
ISM
 90
        0
 91
        2
280
     0
281
     0
  0
CLASS
  1
IMAGEDEF_REACTOR
  2
AcDbRasterImageDefReactor
  3
ISM
 90
        1
 91
        1
280
     0
281
     0
  0
CLASS
  1
IMAGE
  2
AcDbRasterImage
  3
ISM
 90
      127
 91
        1
280
     0
281
     1
  0
CLASS
  1
DIMASSOC
  2
AcDbDimAssoc
  3
"AcDbDimAssoc|Product Desc:     AcDim ARX App For Dimension|Company:          Autodesk, Inc.|WEB Address:      www.autodesk.com"
 90
        0
 91
        0
280
     0
281
     0
  0
CLASS
  1
SORTENTSTABLE
  2
AcDbSortentsTable
  3
ObjectDBX Classes
 90
        0
 91
        1
280
     0
281
     0
  0
ENDSEC
  0
SECTION
  2
TABLES
  0
TABLE
  2
VPORT
  5
8
330
0
100
AcDbSymbolTable
 70
     2
  0
VPORT
  5
164
330
8
100
AcDbSymbolTableRecord
100
AcDbViewportTableRecord
  2
*Active
 70
     0
 10
0.0
 20
0.0
 11
1.0
 21
1.0
 12
232.1032842549903
 22
204.9676421654391
 13
0.0
 23
0.0
 14
10.0
 24
10.0
 15
10.0
 25
10.0
 16
0.0
 26
0.0
 36
1.0
 17
0.0
 27
0.0
 37
0.0
 40
758.6202913566569
 41
2.159132007233273
 42
50.0
 43
0.0
 44
0.0
 50
0.0
 51
0.0
 71
     0
 72
  1000
 73
     1
 74
     3
 75
     0
 76
     0
 77
     0
 78
     0
281
     0
 65
     1
110
0.0
120
0.0
130
0.0
111
1.0
121
0.0
131
0.0
112
0.0
122
1.0
132
0.0
 79
     0
146
0.0
  0
ENDTAB
  0
TABLE
  2
LTYPE
  5
5
330
0
100
AcDbSymbolTable
 70
     1
  0
LTYPE
  5
14
330
5
100
AcDbSymbolTableRecord
100
AcDbLinetypeTableRecord
  2
ByBlock
 70
     0
  3

 72
    65
 73
     0
 40
0.0
  0
LTYPE
  5
15
330
5
100
AcDbSymbolTableRecord
100
AcDbLinetypeTableRecord
  2
ByLayer
 70
     0
  3

 72
    65
 73
     0
 40
0.0
  0
LTYPE
  5
16
330
5
100
AcDbSymbolTableRecord
100
AcDbLinetypeTableRecord
  2
Continuous
 70
     0
  3
Solid line
 72
    65
 73
     0
 40
0.0
  0
ENDTAB
  0
TABLE
  2
LAYER
  5
2
102
{ACAD_XDICTIONARY
360
F7
102
}
330
0
100
AcDbSymbolTable
 70
     3
  0
LAYER
  5
10
330
2
100
AcDbSymbolTableRecord
100
AcDbLayerTableRecord
  2
0
 70
     0
 62
     7
  6
Continuous
370
    -3
390
F
  0
LAYER
  5
F5
330
2
100
AcDbSymbolTableRecord
100
AcDbLayerTableRecord
  2
vastag
 70
     0
 62
   170
  6
Continuous
370
    70
390
F
1001
AcAecLayerStandard
1000

1000

  0
LAYER
  5
100
330
2
100
AcDbSymbolTableRecord
100
AcDbLayerTableRecord
  2
Defpoints
 70
     0
 62
     7
  6
Continuous
290
     0
370
    -3
390
F
  0
ENDTAB
  0
TABLE
  2
STYLE
  5
3
330
0
100
AcDbSymbolTable
 70
     1
  0
STYLE
  5
11
330
3
100
AcDbSymbolTableRecord
100
AcDbTextStyleTableRecord
  2
Standard
 70
     0
 40
0.0
 41
1.0
 50
0.0
 71
     0
 42
2.5
  3
txt
  4

  0
ENDTAB
  0
TABLE
  2
VIEW
  5
6
330
0
100
AcDbSymbolTable
 70
     0
  0
ENDTAB
  0
TABLE
  2
UCS
  5
7
330
0
100
AcDbSymbolTable
 70
     0
  0
ENDTAB
  0
TABLE
  2
APPID
  5
9
330
0
100
AcDbSymbolTable
 70
     3
  0
APPID
  5
12
330
9
100
AcDbSymbolTableRecord
100
AcDbRegAppTableRecord
  2
ACAD
 70
     0
  0
APPID
  5
9E
330
9
100
AcDbSymbolTableRecord
100
AcDbRegAppTableRecord
  2
ACAD_PSEXT
 70
     0
  0
APPID
  5
F6
330
9
100
AcDbSymbolTableRecord
100
AcDbRegAppTableRecord
  2
AcAecLayerStandard
 70
     0
  0
ENDTAB
  0
TABLE
  2
DIMSTYLE
  5
A
330
0
100
AcDbSymbolTable
 70
     1
100
AcDbDimStyleTable
 71
     1
340
27
  0
DIMSTYLE
105
27
330
A
100
AcDbSymbolTableRecord
100
AcDbDimStyleTableRecord
  2
ISO-25
 70
     0
 41
2.5
 42
0.625
 43
3.75
 44
1.25
 73
     0
 74
     0
 77
     1
 78
     8
140
2.5
141
2.5
143
0.03937007874016
147
0.625
171
     3
172
     1
271
     2
272
     2
274
     3
278
    44
283
     0
284
     8
340
11
  0
ENDTAB
  0
TABLE
  2
BLOCK_RECORD
  5
1
330
0
100
AcDbSymbolTable
 70
     4
  0
BLOCK_RECORD
  5
1F
102
{ACAD_XDICTIONARY
360
155
102
}
330
1
100
AcDbSymbolTableRecord
100
AcDbBlockTableRecord
  2
*Model_Space
340
22
  0
BLOCK_RECORD
  5
D2
330
1
100
AcDbSymbolTableRecord
100
AcDbBlockTableRecord
  2
*Paper_Space
340
D3
  0
BLOCK_RECORD
  5
D6
330
1
100
AcDbSymbolTableRecord
100
AcDbBlockTableRecord
  2
*Paper_Space0
340
D7
  0
BLOCK_RECORD
  5
101
330
1
100
AcDbSymbolTableRecord
100
AcDbBlockTableRecord
  2
*D1
340
0
  0
BLOCK_RECORD
  5
11D
330
1
100
AcDbSymbolTableRecord
100
AcDbBlockTableRecord
  2
*D2
340
0
  0
BLOCK_RECORD
  5
135
330
1
100
AcDbSymbolTableRecord
100
AcDbBlockTableRecord
  2
*D3
340
0
  0
ENDTAB
  0
ENDSEC
  0
SECTION
  2
BLOCKS
  0
BLOCK
  5
20
330
1F
100
AcDbEntity
  8
0
100
AcDbBlockBegin
  2
*Model_Space
 70
     0
 10
0.0
 20
0.0
 30
0.0
  3
*Model_Space
  1

  0
ENDBLK
  5
21
330
1F
100
AcDbEntity
  8
0
100
AcDbBlockEnd
  0
BLOCK
  5
D4
330
D2
100
AcDbEntity
 67
     1
  8
0
100
AcDbBlockBegin
  2
*Paper_Space
 70
     0
 10
0.0
 20
0.0
 30
0.0
  3
*Paper_Space
  1

  0
ENDBLK
  5
D5
330
D2
100
AcDbEntity
 67
     1
  8
0
100
AcDbBlockEnd
  0
BLOCK
  5
D8
330
D6
100
AcDbEntity
  8
0
100
AcDbBlockBegin
  2
*Paper_Space0
 70
     0
 10
0.0
 20
0.0
 30
0.0
  3
*Paper_Space0
  1

  0
ENDBLK
  5
D9
330
D6
100
AcDbEntity
  8
0
100
AcDbBlockEnd
  0
BLOCK
  5
10B
330
101
100
AcDbEntity
  8
0
100
AcDbBlockBegin
  2
*D1
 70
     1
 10
0.0
 20
0.0
 30
0.0
  3
*D1
  1

  0
LINE
  5
10E
330
101
100
AcDbEntity
  8
vastag
 62
     0
370
    -2
100
AcDbLine
 10
557.1494309747786
 20
739.9781413520022
 30
0.0
 11
1342.344103199071
 21
739.9781413520018
 31
0.0
  0
LINE
  5
10F
330
101
100
AcDbEntity
  8
vastag
 62
     0
370
    -2
100
AcDbLine
 10
553.474138695461
 20
95.79676481395743
 30
0.0
 11
1342.34410319907
 21
95.79676481395724
 31
0.0
  0
LINE
  5
110
330
101
100
AcDbEntity
  8
vastag
 62
     0
370
    -2
100
AcDbLine
 10
1341.094103199071
 20
737.4781413520017
 30
0.0
 11
1341.09410319907
 21
98.29676481395724
 31
0.0
  0
SOLID
  5
111
330
101
100
AcDbEntity
  8
vastag
 62
     0
100
AcDbTrace
 10
1340.677436532404
 20
737.4781413520017
 30
0.0
 11
1341.510769865738
 21
737.4781413520017
 31
0.0
 12
1341.094103199071
 22
739.9781413520018
 32
0.0
 13
1341.094103199071
 23
739.9781413520018
 33
0.0
  0
SOLID
  5
112
330
101
100
AcDbEntity
  8
vastag
 62
     0
100
AcDbTrace
 10
1340.677436532404
 20
98.29676481395724
 30
0.0
 11
1341.510769865737
 21
98.29676481395724
 31
0.0
 12
1341.09410319907
 22
95.79676481395724
 32
0.0
 13
1341.09410319907
 23
95.79676481395724
 33
0.0
  0
MTEXT
  5
113
330
101
100
AcDbEntity
  8
vastag
 62
     0
100
AcDbMText
 10
1339.010769865737
 20
417.8874530829799
 30
0.0
 40
2.5
 41
0.0
 71
     5
 72
     1
  1
644,18
 11
0.0000000000000001
 21
1.0
 31
0.0
 73
     1
 44
1.0
  0
POINT
  5
114
330
101
100
AcDbEntity
  8
Defpoints
 62
     0
100
AcDbPoint
 10
556.5244309747786
 20
739.9781413520022
 30
0.0
  0
POINT
  5
115
330
101
100
AcDbEntity
  8
Defpoints
 62
     0
100
AcDbPoint
 10
552.8491386954611
 20
95.79676481395743
 30
0.0
  0
POINT
  5
116
330
101
100
AcDbEntity
  8
Defpoints
 62
     0
100
AcDbPoint
 10
1341.09410319907
 20
95.79676481395724
 30
0.0
  0
ENDBLK
  5
10C
330
101
100
AcDbEntity
  8
0
100
AcDbBlockEnd
  0
BLOCK
  5
127
330
11D
100
AcDbEntity
  8
0
100
AcDbBlockBegin
  2
*D2
 70
     1
 10
0.0
 20
0.0
 30
0.0
  3
*D2
  1

  0
LINE
  5
12A
330
11D
100
AcDbEntity
  8
vastag
 62
     0
370
    -2
100
AcDbLine
 10
0.0000000000000307
 20
500.625
 30
0.0
 11
0.0000000000000527
 21
860.0871513652705
 31
0.0
  0
LINE
  5
12B
330
11D
100
AcDbEntity
  8
vastag
 62
     0
370
    -2
100
AcDbLine
 10
700.0
 20
500.625
 30
0.0
 11
700.0
 21
860.0871513652705
 31
0.0
  0
LINE
  5
12C
330
11D
100
AcDbEntity
  8
vastag
 62
     0
370
    -2
100
AcDbLine
 10
2.500000000000049
 20
858.8371513652704
 30
0.0
 11
697.5
 21
858.8371513652704
 31
0.0
  0
SOLID
  5
12D
330
11D
100
AcDbEntity
  8
vastag
 62
     0
100
AcDbTrace
 10
2.500000000000049
 20
859.2538180319371
 30
0.0
 11
2.500000000000049
 21
858.4204846986038
 31
0.0
 12
0.0000000000000526
 22
858.8371513652704
 32
0.0
 13
0.0000000000000526
 23
858.8371513652704
 33
0.0
  0
SOLID
  5
12E
330
11D
100
AcDbEntity
  8
vastag
 62
     0
100
AcDbTrace
 10
697.5
 20
859.2538180319371
 30
0.0
 11
697.5
 21
858.4204846986038
 31
0.0
 12
700.0
 22
858.8371513652704
 32
0.0
 13
700.0
 23
858.8371513652704
 33
0.0
  0
MTEXT
  5
12F
330
11D
100
AcDbEntity
  8
vastag
 62
     0
100
AcDbMText
 10
350.0
 20
860.7121513652705
 30
0.0
 40
2.5
 41
0.0
 71
     5
 72
     1
  1
700
 73
     1
 44
1.0
  0
POINT
  5
130
330
11D
100
AcDbEntity
  8
Defpoints
 62
     0
100
AcDbPoint
 10
0.0000000000000306
 20
500.0
 30
0.0
  0
POINT
  5
131
330
11D
100
AcDbEntity
  8
Defpoints
 62
     0
100
AcDbPoint
 10
700.0
 20
500.0
 30
0.0
  0
POINT
  5
132
330
11D
100
AcDbEntity
  8
Defpoints
 62
     0
100
AcDbPoint
 10
700.0
 20
858.8371513652704
 30
0.0
  0
ENDBLK
  5
128
330
11D
100
AcDbEntity
  8
0
100
AcDbBlockEnd
  0
BLOCK
  5
13F
330
135
100
AcDbEntity
  8
0
100
AcDbBlockBegin
  2
*D3
 70
     1
 10
0.0
 20
0.0
 30
0.0
  3
*D3
  1

  0
LINE
  5
142
330
135
100
AcDbEntity
  8
vastag
 62
     0
370
    -2
100
AcDbLine
 10
700.6249999999996
 20
-0.0000000000000002
 30
0.0
 11
1283.161083340203
 21
-0.0000000000001652
 31
0.0
  0
LINE
  5
143
330
135
100
AcDbEntity
  8
vastag
 62
     0
370
    -2
100
AcDbLine
 10
700.625
 20
500.0
 30
0.0
 11
1283.161083340203
 21
499.9999999999998
 31
0.0
  0
LINE
  5
144
330
135
100
AcDbEntity
  8
vastag
 62
     0
370
    -2
100
AcDbLine
 10
1281.911083340203
 20
2.499999999999833
 30
0.0
 11
1281.911083340203
 21
497.4999999999998
 31
0.0
  0
SOLID
  5
145
330
135
100
AcDbEntity
  8
vastag
 62
     0
100
AcDbTrace
 10
1281.494416673536
 20
2.499999999999833
 30
0.0
 11
1282.327750006869
 21
2.499999999999833
 31
0.0
 12
1281.911083340203
 22
-0.0000000000001648
 32
0.0
 13
1281.911083340203
 23
-0.0000000000001648
 33
0.0
  0
SOLID
  5
146
330
135
100
AcDbEntity
  8
vastag
 62
     0
100
AcDbTrace
 10
1281.494416673536
 20
497.4999999999998
 30
0.0
 11
1282.327750006869
 21
497.4999999999998
 31
0.0
 12
1281.911083340203
 22
499.9999999999998
 32
0.0
 13
1281.911083340203
 23
499.9999999999998
 33
0.0
  0
MTEXT
  5
147
330
135
100
AcDbEntity
  8
vastag
 62
     0
100
AcDbMText
 10
1280.036083340203
 20
250.0
 30
0.0
 40
2.5
 41
0.0
 71
     5
 72
     1
  1
500
 11
0.0000000000000001
 21
1.0
 31
0.0
 73
     1
 44
1.0
  0
POINT
  5
148
330
135
100
AcDbEntity
  8
Defpoints
 62
     0
100
AcDbPoint
 10
699.9999999999999
 20
0.0
 30
0.0
  0
POINT
  5
149
330
135
100
AcDbEntity
  8
Defpoints
 62
     0
100
AcDbPoint
 10
700.0
 20
500.0
 30
0.0
  0
POINT
  5
14A
330
135
100
AcDbEntity
  8
Defpoints
 62
     0
100
AcDbPoint
 10
1281.911083340203
 20
499.9999999999998
 30
0.0
  0
ENDBLK
  5
140
330
135
100
AcDbEntity
  8
0
100
AcDbBlockEnd
  0
ENDSEC
  0
SECTION
  2
ENTITIES
  0
LWPOLYLINE
  5
FC
330
1F
100
AcDbEntity
  8
vastag
100
AcDbPolyline
 90
     1022
 70
     1
 43
0.0
 10
12.70035107748614
 20
127.6742818697526
 10
14.38781833378415
 20
131.3269180766706
 10
14.38781833378415
 20
136.3844124931919
 10
17.48150628489606
 20
141.4419069097134
 10
19.731462626626
 20
144.2516270688811
 10
20.01270515057548
 20
147.3423192439655
 10
20.01270515057548
 20
149.3091233553829
 10
23.95012874860289
 20
151.5568976127367
 10
25.07510691946841
 20
153.8046737400709
 10
26.20008509033336
 20
153.8046737400709
 10
26.48133165181692
 20
151.8378696286536
 10
26.48133165181692
 20
149.8710673872163
 10
29.01253051749634
 20
147.6232912598824
 10
30.41875121231024
 20
146.4994031962153
 10
30.41875121231024
 20
143.127739005214
 10
32.66870755404075
 20
140.8799647478601
 10
35.19991045725422
 20
139.756076684193
 10
35.48115298120317
 20
138.3512166046094
 10
37.44986679898416
 20
135.8224684613585
 10
40.26231222614714
 20
135.8224684613585
 10
41.94977948244459
 20
136.9463565250254
 10
42.79351109182655
 20
138.0702445886925
 10
44.19973178664045
 20
139.4751046682765
 10
45.32470995750599
 20
139.1941326523596
 10
46.16844560442202
 20
138.0702445886925
 10
48.69964447010089
 20
137.7892725727757
 10
50.3871117263989
 20
137.5083005568591
 10
51.51208989726389
 20
136.3844124931919
 10
51.7933364587474
 20
134.979552413608
 10
53.19955715356131
 20
133.8556643499412
 10
54.60578188590982
 20
133.012748302191
 10
56.29324510467323
 20
132.1698322544404
 10
59.38693709331976
 20
132.1698322544404
 10
62.48062504443168
 20
132.1698322544404
 10
64.16809230072911
 20
133.5746923340244
 10
65.57431703307763
 20
133.2937203181075
 10
67.26178428937507
 20
133.5746923340244
 10
68.38676246024061
 20
135.5414964454417
 10
68.38676246024061
 20
136.6653845091088
 10
67.54302681332458
 20
137.5083005568591
 10
66.9805377278921
 20
138.6321886205262
 10
66.41804864245962
 20
139.756076684193
 10
66.13680611851015
 20
140.5989927319436
 10
65.01182794764516
 20
142.0038509415471
 10
64.73058138616159
 20
142.8467669892974
 10
64.73058138616159
 20
143.9706550529642
 10
64.73058138616159
 20
145.656487148465
 10
65.01182794764516
 20
146.4994031962153
 10
66.13680611851015
 20
147.9042632757989
 10
66.9805377278921
 20
147.9042632757989
 10
67.82427337480815
 20
147.9042632757989
 10
68.38676246024061
 20
147.9042632757989
 10
68.94925154567309
 20
148.4662073076326
 10
69.51173659357151
 20
149.3091233553829
 10
70.63671476443651
 20
149.3091233553829
 10
69.79298315505451
 20
152.1188416445702
 10
68.94925154567309
 20
153.2427297082372
 10
67.54302681332458
 20
153.2427297082372
 10
66.13680611851015
 20
153.2427297082372
 10
65.01182794764516
 20
154.3666177719043
 10
65.01182794764516
 20
155.2095338196546
 10
65.57431703307763
 20
156.8953659151551
 10
66.13680611851015
 20
157.4573099469889
 10
67.26178428937507
 20
157.4573099469889
 10
68.94925154567309
 20
158.5811980106559
 10
69.51173659357151
 20
159.7050860743228
 10
71.48045041135252
 20
159.9860580902396
 10
72.04293949678501
 20
159.9860580902396
 10
74.57413836246444
 20
159.9860580902396
 10
75.98036309481296
 20
159.9860580902396
 10
77.66783035111036
 20
161.9528603316766
 10
79.91778669284038
 20
163.0767483953437
 10
83.29271716790172
 20
163.0767483953437
 10
84.41769533876671
 20
163.0767483953437
 10
87.23014076592967
 20
163.9196644430939
 10
88.07387641284575
 20
166.448412586345
 10
88.07387641284575
 20
167.5723006500121
 10
88.35511893679464
 20
169.2581327455127
 10
89.19885458371068
 20
172.3488230506167
 10
90.04258619309212
 20
173.191739098367
 10
90.60507527852459
 20
175.4395152257012
 10
89.76134366914319
 20
176.8443753052849
 10
90.04258619309212
 20
178.8111794167022
 10
90.88632184000816
 20
179.6540954644525
 10
90.04258619309212
 20
182.1828417377232
 10
89.19885458371068
 20
183.5877018173071
 10
87.79262985136217
 20
185.2735339128076
 10
86.10516259506416
 20
185.835477944641
 10
84.41769533876671
 20
188.0832540719753
 10
84.98018442419919
 20
188.3642260878921
 10
85.26143098568274
 20
191.1739443770794
 10
86.94889824198019
 20
192.2978324407464
 10
88.35511893679464
 20
193.7026925203304
 10
88.91760802222718
 20
195.6694966317476
 10
91.44881092544059
 20
194.5456085680806
 10
94.54249887655256
 20
194.5456085680806
 10
95.94871957136698
 20
196.5124126794981
 10
97.63618682766448
 20
197.3553287272483
 10
100.1673897308779
 20
197.3553287272483
 10
102.9798351580409
 20
198.4792167909151
 10
104.1048133289058
 20
199.6031048545821
 10
106.6360121945853
 20
200.7269910482692
 10
110.0109467071808
 20
202.9747671756032
 10
112.5421455728602
 20
204.3796272551871
 10
112.8233921343437
 20
206.3464313666045
 10
114.7921019145901
 20
207.1893474143548
 10
117.6045473417531
 20
207.1893474143548
 10
119.0107720741016
 20
205.7844873347708
 10
121.541970939781
 20
205.7844873347708
 10
122.9481916345949
 20
205.7844873347708
 10
123.791927281511
 20
205.7844873347708
 10
124.0731698054605
 20
209.7180936876255
 10
124.0731698054605
 20
211.1229537672091
 10
122.666949110646
 20
214.775589974127
 10
122.666949110646
 20
215.6185060218773
 10
123.2294381960785
 20
217.3043381173781
 10
122.9481916345949
 20
220.676000438399
 10
120.416992768916
 20
222.0808605179827
 10
118.4482829886691
 20
224.6096086612334
 10
117.0420582563206
 20
225.1715526930671
 10
114.7921019145901
 20
226.5764127726508
 10
111.6984139634782
 20
227.4193288204011
 10
111.4171674019952
 20
230.2290471095886
 10
110.2921892311297
 20
233.8816833165065
 10
109.4715402051124
 20
236.8081407341673
 10
109.0749655150262
 20
239.5814635973045
 10
109.2732528600696
 20
242.7509754408893
 10
109.8681148951985
 20
245.5243001740066
 10
111.4544055804751
 20
248.4957175273674
 10
114.428707681053
 20
251.4671348807283
 10
116.015002403863
 20
254.2404577438654
 10
117.7995804341824
 20
257.4099714574305
 10
117.7995804341824
 20
260.3813888107917
 10
116.6098604014585
 20
261.76805024236
 10
116.2132857113723
 20
264.1451841250488
 10
116.2132857113723
 20
266.7204124979617
 10
116.4115730564152
 20
270.484209682199
 10
116.8081477465013
 20
274.2480049964564
 10
115.2218530236907
 20
276.823233369369
 10
115.6184277137769
 20
279.398461742282
 10
115.2218530236907
 20
282.3698809656232
 10
113.6355623384147
 20
284.7470148483121
 10
113.0407003032852
 20
287.9165266918971
 10
113.8338456459235
 20
289.1050936332413
 10
116.2132857113723
 20
289.5012826136896
 10
119.5841625020358
 20
290.2936605745858
 10
120.3773078446741
 20
291.6803220061542
 10
121.3687405323552
 20
291.6803220061542
 10
123.7481805978041
 20
292.0765109866025
 10
125.3344753206142
 20
293.2650797979271
 10
129.1019187262963
 20
296.2364971512881
 10
129.1019187262963
 20
298.2174420535287
 10
130.4899261040635
 20
300.3964814459934
 10
130.4899261040635
 20
301.9812373677859
 10
130.8865007941497
 20
304.5564657406986
 10
131.8779334818308
 20
306.7355070031437
 10
131.8779334818308
 20
310.301207827177
 10
133.0676535145552
 20
311.6878692587453
 10
131.4813587917446
 20
313.8669086512099
 10
129.1197202148485
 20
315.2444501889879
 10
128.3331681656568
 20
317.9161284044138
 10
128.3331681656568
 20
320.2734928556577
 10
126.4454472851318
 20
321.3735966402347
 10
126.7600681048081
 20
323.5738023394077
 10
128.1758577558187
 20
323.8881179735695
 10
130.3781994560205
 20
323.7309610914786
 10
132.737851566061
 20
324.5167492418933
 10
133.2097787580413
 20
326.2454824248138
 10
133.2097787580413
 20
328.2885312418961
 10
134.9401892287288
 20
330.1744231768874
 10
136.3559829172735
 20
331.9031563598077
 10
139.974114268486
 20
332.6889445102226
 10
141.5472143293342
 20
333.3175757785463
 10
143.120314390183
 20
330.0172662947967
 10
146.1092041020425
 20
331.1173682093928
 10
147.996924982568
 20
332.3746288760605
 10
148.7834770317592
 20
333.4747326606371
 10
151.6150563337806
 20
335.3606245956286
 10
152.4016083829717
 20
339.1324065956311
 10
154.7612564554775
 20
338.6609340793783
 10
157.9074606147097
 20
338.9752497135404
 10
159.9524919050734
 20
341.1754554127134
 10
161.9975191579025
 20
342.27555919729
 10
163.2560024366091
 20
342.5898748314522
 10
164.986412907296
 20
342.7470317135428
 10
166.4022025583067
 20
342.1184023151992
 10
168.2899234388318
 20
343.3756629818669
 10
168.2899234388318
 20
344.0042942501906
 10
169.8630234996805
 20
345.5758705510201
 10
170.8068859587104
 20
346.0473430672729
 10
170.964196368549
 20
347.4617606160312
 10
170.8068859587104
 20
348.7190212826989
 10
170.6495755488722
 20
350.2905975835283
 10
168.9191650781853
 20
351.2335444860141
 10
167.9753026191555
 20
353.90522270144
 10
167.9753026191555
 20
357.3626909372609
 10
166.5595129681448
 20
359.2485828722524
 10
165.3010337269728
 20
361.1344729372634
 10
165.2359446371672
 20
365.147416943154
 10
164.2162532472001
 20
366.2433787214263
 10
162.7969146035753
 20
367.4840938026396
 10
162.2646666497499
 20
370.6745026757738
 10
162.2646666497499
 20
375.1056285001016
 10
164.9259185314787
 20
378.2960373732355
 10
167.76458774366
 20
381.4864481163501
 10
167.4097571202878
 20
385.031347279828
 10
168.1194224045664
 20
388.0445119427806
 10
169.3613396802039
 20
391.2349208159146
 10
169.5387570106571
 20
395.1343102697363
 10
172.5548475908257
 20
398.5019652230325
 10
175.7483514639135
 20
402.5785988870357
 10
176.8128514090978
 20
405.237275129625
 10
178.5870206760949
 20
407.1869689215456
 10
182.3127765405421
 20
407.895949502233
 10
184.6191937613646
 20
408.2504397925771
 10
187.2804496806269
 20
407.5414592118896
 10
187.45786701108
 20
405.7690096301503
 10
190.2965362232614
 20
403.2875794677238
 10
192.6029574816179
 20
404.3510503387553
 10
195.7964613547057
 20
404.3510503387553
 10
198.9899652277934
 20
403.6420697580672
 10
200.231882503431
 20
402.9330891773801
 10
201.6512171095217
 20
404.3510503387553
 10
203.4253863765187
 20
404.5282945489371
 10
205.1995556435157
 20
405.0600290494626
 10
208.925311507963
 20
405.0600290494626
 10
209.2801461688693
 20
408.4276840027587
 10
211.409146059238
 20
410.0228893743163
 10
214.957484593232
 20
411.4408486657112
 10
219.2154924490388
 20
411.795338956055
 10
219.787106361899
 20
414.4213073736914
 10
220.2926823644023
 20
417.1992752678262
 10
222.8205543018514
 20
418.7145296328177
 10
226.8651542468109
 20
419.2196150444749
 10
230.1513922067826
 20
419.9772431619607
 10
230.9097541917711
 20
422.5026683502666
 10
231.6681161767589
 20
428.058602268556
 10
232.426478161747
 20
431.0891128685192
 10
233.6904161492387
 20
436.3925040809796
 10
236.7238640891917
 20
440.6857282100859
 10
241.5268260191392
 20
442.4535252809063
 10
244.8130639791108
 20
443.4636942342403
 10
247.8465119190631
 20
446.2416621283749
 10
248.352087921567
 20
449.2721727283384
 10
250.6271738765314
 20
449.7772562700151
 10
251.6383258815387
 20
453.8179376932928
 10
253.913411836503
 20
456.5959037174476
 10
256.94686381399
 20
458.1111599524192
 10
263.5193356963986
 20
457.1009891291048
 10
266.8055736563702
 20
457.1009891291048
 10
267.5639356413581
 20
458.1111599524192
 10
269.8390215963226
 20
458.6162453640766
 10
272.6196835537908
 20
458.6162453640766
 10
275.147559528774
 20
458.6162453640766
 10
276.1587074962471
 20
458.3637026582478
 10
276.4114975162657
 20
453.5653949874647
 10
276.4114975162657
 20
450.5348843875012
 10
277.4226454837383
 20
448.5145446108525
 10
279.6977354762374
 20
449.2721727283384
 10
281.7200314111831
 20
450.0297989758441
 10
283.2367594186936
 20
450.2823416816722
 10
283.9951214036816
 20
450.0297989758441
 10
287.2813593636532
 20
449.7772562700151
 10
288.0397213486411
 20
450.5348843875012
 10
288.2925073311258
 20
452.5552241641499
 10
288.7980833336296
 20
454.0704803991217
 10
291.073169288594
 20
456.5959037174476
 10
291.073169288594
 20
459.373871611582
 10
293.8538312460618
 20
460.8891278465539
 10
295.6233452360573
 20
460.3840424348966
 10
296.8872791860146
 20
461.8992967998881
 10
298.9095791584944
 20
462.6569249173739
 10
299.1623691785131
 20
463.4145511648795
 10
301.1846691509934
 20
465.1823501056801
 10
302.4486031009506
 20
465.687433647357
 10
303.9653311084612
 20
464.1721792823656
 10
308.51550301839
 20
464.1721792823656
 10
310.0322269883665
 20
465.687433647357
 10
312.5601029633496
 20
465.9399763531856
 10
313.3184649483382
 20
464.9298073998515
 10
314.8351889183147
 20
463.6670938707083
 10
317.868640895801
 20
463.6670938707083
 10
319.8909408682813
 20
463.6670938707083
 10
320.3965128332506
 20
460.6365851407254
 10
320.9020888357538
 20
459.8789570232391
 10
320.9020888357538
 20
456.8484464232759
 10
320.9020888357538
 20
453.3128522816356
 10
320.9020888357538
 20
449.7772562700151
 10
320.9020888357538
 20
446.4942048342036
 10
320.9020888357538
 20
442.4535252809063
 10
319.1325788832928
 20
437.4026749042941
 10
318.3742128607702
 20
435.8874205393026
 10
318.3742128607702
 20
434.8772497159881
 10
319.6381508482621
 20
431.8467391160249
 10
323.9355408132409
 20
431.5941982801763
 10
324.9466887807134
 20
433.614538056825
 10
327.7273507381817
 20
435.1297924218167
 10
331.2663746806379
 20
434.3721643043306
 10
331.7327987134222
 20
432.3242946781051
 10
334.139375046632
 20
432.3242946781051
 10
335.1421168677757
 20
434.1274792556085
 10
336.9470481082992
 20
437.1327843914743
 10
338.5514350221287
 20
441.3402138256625
 10
338.3508866579005
 20
445.1469345370828
 10
337.5486932009855
 20
449.955424250452
 10
336.3454030156136
 20
452.3596691071364
 10
338.1503382936717
 20
454.3632052410533
 10
341.5596524104907
 20
454.3632052410533
 10
345.5706156575305
 20
451.7586069579751
 10
349.9826715954932
 20
449.3543621012903
 10
353.1914413856179
 20
449.1540086748968
 10
353.7930864783043
 20
450.5564845296326
 10
356.4002111757428
 20
450.5564845296326
 10
358.4056907804952
 20
447.1504706709999
 10
362.416654027535
 20
448.1522396729485
 10
363.21884748445
 20
450.3561311032392
 10
365.8259721818887
 20
451.1575466787943
 10
368.4330968793271
 20
450.1557776768456
 10
368.8341936077847
 20
445.5476413898701
 10
372.644604453061
 20
442.943043106792
 10
375.2517331880343
 20
442.943043106792
 10
376.2544709716434
 20
440.1380913973201
 10
378.8615956690819
 20
440.1380913973201
 10
382.672010551893
 20
441.5405672520559
 10
383.6747523730368
 20
444.5458723879212
 10
386.4824254347041
 20
445.3472879634765
 10
387.2846148540844
 20
448.5529465257356
 10
387.0840664898557
 20
451.7586069579751
 10
390.2928362799806
 20
450.9571913824202
 10
393.9027027985629
 20
448.7533018221096
 10
395.3065373106295
 20
452.3596691071364
 10
397.913662008068
 20
453.5617915354785
 10
403.9301048598601
 20
450.1557776768456
 10
408.1416164711288
 20
450.7568379560266
 10
412.3531240448627
 20
451.9589603843688
 10
417.5673774772745
 20
450.7568379560266
 10
420.7761432298651
 20
448.5529465257356
 10
422.7816268721521
 20
447.3508240973933
 10
427.7953279028006
 20
447.3508240973933
 10
430.6030009644678
 20
446.3490569654251
 10
432.8090289334495
 20
444.3455189615279
 10
434.2128674830501
 20
441.7409206784498
 10
435.8172503593453
 20
439.3366758217648
 10
436.2183470878028
 20
436.5317241122934
 10
440.2293062973082
 20
434.5281861083958
 10
444.0397211801193
 20
433.3260636800535
 10
447.4490393344729
 20
431.3225256761564
 10
452.2621920008931
 20
429.3189895422395
 10
454.2676716056455
 20
429.5193429686332
 10
456.0726068837036
 20
426.7143893891811
 10
457.8775381242278
 20
426.3136825363936
 10
458.6797315811422
 20
427.5158049647362
 10
462.8912391548767
 20
425.3119135344451
 10
468.1054925872881
 20
423.1080221041541
 10
469.7098754635832
 20
421.7055462494184
 10
473.9213870748518
 20
421.5051928230247
 10
479.7372775248812
 20
420.3030703946823
 10
482.946047315006
 20
418.2995323907851
 10
483.1465956792349
 20
415.494580681313
 10
483.7482407719203
 20
410.4857375415503
 10
487.1575589262739
 20
407.6807858320787
 10
487.6259048253658
 20
405.4960299099199
 10
490.9746801534908
 20
407.5670704617063
 10
493.0477319316189
 20
407.0891390335913
 10
495.2802461253458
 20
405.6553410092851
 10
497.1938314503411
 20
402.3098116625773
 10
499.5858120972011
 20
399.7608378126954
 10
503.4129787096571
 20
399.7608378126954
 10
505.3265640346515
 20
400.3980822101557
 10
508.5158729096431
 20
399.9201489120602
 10
510.5889246877715
 20
397.3711750621784
 10
513.7782295252286
 20
396.8932436340634
 10
516.0107477564903
 20
397.0525547334283
 10
518.2432619502168
 20
397.3711750621784
 10
523.3461561502037
 20
395.459445609757
 10
524.7813421157993
 20
391.9546070336643
 10
525.7381367970638
 20
390.5208090093581
 10
529.0869080876539
 20
390.9987404374732
 10
531.3194263189155
 20
389.7242535125323
 10
531.7978216407807
 20
386.2194149364396
 10
535.4655258376374
 20
383.6704410865576
 10
538.8142971282278
 20
383.8297521859228
 10
538.1764353532295
 20
381.1214672366753
 10
538.1764353532295
 20
377.4573175612177
 10
540.5684160000896
 20
377.1386953624872
 10
541.8441395500861
 20
379.2097377842542
 10
542.8009342313506
 20
381.4400894354058
 10
546.4686384282074
 20
381.4400894354058
 10
548.0632908469366
 20
382.714576360347
 10
549.6579473031991
 20
379.8469803117346
 10
550.2958050406631
 20
375.2269659100662
 10
550.9336668156617
 20
370.9255718371476
 10
554.7608374656514
 20
369.3324627134761
 10
556.6744227906465
 20
371.0848829365128
 10
559.0664034375064
 20
373.7931678857598
 10
560.8205223093682
 20
371.0848829365128
 10
565.6044836030885
 20
366.7834888635943
 10
569.1127253843467
 20
363.7565835855968
 10
571.18577312494
 20
359.2958784133131
 10
571.983101353072
 20
357.5434581902768
 10
571.664168446806
 20
354.1979307135489
 10
572.6209631280702
 20
351.3303346649369
 10
574.8534773217967
 20
348.1441182875745
 10
577.2454579686572
 20
347.3475627907486
 10
577.8833197436557
 20
345.4358333383272
 10
576.2886673249271
 20
342.7275483890801
 10
575.9697344186606
 20
340.337885638563
 10
575.8102720030615
 20
338.2668450867768
 10
578.4099959002023
 20
335.4369291406621
 10
579.3135112793712
 20
335.4369291406621
 10
580.4429065127171
 20
334.7599495323838
 10
581.4593638377416
 20
332.7290088375682
 10
581.6852436919178
 20
330.6980662727725
 10
581.4593638377416
 20
328.8927854473829
 10
583.1534566877602
 20
327.9901459696783
 10
584.3957898294262
 20
329.3441070562157
 10
586.2028205877656
 20
329.3441070562157
 10
586.9933980586142
 20
327.8773150999752
 10
589.8168861419782
 20
325.959205274863
 10
590.0427659961542
 20
324.1539225794933
 10
591.9627387003485
 20
322.4614726238069
 10
592.8662540795182
 20
320.6561917984177
 10
594.2215291670396
 20
319.4150597116034
 10
596.2544397795546
 20
319.1893998421774
 10
597.6097148670763
 20
318.6252492336217
 10
599.0779278629186
 20
318.1739294947694
 10
599.8685012962329
 20
316.9327992779354
 10
599.9814432420882
 20
316.1429887999539
 10
601.2237763837547
 20
315.5788381913985
 10
603.3696289421251
 20
314.1120481051385
 10
604.2731443212942
 20
311.8554456709165
 10
604.2731443212942
 20
309.3731852372486
 10
604.2731443212942
 20
308.1320531504346
 10
606.3060549338096
 20
307.2294136727299
 10
606.8707525504822
 20
307.455073542156
 10
611.3883334838649
 20
305.4241328473403
 10
610.5977560130159
 20
303.5060211522477
 10
609.1295430171732
 20
302.377719935137
 10
609.0166051088522
 20
299.8954595014691
 10
609.1295430171732
 20
297.7516879369501
 10
610.033058396343
 20
296.0592361112838
 10
611.0495157213681
 20
294.2539552858944
 10
611.0495157213681
 20
292.8999941993571
 10
609.9201204880222
 20
291.4332041130972
 10
608.000147783828
 20
291.3203732433938
 10
605.4895322678062
 20
289.1741426548165
 10
604.681278471967
 20
286.4287516870152
 10
604.1963302319982
 20
284.0063474519007
 10
605.6511789894392
 20
281.422449850443
 10
607.9142855802545
 20
280.1305010497141
 10
609.2074876160627
 20
279.8075143170271
 10
611.7938916876795
 20
278.3540721499546
 10
613.7336927226246
 20
277.8695901809436
 10
615.3501962767683
 20
277.5466034482564
 10
616.3200967942407
 20
276.0931612811841
 10
616.966699830912
 20
275.4471859458293
 10
619.7147546616962
 20
274.9627058467988
 10
622.4628094924802
 20
275.9316679148405
 10
623.5943607691206
 20
277.223616715569
 10
624.5642612865935
 20
276.9006299828823
 10
626.6657130807062
 20
276.5776413802147
 10
627.6356176357129
 20
276.0931612811841
 10
627.797264357347
 20
274.4782257477679
 10
628.2822166348504
 20
274.1552371451006
 10
630.3836684289632
 20
273.5092636797261
 10
631.6768704647714
 20
273.6707570460698
 10
632.6467750197783
 20
273.0247817107153
 10
633.4550247780829
 20
270.7638727119248
 10
635.2331790913946
 20
271.4098461772993
 10
635.3948298505622
 20
271.8943262763299
 10
636.041428849699
 20
273.1862769470392
 10
636.2030796088671
 20
272.5403016116843
 10
636.3647303680351
 20
271.5713395436428
 10
637.6579324038432
 20
269.9564040102266
 10
639.5977334387882
 20
269.9564040102266
 10
641.5375385112676
 20
269.1489353085285
 10
642.6690897879084
 20
268.3414684768107
 10
642.9923913062435
 20
267.0495196760817
 10
643.6389903053806
 20
266.08055760804
 10
644.44724410122
 20
264.6271154409677
 10
647.1952948944696
 20
261.7202292368424
 10
647.8418979311409
 20
258.3288648036669
 10
650.2666512435896
 20
256.7139274002705
 10
653.4996583518775
 20
253.645549699782
 10
656.409359904295
 20
252.8380809980839
 10
658.5108157359417
 20
249.7697032975953
 10
660.1273152525521
 20
246.5398303607831
 10
662.0671203250309
 20
245.0863881937105
 10
663.3603223608397
 20
244.2789194920123
 10
663.5219731200071
 20
241.6950218905546
 10
664.8151751558152
 20
240.7260598225128
 10
666.9166269499286
 20
239.4341110217841
 10
668.2948311945128
 20
235.9481424166247
 10
668.2948311945128
 20
233.693694199677
 10
667.0639363874047
 20
231.0293481769008
 10
666.6536421559031
 20
228.7749018299336
 10
666.0381967711161
 20
226.1105558071573
 10
666.0381967711161
 20
222.2165107569554
 10
667.6793858097253
 20
220.576912053721
 10
669.5257219640857
 20
219.1422631883906
 10
672.6029488880199
 20
220.1670123779123
 10
673.8338396575932
 20
217.7076161930405
 10
675.2698815804523
 20
215.6581178139971
 10
677.1162177348123
 20
214.4284206565514
 10
677.3213648505633
 20
211.354174957967
 10
677.3213648505633
 20
208.484877227306
 10
677.1162177348123
 20
205.2056816908172
 10
679.7831463897105
 20
202.7462855059455
 10
680.6037429277822
 20
202.7462855059455
 10
683.4758227359652
 20
201.9264861543281
 10
684.0912681207517
 20
199.6720398073605
 10
686.75819677565
 20
198.8522404557435
 10
688.6045329300101
 20
195.7779947571586
 10
690.6560202376557
 20
192.7037490585739
 10
691.2714656224423
 20
189.629501490009
 10
690.4508690843705
 20
186.5552557914243
 10
690.0405748528688
 20
184.5057592823613
 10
690.8611673534062
 20
181.6364634216809
 10
690.4508690843705
 20
178.7671656910204
 10
689.4251294680818
 20
176.3077695061487
 10
688.3993858142596
 20
174.2582729970856
 10
686.75819677565
 20
171.7988749422335
 10
686.75819677565
 20
169.954328271075
 10
689.4251294680818
 20
169.3394787573618
 10
689.8354236995842
 20
167.4949320862032
 10
689.6302765838327
 20
165.2404838692556
 10
689.6302765838327
 20
162.9860375222881
 10
688.8096840832953
 20
160.9365391432449
 10
688.8096840832953
 20
159.5018921478948
 10
688.3993858142596
 20
156.4276464493102
 10
687.1684950446856
 20
157.2474439309472
 10
686.1427513908635
 20
155.1979474218841
 10
684.7067135055389
 20
153.1484490428407
 10
681.4243354283202
 20
152.9435010749166
 10
678.5522556201366
 20
152.9435010749166
 10
676.911066581527
 20
152.7385512370124
 10
676.2956211967402
 20
150.2791531821603
 10
674.859583311416
 20
147.2049074835757
 10
673.4235413885576
 20
146.1801582940541
 10
672.4773533097938
 20
144.7101125721389
 10
671.4446327967697
 20
143.3344858941607
 10
670.0676680752036
 20
141.5003138735557
 10
668.9202008385104
 20
141.8442219455354
 10
667.7727295642827
 20
143.3344858941607
 10
667.1989959459363
 20
144.02230016814
 10
665.3630483672266
 20
144.02230016814
 10
663.9860836456604
 20
143.7930274968266
 10
662.8386164089672
 20
143.3344858941607
 10
662.6091229616287
 20
141.8442219455354
 10
662.3796295142898
 20
140.4685933975768
 10
661.9206426196122
 20
139.5515083222645
 10
661.3469049637314
 20
138.7490586476186
 10
660.773171345385
 20
137.9466089729729
 10
660.3141844507076
 20
137.0295238976606
 10
659.7404508323608
 20
136.3417096236813
 10
659.0519704903447
 20
136.8002512263472
 10
658.2487393871255
 20
137.8319735723062
 10
656.6422852557548
 20
139.7807791235975
 10
656.0685516374081
 20
140.3539579969104
 10
654.9210803631801
 20
140.3539579969104
 10
654.2326000211645
 20
140.3539579969104
 10
652.9703860608016
 20
140.1246871955772
 10
652.0524122714472
 20
140.2393225962438
 10
650.6754475498811
 20
142.6466716201814
 10
649.4132335895183
 20
142.8759424215143
 10
648.6100024862984
 20
142.3027635482014
 10
648.036268867952
 20
141.5003138735557
 10
646.6593081839199
 20
141.0417722708896
 10
645.397090186023
 20
141.0417722708896
 10
644.9381032913457
 20
141.3856784728891
 10
644.3643696729987
 20
141.8442219455354
 10
643.5611426073136
 20
142.417398948868
 10
642.0694311620784
 20
142.417398948868
 10
640.9219639253842
 20
142.188128147535
 10
640.1187368596992
 20
140.9271368702231
 10
640.1187368596992
 20
138.9783294489518
 10
639.6597499650225
 20
137.7173363016595
 10
639.3155097940137
 20
137.1441592983269
 10
637.2500647304317
 20
136.3417096236813
 10
636.1025974937382
 20
135.9978015517013
 10
635.5288598378575
 20
135.1953518770556
 10
635.4141131141882
 20
134.1636314010766
 10
635.1846196668494
 20
133.017273654451
 10
634.9551262195107
 20
132.2148239798053
 10
633.5781655354791
 20
131.2977389044931
 10
631.9717073665737
 20
131.1831035038264
 10
631.0537335772194
 20
131.1831035038264
 10
629.2177819609759
 20
132.6733674524517
 10
629.2177819609759
 20
133.361181726431
 10
628.644048342629
 20
134.0489960004104
 10
627.7260745532742
 20
134.5075376030763
 10
627.2670876585972
 20
134.7368102743896
 10
626.6933540402503
 20
136.5709804250142
 10
626.1196163843695
 20
138.8636940482852
 10
625.6606294896921
 20
140.2393225962438
 10
625.0868958713457
 20
141.3856784728891
 10
623.3656950163056
 20
142.417398948868
 10
621.4149966763925
 20
143.449121294827
 10
620.3822761633687
 20
144.251570969473
 10
619.0053114418026
 20
144.9393852434523
 10
617.0546171394239
 20
145.3979268461182
 10
615.9071458651957
 20
145.3979268461182
 10
614.8744253521725
 20
145.6271995174316
 10
613.4974606306062
 20
145.8564703187646
 10
610.7435392625417
 20
145.9711057194312
 10
608.448600751621
 20
145.9711057194312
 10
604.8914482803374
 20
145.9711057194312
 10
602.9407499404243
 20
145.8564703187646
 10
600.4163179821647
 20
145.8564703187646
 10
594.9084712085022
 20
145.7418349180979
 10
593.6462532106054
 20
145.7418349180979
 10
591.4660654608885
 20
145.0540206441186
 10
591.0070745286767
 20
145.0540206441186
 10
589.2858736736371
 20
145.9711057194312
 10
586.8761884390464
 20
144.9393852434523
 10
585.0402368228027
 20
144.3662063701393
 10
582.8600490730857
 20
143.2198504934941
 10
582.0568220074005
 20
142.8759424215143
 10
579.1881498781324
 20
143.3344858941607
 10
577.6964384328972
 20
142.9905778221806
 10
575.8604908541879
 20
142.5320362195147
 10
574.4835261326215
 20
141.9588573462021
 10
572.8770720012509
 20
140.9271368702231
 10
569.8936531483139
 20
139.3222375209315
 10
568.2871949794095
 20
137.7173363016595
 10
566.7954875717075
 20
136.9148866270139
 10
562.3102351751453
 20
134.5500478646189
 10
561.2749306401946
 20
134.9379116928923
 10
560.2396220677103
 20
135.713639349439
 10
558.945487361488
 20
136.6186555720705
 10
555.8395656815682
 20
137.3943850985977
 10
555.1924983284573
 20
136.489368875966
 10
554.8042571090834
 20
135.9722164816083
 10
554.8042571090834
 20
134.4207592985344
 10
554.1571897559728
 20
133.9036069041766
 10
552.6042289160126
 20
133.257167813714
 10
550.5336158085778
 20
132.3521515910828
 10
548.7218288348798
 20
132.4814401571673
 10
547.4276941286579
 20
132.7400154193562
 10
545.4864920693247
 20
132.7400154193562
 10
544.5805985824756
 20
131.834999196725
 10
543.5452900099914
 20
131.059271540178
 10
540.5687834157069
 20
129.378527661
 10
539.9217160625964
 20
128.4735114383685
 10
539.5334748432225
 20
132.3521515910828
 10
539.5334748432225
 20
133.5157430759029
 10
538.4981662707383
 20
136.2307917437972
 10
537.2040315645157
 20
136.489368875966
 10
535.9098968582935
 20
136.2307917437972
 10
534.6157621520712
 20
135.4550640872504
 10
533.4510425314852
 20
135.3257755211656
 10
532.5451490446363
 20
133.6450316419877
 10
532.5451490446363
 20
131.9642877628094
 10
532.6745641302725
 20
128.2149343061995
 10
532.6745641302725
 20
125.62917420439
 10
532.2863229108985
 20
122.9141255364957
 10
531.6392555577873
 20
120.4576540007707
 10
528.0156775728584
 20
118.3890444233391
 10
525.8156493797875
 20
117.2254529385189
 10
524.7803448448371
 20
118.7769101215928
 10
522.4509015661301
 20
120.3283654346863
 10
521.2861819455437
 20
120.3283654346863
 10
519.4743909343118
 20
118.9061968176969
 10
519.0861537524726
 20
117.8718938989613
 10
518.0508451799876
 20
116.8375891102453
 10
515.9802320725527
 20
116.4497252819719
 10
510.674278162028
 20
116.4497252819719
 10
508.9919062739665
 20
116.1911481498029
 10
507.1801193002686
 20
115.6739976254252
 10
504.7212609359261
 20
115.4154204932562
 10
502.5212327428552
 20
115.4154204932562
 10
500.3212045497844
 20
114.6396928367092
 10
498.5094175760866
 20
113.9932518762668
 10
494.6270134574199
 20
113.9932518762668
 10
491.1328505581264
 20
113.6053880479934
 10
490.0975460231761
 20
113.3468127858046
 10
489.0622374506916
 20
113.0882356536353
 10
486.8622092576209
 20
112.7003718253619
 10
483.8856986258025
 20
112.5710851292579
 10
481.1680181652563
 20
109.985323157468
 10
479.6150573252965
 20
109.0803088048168
 10
478.7091638384477
 20
108.1752925821853
 10
477.2856140465896
 20
107.2702763595541
 10
476.3797205597409
 20
105.8481077425647
 10
475.7326532066294
 20
104.4259391255754
 10
477.1562029984877
 20
103.7795000351131
 10
478.3209226190741
 20
101.8401790237659
 10
480.6503658977812
 20
101.323026629408
 10
481.2974332508924
 20
101.1937380633235
 10
481.2974332508924
 20
99.51299418414532
 10
480.6503658977812
 20
98.3494026993252
 10
479.7444724109323
 20
97.57367504277821
 10
478.7091638384477
 20
96.41008168797769
 10
477.5444442178613
 20
95.24649020315758
 10
476.2503095116393
 20
93.43645775789486
 10
475.7326532066294
 20
92.40215296917879
 10
474.8267597197814
 20
89.55781760518048
 10
474.4385185004075
 20
88.26493755427589
 10
473.7914551848303
 20
86.713480371202
 10
473.1443878317196
 20
84.64487266375043
 10
472.6640343057378
 20
82.69634760950022
 10
472.2261677527749
 20
81.38402911365913
 10
472.2261677527749
 20
80.21752419957383
 10
472.2261677527749
 20
79.05101928548852
 10
471.7883052373456
 20
78.46776682844577
 10
469.4530317591676
 20
77.15544833260486
 10
469.4530317591676
 20
72.1977996427719
 10
469.4530317591676
 20
71.46873360397356
 10
469.4530317591676
 20
69.86478794462097
 10
469.5989845851324
 20
69.28153548757847
 10
470.1828039640608
 20
69.13572190582261
 10
470.4747136535244
 20
68.84409661229155
 10
470.4747136535244
 20
67.677591698206
 10
468.5773026907756
 20
66.65689849589617
 10
467.5556207964182
 20
66.36527320236513
 10
465.9501195231326
 20
65.49039358181089
 10
464.7824848028109
 20
63.88644792245859
 10
462.4472113246326
 20
63.44900904717167
 10
461.4255253927407
 20
62.86575659012889
 10
461.4255253927407
 20
60.09530601669101
 10
460.987662877312
 20
59.51205355964852
 10
459.6740712934907
 20
58.34554677558284
 10
458.2145268837049
 20
54.55440486981554
 10
457.4847506412773
 20
53.67952524926133
 10
456.7549784363841
 20
50.47163580053652
 10
456.1711590574561
 20
48.86769014118423
 10
454.2737521322412
 20
47.55537164534307
 10
452.8142036849208
 20
47.84699880885454
 10
451.5006121010991
 20
48.28443768414143
 10
449.7491580018492
 20
49.74256976173816
 10
449.1653386229208
 20
51.63814071462208
 10
448.2896135920632
 20
52.95045921046297
 10
447.4138845236709
 20
54.70021845157114
 10
446.8300651447428
 20
59.0746128143812
 10
446.1002929398498
 20
60.24111959844688
 10
443.1812000827428
 20
59.51205355964852
 10
442.7433375673141
 20
59.22042639613707
 10
441.1378362940287
 20
59.94949243493543
 10
438.2187434369223
 20
61.11599734902071
 10
435.2996505798158
 20
61.40762451253213
 10
434.132015859494
 20
61.40762451253213
 10
429.1695551761387
 20
61.26181093077629
 10
427.7100107663525
 20
61.84506338781908
 10
424.3530553938168
 20
62.86575659012889
 10
423.3313734994601
 20
63.44900904717167
 10
423.3313734994601
 20
65.05295283654387
 10
422.8935069464966
 20
66.36527320236513
 10
421.7258722261743
 20
67.96921699173733
 10
420.4122806423534
 20
69.42734906933407
 10
418.8067793690683
 20
71.3229200222177
 10
415.1579143070687
 20
69.71897623284551
 10
414.7200517916393
 20
69.13572190582261
 10
413.5524130337833
 20
68.84409661229155
 10
411.8009589345327
 20
69.42734906933407
 10
410.4873673507118
 20
72.3436132245275
 10
410.1954576612475
 20
73.36430455685721
 10
408.589956387962
 20
74.67662305269837
 10
406.4006357357488
 20
74.384997759167
 10
405.0870441519277
 20
73.5101181386128
 10
404.5032247729992
 20
72.48942680628338
 10
404.2113191210696
 20
70.01060152637683
 10
403.3355900526774
 20
69.28153548757847
 10
401.5841359534272
 20
68.98991019404714
 10
399.3948153012136
 20
68.69828303053568
 10
397.0595418230357
 20
67.677591698206
 10
396.6216793076064
 20
66.21945962060927
 10
395.7459502392142
 20
65.34458000005532
 10
394.5783114813581
 20
65.19876641829944
 10
392.3889948666788
 20
65.05295283654387
 10
390.7834935933935
 20
65.63620716356675
 10
388.0103535622516
 20
65.05295283654387
 10
386.4048522889662
 20
64.76132754301253
 10
383.3398066058953
 20
63.01156830190436
 10
382.6100344010022
 20
62.13669055133053
 10
380.8585803017517
 20
61.84506338781908
 10
376.0420764818956
 20
61.11599734902071
 10
374.8744377240397
 20
60.38693131022235
 10
370.2650028862422
 20
64.31129248060774
 10
368.9481207119994
 20
66.28469949236848
 10
368.1250733906316
 20
67.43585373839407
 10
367.4666323035099
 20
68.75145778957436
 10
367.4666323035099
 20
72.36936846282545
 10
366.8081912163883
 20
74.67167695487645
 10
365.820529585706
 20
75.16502824032158
 10
364.6682617207777
 20
75.16502824032158
 10
363.1867692747542
 20
75.16502824032158
 10
361.2114500509238
 20
75.3294780454765
 10
359.5653473331195
 20
74.34277547458648
 10
358.413079468191
 20
73.52052270885109
 10
356.9315870221675
 20
73.02717142340593
 10
355.2854883418984
 20
72.20491865767055
 10
353.4747793898481
 20
71.21821608678023
 10
353.1455588462871
 20
70.72486293135495
 10
350.6764047695814
 20
70.56041312620005
 10
348.8656958175313
 20
66.12024781723346
 10
348.3718650021901
 20
65.13354524634312
 10
347.2195971372617
 20
63.98239100031751
 10
347.2195971372617
 20
62.17343566369208
 10
347.2195971372617
 20
60.03557884677618
 10
345.0796636041164
 20
59.37777775617608
 10
343.5981751956274
 20
59.7066773664862
 10
342.9397341085058
 20
62.00898585853718
 10
341.4582457000163
 20
62.83123862427228
 10
339.482922438652
 20
61.84453418340186
 10
339.3183121668717
 20
61.51563457309201
 10
337.5076032148216
 20
62.33788733882713
 10
336.8491621277
 20
62.33788733882713
 10
335.2030634474303
 20
62.00898585853718
 10
333.2277401860653
 20
61.02228141766646
 10
332.0754723211368
 20
60.85783161251153
 10
330.7585901468942
 20
59.7066773664862
 10
327.4663887488206
 20
58.22662351015075
 10
326.4787311556725
 20
59.7066773664862
 10
328.2894401077225
 20
60.20003052191146
 10
328.4540503795028
 20
60.69338180735663
 10
327.4663887488206
 20
62.33788733882713
 10
324.8326284378686
 20
62.17343566369208
 10
322.5280886704772
 20
63.32458990971742
 10
321.0466002619877
 20
65.13354524634312
 10
318.577446185282
 20
67.10695225810386
 10
317.0959577767931
 20
67.10695225810386
 10
315.1206385529622
 20
67.92920502383926
 10
314.2975871940603
 20
69.40925888017439
 10
313.8037563787195
 20
70.8893146064903
 10
315.1206385529622
 20
75.00057656518655
 10
315.4498550589886
 20
77.46733486239242
 10
316.6021269614517
 20
80.26299463988854
 10
315.285248824743
 20
81.24969721077858
 10
312.980705019817
 20
82.40085145680419
 10
311.4992166113281
 20
83.3875540276945
 10
310.0177241653046
 20
84.70315807887473
 10
307.0547433107915
 20
85.52541084461012
 10
304.2563727280593
 20
85.52541084461012
 10
301.6226124171073
 20
85.52541084461012
 10
300.9641713299856
 20
85.68986251974548
 10
298.495021290814
 20
84.37425846856495
 10
296.3550917952034
 20
82.89420274224935
 10
295.0382096209601
 20
81.41414888591389
 10
293.3921109406903
 20
80.09854296475323
 10
292.5690595817885
 20
79.93409315959829
 10
290.4291300861778
 20
79.93409315959829
 10
288.7830314059081
 20
79.93409315959829
 10
286.8077081445438
 20
79.93409315959829
 10
283.0216799686628
 20
80.42744444504345
 10
280.3879156201769
 20
79.93409315959829
 10
277.7541553092249
 20
79.27629206899827
 10
274.7911744547118
 20
78.61848910841778
 10
271.1697565506118
 20
76.80953377179233
 10
269.0298230174672
 20
76.80953377179233
 10
266.7252832500757
 20
76.80953377179233
 10
264.0915229391238
 20
77.79623634268239
 10
260.9639318128304
 20
79.93409315959829
 10
260.4701009974891
 20
81.41414888591389
 10
260.7993215410502
 20
82.89420274224935
 10
261.2931523563916
 20
86.84101489579068
 10
260.3054907257089
 20
88.1566189469709
 10
259.1532228607804
 20
88.6499721023965
 10
258.3301715018785
 20
91.93898129535737
 10
255.3671906473661
 20
94.73464107285343
 10
253.2272611517549
 20
95.22799235829864
 10
250.2642802972423
 20
95.5568938385889
 10
248.2889570358775
 20
96.379146604324
 10
245.6551967249255
 20
93.25458721651804
 10
244.8321494035576
 20
93.91238830711813
 10
242.8568261421933
 20
95.39244403343369
 10
240.8815069183624
 20
96.87249788976915
 10
238.0831363356302
 20
97.69475065550452
 10
236.2724233460461
 20
97.36584917521426
 10
233.6386630350942
 20
97.36584917521426
 10
232.1571746266047
 20
99.17480451183999
 10
228.3711424131903
 20
98.5170034212399
 10
228.3711424131903
 20
98.02365213579477
 10
224.9143307433359
 20
97.36584917521426
 10
223.5974526066272
 20
97.03694769492408
 10
222.2805704323839
 20
98.18810194094972
 10
218.6591484907498
 20
100.3259587578653
 10
217.6714908976016
 20
100.3259587578653
 10
213.8854586841867
 20
98.84590490152987
 10
213.2270175970656
 20
98.18810194094972
 10
211.9101394603563
 20
96.87249788976915
 10
211.5809189167958
 20
96.379146604324
 10
211.2516983732348
 20
95.88579531887884
 10
208.0691402555262
 20
94.42734534463587
 10
206.6101166876595
 20
94.42734534463587
 10
203.0667846961481
 20
96.09318174107883
 10
201.81619479692
 20
96.92610087429043
 10
199.9403119668446
 20
98.80016518405597
 10
198.8981516987207
 20
99.84131410057074
 10
198.0644250992354
 20
100.2577717971962
 10
195.7716789694179
 20
100.0495420138933
 10
194.5210931077239
 20
99.42485453396486
 10
190.1440304791925
 20
99.42485453396486
 10
188.6850109488604
 20
99.42485453396486
 10
187.0175577498897
 20
100.0495420138933
 10
185.9754015192998
 20
101.2989207137108
 10
185.3501045509185
 20
102.1318379769422
 10
183.8910850205864
 20
102.5482975435478
 10
182.2236318216156
 20
102.5482975435478
 10
177.6381395619802
 20
103.1729850234763
 10
177.2212762622375
 20
104.0059041566878
 10
176.5959833313903
 20
104.4223637232938
 10
175.9706863630095
 20
104.4223637232938
 10
173.6779402331915
 20
104.4223637232938
 10
172.8442176712402
 20
102.9647571101537
 10
170.3430378727841
 20
102.9647571101537
 10
169.7177449419374
 20
103.1729850234763
 10
166.3828385439954
 20
104.4223637232938
 10
163.8816627830739
 20
106.2964280330593
 10
159.9214634542851
 20
109.4198710426426
 10
159.2961664859039
 20
110.0445603925512
 10
155.9612641254965
 20
111.2939372223885
 10
153.6685179956791
 20
111.2939372223885
 10
151.1673381972224
 20
111.0857074390856
 10
151.1673381972224
 20
109.8363306092483
 10
149.7083186668903
 20
108.3787239961082
 10
147.8324358368151
 20
108.1704942128053
 10
143.4553732082842
 20
108.1704942128053
 10
139.7036075481341
 20
108.3787239961082
 10
137.2024277496775
 20
111.2939372223885
 10
133.4506620895274
 20
111.2939372223885
 10
132.6169354900421
 20
110.8774776557826
 10
130.5326230288628
 20
109.8363306092483
 10
128.4483065301493
 20
105.4635107698282
 10
126.9892869998172
 20
102.7565273268508
 10
126.3639900314359
 20
100.8824611471048
 10
125.3218338008465
 20
98.38370748743045
 10
123.4459509707712
 20
94.84380491124149
 10
121.3616344720578
 20
94.01088764801036
 10
118.6520250424971
 20
94.21911556133292
 10
115.5255523131943
 20
94.42734534463587
 10
113.8581031517577
 20
96.09318174107883
 10
111.9822162841483
 20
97.75901813752184
 10
110.3147671227116
 20
99.84131410057074
 10
108.0220209928942
 20
101.7153784103363
 10
106.9798607247702
 20
105.4635107698282
 10
106.3545677939235
 20
106.2964280330593
 10
105.9377044941808
 20
107.9622644295023
 10
104.6871145949522
 20
109.8363306092483
 10
103.8533879954668
 20
111.2939372223885
 10
101.9775051653921
 20
113.376231315457
 10
98.22573950524205
 20
113.7926908820627
 10
94.26554017645328
 20
111.918624702317
 10
91.76436037799726
 20
111.0857074390856
 10
89.26318461707522
 20
108.5869537794112
 10
89.6800479168179
 20
105.4635107698282
 10
89.26318461707522
 20
103.7976743733852
 10
89.26318461707522
 20
98.80016518405597
 10
88.2210283864858
 20
94.63557512793881
 10
86.97043848725725
 20
90.47098507182139
 10
86.97043848725725
 20
87.3475420622381
 10
87.17886811836184
 20
84.64055861926102
 10
89.26318461707522
 20
81.30888582637503
 10
89.6800479168179
 20
79.01836195000358
 10
90.7222041474073
 20
75.47845937381466
 10
92.59808697748258
 20
72.56324614753431
 10
95.30769640704328
 20
69.02334357134539
 10
98.22573950524205
 20
66.73281969497392
 10
99.47632940447013
 20
62.77645942215947
 10
99.8931927042128
 20
59.86124619587943
 10
99.8931927042128
 20
57.77895023283051
 10
102.3943684651348
 20
56.52957340299344
 10
105.1039778946949
 20
55.07196678985311
 10
105.5208411944381
 20
52.15675356357306
 10
106.1461341252849
 20
50.07445760052418
 10
106.3545677939235
 20
48.20039329075862
 10
107.6051576931515
 20
46.32632711101265
 10
106.4327304196626
 20
42.72141467063811
 10
108.9395869912886
 20
40.4256885091475
 10
109.5663011341946
 20
39.38217593756803
 10
109.7752071943419
 20
36.87774875774603
 10
108.5217789085288
 20
34.37331970794361
 10
109.1484930514353
 20
31.66018963980923
 10
110.4019213372484
 20
30.61667893821017
 10
106.0149182993686
 20
29.15576245998721
 10
105.1793021338501
 20
27.27744207512051
 10
105.1793021338501
 20
24.77301302531808
 10
104.7614900135561
 20
22.89469264045135
 10
99.32996878754464
 20
23.10339552876344
 10
98.49434858449145
 20
24.77301302531808
 10
97.44982635882559
 20
26.44263239185311
 10
96.1963940354785
 20
29.15576245998721
 10
94.7340637270528
 20
31.24278573316575
 10
93.48063544123975
 20
32.49499932307688
 10
89.51144452365445
 20
32.91240509970076
 10
87.84020411754751
 20
33.32980900634427
 10
84.07991926010886
 20
34.79072548456749
 10
80.52853642528289
 20
36.46034298112212
 10
78.02167985365733
 20
38.33866523596898
 10
74.2613949962187
 20
38.54736812428105
 10
73.21687277055231
 20
39.59087882588013
 10
69.03877579281981
 20
44.59973505550482
 10
67.78534750700732
 20
46.06065153372777
 10
66.53191922119424
 20
46.47805544037129
 10
64.86067881508784
 20
46.47805544037129
 10
62.77163436375563
 20
47.7302690302824
 10
60.47367981474266
 20
49.60859128512954
 10
57.54901516035729
 20
50.23469808008485
 10
55.8777747542503
 20
51.06950776335249
 10
53.57982424277142
 20
53.99133884981828
 10
51.07296767114585
 20
57.74798148953184
 10
48.77501312213238
 20
59.83500476271037
 10
46.4770626106535
 20
61.9220280358889
 10
45.43253634745361
 20
63.8003484207556
 10
43.76129997888122
 20
66.30477747055803
 10
42.92567977582748
 20
68.8092046503803
 10
41.67225149001493
 20
71.52233471851443
 10
40.41882320420191
 20
73.81806088000505
 10
38.74758279809551
 20
80.70523749449618
 10
38.74758279809551
 20
82.1661539727194
 10
39.16539491838887
 20
85.92279661243296
 10
42.28550045616393
 20
92.20184068235118
 10
40.79723706518642
 20
96.95965954026709
 10
40.20193493882297
 20
104.6911135481471
 10
38.118369421482
 20
107.9621129611002
 10
32.76063413407205
 20
110.6383857180565
 10
31.27237478062914
 20
112.1252032930389
 10
27.99820097302666
 20
113.9093851310097
 10
25.6169843925037
 20
115.0988384430033
 10
22.93811674879872
 20
117.1803845439628
 10
21.15220229463917
 20
119.8566573009192
 10
16.98507529749128
 20
124.3171118958463
 10
12.70035107748614
 20
127.6742818697526
  0
LWPOLYLINE
  5
FE
330
1F
100
AcDbEntity
  8
vastag
100
AcDbPolyline
 90
      514
 70
     1
 43
0.0
 10
142.8305324812741
 20
306.9241113434831
 10
139.1838802953653
 20
310.694536681332
 10
139.0215340563181
 20
313.289502946936
 10
139.8085551761545
 20
317.1133944927662
 10
142.0899598722357
 20
320.3880833767978
 10
144.8937205632049
 20
320.7615558368912
 10
147.3236459570405
 20
320.201347146751
 10
148.4451518484424
 20
320.0146109167042
 10
150.8750812798119
 20
317.9605105162096
 10
151.9965831336793
 20
317.0268293659755
 10
153.1180890250811
 20
316.8400931359289
 10
154.4265125650495
 20
313.2921028950597
 10
154.6134261760819
 20
312.9186304349663
 10
157.2302732560187
 20
312.7318942049196
 10
158.72561040702
 20
313.1053666650132
 10
160.0340339469884
 20
314.4125221453208
 10
162.463959340824
 20
316.0931482157416
 10
163.2116299350917
 20
313.1053666650132
 10
164.8938887721937
 20
312.9186304349663
 10
166.3892259231951
 20
312.9186304349663
 10
169.0060730031318
 20
312.9186304349663
 10
170.5014101541327
 20
313.8523134551803
 10
170.6883278026997
 20
316.4666206758352
 10
170.5014101541327
 20
318.7074573063767
 10
169.7537395598649
 20
320.3880833767978
 10
169.1929906516989
 20
323.0023924674329
 10
168.071484760297
 20
325.6166996880876
 10
165.8284729774944
 20
327.8575363186293
 10
166.202308274628
 20
328.7912174688632
 10
168.4453200574312
 20
328.7912174688632
 10
169.5668219112984
 20
329.7248986190969
 10
172.9313355479682
 20
330.8453159993776
 10
172.1836689912351
 20
332.339207709732
 10
172.5575042883687
 20
334.3933062402467
 10
175.735100276472
 20
336.8208791008352
 10
177.2304374274735
 20
337.5678240210222
 10
180.5949510641438
 20
337.5678240210222
 10
183.5856334412141
 20
337.5678240210222
 10
186.2024764836168
 20
337.3810877909753
 10
187.5109000235852
 20
337.1943515609285
 10
195.7352644479268
 20
329.5381623890502
 10
198.3521115278635
 20
325.9901721481812
 10
201.9035428131009
 20
322.2554456772655
 10
202.6512093698341
 20
321.6952369871254
 10
205.641891746905
 20
320.3880833767978
 10
208.0718171407406
 20
318.5207210763301
 10
211.2494131288439
 20
315.7196757556483
 10
213.8662561712466
 20
315.7196757556483
 10
221.3429540388546
 20
315.3462032955546
 10
228.0719813121947
 20
316.2798844457885
 10
236.109432125504
 20
315.1594670655078
 10
238.913192816473
 20
315.1594670655078
 10
244.3338005873796
 20
314.7859946054142
 10
250.6889925635862
 20
314.5992583753675
 10
255.5488473887921
 20
316.4666206758352
 10
257.0441885773275
 20
316.2798844457885
 10
262.2778746621323
 20
318.3339848462833
 10
265.0816353531021
 20
319.6411384566105
 10
266.5769765416369
 20
320.9482920669381
 10
263.7732158506678
 20
325.2432272279943
 10
262.6517099592664
 20
328.2310087787231
 10
262.6517099592664
 20
331.0320522294246
 10
263.0255452564
 20
332.5259439397789
 10
264.5719289530504
 20
334.2563227053394
 10
266.7970786842872
 20
335.8943188354801
 10
266.914191403033
 20
338.1173139842386
 10
267.6168717530415
 20
339.8723091701106
 10
271.0131527092691
 20
339.9893082258423
 10
272.7698515655234
 20
341.1593062630771
 10
276.4003579592424
 20
341.2763053188083
 10
281.7875672467502
 20
340.9253062816341
 10
284.1298296967323
 20
340.8083053559224
 10
287.5261106529606
 20
340.8083053559224
 10
293.0304326592136
 20
341.627304355983
 10
296.3096008966961
 20
342.5633024117748
 10
298.0662997529497
 20
343.2653004861237
 10
299.8229945716697
 20
343.4992985975865
 10
302.9850500904061
 20
346.1902918392507
 10
304.2732980716772
 20
347.3602898764855
 10
304.7417489466603
 20
349.1152850623578
 10
306.0299928903968
 20
351.338278341136
 10
306.4984478029139
 20
352.2742763969278
 10
310.2025503711248
 20
355.3721997857274
 10
313.199389987942
 20
355.3721997857274
 10
314.6978118151175
 20
354.7734134025582
 10
315.5968657189301
 20
353.8752319578239
 10
318.8933913161957
 20
353.8752319578239
 10
319.7924452200083
 20
352.3782622599406
 10
320.3918131433718
 20
351.7794740067909
 10
323.3886527601888
 20
351.4800808152064
 10
325.1867605678135
 20
351.4800808152064
 10
325.7861284911769
 20
351.4800808152064
 10
326.685182394989
 20
350.5818993704722
 10
327.5842322612668
 20
349.6837179257383
 10
329.9817079922551
 20
347.88735503627
 10
332.0794977427942
 20
347.88735503627
 10
334.7766554166968
 20
349.6837179257383
 10
336.5747591867873
 20
349.9831111173226
 10
337.1741271101503
 20
352.3782622599406
 10
337.7734950335139
 20
354.7734134025582
 10
338.6725489373264
 20
356.2703812304613
 10
341.6693925916775
 20
356.5697762920263
 10
343.4674963617681
 20
358.9649255646639
 10
347.6630758628463
 20
358.0667441199296
 10
348.2624437862098
 20
359.5637138178133
 10
350.0605475563002
 20
362.5576513436002
 10
351.5589693834759
 20
365.8509839309518
 10
351.8586553639244
 20
369.743102901473
 10
354.2561270573785
 20
371.8388589825257
 10
356.3539168079176
 20
376.329766206196
 10
359.9501283856322
 20
378.1261290956643
 10
368.0416014073399
 20
378.1261290956643
 10
369.8397092149646
 20
379.3237056019632
 10
374.0352846785087
 20
381.419461683016
 10
378.2308641795868
 20
381.419461683016
 10
381.1716143704641
 20
380.7621430473265
 10
382.5092575458725
 20
378.2379314762173
 10
386.2249357248067
 20
379.5742792185647
 10
388.3057153435082
 20
378.6833813469932
 10
388.7515964019775
 20
377.6439995618364
 10
391.8727638112629
 20
376.7531016902652
 10
392.764525928202
 20
377.792483475422
 10
395.8856933374875
 20
379.1288293477888
 10
397.2233365128952
 20
380.6136610037214
 10
397.5205878601856
 20
380.9106269609118
 10
399.1554864204179
 20
379.2773132613741
 10
400.6417593070051
 20
382.2469728332787
 10
401.2362660391193
 20
382.3954567468639
 10
404.3574334484048
 20
380.9106269609118
 10
404.8033145068743
 20
381.5045588752927
 10
405.843702297458
 20
382.6924227040544
 10
407.0327197992209
 20
383.7318026192308
 10
410.3025128821518
 20
383.5833205756257
 10
410.7483939406212
 20
383.2863546184354
 10
411.0456493254455
 20
381.950006876088
 10
412.9778032705018
 20
381.3560749617074
 10
414.31544644591
 20
381.3560749617074
 10
414.7613275043791
 20
380.1682111329457
 10
415.0585788516694
 20
379.4257953049793
 10
416.9907327967261
 20
377.0500676474556
 10
417.7338652024856
 20
376.1591697758844
 10
417.8824949136653
 20
375.8622038186938
 10
418.179746260955
 20
373.4864761611703
 10
418.7742570306038
 20
372.7440603332039
 10
419.8146448211873
 20
371.7046804180278
 10
420.7064069381263
 20
369.7744007612994
 10
421.7467947287097
 20
367.8441211045714
 10
422.6385568456489
 20
366.6562572758096
 10
424.4220810795259
 20
364.1320457047008
 10
426.6514904094067
 20
363.8350797475102
 10
427.2459971415217
 20
366.2108074050339
 10
428.4350146432847
 20
367.1017071465854
 10
430.6644199356314
 20
366.5077752322046
 10
431.4075523413905
 20
366.9532232330003
 10
432.1506887846843
 20
367.6956390609664
 10
434.9746008091455
 20
366.3592913186194
 10
436.609499369378
 20
367.8441211045714
 10
437.3526358126716
 20
368.5865369325376
 10
440.1765478371329
 20
368.2895709753473
 10
441.3655653388958
 20
368.2895709753473
 10
443.1490895727733
 20
369.7744007612994
 10
445.081239480296
 20
370.6652986328709
 10
450.2831865082828
 20
370.5168147192855
 10
450.8776972779318
 20
370.2198487620951
 10
451.0263229515766
 20
368.5865369325376
 10
451.6208296836913
 20
366.9532232330003
 10
454.5933714193313
 20
365.1714274898576
 10
454.7419970929768
 20
363.0926657895242
 10
454.8906268041556
 20
360.5684542184153
 10
456.9714023853231
 20
359.3805903896535
 10
458.606300945556
 20
357.5987946465108
 10
459.9439441209637
 20
358.4896925180824
 10
460.8357062379024
 20
359.0836244324631
 10
462.9164858566045
 20
358.7866584752727
 10
464.4027547056576
 20
358.3412086044968
 10
465.7403978810655
 20
357.8957606037014
 10
466.0376532658898
 20
356.2624469041637
 10
466.7807897091836
 20
354.9260991618165
 10
469.6047017336446
 20
353.4412693758643
 10
469.901957118469
 20
352.2534055471025
 10
470.6450895242283
 20
349.1352620616128
 10
471.3882259675222
 20
347.6504322756603
 10
471.6854813523466
 20
346.3140845333133
 10
474.0635123183383
 20
345.8686365325178
 10
475.2525298201014
 20
346.0171185761226
 10
477.9324875980563
 20
346.5582459875591
 10
480.9124018712553
 20
346.5582459875591
 10
481.8436268480517
 20
346.5582459875591
 10
482.8679735150199
 20
345.2557953776179
 10
482.8679735150199
 20
344.3254745819342
 10
483.4267076935907
 20
342.2787699534183
 10
484.6372977409051
 20
340.6041913992002
 10
485.3822752998216
 20
340.4181283620515
 10
485.9410094783918
 20
338.7435498078329
 10
484.3579286328526
 20
336.6968451793171
 10
484.3579286328526
 20
335.4874279579305
 10
486.0341311685648
 20
333.9989143108409
 10
486.3134962390833
 20
330.9288554980871
 10
485.4753969899944
 20
329.2542788138486
 10
485.3822752998216
 20
328.8821508695714
 10
484.2648069426798
 20
327.9518300738879
 10
483.1473385855383
 20
326.92847775963
 10
481.4711360498263
 20
326.6493813339269
 10
480.3536676926845
 20
327.3006057039073
 10
479.888059241821
 20
325.1608676868372
 10
478.4912217766271
 20
323.3932576140442
 10
477.0012666587946
 20
321.7186809298059
 10
476.4425324802238
 20
321.0674565598255
 10
475.3250641230825
 20
320.5092637084193
 10
473.83510900525
 20
319.4859113941614
 10
470.5758256239978
 20
318.555590598478
 10
469.6446046847362
 20
318.4625590799035
 10
467.5027896606258
 20
317.9973977470718
 10
465.7334654347407
 20
318.3695256913491
 10
464.429753697254
 20
320.3232006712708
 10
463.126041959767
 20
321.0674565598255
 10
462.5673077811962
 20
319.2998464870324
 10
462.7535511615416
 20
317.7183013213687
 10
462.6604294713687
 20
316.5088840999819
 10
461.82233022228
 20
315.7646282114269
 10
459.3976818857221
 20
314.7772356178163
 10
455.4276511610104
 20
315.154966022991
 10
454.8605027610419
 20
314.5883694802386
 10
452.5919131987016
 20
311.7553792865556
 10
452.2138142653893
 20
308.5446568177176
 10
451.0795174654523
 20
306.2782650367673
 10
450.3233236363612
 20
304.2007393933944
 10
449.7561752363932
 20
302.1232137500218
 10
448.4328289697996
 20
300.2345542442266
 10
447.2985362073968
 20
300.0456881066491
 10
443.8956498451193
 20
297.9681624632761
 10
441.8161097494357
 20
296.0795029574808
 10
440.8708624161548
 20
293.8131111765306
 10
440.8708624161548
 20
292.6799143510652
 10
441.4380108161231
 20
292.1133159383327
 10
441.6270602827792
 20
290.9801209828476
 10
441.6270602827792
 20
288.9025953394748
 10
441.6270602827792
 20
286.8250696961021
 10
440.6818129494982
 20
284.7475440527293
 10
439.3584707204388
 20
283.6143472272638
 10
437.4679760538771
 20
282.8588826769537
 10
436.5227327581303
 20
282.6700165393762
 10
435.3884359581932
 20
281.3479554463135
 10
434.2541431957901
 20
277.0040380219904
 10
432.9307969291966
 20
275.8708411965252
 10
432.9307969291966
 20
272.6601205976673
 10
432.3636485292282
 20
271.149191497047
 10
432.7417474625407
 20
269.8271304039843
 10
431.4184052334815
 20
267.7496047606116
 10
430.0950589668881
 20
267.1830063478789
 10
428.9607662044851
 20
265.105480704506
 10
428.9607662044851
 20
263.7834196114436
 10
428.9607662044851
 20
262.272490510823
 10
426.8812220712668
 20
260.0060987298728
 10
425.1797809088958
 20
259.2506341795627
 10
422.5330924132432
 20
256.2287797182824
 10
422.5330924132432
 20
254.5289863500646
 10
422.9111913465557
 20
252.0737284315366
 10
423.1002408132115
 20
249.9962009181837
 10
421.2097501841838
 20
247.7298091372333
 10
421.0207007175278
 20
246.407748044171
 10
420.264502850903
 20
244.5190885383754
 10
419.8864039175904
 20
243.1970255753326
 10
419.508304984278
 20
242.0638306198477
 10
416.6725670219693
 20
241.6860983446924
 10
415.1601753262537
 20
238.4753758758544
 10
415.1601753262537
 20
236.5867163700591
 10
415.1601753262537
 20
234.3203245891089
 10
415.3492247929101
 20
229.2209426144756
 10
413.6477795930041
 20
226.9545508335253
 10
410.6229921640395
 20
225.2547574653075
 10
410.4339467349175
 20
222.9883656843573
 10
410.4339467349175
 20
222.4217672716246
 10
408.5367497614842
 20
221.116799668236
 10
407.2103995694011
 20
222.0632733535166
 10
404.9366581133448
 20
221.6846846273964
 10
403.4208304759748
 20
220.738210942116
 10
403.4208304759748
 20
217.8987880162943
 10
402.8523981401113
 20
216.1951350087937
 10
402.0944843214256
 20
214.8700707274127
 10
402.4734392120016
 20
213.166417719912
 10
402.6629166572893
 20
210.8948797532507
 10
403.041875585399
 20
209.56981547187
 10
403.7997894040841
 20
208.6233417865896
 10
403.9892668493719
 20
206.9196887790887
 10
403.9892668493719
 20
205.0267395385477
 10
403.041875585399
 20
203.7016752571667
 10
403.231353030687
 20
201.6194335235457
 10
401.7155253933163
 20
201.0515485643853
 10
400.5786566840557
 20
201.6194335235457
 10
399.8207428653704
 20
202.3766128457663
 10
398.683870118575
 20
203.3230865310467
 10
397.1680424812047
 20
201.8087278866059
 10
396.5996101453411
 20
198.9693049607843
 10
395.652214843834
 20
197.2656519532833
 10
394.5153461345732
 20
192.722576019961
 10
393.1889959424902
 20
189.8831530941393
 10
390.346818113037
 20
189.6938587310794
 10
386.5572530571447
 20
189.3152700049594
 10
385.6098577556376
 20
190.2617436902397
 10
385.4203803103499
 20
191.2082173755203
 10
382.7676839637184
 20
191.3975117385803
 10
382.578202480896
 20
193.1011666160614
 10
379.9255061342646
 20
192.911870383021
 10
378.2202010516066
 20
192.911870383021
 10
376.704373414236
 20
194.8048196235624
 10
374.6201094034674
 20
193.1011666160614
 10
373.6727181394944
 20
190.2617436902397
 10
372.9148043208097
 20
187.233026401358
 10
371.7779315740143
 20
183.2578354271961
 10
370.6410628647534
 20
181.364886186655
 10
368.556798853985
 20
180.2291181383144
 10
366.2830573979294
 20
180.7970012274946
 10
364.0093159418734
 20
181.175591823595
 10
361.7355744858177
 20
180.9862974605347
 10
359.2723555844739
 20
182.3113598719353
 10
359.0828781391863
 20
183.0685391941557
 10
357.5670505018155
 20
180.4184125013744
 10
355.6722639363353
 20
180.4184125013744
 10
350.7458261336477
 20
180.4184125013744
 10
350.1773897602505
 20
180.4184125013744
 10
348.2826072323044
 20
180.2291181383144
 10
347.3352159683313
 20
178.9040538569336
 10
345.0614745122751
 20
177.7682858085931
 10
343.166687946795
 20
179.0933482199937
 10
340.8929464907389
 20
179.0933482199937
 10
340.3245141548759
 20
180.2291181383144
 10
337.4823363254226
 20
180.9862974605347
 10
334.6401584959688
 20
181.175591823595
 10
331.2295483306524
 20
179.471938816094
 10
331.0400668478302
 20
182.3113598719353
 10
330.6611119572548
 20
183.8257185163763
 10
326.8715428638284
 20
182.8792448310957
 10
325.16623778117
 20
182.1220655088753
 10
323.4609326985116
 20
180.7970012274946
 10
322.7030188798262
 20
178.1468745347133
 10
322.3240599517162
 20
177.7682858085931
 10
320.0503184956606
 20
179.0933482199937
 10
318.3450134130022
 20
181.175591823595
 10
314.9344032476852
 20
183.636424153316
 10
313.2290941274928
 20
184.5828978385966
 10
309.6290065168882
 20
183.636424153316
 10
307.3552650608326
 20
182.6899504680357
 10
304.7025646766665
 20
181.7434767827553
 10
303.7551734126935
 20
177.3896952124929
 10
302.4288232206109
 20
175.496747841932
 10
299.5866494286917
 20
173.603798601391
 10
297.1234264898138
 20
172.27873432001
 10
295.2286439618677
 20
171.1429662716696
 10
292.7654250605239
 20
171.1429662716696
 10
290.8706384950437
 20
170.5750813125093
 10
289.1653334123851
 20
167.5463640236277
 10
287.4600283297268
 20
168.114248982788
 10
284.2388956096982
 20
170.0071963533489
 10
283.1020228629029
 20
170.196492586389
 10
281.9651541536421
 20
170.385786949449
 10
280.638803961559
 20
169.8179019902887
 10
279.5019352522983
 20
168.114248982788
 10
279.5019352522983
 20
166.0320053791867
 10
275.7123661588719
 20
165.8427110161267
 10
274.1965385215012
 20
162.813993727245
 10
274.0070570386794
 20
160.731750123644
 10
271.9227970654456
 20
160.542455760584
 10
270.0280104999649
 20
161.8675200419647
 10
266.9963552252239
 20
161.6782238089243
 10
265.2910501425655
 20
160.353161397524
 10
262.8278312412216
 20
159.5959820753034
 10
258.8487847025077
 20
161.1103407197444
 10
258.0908708838223
 20
161.4889294458643
 10
257.3329570651369
 20
162.2461087680846
 10
255.8828847107251
 20
160.6549911734039
 10
254.8144239444312
 20
158.1643326583308
 10
253.864682835519
 20
157.3341137766331
 10
253.6272475582911
 20
156.1480862684994
 10
252.5587867919971
 20
155.6736760132379
 10
250.4218652594103
 20
155.0806622591709
 10
249.709559427726
 20
153.1830174981648
 10
245.791871297161
 20
152.352798616467
 10
245.791871297161
 20
153.6574296234064
 10
245.0795654654767
 20
150.8109643518772
 10
243.7736694219549
 20
149.5063333449378
 10
240.8057264378366
 20
149.1505247185016
 10
239.2623951170868
 20
150.3365522266356
 10
236.8880383072715
 20
149.6249368437433
 10
235.463426643903
 20
149.269128217307
 10
232.9703542142411
 20
149.6249368437433
 10
231.4270228934913
 20
150.9295659807025
 10
230.2398465073507
 20
152.2341969876416
 10
226.797028931242
 20
152.8272107417087
 10
225.6098525451014
 20
152.8272107417087
 10
223.9478015669704
 20
152.7086072429032
 10
221.4547291373084
 20
153.1830174981648
 10
217.6557606641247
 20
153.8946347510372
 10
215.1626882344627
 20
154.3690450062985
 10
213.2632019791038
 20
154.1318398786676
 10
210.2952589949855
 20
153.8946347510372
 10
207.9209021851703
 20
154.2504433774734
 10
206.140135587192
 20
154.9620587603654
 10
204.2406533693676
 20
156.1480862684994
 10
201.5101416249427
 20
157.0969086490023
 10
199.6106594071184
 20
159.9433739205315
 10
198.6609182982056
 20
161.3666065562962
 10
197.7111731517589
 20
162.7898391920606
 10
195.9304065537812
 20
164.3316753266309
 10
194.5057948904127
 20
165.1618942083283
 10
193.08117918951
 20
166.1107165888316
 10
191.4191322489132
 20
167.1781405981598
 10
189.400930373707
 20
167.4153457257906
 10
186.880402711077
 20
167.5090279974999
 10
185.913429405943
 20
167.5090279974999
 10
183.8307158083309
 20
167.657648419645
 10
181.822381666856
 20
168.6236877085205
 10
181.3760847423579
 20
169.7383455495607
 10
180.2603484874144
 20
170.5557625463102
 10
179.516521625762
 20
171.2245572509345
 10
179.2933711447458
 20
172.3392150919748
 10
177.8801009151135
 20
173.2309432347872
 10
177.2850410408057
 20
174.1226695076196
 10
176.6899771289634
 20
175.6831923550562
 10
175.7230038238293
 20
178.2097507514076
 10
174.160970644387
 20
180.0675163131151
 10
172.8220798708927
 20
181.4051057223635
 10
171.8551065657587
 20
181.9995911509052
 10
171.6319601222766
 20
183.9316659886949
 10
171.1856631977789
 20
185.343566544006
 10
169.1773290563042
 20
187.2013321057136
 10
167.7640588266719
 20
188.0930583785459
 10
165.7557287227318
 20
188.9104753752954
 10
164.7887554175978
 20
189.5792700799196
 10
163.2110243049526
 20
191.6255558328542
 10
160.205665490847
 20
191.6255558328542
 10
159.1323233456328
 20
192.2689356355902
 10
158.273648821955
 20
194.1990806537385
 10
157.8443135788828
 20
195.4858439991708
 10
156.3416321530629
 20
199.3461321654874
 10
154.8389547647771
 20
201.4907358712275
 10
153.9802802410995
 20
203.2064184618236
 10
151.6189283291359
 20
204.2787212496838
 10
147.1108880892099
 20
204.707642364828
 10
145.3935430793883
 20
206.2088662678322
 10
143.6761940320321
 20
210.2836131217404
 10
143.2468547514259
 20
212.2137581398891
 10
141.7441773631401
 20
212.4282186974609
 10
140.6708352179265
 20
212.2137581398891
 10
140.2414999748544
 20
214.143901288057
 10
140.2414999748544
 20
215.2162040759172
 10
138.0948116468925
 20
216.5029674213496
 10
138.3094833059624
 20
219.505413357378
 10
137.6654764038204
 20
220.3632555876662
 10
135.9481273564647
 20
222.0789381782623
 10
135.9481273564647
 20
223.5801620812665
 10
134.2307823466432
 20
225.2958446718626
 10
132.9427685423592
 20
226.3681474597228
 10
131.869426397145
 20
227.8693713627272
 10
132.0840980562154
 20
229.7995145108952
 10
130.1520813873234
 20
231.9441182166355
 10
129.0787392421092
 20
233.2308815620678
 10
128.2200647184314
 20
235.3754871377883
 10
127.5760578162894
 20
237.0911697283844
 10
126.2880480495395
 20
239.6646945492687
 10
126.5027156710752
 20
241.3803790098449
 10
126.7173832926116
 20
243.524982715585
 10
126.5027156710752
 20
245.8840488488775
 10
125.4293735258616
 20
246.9563497667576
 10
123.3999095590179
 20
247.7886828222377
 10
123.2854601715198
 20
249.0464912445536
 10
123.1710025909242
 20
250.5329903824609
 10
123.1710025909242
 20
251.7907950101503
 10
123.3999095590179
 20
252.5912182066581
 10
123.7120244785054
 20
254.4624655418187
 10
125.2147059043258
 20
257.0359903627029
 10
125.8587087689333
 20
260.2528987262835
 10
126.0733804280036
 20
261.1107390865913
 10
127.5760578162894
 20
260.0384381687115
 10
132.7281009208228
 20
259.3950564959954
 10
133.801443066037
 20
259.3950564959954
 10
134.6601175897148
 20
259.3950564959954
 10
135.0894528327869
 20
261.1107390865913
 10
135.7334597349289
 20
263.8987263350281
 10
135.5187921133926
 20
265.8288694831961
 10
136.1627990155346
 20
267.9734731889364
 10
136.5921342586068
 20
268.6168548616524
 10
135.6125799967182
 20
271.8317866560846
 10
134.6710794952307
 20
272.906748555893
 10
136.2850838156679
 20
274.3848221031192
 10
136.0160830955949
 20
276.131636125298
 10
136.957587634617
 20
278.5503003998664
 10
137.4955890747623
 20
279.6252622996744
 10
137.4955890747623
 20
281.775186099291
 10
136.1505854743981
 20
284.3282215463256
 10
135.3435792766457
 20
285.2688141436479
 10
134.536577116427
 20
286.3437760434562
 10
134.6710794952307
 20
288.2249593681207
 10
134.9400802153037
 20
289.1655500954625
 10
136.1505854743981
 20
291.9873260174493
 10
136.8230892933472
 20
292.3904376648675
 10
139.5131005316096
 20
292.3904376648675
 10
141.3961096096536
 20
292.5248069673535
 10
142.7411132100179
 20
292.9279186147718
 10
145.9691299259603
 20
292.9279186147718
 10
147.7176366252006
 20
293.5997688671615
 10
147.9866373452735
 20
296.0184350117104
 10
147.9866373452735
 20
297.8996183363748
 10
147.9866373452735
 20
298.5714685887649
 10
148.1211356865427
 20
299.915170963525
 10
148.9281418842956
 20
302.4682064105596
 10
148.6591411642227
 20
303.0056873604639
 10
147.8521349664698
 20
303.677539482834
 10
146.7761320861785
 20
305.1556111600802
 10
146.9106304274476
 20
306.6336847073068
 10
146.5071313661056
 20
307.3055368296768
 10
145.1621237282074
 20
307.4399061321628
 10
143.5481153702362
 20
306.7680558797729
 10
142.8305324812741
 20
306.9241113434831
  0
LINE
  5
118
330
1F
100
AcDbEntity
  8
vastag
100
AcDbLine
 10
0.0
 20
0.0
 30
0.0
 11
0.0000000000000306
 21
500.0
 31
0.0
  0
LINE
  5
119
330
1F
100
AcDbEntity
  8
vastag
100
AcDbLine
 10
0.0000000000000306
 20
500.0
 30
0.0
 11
700.0
 21
500.0
 31
0.0
  0
LINE
  5
11A
330
1F
100
AcDbEntity
  8
vastag
100
AcDbLine
 10
700.0
 20
500.0
 30
0.0
 11
699.9999999999999
 21
0.0
 31
0.0
  0
LINE
  5
11B
330
1F
100
AcDbEntity
  8
vastag
100
AcDbLine
 10
0.0
 20
0.0
 30
0.0
 11
699.9999999999999
 21
0.0
 31
0.0
  0
ENDSEC
  0
SECTION
  2
OBJECTS
  0
DICTIONARY
  5
C
330
0
100
AcDbDictionary
281
     1
  3
ACAD_COLOR
350
6B
  3
ACAD_GROUP
350
D
  3
ACAD_IMAGE_DICT
350
EF
  3
ACAD_IMAGE_VARS
350
F0
  3
ACAD_LAYOUT
350
1A
  3
ACAD_MATERIAL
350
6A
  3
ACAD_MLINESTYLE
350
17
  3
ACAD_PLOTSETTINGS
350
19
  3
ACAD_PLOTSTYLENAME
350
E
  3
ACAD_TABLESTYLE
350
7E
  3
AcDbVariableDictionary
350
5E
  0
DICTIONARY
  5
F7
330
2
100
AcDbDictionary
280
     1
281
     1
  3
ACAD_LAYERFILTERS
360
FB
  3
ACLYDICTIONARY
360
FA
  0
DICTIONARY
  5
155
330
1F
100
AcDbDictionary
280
     1
281
     1
  3
ACAD_SORTENTS
360
156
  0
DICTIONARY
  5
6B
102
{ACAD_REACTORS
330
C
102
}
330
C
100
AcDbDictionary
281
     1
  0
DICTIONARY
  5
D
102
{ACAD_REACTORS
330
C
102
}
330
C
100
AcDbDictionary
281
     1
  0
DICTIONARY
  5
EF
102
{ACAD_REACTORS
330
C
102
}
330
C
100
AcDbDictionary
281
     1
  3
Nagy Magyarország
350
15C
  3
varmegyek%20nagyobb
350
F2
  0
RASTERVARIABLES
  5
F0
102
{ACAD_REACTORS
330
C
102
}
330
C
100
AcDbRasterVariables
 90
        0
 70
     1
 71
     1
 72
     1
  0
DICTIONARY
  5
1A
102
{ACAD_REACTORS
330
C
102
}
330
C
100
AcDbDictionary
281
     1
  3
Elrendezés1
350
D3
  3
Elrendezés2
350
D7
  3
Model
350
22
  0
DICTIONARY
  5
6A
102
{ACAD_REACTORS
330
C
102
}
330
C
100
AcDbDictionary
281
     1
  0
DICTIONARY
  5
17
102
{ACAD_REACTORS
330
C
102
}
330
C
100
AcDbDictionary
281
     1
  3
Standard
350
18
  0
DICTIONARY
  5
19
102
{ACAD_REACTORS
330
C
102
}
330
C
100
AcDbDictionary
281
     1
  0
ACDBDICTIONARYWDFLT
  5
E
102
{ACAD_REACTORS
330
C
102
}
330
C
100
AcDbDictionary
281
     1
  3
Normal
350
F
100
AcDbDictionaryWithDefault
340
F
  0
DICTIONARY
  5
7E
102
{ACAD_REACTORS
330
C
102
}
330
C
100
AcDbDictionary
281
     1
  3
Standard
350
7F
  0
DICTIONARY
  5
5E
102
{ACAD_REACTORS
330
C
102
}
330
C
100
AcDbDictionary
281
     1
  3
CTABLESTYLE
350
84
  3
DIMASSOC
350
5F
  3
HIDETEXT
350
63
  0
DICTIONARY
  5
FB
102
{ACAD_REACTORS
330
F7
102
}
330
F7
100
AcDbDictionary
281
     1
  0
DICTIONARY
  5
FA
102
{ACAD_REACTORS
330
F7
102
}
330
F7
100
AcDbDictionary
281
     1
1001
ACAD
1000
<All
  0
SORTENTSTABLE
  5
156
102
{ACAD_REACTORS
330
155
102
}
330
155
100
AcDbSortentsTable
330
1F
331
11A
  5
11B
331
118
  5
119
331
11B
  5
152
331
119
  5
11A
331
FE
  5
FE
331
FC
  5
FC
  0
IMAGEDEF
  5
15C
102
{ACAD_REACTORS
330
EF
330
15D
102
}
330
EF
100
AcDbRasterImageDef
 90
        0
  1
C:\Documents and Settings\Vincze Sándor\Dokumentumok\Képek\Nagy Magyarország.jpg
 10
300.0
 20
220.0
 11
0.3527777777777778
 21
0.3527777777777778
280
     1
281
     5
  0
IMAGEDEF
  5
F2
102
{ACAD_REACTORS
330
EF
102
}
330
EF
100
AcDbRasterImageDef
 90
        0
  1
C:\Documents and Settings\Vincze Sándor\Dokumentumok\Képek\varmegyek%20nagyobb.jpg
 10
1063.0
 20
717.0
 11
0.1411111111111111
 21
0.1411111111111111
280
     1
281
     5
  0
LAYOUT
  5
D3
102
{ACAD_REACTORS
330
1A
102
}
330
1A
100
AcDbPlotSettings
  1

  2
C:\Documents and Settings\basas\Application Data\Autodesk\AutoCAD 2005\R16.1\enu\plotters\Default Windows System Printer.pc3
  4

  6

 40
0.0
 41
0.0
 42
0.0
 43
0.0
 44
0.0
 45
0.0
 46
0.0
 47
0.0
 48
0.0
 49
0.0
140
0.0
141
0.0
142
1.0
143
1.0
 70
   688
 72
     0
 73
     0
 74
     5
  7

 75
    16
147
1.0
 76
     0
 77
     2
 78
   300
148
0.0
149
0.0
100
AcDbLayout
  1
Elrendezés1
 70
     1
 71
     1
 10
0.0
 20
0.0
 11
12.0
 21
9.0
 12
0.0
 22
0.0
 32
0.0
 14
0.0
 24
0.0
 34
0.0
 15
0.0
 25
0.0
 35
0.0
146
0.0
 13
0.0
 23
0.0
 33
0.0
 16
1.0
 26
0.0
 36
0.0
 17
0.0
 27
1.0
 37
0.0
 76
     0
330
D2
  0
LAYOUT
  5
D7
102
{ACAD_REACTORS
330
1A
102
}
330
1A
100
AcDbPlotSettings
  1

  2
C:\Documents and Settings\basas\Application Data\Autodesk\AutoCAD 2005\R16.1\enu\plotters\Default Windows System Printer.pc3
  4

  6

 40
0.0
 41
0.0
 42
0.0
 43
0.0
 44
0.0
 45
0.0
 46
0.0
 47
0.0
 48
0.0
 49
0.0
140
0.0
141
0.0
142
1.0
143
1.0
 70
   688
 72
     0
 73
     0
 74
     5
  7

 75
    16
147
1.0
 76
     0
 77
     2
 78
   300
148
0.0
149
0.0
100
AcDbLayout
  1
Elrendezés2
 70
     1
 71
     2
 10
0.0
 20
0.0
 11
12.0
 21
9.0
 12
0.0
 22
0.0
 32
0.0
 14
0.0
 24
0.0
 34
0.0
 15
0.0
 25
0.0
 35
0.0
146
0.0
 13
0.0
 23
0.0
 33
0.0
 16
1.0
 26
0.0
 36
0.0
 17
0.0
 27
1.0
 37
0.0
 76
     0
330
D6
  0
LAYOUT
  5
22
102
{ACAD_REACTORS
330
1A
102
}
330
1A
100
AcDbPlotSettings
  1

  2
none_device
  4
ISO_A4_(210.00_x_297.00_MM)
  6

 40
7.5
 41
20.0
 42
7.5
 43
20.0
 44
210.0
 45
297.0
 46
11.54999923706054
 47
-13.65000009536743
 48
0.0
 49
0.0
140
0.0
141
0.0
142
1.0
143
8.704084754739808
 70
 11952
 72
     1
 73
     0
 74
     0
  7

 75
     0
147
0.1148885871608098
 76
     0
 77
     2
 78
   300
148
0.0
149
0.0
100
AcDbLayout
  1
Model
 70
     1
 71
     0
 10
0.0
 20
0.0
 11
12.0
 21
9.0
 12
0.0
 22
0.0
 32
0.0
 14
0.0
 24
0.0
 34
0.0
 15
0.0
 25
0.0
 35
0.0
146
0.0
 13
0.0
 23
0.0
 33
0.0
 16
1.0
 26
0.0
 36
0.0
 17
0.0
 27
1.0
 37
0.0
 76
     0
330
1F
1001
ACAD_PSEXT
1000
None
1000
None
1000
Not applicable
1000
The layout will not be plotted unless a new plotter configuration name is selected.
1070
     0
  0
MLINESTYLE
  5
18
102
{ACAD_REACTORS
330
17
102
}
330
17
100
AcDbMlineStyle
  2
STANDARD
 70
     0
  3

 62
   256
 51
90.0
 52
90.0
 71
     2
 49
0.5
 62
   256
  6
BYLAYER
 49
-0.5
 62
   256
  6
BYLAYER
  0
ACDBPLACEHOLDER
  5
F
102
{ACAD_REACTORS
330
E
102
}
330
E
  0
TABLESTYLE
  5
7F
102
{ACAD_REACTORS
330
7E
102
}
330
7E
100
AcDbTableStyle
  3
Standard
 70
     0
 71
     0
 40
1.5
 41
1.5
280
     0
281
     0
  7
Standard
140
4.5
170
     2
 62
     0
 63
     7
283
     0
274
    -2
284
     1
 64
     0
275
    -2
285
     1
 65
     0
276
    -2
286
     1
 66
     0
277
    -2
287
     1
 67
     0
278
    -2
288
     1
 68
     0
279
    -2
289
     1
 69
     0
  7
Standard
140
6.0
170
     5
 62
     0
 63
     7
283
     0
274
    -2
284
     1
 64
     0
275
    -2
285
     1
 65
     0
276
    -2
286
     1
 66
     0
277
    -2
287
     1
 67
     0
278
    -2
288
     1
 68
     0
279
    -2
289
     1
 69
     0
  7
Standard
140
4.5
170
     5
 62
     0
 63
     7
283
     0
274
    -2
284
     1
 64
     0
275
    -2
285
     1
 65
     0
276
    -2
286
     1
 66
     0
277
    -2
287
     1
 67
     0
278
    -2
288
     1
 68
     0
279
    -2
289
     1
 69
     0
  0
DICTIONARYVAR
  5
84
102
{ACAD_REACTORS
330
5E
102
}
330
5E
100
DictionaryVariables
280
     0
  1
STANDARD
  0
DICTIONARYVAR
  5
5F
102
{ACAD_REACTORS
330
5E
102
}
330
5E
100
DictionaryVariables
280
     0
  1
2
  0
DICTIONARYVAR
  5
63
102
{ACAD_REACTORS
330
5E
102
}
330
5E
100
DictionaryVariables
280
     0
  1
1
  0
ENDSEC
  0
EOF
