  0
SECTION
  2
HEADER
  9
$ACADVER
  1
AC1015
  9
$ACADMAINTVER
 70
     6
  9
$DWGCODEPAGE
  3
DOS850
  9
$INSBASE
 10
0.0
 20
0.0
 30
0.0
  9
$EXTMIN
 10
-89.728
 20
-110.9209
 30
1.000000E+20
  9
$EXTMAX
 10
89.938
 20
110.7416
 30
-1.000000E+20
  9
$LIMMIN
 10
0.0
 20
0.0
  9
$LIMMAX
 10
0.0
 20
0.0
  9
$ORTHOMODE
 70
     0
  9
$REGENMODE
 70
     1
  9
$FILLMODE
 70
     1
  9
$QTEXTMODE
 70
     0
  9
$MIRRTEXT
 70
     1
  9
$LTSCALE
 40
1.0
  9
$ATTMODE
 70
     1
  9
$TEXTSIZE
 40
0.2
  9
$TRACEWID
 40
0.05
  9
$TEXTSTYLE
  7
Standard
  9
$CLAYER
  8
0
  9
$CELTYPE
  6
Continuous
  9
$CECOLOR
 62
   256
  9
$CELTSCALE
 40
1.0
  9
$DISPSILH
 70
     0
  9
$DIMSCALE
 40
1.0
  9
$DIMASZ
 40
0.18
  9
$DIMEXO
 40
0.0625
  9
$DIMDLI
 40
0.38
  9
$DIMRND
 40
0.0
  9
$DIMDLE
 40
0.0
  9
$DIMEXE
 40
0.18
  9
$DIMTP
 40
0.0
  9
$DIMTM
 40
0.0
  9
$DIMTXT
 40
0.18
  9
$DIMCEN
 40
0.09
  9
$DIMTSZ
 40
0.0
  9
$DIMTOL
 70
     0
  9
$DIMLIM
 70
     0
  9
$DIMTIH
 70
     1
  9
$DIMTOH
 70
     1
  9
$DIMSE1
 70
     0
  9
$DIMSE2
 70
     0
  9
$DIMTAD
 70
     0
  9
$DIMZIN
 70
     0
  9
$DIMBLK
  1

  9
$DIMASO
 70
     1
  9
$DIMSHO
 70
     1
  9
$DIMPOST
  1

  9
$DIMAPOST
  1

  9
$DIMALT
 70
     0
  9
$DIMALTD
 70
     2
  9
$DIMALTF
 40
25.4
  9
$DIMLFAC
 40
1.0
  9
$DIMTOFL
 70
     0
  9
$DIMTVP
 40
0.0
  9
$DIMTIX
 70
     0
  9
$DIMSOXD
 70
     0
  9
$DIMSAH
 70
     0
  9
$DIMBLK1
  1

  9
$DIMBLK2
  1

  9
$DIMSTYLE
  2
Standard
  9
$DIMCLRD
 70
     0
  9
$DIMCLRE
 70
     0
  9
$DIMCLRT
 70
     0
  9
$DIMTFAC
 40
1.0
  9
$DIMGAP
 40
0.09
  9
$DIMJUST
 70
     0
  9
$DIMSD1
 70
     0
  9
$DIMSD2
 70
     0
  9
$DIMTOLJ
 70
     1
  9
$DIMTZIN
 70
     0
  9
$DIMALTZ
 70
     0
  9
$DIMALTTZ
 70
     0
  9
$DIMUPT
 70
     0
  9
$DIMDEC
 70
     4
  9
$DIMTDEC
 70
     4
  9
$DIMALTU
 70
     2
  9
$DIMALTTD
 70
     2
  9
$DIMTXSTY
  7
Standard
  9
$DIMAUNIT
 70
     0
  9
$DIMADEC
 70
     0
  9
$DIMALTRND
 40
0.0
  9
$DIMAZIN
 70
     0
  9
$DIMDSEP
 70
     0
  9
$DIMATFIT
 70
     3
  9
$DIMFRAC
 70
     0
  9
$DIMLDRBLK
  1

  9
$DIMLUNIT
 70
     2
  9
$DIMLWD
 70
     0
  9
$DIMLWE
 70
     0
  9
$DIMTMOVE
 70
     0
  9
$LUNITS
 70
     2
  9
$LUPREC
 70
     4
  9
$SKETCHINC
 40
0.1
  9
$FILLETRAD
 40
0.0
  9
$AUNITS
 70
     0
  9
$AUPREC
 70
     0
  9
$MENU
  1
acad
  9
$ELEVATION
 40
0.0
  9
$PELEVATION
 40
0.0
  9
$THICKNESS
 40
0.0
  9
$LIMCHECK
 70
     0
  9
$CHAMFERA
 40
0.0
  9
$CHAMFERB
 40
0.0
  9
$CHAMFERC
 40
0.0
  9
$CHAMFERD
 40
0.0
  9
$SKPOLY
 70
     0
  9
$TDCREATE
 40
0.000000000
  9
$TDUCREATE
 40
0.000000000
  9
$TDUPDATE
 40
0.000000000
  9
$TDUUPDATE
 40
0.000000000
  9
$TDINDWG
 40
0.0000000000
  9
$TDUSRTIMER
 40
0.0000000000
  9
$USRTIMER
 70
     1
  9
$ANGBASE
 50
0.0
  9
$ANGDIR
 70
     0
  9
$PDMODE
 70
     0
  9
$PDSIZE
 40
0.0
  9
$PLINEWID
 40
0.0
  9
$SPLFRAME
 70
     0
  9
$SPLINETYPE
 70
     6
  9
$SPLINESEGS
 70
     8
  9
$HANDSEED
  5
6B
  9
$SURFTAB1
 70
     6
  9
$SURFTAB2
 70
     6
  9
$SURFTYPE
 70
     6
  9
$SURFU
 70
     6
  9
$SURFV
 70
     6
  9
$UCSBASE
  2

  9
$UCSNAME
  2

  9
$UCSORG
 10
0.0
 20
0.0
 30
0.0
  9
$UCSXDIR
 10
1.0
 20
0.0
 30
0.0
  9
$UCSYDIR
 10
0.0
 20
1.0
 30
0.0
  9
$UCSORTHOREF
  2

  9
$UCSORTHOVIEW
 70
     0
  9
$UCSORGTOP
 10
0.0
 20
0.0
 30
0.0
  9
$UCSORGBOTTOM
 10
0.0
 20
0.0
 30
0.0
  9
$UCSORGLEFT
 10
0.0
 20
0.0
 30
0.0
  9
$UCSORGRIGHT
 10
0.0
 20
0.0
 30
0.0
  9
$UCSORGFRONT
 10
0.0
 20
0.0
 30
0.0
  9
$UCSORGBACK
 10
0.0
 20
0.0
 30
0.0
  9
$PUCSBASE
  2

  9
$PUCSNAME
  2

  9
$PUCSORG
 10
0.0
 20
0.0
 30
0.0
  9
$PUCSXDIR
 10
1.0
 20
0.0
 30
0.0
  9
$PUCSYDIR
 10
0.0
 20
1.0
 30
0.0
  9
$PUCSORTHOREF
  2

  9
$PUCSORTHOVIEW
 70
     0
  9
$PUCSORGTOP
 10
0.0
 20
0.0
 30
0.0
  9
$PUCSORGBOTTOM
 10
0.0
 20
0.0
 30
0.0
  9
$PUCSORGLEFT
 10
0.0
 20
0.0
 30
0.0
  9
$PUCSORGRIGHT
 10
0.0
 20
0.0
 30
0.0
  9
$PUCSORGFRONT
 10
0.0
 20
0.0
 30
0.0
  9
$PUCSORGBACK
 10
0.0
 20
0.0
 30
0.0
  9
$USERI1
 70
     0
  9
$USERI2
 70
     0
  9
$USERI3
 70
     0
  9
$USERI4
 70
     0
  9
$USERI5
 70
     0
  9
$USERR1
 40
0.0
  9
$USERR2
 40
0.0
  9
$USERR3
 40
0.0
  9
$USERR4
 40
0.0
  9
$USERR5
 40
0.0
  9
$WORLDVIEW
 70
     1
  9
$SHADEDGE
 70
     3
  9
$SHADEDIF
 70
    70
  9
$TILEMODE
 70
     1
  9
$MAXACTVP
 70
    16
  9
$PINSBASE
 10
0.0
 20
0.0
 30
0.0
  9
$PLIMCHECK
 70
     0
  9
$PEXTMIN
 10
1.000000E+20
 20
1.000000E+20
 30
1.000000E+20
  9
$PEXTMAX
 10
-1.000000E+20
 20
-1.000000E+20
 30
-1.000000E+20
  9
$PLIMMIN
 10
0.0
 20
0.0
  9
$PLIMMAX
 10
12.0
 20
9.0
  9
$UNITMODE
 70
     0
  9
$VISRETAIN
 70
     0
  9
$PLINEGEN
 70
     1
  9
$PSLTSCALE
 70
     0
  9
$TREEDEPTH
 70
  3020
  9
$CMLSTYLE
  2
Standard
  9
$CMLJUST
 70
     0
  9
$CMLSCALE
 40
1.0
  9
$PROXYGRAPHICS
 70
     0
  9
$MEASUREMENT
 70
     0
  9
$CELWEIGHT
370
     0
  9
$ENDCAPS
280
     0
  9
$JOINSTYLE
280
     0
  9
$LWDISPLAY
290
     0
  9
$INSUNITS
 70
     4
  9
$HYPERLINKBASE
  1

  9
$XEDIT
290
     1
  9
$CEPSNTYPE
380
     0
  9
$PSTYLEMODE
290
     1
  9
$FINGERPRINTGUID
  2

  9
$VERSIONGUID
  2

  9
$EXTNAMES
290
     1
  9
$PSVPSCALE
 40
0.0
  0
ENDSEC
  0
SECTION
  2
CLASSES
  0
CLASS
  1
LWPOLYLINE
  2
AcDbPolyline
  3
AutoCAD 2000
 90
    32768
280
     0
281
     1
  0
CLASS
  1
IMAGE
  2
AcDbRasterImage
  3
ISM
 90
    32895
280
     0
281
     1
  0
CLASS
  1
OLE2FRAME
  2
AcDbOle2Frame
  3
AutoCAD 2000
 90
    32768
280
     0
281
     1
  0
CLASS
  1
HATCH
  2
AcDbHatch
  3
AutoCAD 2000
 90
    32768
280
     0
281
     1
  0
CLASS
  1
DICTIONARYVAR
  2
AcDbDictionaryVar
  3
AutoCAD 2000
 90
    32768
280
     0
281
     0
  0
CLASS
  1
RASTERVARIABLES
  2
AcDbRasterVariables
  3
ISM
 90
    32768
280
     0
281
     0
  0
CLASS
  1
IMAGEDEF
  2
AcDbRasterImageDef
  3
ISM
 90
    32768
280
     0
281
     0
  0
CLASS
  1
IMAGEDEF_REACTOR
  2
AcDbRasterImageDefReactor
  3
ISM
 90
    32769
280
     0
281
     0
  0
CLASS
  1
IDBUFFER
  2
AcDbIdBuffer
  3
AutoCAD 2000
 90
    32768
280
     0
281
     0
  0
CLASS
  1
SPATIAL_FILTER
  2
AcDbSpatialFilter
  3
AutoCAD 2000
 90
    32768
280
     0
281
     0
  0
CLASS
  1
XRECORD
  2
AcDbXrecord
  3
AutoCAD 2000
 90
    32768
280
     0
281
     0
  0
CLASS
  1
SORTENTSTABLE
  2
AcDbSortentsTable
  3
AutoCAD 2000
 90
    32768
280
     0
281
     0
  0
CLASS
  1
LAYER_INDEX
  2
AcDbLayerIndex
  3
AutoCAD 2000
 90
    32768
280
     0
281
     0
  0
CLASS
  1
SPATIAL_INDEX
  2
AcDbSpatialIndex
  3
AutoCAD 2000
 90
    32768
280
     0
281
     0
  0
CLASS
  1
OBJECT_PTR
  2
CAseDLPNTableRecord
  3
"ASE-LPNTableRecord"
 90
    32769
280
     0
281
     0
  0
CLASS
  1
LAYOUT
  2
AcDbLayout
  3
AutoCAD 2000
 90
        0
280
     0
281
     0
  0
CLASS
  1
PLOTSETTINGS
  2
AcDbPlotSettings
  3
AutoCAD 2000
 90
    32768
280
     0
281
     0
  0
CLASS
  1
ACDBDICTIONARYWDFLT
  2
AcDbDictionaryWithDefault
  3
AutoCAD 2000
 90
        0
280
     0
281
     0
  0
CLASS
  1
ACDBPLACEHOLDER
  2
AcDbPlaceHolder
  3
AutoCAD 2000
 90
        0
280
     0
281
     0
  0
CLASS
  1
VBA_PROJECT
  2
AcDbVbaProject
  3
acadvba
 90
    32768
280
     0
281
     0
  0
CLASS
  1
WIPEOUT
  2
AcDbWipeout
  3
WipeOut|AutoCAD Express Tool|expresstools@autodesk.com
 90
    32895
280
     0
281
     1
  0
CLASS
  1
WIPEOUTVARIABLES
  2
AcDbWipeoutVariables
  3
WipeOut|AutoCAD Express Tool|expresstools@autodesk.com
 90
        0
280
     0
281
     0
  0
CLASS
  1
RTEXT
  2
RText
  3
RText|AutoCAD Express Tool|expresstools@autodesk.com
 90
    32768
280
     0
281
     1
  0
CLASS
  1
ARCALIGNEDTEXT
  2
AcDbArcAlignedText
  3
ATEXT|AutoCAD Express Tool|expresstools@autodesk.com
 90
    32768
280
     0
281
     1
  0
ENDSEC
  0
SECTION
  2
TABLES
  0
TABLE
  2
VPORT
  5
7
100
AcDbSymbolTable
 70
     1
  0
VPORT
  5
15
100
AcDbSymbolTableRecord
100
AcDbViewportTableRecord
  2
*ACTIVE
 70
     0
 10
0.0
 20
0.0
 11
1.0
 21
1.0
 12
6.591288
 22
4.579184
 13
0.0
 23
0.0
 14
1.0
 24
1.0
 15
0.0
 25
0.0
 16
0.0
 26
0.0
 36
1.0
 17
0.0
 27
0.0
 37
0.0
 40
9.158369
 41
0.688564
 42
50.0
 43
0.0
 44
0.0
 50
0.0
 51
0.0
 71
     0
 72
   100
 73
     1
 74
     1
 75
     0
 76
     0
 77
     0
 78
     0
281
     0
 65
     0
110
0.0
120
0.0
130
0.0
111
1.0
121
0.0
131
0.0
112
0.0
122
1.0
132
0.0
345
0
346
0
 79
     0
146
0.0
  0
ENDTAB
  0
TABLE
  2
LTYPE
  5
4
100
AcDbSymbolTable
 70
     3
  0
LTYPE
  5
11
100
AcDbSymbolTableRecord
100
AcDbLinetypeTableRecord
  2
ByBlock
 70
    64
  3

 72
    65
 73
     0
 40
0.0
  0
LTYPE
  5
12
100
AcDbSymbolTableRecord
100
AcDbLinetypeTableRecord
  2
ByLayer
 70
    64
  3

 72
    65
 73
     0
 40
0.0
  0
LTYPE
  5
13
100
AcDbSymbolTableRecord
100
AcDbLinetypeTableRecord
  2
Continuous
 70
    64
  3
Solid line
 72
    65
 73
     0
 40
0.0
  0
ENDTAB
  0
TABLE
  2
LAYER
  5
2
100
AcDbSymbolTable
 70
     2
  0
LAYER
  5
14
100
AcDbSymbolTableRecord
100
AcDbLayerTableRecord
  2
0
 70
     0
 62
     7
  6
Continuous
290
     1
370
    -3
390
1D
  0
LAYER
  5
24
100
AcDbSymbolTableRecord
100
AcDbLayerTableRecord
  2
RÚteg 1
 70
     0
 62
     7
  6
Continuous
290
     1
370
    -3
390
1F
  0
ENDTAB
  0
TABLE
  2
STYLE
  5
3
100
AcDbSymbolTable
 70
     1
  0
STYLE
  5
17
100
AcDbSymbolTableRecord
100
AcDbTextStyleTableRecord
  2
Standard
 70
     0
 40
0.0
 41
1.0
 50
0.0
 71
     0
 42
0.0
  3
txt
  4

  0
ENDTAB
  0
TABLE
  2
VIEW
  5
5
100
AcDbSymbolTable
 70
     0
  0
ENDTAB
  0
TABLE
  2
UCS
  5
6
100
AcDbSymbolTable
 70
     0
  0
ENDTAB
  0
TABLE
  2
APPID
  5
8
100
AcDbSymbolTable
 70
     1
  0
APPID
  5
16
100
AcDbSymbolTableRecord
100
AcDbRegAppTableRecord
  2
ACAD
 70
     0
  0
ENDTAB
  0
TABLE
  2
DIMSTYLE
  5
9
100
AcDbSymbolTable
 70
     1
100
AcDbDimStyleTable
 71
     0
  0
DIMSTYLE
105
18
100
AcDbSymbolTableRecord
100
AcDbDimStyleTableRecord
  2
Standard
 70
     0
  3

  4

 40
1.0
 41
0.18
 42
0.0625
 43
0.38
 44
0.18
 45
0.0
 46
0.0
 47
0.0
 48
0.0
 71
     0
 72
     0
 73
     1
 74
     1
 75
     0
 76
     0
 77
     0
 78
     0
 79
     0
140
0.18
141
0.09
142
0.0
143
25.4
144
1.0
145
0.0
146
1.0
147
0.09
148
0.0
170
     0
171
     2
172
     0
173
     0
174
     0
175
     0
176
     0
177
     0
178
     0
179
     0
271
     4
272
     4
273
     2
274
     2
275
     0
276
     0
277
     2
278
    46
279
     0
280
     0
281
     0
282
     0
283
     1
284
     0
285
     0
286
     0
288
     0
340
17
341
0
342
0
343
0
344
0
371
    -2
372
    -2
  0
ENDTAB
  0
TABLE
  2
BLOCK_RECORD
  5
1
100
AcDbSymbolTable
 70
     0
  0
BLOCK_RECORD
  5
A
100
AcDbSymbolTableRecord
100
AcDbBlockTableRecord
  2
*MODEL_SPACE
340
20
  0
BLOCK_RECORD
  5
B
100
AcDbSymbolTableRecord
100
AcDbBlockTableRecord
  2
*PAPER_SPACE
340
21
  0
ENDTAB
  0
ENDSEC
  0
SECTION
  2
BLOCKS
  0
BLOCK
  5
D
100
AcDbEntity
  8
0
100
AcDbBlockBegin
  2
*MODEL_SPACE
 70
     0
 10
0.0
 20
0.0
 30
0.0
  3
*MODEL_SPACE
  1

  0
ENDBLK
  5
E
100
AcDbEntity
  8
0
100
AcDbBlockEnd
  0
BLOCK
  5
F
100
AcDbEntity
 67
     1
  8
0
100
AcDbBlockBegin
  2
*PAPER_SPACE
 70
     0
 10
0.0
 20
0.0
 30
0.0
  3
*PAPER_SPACE
  1

  0
ENDBLK
  5
10
100
AcDbEntity
 67
     1
  8
0
100
AcDbBlockEnd
  0
ENDSEC
  0
SECTION
  2
ENTITIES
  0
SPLINE
  5
25
100
AcDbEntity
  8
RÚteg 1
100
AcDbSpline
210
0.0
220
0.0
230
1.0
 70
     1
 71
     3
 72
   676
 73
   672
 74
     0
 42
0.0000000001
 43
0.0000000001
 40
0.0
 40
0.0
 40
0.0
 40
0.0
 40
0.005952380952381
 40
0.005952380952381
 40
0.005952380952381
 40
0.005952380952381
 40
0.0119047619047619
 40
0.0119047619047619
 40
0.0119047619047619
 40
0.0119047619047619
 40
0.0178571428571429
 40
0.0178571428571429
 40
0.0178571428571429
 40
0.0178571428571429
 40
0.0238095238095238
 40
0.0238095238095238
 40
0.0238095238095238
 40
0.0238095238095238
 40
0.0297619047619048
 40
0.0297619047619048
 40
0.0297619047619048
 40
0.0297619047619048
 40
0.0357142857142857
 40
0.0357142857142857
 40
0.0357142857142857
 40
0.0357142857142857
 40
0.0416666666666667
 40
0.0416666666666667
 40
0.0416666666666667
 40
0.0416666666666667
 40
0.0476190476190476
 40
0.0476190476190476
 40
0.0476190476190476
 40
0.0476190476190476
 40
0.0535714285714286
 40
0.0535714285714286
 40
0.0535714285714286
 40
0.0535714285714286
 40
0.0595238095238095
 40
0.0595238095238095
 40
0.0595238095238095
 40
0.0595238095238095
 40
0.0654761904761905
 40
0.0654761904761905
 40
0.0654761904761905
 40
0.0654761904761905
 40
0.0714285714285714
 40
0.0714285714285714
 40
0.0714285714285714
 40
0.0714285714285714
 40
0.0773809523809524
 40
0.0773809523809524
 40
0.0773809523809524
 40
0.0773809523809524
 40
0.0833333333333333
 40
0.0833333333333333
 40
0.0833333333333333
 40
0.0833333333333333
 40
0.0892857142857143
 40
0.0892857142857143
 40
0.0892857142857143
 40
0.0892857142857143
 40
0.0952380952380953
 40
0.0952380952380953
 40
0.0952380952380953
 40
0.0952380952380953
 40
0.1011904761904762
 40
0.1011904761904762
 40
0.1011904761904762
 40
0.1011904761904762
 40
0.1071428571428572
 40
0.1071428571428572
 40
0.1071428571428572
 40
0.1071428571428572
 40
0.1130952380952381
 40
0.1130952380952381
 40
0.1130952380952381
 40
0.1130952380952381
 40
0.1190476190476191
 40
0.1190476190476191
 40
0.1190476190476191
 40
0.1190476190476191
 40
0.1250000000000001
 40
0.1250000000000001
 40
0.1250000000000001
 40
0.1250000000000001
 40
0.130952380952381
 40
0.130952380952381
 40
0.130952380952381
 40
0.130952380952381
 40
0.136904761904762
 40
0.136904761904762
 40
0.136904761904762
 40
0.136904761904762
 40
0.1428571428571429
 40
0.1428571428571429
 40
0.1428571428571429
 40
0.1428571428571429
 40
0.1488095238095239
 40
0.1488095238095239
 40
0.1488095238095239
 40
0.1488095238095239
 40
0.1547619047619049
 40
0.1547619047619049
 40
0.1547619047619049
 40
0.1547619047619049
 40
0.1607142857142858
 40
0.1607142857142858
 40
0.1607142857142858
 40
0.1607142857142858
 40
0.1666666666666668
 40
0.1666666666666668
 40
0.1666666666666668
 40
0.1666666666666668
 40
0.1726190476190477
 40
0.1726190476190477
 40
0.1726190476190477
 40
0.1726190476190477
 40
0.1785714285714287
 40
0.1785714285714287
 40
0.1785714285714287
 40
0.1785714285714287
 40
0.1845238095238097
 40
0.1845238095238097
 40
0.1845238095238097
 40
0.1845238095238097
 40
0.1904761904761906
 40
0.1904761904761906
 40
0.1904761904761906
 40
0.1904761904761906
 40
0.1964285714285716
 40
0.1964285714285716
 40
0.1964285714285716
 40
0.1964285714285716
 40
0.2023809523809525
 40
0.2023809523809525
 40
0.2023809523809525
 40
0.2023809523809525
 40
0.2083333333333335
 40
0.2083333333333335
 40
0.2083333333333335
 40
0.2083333333333335
 40
0.2142857142857144
 40
0.2142857142857144
 40
0.2142857142857144
 40
0.2142857142857144
 40
0.2202380952380954
 40
0.2202380952380954
 40
0.2202380952380954
 40
0.2202380952380954
 40
0.2261904761904764
 40
0.2261904761904764
 40
0.2261904761904764
 40
0.2261904761904764
 40
0.2321428571428573
 40
0.2321428571428573
 40
0.2321428571428573
 40
0.2321428571428573
 40
0.2380952380952383
 40
0.2380952380952383
 40
0.2380952380952383
 40
0.2380952380952383
 40
0.2440476190476192
 40
0.2440476190476192
 40
0.2440476190476192
 40
0.2440476190476192
 40
0.2500000000000002
 40
0.2500000000000002
 40
0.2500000000000002
 40
0.2500000000000002
 40
0.2559523809523811
 40
0.2559523809523811
 40
0.2559523809523811
 40
0.2559523809523811
 40
0.261904761904762
 40
0.261904761904762
 40
0.261904761904762
 40
0.261904761904762
 40
0.267857142857143
 40
0.267857142857143
 40
0.267857142857143
 40
0.267857142857143
 40
0.2738095238095239
 40
0.2738095238095239
 40
0.2738095238095239
 40
0.2738095238095239
 40
0.2797619047619048
 40
0.2797619047619048
 40
0.2797619047619048
 40
0.2797619047619048
 40
0.2857142857142858
 40
0.2857142857142858
 40
0.2857142857142858
 40
0.2857142857142858
 40
0.2916666666666667
 40
0.2916666666666667
 40
0.2916666666666667
 40
0.2916666666666667
 40
0.2976190476190476
 40
0.2976190476190476
 40
0.2976190476190476
 40
0.2976190476190476
 40
0.3035714285714286
 40
0.3035714285714286
 40
0.3035714285714286
 40
0.3035714285714286
 40
0.3095238095238095
 40
0.3095238095238095
 40
0.3095238095238095
 40
0.3095238095238095
 40
0.3154761904761904
 40
0.3154761904761904
 40
0.3154761904761904
 40
0.3154761904761904
 40
0.3214285714285713
 40
0.3214285714285713
 40
0.3214285714285713
 40
0.3214285714285713
 40
0.3273809523809523
 40
0.3273809523809523
 40
0.3273809523809523
 40
0.3273809523809523
 40
0.3333333333333332
 40
0.3333333333333332
 40
0.3333333333333332
 40
0.3333333333333332
 40
0.3392857142857141
 40
0.3392857142857141
 40
0.3392857142857141
 40
0.3392857142857141
 40
0.3452380952380951
 40
0.3452380952380951
 40
0.3452380952380951
 40
0.3452380952380951
 40
0.351190476190476
 40
0.351190476190476
 40
0.351190476190476
 40
0.351190476190476
 40
0.3571428571428569
 40
0.3571428571428569
 40
0.3571428571428569
 40
0.3571428571428569
 40
0.3630952380952379
 40
0.3630952380952379
 40
0.3630952380952379
 40
0.3630952380952379
 40
0.3690476190476188
 40
0.3690476190476188
 40
0.3690476190476188
 40
0.3690476190476188
 40
0.3749999999999997
 40
0.3749999999999997
 40
0.3749999999999997
 40
0.3749999999999997
 40
0.3809523809523807
 40
0.3809523809523807
 40
0.3809523809523807
 40
0.3809523809523807
 40
0.3869047619047616
 40
0.3869047619047616
 40
0.3869047619047616
 40
0.3869047619047616
 40
0.3928571428571425
 40
0.3928571428571425
 40
0.3928571428571425
 40
0.3928571428571425
 40
0.3988095238095235
 40
0.3988095238095235
 40
0.3988095238095235
 40
0.3988095238095235
 40
0.4047619047619044
 40
0.4047619047619044
 40
0.4047619047619044
 40
0.4047619047619044
 40
0.4107142857142853
 40
0.4107142857142853
 40
0.4107142857142853
 40
0.4107142857142853
 40
0.4166666666666662
 40
0.4166666666666662
 40
0.4166666666666662
 40
0.4166666666666662
 40
0.4226190476190472
 40
0.4226190476190472
 40
0.4226190476190472
 40
0.4226190476190472
 40
0.4285714285714281
 40
0.4285714285714281
 40
0.4285714285714281
 40
0.4285714285714281
 40
0.434523809523809
 40
0.434523809523809
 40
0.434523809523809
 40
0.434523809523809
 40
0.44047619047619
 40
0.44047619047619
 40
0.44047619047619
 40
0.44047619047619
 40
0.4464285714285709
 40
0.4464285714285709
 40
0.4464285714285709
 40
0.4464285714285709
 40
0.4523809523809518
 40
0.4523809523809518
 40
0.4523809523809518
 40
0.4523809523809518
 40
0.4583333333333328
 40
0.4583333333333328
 40
0.4583333333333328
 40
0.4583333333333328
 40
0.4642857142857137
 40
0.4642857142857137
 40
0.4642857142857137
 40
0.4642857142857137
 40
0.4702380952380946
 40
0.4702380952380946
 40
0.4702380952380946
 40
0.4702380952380946
 40
0.4761904761904756
 40
0.4761904761904756
 40
0.4761904761904756
 40
0.4761904761904756
 40
0.4821428571428565
 40
0.4821428571428565
 40
0.4821428571428565
 40
0.4821428571428565
 40
0.4880952380952374
 40
0.4880952380952374
 40
0.4880952380952374
 40
0.4880952380952374
 40
0.4940476190476184
 40
0.4940476190476184
 40
0.4940476190476184
 40
0.4940476190476184
 40
0.4999999999999993
 40
0.4999999999999993
 40
0.4999999999999993
 40
0.4999999999999993
 40
0.5059523809523803
 40
0.5059523809523803
 40
0.5059523809523803
 40
0.5059523809523803
 40
0.5119047619047612
 40
0.5119047619047612
 40
0.5119047619047612
 40
0.5119047619047612
 40
0.5178571428571421
 40
0.5178571428571421
 40
0.5178571428571421
 40
0.5178571428571421
 40
0.5238095238095231
 40
0.5238095238095231
 40
0.5238095238095231
 40
0.5238095238095231
 40
0.529761904761904
 40
0.529761904761904
 40
0.529761904761904
 40
0.529761904761904
 40
0.5357142857142849
 40
0.5357142857142849
 40
0.5357142857142849
 40
0.5357142857142849
 40
0.5416666666666659
 40
0.5416666666666659
 40
0.5416666666666659
 40
0.5416666666666659
 40
0.5476190476190468
 40
0.5476190476190468
 40
0.5476190476190468
 40
0.5476190476190468
 40
0.5535714285714277
 40
0.5535714285714277
 40
0.5535714285714277
 40
0.5535714285714277
 40
0.5595238095238087
 40
0.5595238095238087
 40
0.5595238095238087
 40
0.5595238095238087
 40
0.5654761904761896
 40
0.5654761904761896
 40
0.5654761904761896
 40
0.5654761904761896
 40
0.5714285714285705
 40
0.5714285714285705
 40
0.5714285714285705
 40
0.5714285714285705
 40
0.5773809523809514
 40
0.5773809523809514
 40
0.5773809523809514
 40
0.5773809523809514
 40
0.5833333333333324
 40
0.5833333333333324
 40
0.5833333333333324
 40
0.5833333333333324
 40
0.5892857142857133
 40
0.5892857142857133
 40
0.5892857142857133
 40
0.5892857142857133
 40
0.5952380952380942
 40
0.5952380952380942
 40
0.5952380952380942
 40
0.5952380952380942
 40
0.6011904761904752
 40
0.6011904761904752
 40
0.6011904761904752
 40
0.6011904761904752
 40
0.6071428571428561
 40
0.6071428571428561
 40
0.6071428571428561
 40
0.6071428571428561
 40
0.613095238095237
 40
0.613095238095237
 40
0.613095238095237
 40
0.613095238095237
 40
0.619047619047618
 40
0.619047619047618
 40
0.619047619047618
 40
0.619047619047618
 40
0.6249999999999989
 40
0.6249999999999989
 40
0.6249999999999989
 40
0.6249999999999989
 40
0.6309523809523798
 40
0.6309523809523798
 40
0.6309523809523798
 40
0.6309523809523798
 40
0.6369047619047608
 40
0.6369047619047608
 40
0.6369047619047608
 40
0.6369047619047608
 40
0.6428571428571417
 40
0.6428571428571417
 40
0.6428571428571417
 40
0.6428571428571417
 40
0.6488095238095226
 40
0.6488095238095226
 40
0.6488095238095226
 40
0.6488095238095226
 40
0.6547619047619036
 40
0.6547619047619036
 40
0.6547619047619036
 40
0.6547619047619036
 40
0.6607142857142845
 40
0.6607142857142845
 40
0.6607142857142845
 40
0.6607142857142845
 40
0.6666666666666654
 40
0.6666666666666654
 40
0.6666666666666654
 40
0.6666666666666654
 40
0.6726190476190463
 40
0.6726190476190463
 40
0.6726190476190463
 40
0.6726190476190463
 40
0.6785714285714273
 40
0.6785714285714273
 40
0.6785714285714273
 40
0.6785714285714273
 40
0.6845238095238082
 40
0.6845238095238082
 40
0.6845238095238082
 40
0.6845238095238082
 40
0.6904761904761891
 40
0.6904761904761891
 40
0.6904761904761891
 40
0.6904761904761891
 40
0.6964285714285701
 40
0.6964285714285701
 40
0.6964285714285701
 40
0.6964285714285701
 40
0.702380952380951
 40
0.702380952380951
 40
0.702380952380951
 40
0.702380952380951
 40
0.7083333333333319
 40
0.7083333333333319
 40
0.7083333333333319
 40
0.7083333333333319
 40
0.7142857142857129
 40
0.7142857142857129
 40
0.7142857142857129
 40
0.7142857142857129
 40
0.7202380952380938
 40
0.7202380952380938
 40
0.7202380952380938
 40
0.7202380952380938
 40
0.7261904761904747
 40
0.7261904761904747
 40
0.7261904761904747
 40
0.7261904761904747
 40
0.7321428571428557
 40
0.7321428571428557
 40
0.7321428571428557
 40
0.7321428571428557
 40
0.7380952380952366
 40
0.7380952380952366
 40
0.7380952380952366
 40
0.7380952380952366
 40
0.7440476190476175
 40
0.7440476190476175
 40
0.7440476190476175
 40
0.7440476190476175
 40
0.7499999999999985
 40
0.7499999999999985
 40
0.7499999999999985
 40
0.7499999999999985
 40
0.7559523809523794
 40
0.7559523809523794
 40
0.7559523809523794
 40
0.7559523809523794
 40
0.7619047619047603
 40
0.7619047619047603
 40
0.7619047619047603
 40
0.7619047619047603
 40
0.7678571428571412
 40
0.7678571428571412
 40
0.7678571428571412
 40
0.7678571428571412
 40
0.7738095238095222
 40
0.7738095238095222
 40
0.7738095238095222
 40
0.7738095238095222
 40
0.7797619047619031
 40
0.7797619047619031
 40
0.7797619047619031
 40
0.7797619047619031
 40
0.785714285714284
 40
0.785714285714284
 40
0.785714285714284
 40
0.785714285714284
 40
0.791666666666665
 40
0.791666666666665
 40
0.791666666666665
 40
0.791666666666665
 40
0.7976190476190459
 40
0.7976190476190459
 40
0.7976190476190459
 40
0.7976190476190459
 40
0.8035714285714268
 40
0.8035714285714268
 40
0.8035714285714268
 40
0.8035714285714268
 40
0.8095238095238078
 40
0.8095238095238078
 40
0.8095238095238078
 40
0.8095238095238078
 40
0.8154761904761887
 40
0.8154761904761887
 40
0.8154761904761887
 40
0.8154761904761887
 40
0.8214285714285696
 40
0.8214285714285696
 40
0.8214285714285696
 40
0.8214285714285696
 40
0.8273809523809506
 40
0.8273809523809506
 40
0.8273809523809506
 40
0.8273809523809506
 40
0.8333333333333315
 40
0.8333333333333315
 40
0.8333333333333315
 40
0.8333333333333315
 40
0.8392857142857124
 40
0.8392857142857124
 40
0.8392857142857124
 40
0.8392857142857124
 40
0.8452380952380934
 40
0.8452380952380934
 40
0.8452380952380934
 40
0.8452380952380934
 40
0.8511904761904743
 40
0.8511904761904743
 40
0.8511904761904743
 40
0.8511904761904743
 40
0.8571428571428552
 40
0.8571428571428552
 40
0.8571428571428552
 40
0.8571428571428552
 40
0.8630952380952361
 40
0.8630952380952361
 40
0.8630952380952361
 40
0.8630952380952361
 40
0.8690476190476171
 40
0.8690476190476171
 40
0.8690476190476171
 40
0.8690476190476171
 40
0.874999999999998
 40
0.874999999999998
 40
0.874999999999998
 40
0.874999999999998
 40
0.8809523809523789
 40
0.8809523809523789
 40
0.8809523809523789
 40
0.8809523809523789
 40
0.8869047619047599
 40
0.8869047619047599
 40
0.8869047619047599
 40
0.8869047619047599
 40
0.8928571428571408
 40
0.8928571428571408
 40
0.8928571428571408
 40
0.8928571428571408
 40
0.8988095238095217
 40
0.8988095238095217
 40
0.8988095238095217
 40
0.8988095238095217
 40
0.9047619047619027
 40
0.9047619047619027
 40
0.9047619047619027
 40
0.9047619047619027
 40
0.9107142857142836
 40
0.9107142857142836
 40
0.9107142857142836
 40
0.9107142857142836
 40
0.9166666666666645
 40
0.9166666666666645
 40
0.9166666666666645
 40
0.9166666666666645
 40
0.9226190476190455
 40
0.9226190476190455
 40
0.9226190476190455
 40
0.9226190476190455
 40
0.9285714285714264
 40
0.9285714285714264
 40
0.9285714285714264
 40
0.9285714285714264
 40
0.9345238095238073
 40
0.9345238095238073
 40
0.9345238095238073
 40
0.9345238095238073
 40
0.9404761904761883
 40
0.9404761904761883
 40
0.9404761904761883
 40
0.9404761904761883
 40
0.9464285714285692
 40
0.9464285714285692
 40
0.9464285714285692
 40
0.9464285714285692
 40
0.9523809523809501
 40
0.9523809523809501
 40
0.9523809523809501
 40
0.9523809523809501
 40
0.958333333333331
 40
0.958333333333331
 40
0.958333333333331
 40
0.958333333333331
 40
0.964285714285712
 40
0.964285714285712
 40
0.964285714285712
 40
0.964285714285712
 40
0.9702380952380929
 40
0.9702380952380929
 40
0.9702380952380929
 40
0.9702380952380929
 40
0.9761904761904738
 40
0.9761904761904738
 40
0.9761904761904738
 40
0.9761904761904738
 40
0.9821428571428548
 40
0.9821428571428548
 40
0.9821428571428548
 40
0.9821428571428548
 40
0.9880952380952357
 40
0.9880952380952357
 40
0.9880952380952357
 40
0.9880952380952357
 40
0.9940476190476166
 40
0.9940476190476166
 40
0.9940476190476166
 40
0.9940476190476166
 40
1.0
 40
1.0
 40
1.0
 40
1.0
 10
89.643100000000004
 20
-50.351500000000001
 30
0.0
 10
85.780199999999994
 20
-44.396500000000003
 30
0.0
 10
79.305499999999995
 20
-40.249299999999998
 30
0.0
 10
72.667699999999996
 20
-38.866900000000001
 30
0.0
 10
72.667699999999996
 20
-38.866900000000001
 30
0.0
 10
77.618899999999996
 20
-34.613399999999999
 30
0.0
 10
83.059700000000007
 20
-30.466200000000001
 30
0.0
 10
85.943399999999997
 20
-24.830300000000001
 30
0.0
 10
85.943399999999997
 20
-24.830300000000001
 30
0.0
 10
86.161100000000005
 20
-23.3415
 30
0.0
 10
86.324200000000005
 20
-21.427399999999999
 30
0.0
 10
84.800799999999995
 20
-20.576699999999999
 30
0.0
 10
84.800799999999995
 20
-20.576699999999999
 30
0.0
 10
79.468800000000002
 20
-19.991900000000001
 30
0.0
 10
74.626400000000004
 20
-21.852799999999998
 30
0.0
 10
69.892899999999997
 20
-22.650300000000001
 30
0.0
 10
69.892899999999997
 20
-22.650300000000001
 30
0.0
 10
72.123599999999996
 20
-18.5563
 30
0.0
 10
72.014799999999994
 20
-13.558400000000001
 30
0.0
 10
73.048599999999993
 20
-8.9857999999999993
 30
0.0
 10
73.048599999999993
 20
-8.9857999999999993
 30
0.0
 10
73.048599999999993
 20
-8.9857999999999993
 30
0.0
 10
73.810299999999998
 20
-4.8563999999999998
 30
0.0
 10
67.444500000000005
 20
-7.0717999999999996
 30
0.0
 10
67.444500000000005
 20
-7.0717999999999996
 30
0.0
 10
63.037399999999998
 20
-9.0389999999999997
 30
0.0
 10
58.575899999999997
 20
-10.899900000000001
 30
0.0
 10
54.767299999999999
 20
-14.196400000000001
 30
0.0
 10
54.767299999999999
 20
-14.196400000000001
 30
0.0
 10
49.816099999999999
 20
-18.0246
 30
0.0
 10
50.305799999999998
 20
-24.298500000000001
 30
0.0
 10
49.271999999999998
 20
-29.774999999999999
 30
0.0
 10
49.271999999999998
 20
-29.774999999999999
 30
0.0
 10
47.530999999999999
 20
-32.061300000000003
 30
0.0
 10
45.898699999999998
 20
-34.613399999999999
 30
0.0
 10
43.667999999999999
 20
-36.421100000000003
 30
0.0
 10
43.667999999999999
 20
-36.421100000000003
 30
0.0
 10
42.960700000000003
 20
-36.686999999999998
 30
0.0
 10
41.926900000000003
 20
-37.3782
 30
0.0
 10
41.818100000000001
 20
-37.8035
 30
0.0
 10
41.818100000000001
 20
-37.8035
 30
0.0
 10
41.491599999999998
 20
-38.760599999999997
 30
0.0
 10
41.437199999999997
 20
-39.823999999999998
 30
0.0
 10
40.784300000000002
 20
-40.621499999999997
 30
0.0
 10
40.784300000000002
 20
-40.621499999999997
 30
0.0
 10
38.444800000000001
 20
-40.408799999999999
 30
0.0
 10
40.893099999999997
 20
-37.963000000000001
 30
0.0
 10
40.403399999999998
 20
-36.421100000000003
 30
0.0
 10
40.403399999999998
 20
-36.421100000000003
 30
0.0
 10
36.631100000000004
 20
-32.061300000000003
 30
0.0
 10
34.998899999999999
 20
-33.124699999999997
 30
0.0
 10
33.330399999999997
 20
-32.858800000000002
 30
0.0
 10
33.330399999999997
 20
-32.858800000000002
 30
0.0
 10
35.017000000000003
 20
-29.774999999999999
 30
0.0
 10
38.281599999999997
 20
-26.212599999999998
 30
0.0
 10
36.105200000000004
 20
-22.384499999999999
 30
0.0
 10
36.105200000000004
 20
-22.384499999999999
 30
0.0
 10
35.343499999999999
 20
-21.533799999999999
 30
0.0
 10
34.146500000000003
 20
-21.321100000000001
 30
0.0
 10
33.058300000000003
 20
-21.6401
 30
0.0
 10
33.058300000000003
 20
-21.6401
 30
0.0
 10
28.923200000000001
 20
-24.1922
 30
0.0
 10
25.4955
 20
-28.711600000000001
 30
0.0
 10
20.653199999999998
 20
-29.296500000000002
 30
0.0
 10
20.653199999999998
 20
-29.296500000000002
 30
0.0
 10
16.409300000000002
 20
-28.1267
 30
0.0
 10
12.927099999999999
 20
-25.042899999999999
 30
0.0
 10
8.5200999999999993
 20
-24.032699999999998
 30
0.0
 10
8.5200999999999993
 20
-24.032699999999998
 30
0.0
 10
7.6494999999999997
 20
-23.926400000000001
 30
0.0
 10
6.9785000000000004
 20
-23.554200000000002
 30
0.0
 10
5.9084000000000003
 20
-23.660499999999999
 30
0.0
 10
5.9084000000000003
 20
-23.660499999999999
 30
0.0
 10
5.4732000000000003
 20
-22.650300000000001
 30
0.0
 10
5.0378999999999996
 20
-21.1084
 30
0.0
 10
5.7996999999999996
 20
-20.098199999999999
 30
0.0
 10
5.7996999999999996
 20
-20.098199999999999
 30
0.0
 10
11.403700000000001
 20
-20.842600000000001
 30
0.0
 10
17.334199999999999
 20
-20.098199999999999
 30
0.0
 10
22.122199999999999
 20
-17.811900000000001
 30
0.0
 10
22.122199999999999
 20
-17.811900000000001
 30
0.0
 10
29.4129
 20
-20.045000000000002
 30
0.0
 10
38.009500000000003
 20
-16.961200000000002
 30
0.0
 10
45.245800000000003
 20
-19.4602
 30
0.0
 10
45.245800000000003
 20
-19.4602
 30
0.0
 10
44.865000000000002
 20
-14.940799999999999
 30
0.0
 10
47.5854
 20
-11.591100000000001
 30
0.0
 10
49.380899999999997
 20
-7.9756999999999998
 30
0.0
 10
49.380899999999997
 20
-7.9756999999999998
 30
0.0
 10
52.318899999999999
 20
-4.0942999999999996
 30
0.0
 10
50.795499999999997
 20
1.2757000000000001
 30
0.0
 10
50.197000000000003
 20
5.6886999999999999
 30
0.0
 10
50.197000000000003
 20
5.6886999999999999
 30
0.0
 10
51.938099999999999
 20
13.0793
 30
0.0
 10
52.101300000000002
 20
21.462199999999999
 30
0.0
 10
53.080599999999997
 20
29.118600000000001
 30
0.0
 10
53.080599999999997
 20
29.118600000000001
 30
0.0
 10
53.080599999999997
 20
29.118600000000001
 30
0.0
 10
48.600999999999999
 20
25.095500000000001
 30
0.0
 10
36.866900000000001
 20
28.9236
 30
0.0
 10
36.866900000000001
 20
28.9236
 30
0.0
 10
35.017000000000003
 20
31.901199999999999
 30
0.0
 10
35.452300000000001
 20
35.622999999999998
 30
0.0
 10
35.561100000000003
 20
39.132199999999997
 30
0.0
 10
35.561100000000003
 20
39.132199999999997
 30
0.0
 10
31.208400000000001
 20
37.377600000000001
 30
0.0
 10
25.277899999999999
 20
37.749699999999997
 30
0.0
 10
21.0884
 20
39.504300000000001
 30
0.0
 10
21.0884
 20
39.504300000000001
 30
0.0
 10
22.6663
 20
44.023699999999998
 30
0.0
 10
23.482399999999998
 20
48.808900000000001
 30
0.0
 10
25.4955
 20
53.168799999999997
 30
0.0
 10
25.4955
 20
53.168799999999997
 30
0.0
 10
25.4955
 20
53.168799999999997
 30
0.0
 10
28.923200000000001
 20
52.530799999999999
 30
0.0
 10
28.923200000000001
 20
52.530799999999999
 30
0.0
 10
28.923200000000001
 20
52.530799999999999
 30
0.0
 10
28.923200000000001
 20
52.530799999999999
 30
0.0
 10
27.345400000000001
 20
55.1892
 30
0.0
 10
27.345400000000001
 20
55.1892
 30
0.0
 10
27.345400000000001
 20
55.1892
 30
0.0
 10
28.270399999999999
 20
55.720999999999997
 30
0.0
 10
29.521799999999999
 20
55.6678
 30
0.0
 10
30.337900000000001
 20
56.1995
 30
0.0
 10
30.337900000000001
 20
56.1995
 30
0.0
 10
30.337900000000001
 20
56.1995
 30
0.0
 10
27.6174
 20
58.007199999999997
 30
0.0
 10
27.6174
 20
58.007199999999997
 30
0.0
 10
27.6174
 20
58.007199999999997
 30
0.0
 10
27.6174
 20
58.007199999999997
 30
0.0
 10
29.140899999999998
 20
59.6554
 30
0.0
 10
29.140899999999998
 20
59.6554
 30
0.0
 10
29.140899999999998
 20
59.6554
 30
0.0
 10
28.107099999999999
 20
60.0276
 30
0.0
 10
27.127800000000001
 20
60.5593
 30
0.0
 10
26.0396
 20
60.665700000000001
 30
0.0
 10
26.0396
 20
60.665700000000001
 30
0.0
 10
26.0396
 20
60.665700000000001
 30
0.0
 10
26.692499999999999
 20
65.3977
 30
0.0
 10
26.692499999999999
 20
65.3977
 30
0.0
 10
26.692499999999999
 20
65.3977
 30
0.0
 10
28.814499999999999
 20
67.418099999999995
 30
0.0
 10
32.459800000000001
 20
66.939599999999999
 30
0.0
 10
35.452300000000001
 20
66.833299999999994
 30
0.0
 10
35.452300000000001
 20
66.833299999999994
 30
0.0
 10
35.996400000000001
 20
66.195300000000003
 30
0.0
 10
36.921300000000002
 20
65.982600000000005
 30
0.0
 10
37.628599999999999
 20
65.557199999999995
 30
0.0
 10
37.628599999999999
 20
65.557199999999995
 30
0.0
 10
37.628599999999999
 20
65.557199999999995
 30
0.0
 10
38.553600000000003
 20
67.311800000000005
 30
0.0
 10
38.553600000000003
 20
67.311800000000005
 30
0.0
 10
38.553600000000003
 20
67.311800000000005
 30
0.0
 10
41.7637
 20
66.620599999999996
 30
0.0
 10
46.0075
 20
68.428399999999996
 30
0.0
 10
48.238300000000002
 20
65.3977
 30
0.0
 10
48.238300000000002
 20
65.3977
 30
0.0
 10
48.401499999999999
 20
66.035799999999995
 30
0.0
 10
48.401499999999999
 20
66.780100000000004
 30
0.0
 10
48.728000000000002
 20
67.311800000000005
 30
0.0
 10
48.728000000000002
 20
67.311800000000005
 30
0.0
 10
53.515900000000002
 20
68.056200000000004
 30
0.0
 10
57.705399999999997
 20
70.1297
 30
0.0
 10
61.568399999999997
 20
72.947800000000001
 30
0.0
 10
61.568399999999997
 20
72.947800000000001
 30
0.0
 10
62.547699999999999
 20
73.904799999999994
 30
0.0
 10
63.853499999999997
 20
74.330100000000002
 30
0.0
 10
65.0505
 20
74.861900000000006
 30
0.0
 10
65.0505
 20
74.861900000000006
 30
0.0
 10
65.0505
 20
74.861900000000006
 30
0.0
 10
65.0505
 20
77.254400000000004
 30
0.0
 10
65.0505
 20
77.254400000000004
 30
0.0
 10
65.0505
 20
77.254400000000004
 30
0.0
 10
65.812299999999993
 20
79.700199999999995
 30
0.0
 10
67.498900000000006
 20
82.305499999999995
 30
0.0
 10
70.164900000000003
 20
82.996700000000004
 30
0.0
 10
70.164900000000003
 20
82.996700000000004
 30
0.0
 10
70.164900000000003
 20
84.006900000000002
 30
0.0
 10
69.620900000000006
 20
84.6982
 30
0.0
 10
69.403199999999998
 20
85.5488
 30
0.0
 10
69.403199999999998
 20
85.5488
 30
0.0
 10
69.294399999999996
 20
88.6858
 30
0.0
 10
72.831000000000003
 20
90.174599999999998
 30
0.0
 10
74.626400000000004
 20
92.460800000000006
 30
0.0
 10
74.626400000000004
 20
92.460800000000006
 30
0.0
 10
74.245599999999996
 20
93.045699999999997
 30
0.0
 10
73.9191
 20
93.790000000000006
 30
0.0
 10
73.157399999999996
 20
94.002700000000004
 30
0.0
 10
73.157399999999996
 20
94.002700000000004
 30
0.0
 10
73.973500000000001
 20
96.661199999999994
 30
0.0
 10
74.9529
 20
99.479100000000003
 30
0.0
 10
74.354399999999998
 20
102.563
 30
0.0
 10
74.354399999999998
 20
102.563
 30
0.0
 10
74.735200000000006
 20
103.3605
 30
0.0
 10
75.442599999999999
 20
104.21120000000001
 30
0.0
 10
75.496899999999997
 20
104.9556
 30
0.0
 10
75.496899999999997
 20
104.9556
 30
0.0
 10
72.885400000000004
 20
105.4873
 30
0.0
 10
71.307500000000005
 20
108.5711
 30
0.0
 10
68.478200000000001
 20
108.5179
 30
0.0
 10
68.478200000000001
 20
108.5179
 30
0.0
 10
68.478200000000001
 20
108.5179
 30
0.0
 10
67.281300000000002
 20
110.6978
 30
0.0
 10
67.281300000000002
 20
110.6978
 30
0.0
 10
67.281300000000002
 20
110.6978
 30
0.0
 10
65.975499999999997
 20
110.3788
 30
0.0
 10
64.778499999999994
 20
109.8472
 30
0.0
 10
63.363799999999998
 20
109.68770000000001
 30
0.0
 10
63.363799999999998
 20
109.68770000000001
 30
0.0
 10
62.112499999999997
 20
109.52809999999999
 30
0.0
 10
60.752299999999998
 20
108.41160000000001
 30
0.0
 10
59.609699999999997
 20
109.15600000000001
 30
0.0
 10
59.609699999999997
 20
109.15600000000001
 30
0.0
 10
58.086199999999998
 20
110.6978
 30
0.0
 10
56.617199999999997
 20
108.7306
 30
0.0
 10
55.692300000000003
 20
107.66719999999999
 30
0.0
 10
55.692300000000003
 20
107.66719999999999
 30
0.0
 10
54.114400000000003
 20
107.1887
 30
0.0
 10
52.318899999999999
 20
106.07210000000001
 30
0.0
 10
50.686700000000002
 20
106.86969999999999
 30
0.0
 10
50.686700000000002
 20
106.86969999999999
 30
0.0
 10
49.489699999999999
 20
107.295
 30
0.0
 10
49.380899999999997
 20
105.4341
 30
0.0
 10
48.619100000000003
 20
104.68980000000001
 30
0.0
 10
48.619100000000003
 20
104.68980000000001
 30
0.0
 10
47.258899999999997
 20
105.1151
 30
0.0
 10
46.1708
 20
104.0517
 30
0.0
 10
44.973799999999997
 20
103.6795
 30
0.0
 10
44.973799999999997
 20
103.6795
 30
0.0
 10
44.973799999999997
 20
103.6795
 30
0.0
 10
41.546100000000003
 20
104.5834
 30
0.0
 10
41.546100000000003
 20
104.5834
 30
0.0
 10
41.546100000000003
 20
104.5834
 30
0.0
 10
40.838700000000003
 20
103.78579999999999
 30
0.0
 10
40.838700000000003
 20
102.66930000000001
 30
0.0
 10
40.6755
 20
101.6591
 30
0.0
 10
40.6755
 20
101.6591
 30
0.0
 10
37.302199999999999
 20
99.1601
 30
0.0
 10
34.309699999999999
 20
95.491500000000002
 30
0.0
 10
31.5349
 20
92.832999999999998
 30
0.0
 10
31.5349
 20
92.832999999999998
 30
0.0
 10
30.718800000000002
 20
92.779799999999994
 30
0.0
 10
29.957000000000001
 20
92.886200000000002
 30
0.0
 10
29.304099999999998
 20
93.205200000000005
 30
0.0
 10
29.304099999999998
 20
93.205200000000005
 30
0.0
 10
29.304099999999998
 20
93.205200000000005
 30
0.0
 10
29.0321
 20
88.739000000000004
 30
0.0
 10
29.0321
 20
88.739000000000004
 30
0.0
 10
29.0321
 20
88.739000000000004
 30
0.0
 10
27.7807
 20
86.665400000000005
 30
0.0
 10
25.821999999999999
 20
84.857600000000005
 30
0.0
 10
24.842600000000001
 20
82.624499999999998
 30
0.0
 10
24.842600000000001
 20
82.624499999999998
 30
0.0
 10
22.611899999999999
 20
83.4221
 30
0.0
 10
23.482399999999998
 20
86.718500000000006
 30
0.0
 10
21.578099999999999
 20
88.260499999999993
 30
0.0
 10
21.578099999999999
 20
88.260499999999993
 30
0.0
 10
21.578099999999999
 20
88.260499999999993
 30
0.0
 10
21.959
 20
91.184799999999996
 30
0.0
 10
21.959
 20
91.184799999999996
 30
0.0
 10
21.959
 20
91.184799999999996
 30
0.0
 10
21.360499999999998
 20
91.078400000000002
 30
0.0
 10
20.489999999999998
 20
91.397400000000005
 30
0.0
 10
20.163499999999999
 20
90.918899999999994
 30
0.0
 10
20.163499999999999
 20
90.918899999999994
 30
0.0
 10
20.163499999999999
 20
90.918899999999994
 30
0.0
 10
19.891500000000001
 20
91.184799999999996
 30
0.0
 10
19.891500000000001
 20
91.184799999999996
 30
0.0
 10
19.891500000000001
 20
91.184799999999996
 30
0.0
 10
20.435600000000001
 20
92.832999999999998
 30
0.0
 10
21.523700000000002
 20
94.268600000000006
 30
0.0
 10
22.394200000000001
 20
95.757300000000001
 30
0.0
 10
22.394200000000001
 20
95.757300000000001
 30
0.0
 10
21.033999999999999
 20
95.331999999999994
 30
0.0
 10
19.619399999999999
 20
94.534400000000005
 30
0.0
 10
18.585599999999999
 20
94.002700000000004
 30
0.0
 10
18.585599999999999
 20
94.002700000000004
 30
0.0
 10
18.585599999999999
 20
94.002700000000004
 30
0.0
 10
17.932700000000001
 20
96.289000000000001
 30
0.0
 10
17.932700000000001
 20
96.289000000000001
 30
0.0
 10
17.932700000000001
 20
96.289000000000001
 30
0.0
 10
17.279800000000002
 20
95.810500000000005
 30
0.0
 10
16.8446
 20
94.800299999999993
 30
0.0
 10
15.974
 20
94.906599999999997
 30
0.0
 10
15.974
 20
94.906599999999997
 30
0.0
 10
15.974
 20
94.906599999999997
 30
0.0
 10
10.8596
 20
99.372799999999998
 30
0.0
 10
10.8596
 20
99.372799999999998
 30
0.0
 10
10.8596
 20
99.372799999999998
 30
0.0
 10
9.4450000000000003
 20
101.5527
 30
0.0
 10
5.1467000000000001
 20
101.9781
 30
0.0
 10
6.1805000000000003
 20
104.9556
 30
0.0
 10
6.1805000000000003
 20
104.9556
 30
0.0
 10
4.9291
 20
104.4239
 30
0.0
 10
3.3513000000000002
 20
103.3073
 30
0.0
 10
2.2631000000000001
 20
103.94540000000001
 30
0.0
 10
2.2631000000000001
 20
103.94540000000001
 30
0.0
 10
2.2631000000000001
 20
103.94540000000001
 30
0.0
 10
3.2968999999999999
 20
106.1253
 30
0.0
 10
3.2968999999999999
 20
106.1253
 30
0.0
 10
3.2968999999999999
 20
106.1253
 30
0.0
 10
1.9911000000000001
 20
105.9126
 30
0.0
 10
0.6308
 20
104.9556
 30
0.0
 10
-0.6205000000000001
 20
105.3278
 30
0.0
 10
-0.6205000000000001
 20
105.3278
 30
0.0
 10
-2.0350999999999999
 20
105.54040000000001
 30
0.0
 10
-0.6749000000000001
 20
107.2419
 30
0.0
 10
-0.7293
 20
108.14570000000001
 30
0.0
 10
-0.7293
 20
108.14570000000001
 30
0.0
 10
-0.7293
 20
108.14570000000001
 30
0.0
 10
-3.613
 20
105.2214
 30
0.0
 10
-3.613
 20
105.2214
 30
0.0
 10
-3.613
 20
105.2214
 30
0.0
 10
-5.6803999999999997
 20
105.4341
 30
0.0
 10
-7.6936
 20
105.6999
 30
0.0
 10
-9.8698999999999995
 20
105.5936
 30
0.0
 10
-9.8698999999999995
 20
105.5936
 30
0.0
 10
-11.2845
 20
105.80629999999999
 30
0.0
 10
-13.08
 20
104.47709999999999
 30
0.0
 10
-13.6785
 20
106.2316
 30
0.0
 10
-13.6785
 20
106.2316
 30
0.0
 10
-14.4946
 20
105.4873
 30
0.0
 10
-15.3652
 20
104.9024
 30
0.0
 10
-16.290099999999999
 20
104.47709999999999
 30
0.0
 10
-16.290099999999999
 20
104.47709999999999
 30
0.0
 10
-16.834199999999999
 20
105.4341
 30
0.0
 10
-16.779800000000002
 20
106.8165
 30
0.0
 10
-17.2151
 20
107.7735
 30
0.0
 10
-17.2151
 20
107.7735
 30
0.0
 10
-17.7592
 20
106.33799999999999
 30
0.0
 10
-18.357700000000001
 20
104.8492
 30
0.0
 10
-19.0105
 20
103.5732
 30
0.0
 10
-19.0105
 20
103.5732
 30
0.0
 10
-19.772300000000001
 20
104.5834
 30
0.0
 10
-20.262
 20
105.6999
 30
0.0
 10
-20.860399999999998
 20
106.7633
 30
0.0
 10
-20.860399999999998
 20
106.7633
 30
0.0
 10
-20.860399999999998
 20
106.7633
 30
0.0
 10
-20.316400000000002
 20
101.39319999999999
 30
0.0
 10
-20.316400000000002
 20
101.39319999999999
 30
0.0
 10
-20.316400000000002
 20
101.39319999999999
 30
0.0
 10
-25.7028
 20
97.618300000000005
 30
0.0
 10
-28.3688
 20
91.876000000000005
 30
0.0
 10
-31.143699999999999
 20
86.612200000000001
 30
0.0
 10
-31.143699999999999
 20
86.612200000000001
 30
0.0
 10
-32.177399999999999
 20
86.558999999999997
 30
0.0
 10
-32.721499999999999
 20
87.941500000000005
 30
0.0
 10
-33.537599999999998
 20
88.6327
 30
0.0
 10
-33.537599999999998
 20
88.6327
 30
0.0
 10
-33.591999999999999
 20
87.197100000000006
 30
0.0
 10
-32.884700000000002
 20
85.921000000000006
 30
0.0
 10
-33.102400000000003
 20
84.538600000000002
 30
0.0
 10
-33.102400000000003
 20
84.538600000000002
 30
0.0
 10
-34.136099999999999
 20
84.432299999999998
 30
0.0
 10
-34.8979
 20
85.336200000000005
 30
0.0
 10
-35.713999999999999
 20
85.176699999999997
 30
0.0
 10
-35.713999999999999
 20
85.176699999999997
 30
0.0
 10
-35.278700000000001
 20
83.953800000000001
 30
0.0
 10
-34.136099999999999
 20
82.996700000000004
 30
0.0
 10
-33.374400000000001
 20
81.880099999999999
 30
0.0
 10
-33.374400000000001
 20
81.880099999999999
 30
0.0
 10
-33.374400000000001
 20
81.880099999999999
 30
0.0
 10
-37.291800000000002
 20
71.299499999999995
 30
0.0
 10
-37.291800000000002
 20
71.299499999999995
 30
0.0
 10
-37.291800000000002
 20
71.299499999999995
 30
0.0
 10
-38.652000000000001
 20
72.628699999999995
 30
0.0
 10
-38.488799999999998
 20
75.0214
 30
0.0
 10
-38.488799999999998
 20
77.148099999999999
 30
0.0
 10
-38.488799999999998
 20
77.148099999999999
 30
0.0
 10
-39.032899999999998
 20
79.274900000000002
 30
0.0
 10
-38.107900000000001
 20
83.368899999999996
 30
0.0
 10
-41.209200000000003
 20
82.996700000000004
 30
0.0
 10
-41.209200000000003
 20
82.996700000000004
 30
0.0
 10
-42.079700000000003
 20
85.974199999999996
 30
0.0
 10
-43.059100000000001
 20
88.898499999999999
 30
0.0
 10
-44.637
 20
91.556899999999999
 30
0.0
 10
-44.637
 20
91.556899999999999
 30
0.0
 10
-45.561900000000001
 20
91.344300000000004
 30
0.0
 10
-46.976500000000001
 20
91.503799999999998
 30
0.0
 10
-47.901499999999999
 20
90.918899999999994
 30
0.0
 10
-47.901499999999999
 20
90.918899999999994
 30
0.0
 10
-48.717599999999997
 20
93.045699999999997
 30
0.0
 10
-49.261699999999998
 20
95.278800000000004
 30
0.0
 10
-50.621899999999997
 20
97.192899999999995
 30
0.0
 10
-50.621899999999997
 20
97.192899999999995
 30
0.0
 10
-55.029000000000003
 20
94.906599999999997
 30
0.0
 10
-58.5655
 20
90.387200000000007
 30
0.0
 10
-60.5242
 20
86.080500000000001
 30
0.0
 10
-60.5242
 20
86.080500000000001
 30
0.0
 10
-64.5505
 20
85.017200000000003
 30
0.0
 10
-63.625500000000002
 20
80.125600000000006
 30
0.0
 10
-63.951999999999998
 20
76.616399999999999
 30
0.0
 10
-63.951999999999998
 20
76.616399999999999
 30
0.0
 10
-64.5505
 20
73.904799999999994
 30
0.0
 10
-62.047699999999999
 20
70.874099999999999
 30
0.0
 10
-64.604900000000001
 20
68.959999999999994
 30
0.0
 10
-64.604900000000001
 20
68.959999999999994
 30
0.0
 10
-64.224000000000004
 20
65.769900000000007
 30
0.0
 10
-63.353499999999997
 20
62.792499999999997
 30
0.0
 10
-62.265300000000003
 20
59.921300000000002
 30
0.0
 10
-62.265300000000003
 20
59.921300000000002
 30
0.0
 10
-64.931299999999993
 20
58.432600000000001
 30
0.0
 10
-63.679900000000004
 20
55.242400000000004
 30
0.0
 10
-63.788699999999999
 20
52.902999999999999
 30
0.0
 10
-63.788699999999999
 20
52.902999999999999
 30
0.0
 10
-63.734299999999998
 20
51.3611
 30
0.0
 10
-61.721200000000003
 20
52.690300000000001
 30
0.0
 10
-61.068399999999997
 20
51.7333
 30
0.0
 10
-61.068399999999997
 20
51.7333
 30
0.0
 10
-59.708100000000002
 20
47.585999999999999
 30
0.0
 10
-58.619900000000001
 20
43.332500000000003
 30
0.0
 10
-56.770000000000003
 20
39.398000000000003
 30
0.0
 10
-56.770000000000003
 20
39.398000000000003
 30
0.0
 10
-56.770000000000003
 20
39.398000000000003
 30
0.0
 10
-53.886400000000002
 20
38.334600000000002
 30
0.0
 10
-53.886400000000002
 20
38.334600000000002
 30
0.0
 10
-53.886400000000002
 20
38.334600000000002
 30
0.0
 10
-53.886400000000002
 20
38.334600000000002
 30
0.0
 10
-53.7776
 20
24.563800000000001
 30
0.0
 10
-53.7776
 20
24.563800000000001
 30
0.0
 10
-53.7776
 20
24.563800000000001
 30
0.0
 10
-52.526200000000003
 20
24.404299999999999
 30
0.0
 10
-51.383600000000001
 20
24.8828
 30
0.0
 10
-50.513100000000001
 20
24.4575
 30
0.0
 10
-50.513100000000001
 20
24.4575
 30
0.0
 10
-49.969000000000001
 20
21.462299999999999
 30
0.0
 10
-50.893900000000002
 20
20.469799999999999
 30
0.0
 10
-50.893900000000002
 20
20.469799999999999
 30
0.0
 10
-50.893900000000002
 20
20.469799999999999
 30
0.0
 10
-51.438000000000002
 20
21.3736
 30
0.0
 10
-51.274799999999999
 20
22.596499999999999
 30
0.0
 10
-51.6556
 20
23.553599999999999
 30
0.0
 10
-51.6556
 20
23.553599999999999
 30
0.0
 10
-52.689399999999999
 20
23.394100000000002
 30
0.0
 10
-53.668799999999997
 20
22.809200000000001
 30
0.0
 10
-54.648099999999999
 20
23.021899999999999
 30
0.0
 10
-54.648099999999999
 20
23.021899999999999
 30
0.0
 10
-55.409799999999997
 20
27.807099999999998
 30
0.0
 10
-55.355400000000003
 20
32.9114
 30
0.0
 10
-55.7363
 20
37.856099999999998
 30
0.0
 10
-55.7363
 20
37.856099999999998
 30
0.0
 10
-56.225999999999999
 20
38.759900000000002
 30
0.0
 10
-57.640599999999999
 20
38.121899999999997
 30
0.0
 10
-58.347900000000003
 20
38.866300000000003
 30
0.0
 10
-58.347900000000003
 20
38.866300000000003
 30
0.0
 10
-58.347900000000003
 20
38.866300000000003
 30
0.0
 10
-60.6875
 20
45.884700000000002
 30
0.0
 10
-60.6875
 20
45.884700000000002
 30
0.0
 10
-60.6875
 20
45.884700000000002
 30
0.0
 10
-62.936399999999999
 20
54.072699999999998
 30
0.0
 10
-64.894999999999996
 20
50.2622
 30
0.0
 10
-65.058300000000003
 20
50.528100000000002
 30
0.0
 10
-65.058300000000003
 20
50.528100000000002
 30
0.0
 10
-65.058300000000003
 20
50.634399999999999
 30
0.0
 10
-66.835599999999999
 20
59.212400000000002
 30
0.0
 10
-70.589799999999997
 20
66.6738
 30
0.0
 10
-70.589799999999997
 20
66.6738
 30
0.0
 10
-71.460400000000007
 20
67.276399999999995
 30
0.0
 10
-72.222099999999998
 20
66.567499999999995
 30
0.0
 10
-72.929400000000001
 20
66.833299999999994
 30
0.0
 10
-72.929400000000001
 20
66.833299999999994
 30
0.0
 10
-72.929400000000001
 20
66.833299999999994
 30
0.0
 10
-77.662899999999993
 20
73.692099999999996
 30
0.0
 10
-77.662899999999993
 20
73.692099999999996
 30
0.0
 10
-77.662899999999993
 20
73.692099999999996
 30
0.0
 10
-79.077600000000004
 20
75.552999999999997
 30
0.0
 10
-81.090599999999995
 20
77.839299999999994
 30
0.0
 10
-83.158199999999994
 20
78.796400000000006
 30
0.0
 10
-83.158199999999994
 20
78.796400000000006
 30
0.0
 10
-84.953699999999998
 20
76.137900000000002
 30
0.0
 10
-85.388900000000007
 20
72.947800000000001
 30
0.0
 10
-86.531499999999994
 20
70.023399999999995
 30
0.0
 10
-86.531499999999994
 20
70.023399999999995
 30
0.0
 10
-87.456500000000005
 20
69.544899999999998
 30
0.0
 10
-88.109399999999994
 20
71.140000000000001
 30
0.0
 10
-88.762299999999996
 20
69.863900000000001
 30
0.0
 10
-88.762299999999996
 20
69.863900000000001
 30
0.0
 10
-89.197500000000005
 20
65.3446
 30
0.0
 10
-88.653499999999994
 20
60.9315
 30
0.0
 10
-87.565299999999993
 20
56.837499999999999
 30
0.0
 10
-87.565299999999993
 20
56.837499999999999
 30
0.0
 10
-87.565299999999993
 20
56.837499999999999
 30
0.0
 10
-89.687200000000004
 20
55.455100000000002
 30
0.0
 10
-89.687200000000004
 20
55.455100000000002
 30
0.0
 10
-89.687200000000004
 20
55.455100000000002
 30
0.0
 10
-88.979900000000001
 20
50.191299999999998
 30
0.0
 10
-86.585899999999995
 20
45.6188
 30
0.0
 10
-84.572800000000001
 20
40.886699999999998
 30
0.0
 10
-84.572800000000001
 20
40.886699999999998
 30
0.0
 10
-84.572800000000001
 20
40.886699999999998
 30
0.0
 10
-85.769800000000004
 20
40.036000000000001
 30
0.0
 10
-85.769800000000004
 20
40.036000000000001
 30
0.0
 10
-85.769800000000004
 20
40.036000000000001
 30
0.0
 10
-85.116900000000001
 20
35.888800000000003
 30
0.0
 10
-82.614099999999993
 20
32.539200000000001
 30
0.0
 10
-80.546599999999998
 20
29.030000000000001
 30
0.0
 10
-80.546599999999998
 20
29.030000000000001
 30
0.0
 10
-80.546599999999998
 20
29.030000000000001
 30
0.0
 10
-81.580299999999994
 20
28.0198
 30
0.0
 10
-81.580299999999994
 20
28.0198
 30
0.0
 10
-81.580299999999994
 20
28.0198
 30
0.0
 10
-81.145099999999999
 20
22.7029
 30
0.0
 10
-77.064400000000006
 20
18.874700000000001
 30
0.0
 10
-74.017600000000002
 20
14.6212
 30
0.0
 10
-74.017600000000002
 20
14.6212
 30
0.0
 10
-74.398399999999995
 20
14.249000000000001
 30
0.0
 10
-74.942499999999995
 20
14.089499999999999
 30
0.0
 10
-75.432199999999995
 20
13.876799999999999
 30
0.0
 10
-75.432199999999995
 20
13.876799999999999
 30
0.0
 10
-69.610399999999998
 20
1.4883999999999999
 30
0.0
 10
-57.423000000000002
 20
-8.2947000000000006
 30
0.0
 10
-52.961500000000001
 20
-21.214700000000001
 30
0.0
 10
-52.961500000000001
 20
-21.214700000000001
 30
0.0
 10
-54.267299999999999
 20
-25.5746
 30
0.0
 10
-53.995199999999997
 20
-30.678899999999999
 30
0.0
 10
-52.689399999999999
 20
-34.879199999999997
 30
0.0
 10
-52.689399999999999
 20
-34.879199999999997
 30
0.0
 10
-52.526200000000003
 20
-39.505000000000003
 30
0.0
 10
-54.484900000000003
 20
-43.5989
 30
0.0
 10
-55.083399999999997
 20
-48.012
 30
0.0
 10
-55.083399999999997
 20
-48.012
 30
0.0
 10
-55.899500000000003
 20
-51.786999999999999
 30
0.0
 10
-55.1922
 20
-56.200099999999999
 30
0.0
 10
-58.075899999999997
 20
-59.124400000000001
 30
0.0
 10
-58.075899999999997
 20
-59.124400000000001
 30
0.0
 10
-59.871299999999998
 20
-64.175399999999996
 30
0.0
 10
-65.149000000000001
 20
-69.864599999999996
 30
0.0
 10
-61.068399999999997
 20
-75.2346
 30
0.0
 10
-61.068399999999997
 20
-75.2346
 30
0.0
 10
-61.286000000000001
 20
-80.870599999999996
 30
0.0
 10
-64.115200000000002
 20
-89.111800000000002
 30
0.0
 10
-57.695
 20
-92.461500000000001
 30
0.0
 10
-57.695
 20
-92.461500000000001
 30
0.0
 10
-57.531799999999997
 20
-95.226200000000006
 30
0.0
 10
-57.586199999999998
 20
-107.20699999999999
 30
0.0
 10
-53.342300000000002
 20
-109.7946
 30
0.0
 10
-53.342300000000002
 20
-109.7946
 30
0.0
 10
-50.875799999999998
 20
-110.9289
 30
0.0
 10
-45.978999999999999
 20
-114.7393
 30
0.0
 10
-45.779499999999999
 20
-95.8643
 30
0.0
 10
-45.779499999999999
 20
-95.8643
 30
0.0
 10
-43.494399999999999
 20
-90.760000000000005
 30
0.0
 10
-43.766399999999997
 20
-84.539199999999994
 30
0.0
 10
-43.059100000000001
 20
-78.796999999999997
 30
0.0
 10
-43.059100000000001
 20
-78.796999999999997
 30
0.0
 10
-43.059100000000001
 20
-78.796999999999997
 30
0.0
 10
-42.787100000000002
 20
-78.424800000000005
 30
0.0
 10
-42.787100000000002
 20
-78.424800000000005
 30
0.0
 10
-42.787100000000002
 20
-78.424800000000005
 30
0.0
 10
-38.5976
 20
-77.680400000000006
 30
0.0
 10
-33.918500000000002
 20
-77.361400000000003
 30
0.0
 10
-29.728999999999999
 20
-76.244900000000001
 30
0.0
 10
-29.728999999999999
 20
-76.244900000000001
 30
0.0
 10
-20.5884
 20
-74.277600000000007
 30
0.0
 10
-12.6447
 20
-66.195899999999995
 30
0.0
 10
-7.8023999999999996
 20
-58.4863
 30
0.0
 10
-7.8023999999999996
 20
-58.4863
 30
0.0
 10
-7.8023999999999996
 20
-61.782800000000002
 30
0.0
 10
-7.6391999999999998
 20
-65.451499999999996
 30
0.0
 10
-8.4552999999999994
 20
-68.588499999999996
 30
0.0
 10
-8.4552999999999994
 20
-68.588499999999996
 30
0.0
 10
-11.6654
 20
-74.224400000000003
 30
0.0
 10
-15.419499999999999
 20
-79.594499999999996
 30
0.0
 10
-16.0181
 20
-86.293800000000005
 30
0.0
 10
-16.0181
 20
-86.293800000000005
 30
0.0
 10
-14.3858
 20
-91.663899999999998
 30
0.0
 10
-11.6654
 20
-96.555499999999995
 30
0.0
 10
-8.8361999999999998
 20
-101.3939
 30
0.0
 10
-8.8361999999999998
 20
-101.3939
 30
0.0
 10
-8.8361999999999998
 20
-101.3939
 30
0.0
 10
-6.8956
 20
-103.751
 30
0.0
 10
-4.2657999999999996
 20
-102.1383
 30
0.0
 10
-4.2657999999999996
 20
-102.1383
 30
0.0
 10
4.8202999999999996
 20
-95.3857
 30
0.0
 10
6.8334000000000001
 20
-83.528999999999996
 30
0.0
 10
3.5689000000000002
 20
-73.320499999999996
 30
0.0
 10
3.5689000000000002
 20
-73.320499999999996
 30
0.0
 10
3.5689000000000002
 20
-73.320499999999996
 30
0.0
 10
-2.5790999999999999
 20
-65.504599999999996
 30
0.0
 10
-2.5790999999999999
 20
-65.504599999999996
 30
0.0
 10
-2.5790999999999999
 20
-65.504599999999996
 30
0.0
 10
-3.0689000000000002
 20
-65.079300000000003
 30
0.0
 10
-3.3409
 20
-64.175399999999996
 30
0.0
 10
-2.6880000000000002
 20
-63.856400000000001
 30
0.0
 10
-2.6880000000000002
 20
-63.856400000000001
 30
0.0
 10
0.8485
 20
-66.408600000000007
 30
0.0
 10
1.9911000000000001
 20
-70.396199999999993
 30
0.0
 10
4.3305999999999996
 20
-73.692700000000002
 30
0.0
 10
4.3305999999999996
 20
-73.692700000000002
 30
0.0
 10
9.4993999999999996
 20
-76.191699999999997
 30
0.0
 10
14.3962
 20
-79.222300000000004
 30
0.0
 10
20.435600000000001
 20
-79.541300000000007
 30
0.0
 10
20.435600000000001
 20
-79.541300000000007
 30
0.0
 10
25.114699999999999
 20
-79.062799999999996
 30
0.0
 10
30.501100000000001
 20
-78.371600000000001
 30
0.0
 10
32.568600000000004
 20
-73.533199999999994
 30
0.0
 10
32.568600000000004
 20
-73.533199999999994
 30
0.0
 10
33.765700000000002
 20
-71.938100000000006
 30
0.0
 10
32.514200000000002
 20
-70.236699999999999
 30
0.0
 10
31.371600000000001
 20
-69.066999999999993
 30
0.0
 10
31.371600000000001
 20
-69.066999999999993
 30
0.0
 10
21.306100000000001
 20
-69.385999999999996
 30
0.0
 10
11.784599999999999
 20
-68.535300000000007
 30
0.0
 10
3.1880000000000002
 20
-65.398300000000006
 30
0.0
 10
3.1880000000000002
 20
-65.398300000000006
 30
0.0
 10
-2.3616000000000001
 20
-62.846200000000003
 30
0.0
 10
0.1955
 20
-56.465899999999998
 30
0.0
 10
-1.3822000000000001
 20
-52.265599999999999
 30
0.0
 10
-1.3822000000000001
 20
-52.265599999999999
 30
0.0
 10
-5.2995999999999999
 20
-48.862699999999997
 30
0.0
 10
-8.2920999999999996
 20
-44.981400000000001
 30
0.0
 10
-8.8361999999999998
 20
-39.983499999999999
 30
0.0
 10
-8.8361999999999998
 20
-39.983499999999999
 30
0.0
 10
-8.8905999999999992
 20
-39.505000000000003
 30
0.0
 10
-8.2377000000000002
 20
-39.239100000000001
 30
0.0
 10
-7.9112
 20
-39.345500000000001
 30
0.0
 10
-7.9112
 20
-39.345500000000001
 30
0.0
 10
-7.4215
 20
-41.153199999999998
 30
0.0
 10
-6.8230000000000004
 20
-42.907800000000002
 30
0.0
 10
-6.1157000000000004
 20
-44.609200000000001
 30
0.0
 10
-6.1157000000000004
 20
-44.609200000000001
 30
0.0
 10
-2.4159000000000002
 20
-51.627499999999998
 30
0.0
 10
5.0378999999999996
 20
-55.668399999999998
 30
0.0
 10
13.090400000000001
 20
-55.296199999999999
 30
0.0
 10
13.090400000000001
 20
-55.296199999999999
 30
0.0
 10
23.264800000000001
 20
-54.870800000000003
 30
0.0
 10
33.221499999999999
 20
-52.371899999999997
 30
0.0
 10
39.369700000000002
 20
-43.971200000000003
 30
0.0
 10
39.369700000000002
 20
-43.971200000000003
 30
0.0
 10
40.6755
 20
-43.5458
 30
0.0
 10
41.981299999999997
 20
-44.609200000000001
 30
0.0
 10
43.287100000000002
 20
-44.981400000000001
 30
0.0
 10
43.287100000000002
 20
-44.981400000000001
 30
0.0
 10
45.789900000000003
 20
-46.789099999999998
 30
0.0
 10
47.639800000000001
 20
-49.447600000000001
 30
0.0
 10
47.5854
 20
-52.371899999999997
 30
0.0
 10
47.5854
 20
-52.371899999999997
 30
0.0
 10
44.484099999999998
 20
-62.952500000000001
 30
0.0
 10
41.437199999999997
 20
-78.477999999999994
 30
0.0
 10
51.339599999999997
 20
-86.825500000000005
 30
0.0
 10
51.339599999999997
 20
-86.825500000000005
 30
0.0
 10
55.3658
 20
-89.111800000000002
 30
0.0
 10
56.236400000000003
 20
-96.449100000000001
 30
0.0
 10
62.058
 20
-94.215999999999994
 30
0.0
 10
62.058
 20
-94.215999999999994
 30
0.0
 10
63.037399999999998
 20
-93.578000000000003
 30
0.0
 10
63.418199999999999
 20
-92.514600000000002
 30
0.0
 10
63.907899999999998
 20
-91.557599999999994
 30
0.0
 10
63.907899999999998
 20
-91.557599999999994
 30
0.0
 10
65.104900000000001
 20
-80.976900000000001
 30
0.0
 10
61.296300000000002
 20
-71.725499999999997
 30
0.0
 10
57.868600000000001
 20
-62.686700000000002
 30
0.0
 10
57.868600000000001
 20
-62.686700000000002
 30
0.0
 10
56.562800000000003
 20
-58.273699999999998
 30
0.0
 10
52.210099999999997
 20
-55.083500000000001
 30
0.0
 10
53.298299999999998
 20
-49.7134
 30
0.0
 10
53.298299999999998
 20
-49.7134
 30
0.0
 10
53.026299999999999
 20
-47.692999999999998
 30
0.0
 10
52.482199999999999
 20
-45.619399999999999
 30
0.0
 10
52.155700000000003
 20
-43.811599999999999
 30
0.0
 10
52.155700000000003
 20
-43.811599999999999
 30
0.0
 10
57.487699999999997
 20
-45.938400000000001
 30
0.0
 10
60.6434
 20
-53.275700000000001
 30
0.0
 10
66.519599999999997
 20
-54.179600000000001
 30
0.0
 10
66.519599999999997
 20
-54.179600000000001
 30
0.0
 10
73.211799999999997
 20
-55.721499999999999
 30
0.0
 10
81.808300000000003
 20
-57.901499999999999
 30
0.0
 10
88.446200000000005
 20
-54.658200000000001
 30
0.0
 10
88.446200000000005
 20
-54.658200000000001
 30
0.0
 10
89.480000000000004
 20
-53.488399999999999
 30
0.0
 10
90.350499999999997
 20
-51.9465
 30
0.0
 10
89.643100000000004
 20
-50.351500000000001
 30
0.0
  0
SPLINE
  5
26
100
AcDbEntity
  8
RÚteg 1
100
AcDbSpline
210
0.0
220
0.0
230
1.0
 70
     1
 71
     3
 72
    24
 73
    20
 74
     0
 42
0.0000000001
 43
0.0000000001
 40
0.0
 40
0.0
 40
0.0
 40
0.0
 40
0.2
 40
0.2
 40
0.2
 40
0.2
 40
0.4
 40
0.4
 40
0.4
 40
0.4
 40
0.6000000000000001
 40
0.6000000000000001
 40
0.6000000000000001
 40
0.6000000000000001
 40
0.8
 40
0.8
 40
0.8
 40
0.8
 40
1.0
 40
1.0
 40
1.0
 40
1.0
 10
68.558099999999996
 20
97.909999999999997
 30
0.0
 10
68.459800000000001
 20
96.624099999999999
 30
0.0
 10
67.437899999999999
 20
95.159000000000006
 30
0.0
 10
66.489500000000007
 20
93.866500000000002
 30
0.0
 10
66.489500000000007
 20
93.866500000000002
 30
0.0
 10
66.489500000000007
 20
93.866500000000002
 30
0.0
 10
65.410499999999999
 20
93.868200000000002
 30
0.0
 10
65.410499999999999
 20
93.868200000000002
 30
0.0
 10
65.410499999999999
 20
93.868200000000002
 30
0.0
 10
65.410499999999999
 20
93.868200000000002
 30
0.0
 10
66.957800000000006
 20
96.491
 30
0.0
 10
66.957800000000006
 20
96.491
 30
0.0
 10
66.957800000000006
 20
96.491
 30
0.0
 10
65.676100000000005
 20
96.875699999999995
 30
0.0
 10
63.697099999999999
 20
96.597300000000004
 30
0.0
 10
62.632599999999996
 20
97.024199999999993
 30
0.0
 10
62.632599999999996
 20
97.024199999999993
 30
0.0
 10
64.039100000000005
 20
98.299999999999997
 30
0.0
 10
66.578999999999994
 20
97.631600000000006
 30
0.0
 10
68.558099999999996
 20
97.909999999999997
 30
0.0
  0
SPLINE
  5
27
100
AcDbEntity
  8
RÚteg 1
100
AcDbSpline
210
0.0
220
0.0
230
1.0
 70
     1
 71
     3
 72
    24
 73
    20
 74
     0
 42
0.0000000001
 43
0.0000000001
 40
0.0
 40
0.0
 40
0.0
 40
0.0
 40
0.2
 40
0.2
 40
0.2
 40
0.2
 40
0.4
 40
0.4
 40
0.4
 40
0.4
 40
0.6000000000000001
 40
0.6000000000000001
 40
0.6000000000000001
 40
0.6000000000000001
 40
0.8
 40
0.8
 40
0.8
 40
0.8
 40
1.0
 40
1.0
 40
1.0
 40
1.0
 10
60.183900000000001
 20
82.300600000000003
 30
0.0
 10
59.988500000000002
 20
80.985200000000006
 30
0.0
 10
58.877099999999999
 20
79.543999999999997
 30
0.0
 10
57.8508
 20
78.275499999999994
 30
0.0
 10
57.8508
 20
78.275499999999994
 30
0.0
 10
57.8508
 20
78.275499999999994
 30
0.0
 10
56.796900000000001
 20
78.345500000000001
 30
0.0
 10
56.796900000000001
 20
78.345500000000001
 30
0.0
 10
56.796900000000001
 20
78.345500000000001
 30
0.0
 10
56.796900000000001
 20
78.345500000000001
 30
0.0
 10
58.511099999999999
 20
80.943299999999994
 30
0.0
 10
58.511099999999999
 20
80.943299999999994
 30
0.0
 10
58.511099999999999
 20
80.943299999999994
 30
0.0
 10
57.288800000000002
 20
81.419799999999995
 30
0.0
 10
55.334000000000003
 20
81.258700000000005
 30
0.0
 10
54.327199999999998
 20
81.764700000000005
 30
0.0
 10
54.327199999999998
 20
81.764700000000005
 30
0.0
 10
55.799599999999998
 20
82.987099999999998
 30
0.0
 10
58.229199999999999
 20
82.139499999999998
 30
0.0
 10
60.183900000000001
 20
82.300600000000003
 30
0.0
  0
SPLINE
  5
28
100
AcDbEntity
  8
RÚteg 1
100
AcDbSpline
210
0.0
220
0.0
230
1.0
 70
     1
 71
     3
 72
    24
 73
    20
 74
     0
 42
0.0000000001
 43
0.0000000001
 40
0.0
 40
0.0
 40
0.0
 40
0.0
 40
0.2
 40
0.2
 40
0.2
 40
0.2
 40
0.4
 40
0.4
 40
0.4
 40
0.4
 40
0.6000000000000001
 40
0.6000000000000001
 40
0.6000000000000001
 40
0.6000000000000001
 40
0.8
 40
0.8
 40
0.8
 40
0.8
 40
1.0
 40
1.0
 40
1.0
 40
1.0
 10
56.352800000000002
 20
96.384200000000007
 30
0.0
 10
56.488900000000001
 20
95.061700000000002
 30
0.0
 10
55.767299999999999
 20
93.400499999999994
 30
0.0
 10
55.085500000000003
 20
91.927099999999996
 30
0.0
 10
55.085500000000003
 20
91.927099999999996
 30
0.0
 10
55.085500000000003
 20
91.927099999999996
 30
0.0
 10
54.045499999999997
 20
91.745800000000003
 30
0.0
 10
54.045499999999997
 20
91.745800000000003
 30
0.0
 10
54.045499999999997
 20
91.745800000000003
 30
0.0
 10
54.045499999999997
 20
91.745800000000003
 30
0.0
 10
55.0657
 20
94.671800000000005
 30
0.0
 10
55.0657
 20
94.671800000000005
 30
0.0
 10
55.0657
 20
94.671800000000005
 30
0.0
 10
53.761699999999998
 20
94.845100000000002
 30
0.0
 10
51.904800000000002
 20
94.226600000000005
 30
0.0
 10
50.802700000000002
 20
94.479600000000005
 30
0.0
 10
50.802700000000002
 20
94.479600000000005
 30
0.0
 10
51.928800000000003
 20
96.013800000000003
 30
0.0
 10
54.496000000000002
 20
95.765799999999999
 30
0.0
 10
56.352800000000002
 20
96.384200000000007
 30
0.0
  0
SPLINE
  5
29
100
AcDbEntity
  8
RÚteg 1
100
AcDbSpline
210
0.0
220
0.0
230
1.0
 70
     1
 71
     3
 72
    24
 73
    20
 74
     0
 42
0.0000000001
 43
0.0000000001
 40
0.0
 40
0.0
 40
0.0
 40
0.0
 40
0.2
 40
0.2
 40
0.2
 40
0.2
 40
0.4
 40
0.4
 40
0.4
 40
0.4
 40
0.6000000000000001
 40
0.6000000000000001
 40
0.6000000000000001
 40
0.6000000000000001
 40
0.8
 40
0.8
 40
0.8
 40
0.8
 40
1.0
 40
1.0
 40
1.0
 40
1.0
 10
45.249699999999997
 20
80.581800000000001
 30
0.0
 10
45.249699999999997
 20
80.581800000000001
 30
0.0
 10
44.225200000000001
 20
80.330100000000002
 30
0.0
 10
44.225200000000001
 20
80.330100000000002
 30
0.0
 10
44.225200000000001
 20
80.330100000000002
 30
0.0
 10
44.225200000000001
 20
80.330100000000002
 30
0.0
 10
45.034100000000002
 20
83.3185
 30
0.0
 10
45.034100000000002
 20
83.3185
 30
0.0
 10
45.034100000000002
 20
83.3185
 30
0.0
 10
43.7209
 20
83.4024
 30
0.0
 10
41.912700000000001
 20
82.658900000000003
 30
0.0
 10
40.795099999999998
 20
82.836200000000005
 30
0.0
 10
40.795099999999998
 20
82.836200000000005
 30
0.0
 10
41.808999999999997
 20
84.443399999999997
 30
0.0
 10
44.387700000000002
 20
84.370999999999995
 30
0.0
 10
46.195799999999998
 20
85.114500000000007
 30
0.0
 10
46.195799999999998
 20
85.114500000000007
 30
0.0
 10
46.426000000000002
 20
83.804400000000001
 30
0.0
 10
45.8247
 20
82.098100000000002
 30
0.0
 10
45.249699999999997
 20
80.581800000000001
 30
0.0
  0
SPLINE
  5
2A
100
AcDbEntity
  8
RÚteg 1
100
AcDbSpline
210
0.0
220
0.0
230
1.0
 70
     1
 71
     3
 72
    24
 73
    20
 74
     0
 42
0.0000000001
 43
0.0000000001
 40
0.0
 40
0.0
 40
0.0
 40
0.0
 40
0.2
 40
0.2
 40
0.2
 40
0.2
 40
0.4
 40
0.4
 40
0.4
 40
0.4
 40
0.6000000000000001
 40
0.6000000000000001
 40
0.6000000000000001
 40
0.6000000000000001
 40
0.8
 40
0.8
 40
0.8
 40
0.8
 40
1.0
 40
1.0
 40
1.0
 40
1.0
 10
46.074100000000001
 20
95.795199999999994
 30
0.0
 10
46.139099999999999
 20
94.467500000000001
 30
0.0
 10
45.329599999999999
 20
92.845500000000001
 30
0.0
 10
44.569800000000001
 20
91.409000000000006
 30
0.0
 10
44.569800000000001
 20
91.409000000000006
 30
0.0
 10
44.569800000000001
 20
91.409000000000006
 30
0.0
 10
43.521500000000003
 20
91.281199999999998
 30
0.0
 10
43.521500000000003
 20
91.281199999999998
 30
0.0
 10
43.521500000000003
 20
91.281199999999998
 30
0.0
 10
43.521500000000003
 20
91.281199999999998
 30
0.0
 10
44.697000000000003
 20
94.150899999999993
 30
0.0
 10
44.697000000000003
 20
94.150899999999993
 30
0.0
 10
44.697000000000003
 20
94.150899999999993
 30
0.0
 10
43.4041
 20
94.390699999999995
 30
0.0
 10
41.516599999999997
 20
93.868099999999998
 30
0.0
 10
40.429499999999997
 20
94.177099999999996
 30
0.0
 10
40.429499999999997
 20
94.177099999999996
 30
0.0
 10
41.636299999999999
 20
95.651600000000002
 30
0.0
 10
44.186599999999999
 20
95.272599999999997
 30
0.0
 10
46.074100000000001
 20
95.795199999999994
 30
0.0
  0
SPLINE
  5
2B
100
AcDbEntity
  8
RÚteg 1
100
AcDbSpline
210
0.0
220
0.0
230
1.0
 70
     1
 71
     3
 72
    24
 73
    20
 74
     0
 42
0.0000000001
 43
0.0000000001
 40
0.0
 40
0.0
 40
0.0
 40
0.0
 40
0.2
 40
0.2
 40
0.2
 40
0.2
 40
0.4
 40
0.4
 40
0.4
 40
0.4
 40
0.6000000000000001
 40
0.6000000000000001
 40
0.6000000000000001
 40
0.6000000000000001
 40
0.8
 40
0.8
 40
0.8
 40
0.8
 40
1.0
 40
1.0
 40
1.0
 40
1.0
 10
46.0075
 20
73.054100000000005
 30
0.0
 10
45.6267
 20
71.778000000000006
 30
0.0
 10
44.320900000000002
 20
70.501999999999995
 30
0.0
 10
43.123899999999999
 20
69.385400000000004
 30
0.0
 10
43.123899999999999
 20
69.385400000000004
 30
0.0
 10
43.123899999999999
 20
69.385400000000004
 30
0.0
 10
42.0901
 20
69.598100000000002
 30
0.0
 10
42.0901
 20
69.598100000000002
 30
0.0
 10
42.0901
 20
69.598100000000002
 30
0.0
 10
42.0901
 20
69.598100000000002
 30
0.0
 10
44.157699999999998
 20
71.9375
 30
0.0
 10
44.157699999999998
 20
71.9375
 30
0.0
 10
44.157699999999998
 20
71.9375
 30
0.0
 10
43.015099999999997
 20
72.575599999999994
 30
0.0
 10
41.056399999999996
 20
72.681899999999999
 30
0.0
 10
40.131399999999999
 20
73.319900000000004
 30
0.0
 10
40.131399999999999
 20
73.319900000000004
 30
0.0
 10
41.7637
 20
74.330100000000002
 30
0.0
 10
44.0488
 20
73.160399999999996
 30
0.0
 10
46.0075
 20
73.054100000000005
 30
0.0
  0
SPLINE
  5
2C
100
AcDbEntity
  8
RÚteg 1
100
AcDbSpline
210
0.0
220
0.0
230
1.0
 70
     1
 71
     3
 72
    24
 73
    20
 74
     0
 42
0.0000000001
 43
0.0000000001
 40
0.0
 40
0.0
 40
0.0
 40
0.0
 40
0.2
 40
0.2
 40
0.2
 40
0.2
 40
0.4
 40
0.4
 40
0.4
 40
0.4
 40
0.6000000000000001
 40
0.6000000000000001
 40
0.6000000000000001
 40
0.6000000000000001
 40
0.8
 40
0.8
 40
0.8
 40
0.8
 40
1.0
 40
1.0
 40
1.0
 40
1.0
 10
36.0396
 20
87.556600000000003
 30
0.0
 10
36.2697
 20
86.246499999999997
 30
0.0
 10
35.668500000000002
 20
84.540199999999999
 30
0.0
 10
35.093499999999999
 20
83.023899999999998
 30
0.0
 10
35.093499999999999
 20
83.023899999999998
 30
0.0
 10
35.093499999999999
 20
83.023899999999998
 30
0.0
 10
34.069000000000003
 20
82.772199999999998
 30
0.0
 10
34.069000000000003
 20
82.772199999999998
 30
0.0
 10
34.069000000000003
 20
82.772199999999998
 30
0.0
 10
34.069000000000003
 20
82.772199999999998
 30
0.0
 10
34.877800000000001
 20
85.760499999999993
 30
0.0
 10
34.877800000000001
 20
85.760499999999993
 30
0.0
 10
34.877800000000001
 20
85.760499999999993
 30
0.0
 10
33.564700000000002
 20
85.844499999999996
 30
0.0
 10
31.756499999999999
 20
85.101100000000002
 30
0.0
 10
30.6389
 20
85.278199999999998
 30
0.0
 10
30.6389
 20
85.278199999999998
 30
0.0
 10
31.652799999999999
 20
86.885499999999993
 30
0.0
 10
34.231400000000001
 20
86.813100000000006
 30
0.0
 10
36.0396
 20
87.556600000000003
 30
0.0
  0
SPLINE
  5
2D
100
AcDbEntity
  8
RÚteg 1
100
AcDbSpline
210
0.0
220
0.0
230
1.0
 70
     1
 71
     3
 72
    28
 73
    24
 74
     0
 42
0.0000000001
 43
0.0000000001
 40
0.0
 40
0.0
 40
0.0
 40
0.0
 40
0.1666666666666667
 40
0.1666666666666667
 40
0.1666666666666667
 40
0.1666666666666667
 40
0.3333333333333333
 40
0.3333333333333333
 40
0.3333333333333333
 40
0.3333333333333333
 40
0.5
 40
0.5
 40
0.5
 40
0.5
 40
0.6666666666666666
 40
0.6666666666666666
 40
0.6666666666666666
 40
0.6666666666666666
 40
0.8333333333333333
 40
0.8333333333333333
 40
0.8333333333333333
 40
0.8333333333333333
 40
1.0
 40
1.0
 40
1.0
 40
1.0
 10
23.808900000000001
 20
77.254400000000004
 30
0.0
 10
25.223500000000001
 20
78.105199999999996
 30
0.0
 10
26.420500000000001
 20
79.381200000000007
 30
0.0
 10
27.9983
 20
79.8065
 30
0.0
 10
27.9983
 20
79.8065
 30
0.0
 10
27.943899999999999
 20
78.264700000000005
 30
0.0
 10
27.671800000000001
 20
76.456900000000005
 30
0.0
 10
27.182200000000002
 20
74.861900000000006
 30
0.0
 10
27.182200000000002
 20
74.861900000000006
 30
0.0
 10
27.182200000000002
 20
74.861900000000006
 30
0.0
 10
26.420500000000001
 20
74.861900000000006
 30
0.0
 10
26.420500000000001
 20
74.861900000000006
 30
0.0
 10
26.420500000000001
 20
74.861900000000006
 30
0.0
 10
26.257200000000001
 20
75.765699999999995
 30
0.0
 10
26.7469
 20
76.616399999999999
 30
0.0
 10
26.311599999999999
 20
77.254400000000004
 30
0.0
 10
26.311599999999999
 20
77.254400000000004
 30
0.0
 10
25.223500000000001
 20
76.829099999999997
 30
0.0
 10
24.352900000000002
 20
76.031499999999994
 30
0.0
 10
23.155899999999999
 20
75.978399999999993
 30
0.0
 10
23.155899999999999
 20
75.978399999999993
 30
0.0
 10
22.992699999999999
 20
76.403700000000001
 30
0.0
 10
23.591200000000001
 20
76.829099999999997
 30
0.0
 10
23.808900000000001
 20
77.254400000000004
 30
0.0
  0
SPLINE
  5
2E
100
AcDbEntity
  8
RÚteg 1
100
AcDbSpline
210
0.0
220
0.0
230
1.0
 70
     1
 71
     3
 72
    32
 73
    28
 74
     0
 42
0.0000000001
 43
0.0000000001
 40
0.0
 40
0.0
 40
0.0
 40
0.0
 40
0.1428571428571429
 40
0.1428571428571429
 40
0.1428571428571429
 40
0.1428571428571429
 40
0.2857142857142857
 40
0.2857142857142857
 40
0.2857142857142857
 40
0.2857142857142857
 40
0.4285714285714286
 40
0.4285714285714286
 40
0.4285714285714286
 40
0.4285714285714286
 40
0.5714285714285714
 40
0.5714285714285714
 40
0.5714285714285714
 40
0.5714285714285714
 40
0.7142857142857142
 40
0.7142857142857142
 40
0.7142857142857142
 40
0.7142857142857142
 40
0.857142857142857
 40
0.857142857142857
 40
0.857142857142857
 40
0.857142857142857
 40
1.0
 40
1.0
 40
1.0
 40
1.0
 10
-63.407899999999998
 20
17.279599999999999
 30
0.0
 10
-66.019499999999994
 20
28.976800000000001
 30
0.0
 10
-71.133899999999997
 20
39.610700000000001
 30
0.0
 10
-75.051299999999998
 20
50.722999999999999
 30
0.0
 10
-75.051299999999998
 20
50.722999999999999
 30
0.0
 10
-77.989400000000003
 20
55.029699999999998
 30
0.0
 10
-79.023200000000003
 20
60.134
 30
0.0
 10
-80.927400000000006
 20
64.919200000000004
 30
0.0
 10
-80.927400000000006
 20
64.919200000000004
 30
0.0
 10
-80.927400000000006
 20
64.919200000000004
 30
0.0
 10
-82.069999999999993
 20
68.747399999999999
 30
0.0
 10
-82.069999999999993
 20
68.747399999999999
 30
0.0
 10
-82.069999999999993
 20
68.747399999999999
 30
0.0
 10
-82.069999999999993
 20
68.747399999999999
 30
0.0
 10
-75.813100000000006
 20
56.837499999999999
 30
0.0
 10
-75.813100000000006
 20
56.837499999999999
 30
0.0
 10
-75.813100000000006
 20
56.837499999999999
 30
0.0
 10
-75.813100000000006
 20
56.837499999999999
 30
0.0
 10
-63.951999999999998
 20
24.4575
 30
0.0
 10
-63.951999999999998
 20
24.4575
 30
0.0
 10
-63.951999999999998
 20
24.4575
 30
0.0
 10
-61.2316
 20
14.727499999999999
 30
0.0
 10
-58.456699999999998
 20
5.0507
 30
0.0
 10
-55.083399999999997
 20
-4.4132999999999996
 30
0.0
 10
-55.083399999999997
 20
-4.4132999999999996
 30
0.0
 10
-59.218400000000003
 20
2.1796000000000002
 30
0.0
 10
-60.6875
 20
10.0486
 30
0.0
 10
-63.407899999999998
 20
17.279599999999999
 30
0.0
  0
SPLINE
  5
2F
100
AcDbEntity
  8
RÚteg 1
100
AcDbSpline
210
0.0
220
0.0
230
1.0
 70
     1
 71
     3
 72
    40
 73
    36
 74
     0
 42
0.0000000001
 43
0.0000000001
 40
0.0
 40
0.0
 40
0.0
 40
0.0
 40
0.1111111111111111
 40
0.1111111111111111
 40
0.1111111111111111
 40
0.1111111111111111
 40
0.2222222222222222
 40
0.2222222222222222
 40
0.2222222222222222
 40
0.2222222222222222
 40
0.3333333333333333
 40
0.3333333333333333
 40
0.3333333333333333
 40
0.3333333333333333
 40
0.4444444444444444
 40
0.4444444444444444
 40
0.4444444444444444
 40
0.4444444444444444
 40
0.5555555555555556
 40
0.5555555555555556
 40
0.5555555555555556
 40
0.5555555555555556
 40
0.6666666666666667
 40
0.6666666666666667
 40
0.6666666666666667
 40
0.6666666666666667
 40
0.7777777777777779
 40
0.7777777777777779
 40
0.7777777777777779
 40
0.7777777777777779
 40
0.8888888888888891
 40
0.8888888888888891
 40
0.8888888888888891
 40
0.8888888888888891
 40
1.0
 40
1.0
 40
1.0
 40
1.0
 10
9.8259000000000007
 20
-18.662600000000001
 30
0.0
 10
5.6908000000000003
 20
-18.131
 30
0.0
 10
1.3925000000000001
 20
-15.313000000000001
 30
0.0
 10
-2.8512
 20
-17.6524
 30
0.0
 10
-2.8512
 20
-17.6524
 30
0.0
 10
-2.8512
 20
-17.6524
 30
0.0
 10
-5.0875000000000004
 20
-14.7006
 30
0.0
 10
-6.7141999999999999
 20
-13.629300000000001
 30
0.0
 10
-6.7141999999999999
 20
-13.629300000000001
 30
0.0
 10
-10.8855
 20
-10.882199999999999
 30
0.0
 10
-16.961200000000002
 20
-8.5782000000000007
 30
0.0
 10
-16.943100000000001
 20
-1.5952999999999999
 30
0.0
 10
-16.943100000000001
 20
-1.5952999999999999
 30
0.0
 10
-16.7254
 20
1.5947
 30
0.0
 10
-15.691599999999999
 20
4.7317
 30
0.0
 10
-12.7536
 20
6.5926
 30
0.0
 10
-12.7536
 20
6.5926
 30
0.0
 10
-11.7742
 20
6.6458000000000004
 30
0.0
 10
-10.740399999999999
 20
6.4863
 30
0.0
 10
-9.8698999999999995
 20
6.6989999999999998
 30
0.0
 10
-9.8698999999999995
 20
6.6989999999999998
 30
0.0
 10
-9.9786999999999999
 20
2.0733000000000001
 30
0.0
 10
-7.3127000000000004
 20
-1.8612
 30
0.0
 10
-3.2321
 20
-4.4132999999999996
 30
0.0
 10
-3.2321
 20
-4.4132999999999996
 30
0.0
 10
1.9911000000000001
 20
-7.4970999999999997
 30
0.0
 10
7.976
 20
-10.740399999999999
 30
0.0
 10
14.668200000000001
 20
-8.4542000000000002
 30
0.0
 10
14.668200000000001
 20
-8.4542000000000002
 30
0.0
 10
15.5932
 20
-11.3253
 30
0.0
 10
17.5519
 20
-13.824299999999999
 30
0.0
 10
19.5106
 20
-16.110499999999998
 30
0.0
 10
19.5106
 20
-16.110499999999998
 30
0.0
 10
16.6814
 20
-17.971399999999999
 30
0.0
 10
13.2536
 20
-18.9817
 30
0.0
 10
9.8259000000000007
 20
-18.662600000000001
 30
0.0
  0
SPLINE
  5
30
100
AcDbEntity
  8
RÚteg 1
100
AcDbSpline
210
0.0
220
0.0
230
1.0
 70
     1
 71
     3
 72
    28
 73
    24
 74
     0
 42
0.0000000001
 43
0.0000000001
 40
0.0
 40
0.0
 40
0.0
 40
0.0
 40
0.1666666666666667
 40
0.1666666666666667
 40
0.1666666666666667
 40
0.1666666666666667
 40
0.3333333333333333
 40
0.3333333333333333
 40
0.3333333333333333
 40
0.3333333333333333
 40
0.5
 40
0.5
 40
0.5
 40
0.5
 40
0.6666666666666666
 40
0.6666666666666666
 40
0.6666666666666666
 40
0.6666666666666666
 40
0.8333333333333333
 40
0.8333333333333333
 40
0.8333333333333333
 40
0.8333333333333333
 40
1.0
 40
1.0
 40
1.0
 40
1.0
 10
-47.629399999999997
 20
-60.400399999999998
 30
0.0
 10
-47.629399999999997
 20
-60.400399999999998
 30
0.0
 10
-49.207299999999996
 20
-61.198
 30
0.0
 10
-49.207299999999996
 20
-61.198
 30
0.0
 10
-49.207299999999996
 20
-61.198
 30
0.0
 10
-53.451099999999997
 20
-58.592700000000001
 30
0.0
 10
-52.1997
 20
-53.116300000000003
 30
0.0
 10
-52.036499999999997
 20
-48.915900000000001
 30
0.0
 10
-52.036499999999997
 20
-48.915900000000001
 30
0.0
 10
-52.036499999999997
 20
-48.915900000000001
 30
0.0
 10
-50.349800000000002
 20
-38.441499999999998
 30
0.0
 10
-50.349800000000002
 20
-38.441499999999998
 30
0.0
 10
-50.349800000000002
 20
-38.441499999999998
 30
0.0
 10
-50.077800000000003
 20
-38.122599999999998
 30
0.0
 10
-49.751399999999997
 20
-38.016199999999998
 30
0.0
 10
-49.316099999999999
 20
-38.069400000000002
 30
0.0
 10
-49.316099999999999
 20
-38.069400000000002
 30
0.0
 10
-50.023400000000002
 20
-42.801499999999997
 30
0.0
 10
-49.0441
 20
-47.108199999999997
 30
0.0
 10
-46.323599999999999
 20
-50.5642
 30
0.0
 10
-46.323599999999999
 20
-50.5642
 30
0.0
 10
-46.649999999999999
 20
-53.913800000000002
 30
0.0
 10
-45.888300000000001
 20
-57.688800000000001
 30
0.0
 10
-47.629399999999997
 20
-60.400399999999998
 30
0.0
  0
SPLINE
  5
31
100
AcDbEntity
  8
RÚteg 1
100
AcDbSpline
210
0.0
220
0.0
230
1.0
 70
     1
 71
     3
 72
    16
 73
    12
 74
     0
 42
0.0000000001
 43
0.0000000001
 40
0.0
 40
0.0
 40
0.0
 40
0.0
 40
0.3333333333333333
 40
0.3333333333333333
 40
0.3333333333333333
 40
0.3333333333333333
 40
0.6666666666666666
 40
0.6666666666666666
 40
0.6666666666666666
 40
0.6666666666666666
 40
1.0
 40
1.0
 40
1.0
 40
1.0
 10
-51.818899999999999
 20
6.9648000000000003
 30
0.0
 10
-51.383600000000001
 20
7.1242999999999999
 30
0.0
 10
-51.002800000000001
 20
7.2838000000000003
 30
0.0
 10
-50.513100000000001
 20
7.2306999999999997
 30
0.0
 10
-50.513100000000001
 20
7.2306999999999997
 30
0.0
 10
-50.241
 20
5.6356000000000002
 30
0.0
 10
-50.7851
 20
3.9872999999999998
 30
0.0
 10
-51.546900000000001
 20
2.6049000000000002
 30
0.0
 10
-51.546900000000001
 20
2.6049000000000002
 30
0.0
 10
-52.580599999999997
 20
3.8277999999999999
 30
0.0
 10
-51.710099999999997
 20
5.5292000000000003
 30
0.0
 10
-51.818899999999999
 20
6.9648000000000003
 30
0.0
  0
SPLINE
  5
32
100
AcDbEntity
  8
RÚteg 1
100
AcDbSpline
210
0.0
220
0.0
230
1.0
 70
     1
 71
     3
 72
    28
 73
    24
 74
     0
 42
0.0000000001
 43
0.0000000001
 40
0.0
 40
0.0
 40
0.0
 40
0.0
 40
0.1666666666666667
 40
0.1666666666666667
 40
0.1666666666666667
 40
0.1666666666666667
 40
0.3333333333333333
 40
0.3333333333333333
 40
0.3333333333333333
 40
0.3333333333333333
 40
0.5
 40
0.5
 40
0.5
 40
0.5
 40
0.6666666666666666
 40
0.6666666666666666
 40
0.6666666666666666
 40
0.6666666666666666
 40
0.8333333333333333
 40
0.8333333333333333
 40
0.8333333333333333
 40
0.8333333333333333
 40
1.0
 40
1.0
 40
1.0
 40
1.0
 10
-35.713999999999999
 20
-5.0513000000000003
 30
0.0
 10
-35.713999999999999
 20
-5.0513000000000003
 30
0.0
 10
-35.496299999999998
 20
-5.0513000000000003
 30
0.0
 10
-35.496299999999998
 20
-5.0513000000000003
 30
0.0
 10
-35.496299999999998
 20
-5.0513000000000003
 30
0.0
 10
-35.006700000000002
 20
-7.7629999999999999
 30
0.0
 10
-32.503799999999998
 20
-9.9961000000000002
 30
0.0
 10
-30.273099999999999
 20
-11.803800000000001
 30
0.0
 10
-30.273099999999999
 20
-11.803800000000001
 30
0.0
 10
-28.804099999999998
 20
-15.8447
 30
0.0
 10
-28.3688
 20
-21.533799999999999
 30
0.0
 10
-30.654
 20
-25.308800000000002
 30
0.0
 10
-30.654
 20
-25.308800000000002
 30
0.0
 10
-31.252500000000001
 20
-26.106300000000001
 30
0.0
 10
-32.449399999999997
 20
-25.840499999999999
 30
0.0
 10
-33.102400000000003
 20
-26.106300000000001
 30
0.0
 10
-33.102400000000003
 20
-26.106300000000001
 30
0.0
 10
-37.237400000000001
 20
-23.501000000000001
 30
0.0
 10
-36.965299999999999
 20
-17.811900000000001
 30
0.0
 10
-38.325600000000001
 20
-13.4521
 30
0.0
 10
-38.325600000000001
 20
-13.4521
 30
0.0
 10
-37.454999999999998
 20
-10.6341
 30
0.0
 10
-37.0197
 20
-7.5503
 30
0.0
 10
-35.713999999999999
 20
-5.0513000000000003
 30
0.0
  0
SPLINE
  5
33
100
AcDbEntity
  8
RÚteg 1
100
AcDbSpline
210
0.0
220
0.0
230
1.0
 70
     1
 71
     3
 72
    28
 73
    24
 74
     0
 42
0.0000000001
 43
0.0000000001
 40
0.0
 40
0.0
 40
0.0
 40
0.0
 40
0.1666666666666667
 40
0.1666666666666667
 40
0.1666666666666667
 40
0.1666666666666667
 40
0.3333333333333333
 40
0.3333333333333333
 40
0.3333333333333333
 40
0.3333333333333333
 40
0.5
 40
0.5
 40
0.5
 40
0.5
 40
0.6666666666666666
 40
0.6666666666666666
 40
0.6666666666666666
 40
0.6666666666666666
 40
0.8333333333333333
 40
0.8333333333333333
 40
0.8333333333333333
 40
0.8333333333333333
 40
1.0
 40
1.0
 40
1.0
 40
1.0
 10
-41.372399999999999
 20
-11.803800000000001
 30
0.0
 10
-42.079700000000003
 20
-12.3355
 30
0.0
 10
-42.895899999999997
 20
-13.2925
 30
0.0
 10
-43.820799999999998
 20
-12.5482
 30
0.0
 10
-43.820799999999998
 20
-12.5482
 30
0.0
 10
-45.997199999999999
 20
-10.7936
 30
0.0
 10
-44.364899999999999
 20
-7.9225000000000003
 30
0.0
 10
-44.0929
 20
-5.6894
 30
0.0
 10
-44.0929
 20
-5.6894
 30
0.0
 10
-43.276800000000001
 20
-3.4030999999999998
 30
0.0
 10
-42.678199999999997
 20
-1.0636000000000001
 30
0.0
 10
-42.025300000000001
 20
1.2224999999999999
 30
0.0
 10
-42.025300000000001
 20
1.2224999999999999
 30
0.0
 10
-42.025300000000001
 20
1.2224999999999999
 30
0.0
 10
-38.978499999999997
 20
-0.5851
 30
0.0
 10
-38.978499999999997
 20
-0.5851
 30
0.0
 10
-38.978499999999997
 20
-0.5851
 30
0.0
 10
-37.346200000000003
 20
1.3289
 30
0.0
 10
-38.2712
 20
5.6886999999999999
 30
0.0
 10
-34.680199999999999
 20
5.6886999999999999
 30
0.0
 10
-34.680199999999999
 20
5.6886999999999999
 30
0.0
 10
-36.421300000000002
 20
-0.3193
 30
0.0
 10
-37.781500000000001
 20
-6.4869000000000003
 30
0.0
 10
-41.372399999999999
 20
-11.803800000000001
 30
0.0
  0
SPLINE
  5
34
100
AcDbEntity
  8
RÚteg 1
100
AcDbSpline
210
0.0
220
0.0
230
1.0
 70
     1
 71
     3
 72
    24
 73
    20
 74
     0
 42
0.0000000001
 43
0.0000000001
 40
0.0
 40
0.0
 40
0.0
 40
0.0
 40
0.2
 40
0.2
 40
0.2
 40
0.2
 40
0.4
 40
0.4
 40
0.4
 40
0.4
 40
0.6000000000000001
 40
0.6000000000000001
 40
0.6000000000000001
 40
0.6000000000000001
 40
0.8
 40
0.8
 40
0.8
 40
0.8
 40
1.0
 40
1.0
 40
1.0
 40
1.0
 10
-32.068600000000004
 20
-7.8160999999999996
 30
0.0
 10
-33.6464
 20
-5.9020000000000001
 30
0.0
 10
-33.972900000000003
 20
-3.4563000000000001
 30
0.0
 10
-34.680199999999999
 20
-1.2231000000000001
 30
0.0
 10
-34.680199999999999
 20
-1.2231000000000001
 30
0.0
 10
-33.918500000000002
 20
2.2326999999999999
 30
0.0
 10
-32.558300000000003
 20
5.3697999999999997
 30
0.0
 10
-31.415700000000001
 20
8.6130999999999993
 30
0.0
 10
-31.415700000000001
 20
8.6130999999999993
 30
0.0
 10
-28.6952
 20
4.0937000000000001
 30
0.0
 10
-26.627800000000001
 20
-0.6915
 30
0.0
 10
-26.355699999999999
 20
-6.1679000000000004
 30
0.0
 10
-26.355699999999999
 20
-6.1679000000000004
 30
0.0
 10
-26.736599999999999
 20
-7.1780999999999997
 30
0.0
 10
-27.552700000000002
 20
-8.2415000000000003
 30
0.0
 10
-28.5321
 20
-8.7200000000000006
 30
0.0
 10
-28.5321
 20
-8.7200000000000006
 30
0.0
 10
-29.728999999999999
 20
-8.8262999999999998
 30
0.0
 10
-31.198
 20
-8.9857999999999993
 30
0.0
 10
-32.068600000000004
 20
-7.8160999999999996
 30
0.0
  0
SPLINE
  5
35
100
AcDbEntity
  8
RÚteg 1
100
AcDbSpline
210
0.0
220
0.0
230
1.0
 70
     1
 71
     3
 72
    28
 73
    24
 74
     0
 42
0.0000000001
 43
0.0000000001
 40
0.0
 40
0.0
 40
0.0
 40
0.0
 40
0.1666666666666667
 40
0.1666666666666667
 40
0.1666666666666667
 40
0.1666666666666667
 40
0.3333333333333333
 40
0.3333333333333333
 40
0.3333333333333333
 40
0.3333333333333333
 40
0.5
 40
0.5
 40
0.5
 40
0.5
 40
0.6666666666666666
 40
0.6666666666666666
 40
0.6666666666666666
 40
0.6666666666666666
 40
0.8333333333333333
 40
0.8333333333333333
 40
0.8333333333333333
 40
0.8333333333333333
 40
1.0
 40
1.0
 40
1.0
 40
1.0
 10
-35.061100000000003
 20
14.514900000000001
 30
0.0
 10
-33.700800000000001
 20
12.334899999999999
 30
0.0
 10
-34.789099999999998
 20
9.7827999999999999
 30
0.0
 10
-35.713999999999999
 20
7.6028000000000002
 30
0.0
 10
-35.713999999999999
 20
7.6028000000000002
 30
0.0
 10
-36.693300000000001
 20
10.527200000000001
 30
0.0
 10
-39.740200000000002
 20
13.0261
 30
0.0
 10
-39.1417
 20
16.5352
 30
0.0
 10
-39.1417
 20
16.5352
 30
0.0
 10
-38.216799999999999
 20
18.2898
 30
0.0
 10
-38.0535
 20
20.682500000000001
 30
0.0
 10
-35.713999999999999
 20
21.533200000000001
 30
0.0
 10
-35.713999999999999
 20
21.533200000000001
 30
0.0
 10
-33.6464
 20
22.383900000000001
 30
0.0
 10
-31.198
 20
22.437000000000001
 30
0.0
 10
-28.967300000000002
 20
22.915500000000002
 30
0.0
 10
-28.967300000000002
 20
22.915500000000002
 30
0.0
 10
-28.804099999999998
 20
22.7561
 30
0.0
 10
-28.640799999999999
 20
21.745799999999999
 30
0.0
 10
-29.0761
 20
21.3736
 30
0.0
 10
-29.0761
 20
21.3736
 30
0.0
 10
-31.252500000000001
 20
19.459599999999998
 30
0.0
 10
-33.972900000000003
 20
17.226500000000001
 30
0.0
 10
-35.061100000000003
 20
14.514900000000001
 30
0.0
  0
SPLINE
  5
36
100
AcDbEntity
  8
RÚteg 1
100
AcDbSpline
210
0.0
220
0.0
230
1.0
 70
     1
 71
     3
 72
    20
 73
    16
 74
     0
 42
0.0000000001
 43
0.0000000001
 40
0.0
 40
0.0
 40
0.0
 40
0.0
 40
0.25
 40
0.25
 40
0.25
 40
0.25
 40
0.5
 40
0.5
 40
0.5
 40
0.5
 40
0.75
 40
0.75
 40
0.75
 40
0.75
 40
1.0
 40
1.0
 40
1.0
 40
1.0
 10
-42.515000000000001
 20
33.496200000000002
 30
0.0
 10
-42.515000000000001
 20
33.496200000000002
 30
0.0
 10
-46.704500000000003
 20
33.017699999999998
 30
0.0
 10
-46.704500000000003
 20
33.017699999999998
 30
0.0
 10
-46.704500000000003
 20
33.017699999999998
 30
0.0
 10
-45.453099999999999
 20
35.516599999999997
 30
0.0
 10
-42.623800000000003
 20
35.942
 30
0.0
 10
-40.284300000000002
 20
36.8459
 30
0.0
 10
-40.284300000000002
 20
36.8459
 30
0.0
 10
-39.250500000000002
 20
36.101500000000001
 30
0.0
 10
-38.2712
 20
34.984999999999999
 30
0.0
 10
-38.216799999999999
 20
33.868400000000001
 30
0.0
 10
-38.216799999999999
 20
33.868400000000001
 30
0.0
 10
-39.576999999999998
 20
33.177199999999999
 30
0.0
 10
-41.1004
 20
33.655700000000003
 30
0.0
 10
-42.515000000000001
 20
33.496200000000002
 30
0.0
  0
SPLINE
  5
37
100
AcDbEntity
  8
RÚteg 1
100
AcDbSpline
210
0.0
220
0.0
230
1.0
 70
     1
 71
     3
 72
    16
 73
    12
 74
     0
 42
0.0000000001
 43
0.0000000001
 40
0.0
 40
0.0
 40
0.0
 40
0.0
 40
0.3333333333333333
 40
0.3333333333333333
 40
0.3333333333333333
 40
0.3333333333333333
 40
0.6666666666666666
 40
0.6666666666666666
 40
0.6666666666666666
 40
0.6666666666666666
 40
1.0
 40
1.0
 40
1.0
 40
1.0
 10
-39.522599999999997
 20
20.469799999999999
 30
0.0
 10
-39.848999999999997
 20
19.406400000000001
 30
0.0
 10
-40.1755
 20
18.183499999999999
 30
0.0
 10
-40.937199999999997
 20
17.4391
 30
0.0
 10
-40.937199999999997
 20
17.4391
 30
0.0
 10
-43.0047
 20
16.907499999999999
 30
0.0
 10
-44.256100000000004
 20
18.2898
 30
0.0
 10
-45.942799999999998
 20
18.715199999999999
 30
0.0
 10
-45.942799999999998
 20
18.715199999999999
 30
0.0
 10
-44.147300000000001
 20
19.884899999999998
 30
0.0
 10
-41.862099999999998
 20
21.798999999999999
 30
0.0
 10
-39.522599999999997
 20
20.469799999999999
 30
0.0
  0
SPLINE
  5
38
100
AcDbEntity
  8
RÚteg 1
100
AcDbSpline
210
0.0
220
0.0
230
1.0
 70
     1
 71
     3
 72
    20
 73
    16
 74
     0
 42
0.0000000001
 43
0.0000000001
 40
0.0
 40
0.0
 40
0.0
 40
0.0
 40
0.25
 40
0.25
 40
0.25
 40
0.25
 40
0.5
 40
0.5
 40
0.5
 40
0.5
 40
0.75
 40
0.75
 40
0.75
 40
0.75
 40
1.0
 40
1.0
 40
1.0
 40
1.0
 10
-45.017800000000001
 20
14.514900000000001
 30
0.0
 10
-44.0929
 20
15.4719
 30
0.0
 10
-42.678199999999997
 20
15.2592
 30
0.0
 10
-41.481299999999997
 20
15.631399999999999
 30
0.0
 10
-41.481299999999997
 20
15.631399999999999
 30
0.0
 10
-41.209200000000003
 20
13.664099999999999
 30
0.0
 10
-40.5563
 20
11.8032
 30
0.0
 10
-39.522599999999997
 20
10.154999999999999
 30
0.0
 10
-39.522599999999997
 20
10.154999999999999
 30
0.0
 10
-41.753300000000003
 20
9.9422999999999995
 30
0.0
 10
-44.256100000000004
 20
11.218400000000001
 30
0.0
 10
-46.160400000000003
 20
9.5168999999999997
 30
0.0
 10
-46.160400000000003
 20
9.5168999999999997
 30
0.0
 10
-46.595700000000001
 20
11.377800000000001
 30
0.0
 10
-46.160400000000003
 20
12.972899999999999
 30
0.0
 10
-45.017800000000001
 20
14.514900000000001
 30
0.0
  0
SPLINE
  5
39
100
AcDbEntity
  8
RÚteg 1
100
AcDbSpline
210
0.0
220
0.0
230
1.0
 70
     1
 71
     3
 72
    24
 73
    20
 74
     0
 42
0.0000000001
 43
0.0000000001
 40
0.0
 40
0.0
 40
0.0
 40
0.0
 40
0.2
 40
0.2
 40
0.2
 40
0.2
 40
0.4
 40
0.4
 40
0.4
 40
0.4
 40
0.6000000000000001
 40
0.6000000000000001
 40
0.6000000000000001
 40
0.6000000000000001
 40
0.8
 40
0.8
 40
0.8
 40
0.8
 40
1.0
 40
1.0
 40
1.0
 40
1.0
 10
-39.631399999999999
 20
8.1344999999999992
 30
0.0
 10
-39.631399999999999
 20
8.1344999999999992
 30
0.0
 10
-39.631399999999999
 20
2.2326999999999999
 30
0.0
 10
-39.631399999999999
 20
2.2326999999999999
 30
0.0
 10
-39.631399999999999
 20
2.2326999999999999
 30
0.0
 10
-41.644500000000001
 20
2.9771000000000001
 30
0.0
 10
-41.644500000000001
 20
5.3696999999999999
 30
0.0
 10
-42.678199999999997
 20
6.9648000000000003
 30
0.0
 10
-42.678199999999997
 20
6.9648000000000003
 30
0.0
 10
-43.820799999999998
 20
4.6254
 30
0.0
 10
-46.323599999999999
 20
4.3063000000000002
 30
0.0
 10
-48.663200000000003
 20
3.6682999999999999
 30
0.0
 10
-48.663200000000003
 20
3.6682999999999999
 30
0.0
 10
-48.663200000000003
 20
3.6682999999999999
 30
0.0
 10
-48.663200000000003
 20
6.5926
 30
0.0
 10
-48.663200000000003
 20
6.5926
 30
0.0
 10
-48.663200000000003
 20
6.5926
 30
0.0
 10
-45.997199999999999
 20
7.8686999999999996
 30
0.0
 10
-42.841500000000003
 20
9.1979000000000006
 30
0.0
 10
-39.631399999999999
 20
8.1344999999999992
 30
0.0
  0
SPLINE
  5
3A
100
AcDbEntity
  8
RÚteg 1
100
AcDbSpline
210
0.0
220
0.0
230
1.0
 70
     1
 71
     3
 72
    24
 73
    20
 74
     0
 42
0.0000000001
 43
0.0000000001
 40
0.0
 40
0.0
 40
0.0
 40
0.0
 40
0.2
 40
0.2
 40
0.2
 40
0.2
 40
0.4
 40
0.4
 40
0.4
 40
0.4
 40
0.6000000000000001
 40
0.6000000000000001
 40
0.6000000000000001
 40
0.6000000000000001
 40
0.8
 40
0.8
 40
0.8
 40
0.8
 40
1.0
 40
1.0
 40
1.0
 40
1.0
 10
-46.160400000000003
 20
-0.1598
 30
0.0
 10
-46.160400000000003
 20
-0.1598
 30
0.0
 10
-45.398699999999998
 20
-0.9573
 30
0.0
 10
-45.398699999999998
 20
-0.9573
 30
0.0
 10
-45.398699999999998
 20
-0.9573
 30
0.0
 10
-45.725099999999998
 20
-5.5830000000000002
 30
0.0
 10
-47.466200000000001
 20
-9.6769999999999996
 30
0.0
 10
-47.357399999999998
 20
-14.462300000000001
 30
0.0
 10
-47.357399999999998
 20
-14.462300000000001
 30
0.0
 10
-47.847099999999998
 20
-15.2598
 30
0.0
 10
-48.663200000000003
 20
-16.216899999999999
 30
0.0
 10
-49.588099999999997
 20
-16.535799999999998
 30
0.0
 10
-49.588099999999997
 20
-16.535799999999998
 30
0.0
 10
-50.349800000000002
 20
-16.8017
 30
0.0
 10
-50.7851
 20
-16.057300000000001
 30
0.0
 10
-51.165999999999997
 20
-15.738300000000001
 30
0.0
 10
-51.165999999999997
 20
-15.738300000000001
 30
0.0
 10
-52.743899999999996
 20
-9.8897999999999993
 30
0.0
 10
-49.3705
 20
-4.7854999999999999
 30
0.0
 10
-46.160400000000003
 20
-0.1598
 30
0.0
  0
SPLINE
  5
3B
100
AcDbEntity
  8
RÚteg 1
100
AcDbSpline
210
0.0
220
0.0
230
1.0
 70
     1
 71
     3
 72
    24
 73
    20
 74
     0
 42
0.0000000001
 43
0.0000000001
 40
0.0
 40
0.0
 40
0.0
 40
0.0
 40
0.2
 40
0.2
 40
0.2
 40
0.2
 40
0.4
 40
0.4
 40
0.4
 40
0.4
 40
0.6000000000000001
 40
0.6000000000000001
 40
0.6000000000000001
 40
0.6000000000000001
 40
0.8
 40
0.8
 40
0.8
 40
0.8
 40
1.0
 40
1.0
 40
1.0
 40
1.0
 10
-45.779499999999999
 20
-30.306699999999999
 30
0.0
 10
-46.214799999999997
 20
-31.7423
 30
0.0
 10
-46.813299999999998
 20
-33.549999999999997
 30
0.0
 10
-48.282400000000003
 20
-34.134799999999998
 30
0.0
 10
-48.282400000000003
 20
-34.134799999999998
 30
0.0
 10
-49.642600000000002
 20
-33.975299999999997
 30
0.0
 10
-50.295400000000001
 20
-33.018300000000004
 30
0.0
 10
-50.893900000000002
 20
-31.954899999999999
 30
0.0
 10
-50.893900000000002
 20
-31.954899999999999
 30
0.0
 10
-51.8733
 20
-27.488700000000001
 30
0.0
 10
-50.295400000000001
 20
-23.7669
 30
0.0
 10
-49.860199999999999
 20
-19.725999999999999
 30
0.0
 10
-49.860199999999999
 20
-19.725999999999999
 30
0.0
 10
-48.935200000000002
 20
-19.034800000000001
 30
0.0
 10
-46.795099999999998
 20
-17.351099999999999
 30
0.0
 10
-46.795099999999998
 20
-17.351099999999999
 30
0.0
 10
-46.795099999999998
 20
-17.351099999999999
 30
0.0
 10
-47.448099999999997
 20
-21.551500000000001
 30
0.0
 10
-46.9221
 20
-26.531700000000001
 30
0.0
 10
-45.779499999999999
 20
-30.306699999999999
 30
0.0
  0
SPLINE
  5
3C
100
AcDbEntity
  8
RÚteg 1
100
AcDbSpline
210
0.0
220
0.0
230
1.0
 70
     1
 71
     3
 72
    24
 73
    20
 74
     0
 42
0.0000000001
 43
0.0000000001
 40
0.0
 40
0.0
 40
0.0
 40
0.0
 40
0.2
 40
0.2
 40
0.2
 40
0.2
 40
0.4
 40
0.4
 40
0.4
 40
0.4
 40
0.6000000000000001
 40
0.6000000000000001
 40
0.6000000000000001
 40
0.6000000000000001
 40
0.8
 40
0.8
 40
0.8
 40
0.8
 40
1.0
 40
1.0
 40
1.0
 40
1.0
 10
-46.813299999999998
 20
-45.991599999999998
 30
0.0
 10
-47.683900000000001
 20
-43.014099999999999
 30
0.0
 10
-47.9559
 20
-39.292299999999997
 30
0.0
 10
-47.629399999999997
 20
-36.314799999999998
 30
0.0
 10
-47.629399999999997
 20
-36.314799999999998
 30
0.0
 10
-45.888300000000001
 20
-35.357700000000001
 30
0.0
 10
-43.929699999999997
 20
-34.028500000000001
 30
0.0
 10
-42.895899999999997
 20
-32.220799999999997
 30
0.0
 10
-42.895899999999997
 20
-32.220799999999997
 30
0.0
 10
-40.7196
 20
-34.666600000000003
 30
0.0
 10
-40.229900000000001
 20
-38.122500000000002
 30
0.0
 10
-39.794600000000003
 20
-41.418999999999997
 30
0.0
 10
-39.794600000000003
 20
-41.418999999999997
 30
0.0
 10
-40.0122
 20
-43.811599999999999
 30
0.0
 10
-39.304900000000004
 20
-47.214500000000001
 30
0.0
 10
-42.134099999999997
 20
-48.543700000000001
 30
0.0
 10
-42.134099999999997
 20
-48.543700000000001
 30
0.0
 10
-43.802700000000002
 20
-49.252600000000001
 30
0.0
 10
-46.069699999999997
 20
-47.4803
 30
0.0
 10
-46.813299999999998
 20
-45.991599999999998
 30
0.0
  0
SPLINE
  5
3D
100
AcDbEntity
  8
RÚteg 1
100
AcDbSpline
210
0.0
220
0.0
230
1.0
 70
     1
 71
     3
 72
    24
 73
    20
 74
     0
 42
0.0000000001
 43
0.0000000001
 40
0.0
 40
0.0
 40
0.0
 40
0.0
 40
0.2
 40
0.2
 40
0.2
 40
0.2
 40
0.4
 40
0.4
 40
0.4
 40
0.4
 40
0.6000000000000001
 40
0.6000000000000001
 40
0.6000000000000001
 40
0.6000000000000001
 40
0.8
 40
0.8
 40
0.8
 40
0.8
 40
1.0
 40
1.0
 40
1.0
 40
1.0
 10
-42.134099999999997
 20
-29.402799999999999
 30
0.0
 10
-44.473700000000001
 20
-28.339400000000001
 30
0.0
 10
-44.637
 20
-25.468299999999999
 30
0.0
 10
-45.017800000000001
 20
-23.128799999999998
 30
0.0
 10
-45.017800000000001
 20
-23.128799999999998
 30
0.0
 10
-45.017800000000001
 20
-23.128799999999998
 30
0.0
 10
-44.854599999999998
 20
-15.4725
 30
0.0
 10
-44.854599999999998
 20
-15.4725
 30
0.0
 10
-44.854599999999998
 20
-15.4725
 30
0.0
 10
-43.494399999999999
 20
-16.163699999999999
 30
0.0
 10
-42.025300000000001
 20
-17.333400000000001
 30
0.0
 10
-40.284300000000002
 20
-16.535799999999998
 30
0.0
 10
-40.284300000000002
 20
-16.535799999999998
 30
0.0
 10
-39.1417
 20
-20.151399999999999
 30
0.0
 10
-38.760800000000003
 20
-23.926400000000001
 30
0.0
 10
-39.1417
 20
-27.860900000000001
 30
0.0
 10
-39.1417
 20
-27.860900000000001
 30
0.0
 10
-39.794600000000003
 20
-28.817900000000002
 30
0.0
 10
-40.882800000000003
 20
-29.828199999999999
 30
0.0
 10
-42.134099999999997
 20
-29.402799999999999
 30
0.0
  0
SPLINE
  5
3E
100
AcDbEntity
  8
RÚteg 1
100
AcDbSpline
210
0.0
220
0.0
230
1.0
 70
     1
 71
     3
 72
    20
 73
    16
 74
     0
 42
0.0000000001
 43
0.0000000001
 40
0.0
 40
0.0
 40
0.0
 40
0.0
 40
0.25
 40
0.25
 40
0.25
 40
0.25
 40
0.5
 40
0.5
 40
0.5
 40
0.5
 40
0.75
 40
0.75
 40
0.75
 40
0.75
 40
1.0
 40
1.0
 40
1.0
 40
1.0
 10
-35.985999999999997
 20
-26.744399999999999
 30
0.0
 10
-33.374400000000001
 20
-30.200299999999999
 30
0.0
 10
-32.177399999999999
 20
-34.932400000000001
 30
0.0
 10
-33.537599999999998
 20
-39.345500000000001
 30
0.0
 10
-33.537599999999998
 20
-39.345500000000001
 30
0.0
 10
-34.1905
 20
-39.877099999999999
 30
0.0
 10
-35.169899999999998
 20
-39.983499999999999
 30
0.0
 10
-35.985999999999997
 20
-39.717599999999997
 30
0.0
 10
-35.985999999999997
 20
-39.717599999999997
 30
0.0
 10
-37.944699999999997
 20
-37.484499999999997
 30
0.0
 10
-38.543199999999999
 20
-34.666600000000003
 30
0.0
 10
-39.631399999999999
 20
-32.061300000000003
 30
0.0
 10
-39.631399999999999
 20
-32.061300000000003
 30
0.0
 10
-37.944699999999997
 20
-30.944700000000001
 30
0.0
 10
-35.713999999999999
 20
-29.137
 30
0.0
 10
-35.985999999999997
 20
-26.744399999999999
 30
0.0
  0
SPLINE
  5
3F
100
AcDbEntity
  8
RÚteg 1
100
AcDbSpline
210
0.0
220
0.0
230
1.0
 70
     1
 71
     3
 72
    36
 73
    32
 74
     0
 42
0.0000000001
 43
0.0000000001
 40
0.0
 40
0.0
 40
0.0
 40
0.0
 40
0.125
 40
0.125
 40
0.125
 40
0.125
 40
0.25
 40
0.25
 40
0.25
 40
0.25
 40
0.375
 40
0.375
 40
0.375
 40
0.375
 40
0.5
 40
0.5
 40
0.5
 40
0.5
 40
0.625
 40
0.625
 40
0.625
 40
0.625
 40
0.75
 40
0.75
 40
0.75
 40
0.75
 40
0.875
 40
0.875
 40
0.875
 40
0.875
 40
1.0
 40
1.0
 40
1.0
 40
1.0
 10
-36.366900000000001
 20
-41.897599999999997
 30
0.0
 10
-35.224299999999999
 20
-42.110300000000002
 30
0.0
 10
-33.809699999999999
 20
-42.695099999999996
 30
0.0
 10
-32.721499999999999
 20
-41.897599999999997
 30
0.0
 10
-32.721499999999999
 20
-41.897599999999997
 30
0.0
 10
-30.4907
 20
-40.089799999999997
 30
0.0
 10
-31.578900000000001
 20
-36.899700000000003
 30
0.0
 10
-31.306899999999999
 20
-34.241199999999999
 30
0.0
 10
-31.306899999999999
 20
-34.241199999999999
 30
0.0
 10
-31.306899999999999
 20
-34.241199999999999
 30
0.0
 10
-31.306899999999999
 20
-29.0306
 30
0.0
 10
-31.306899999999999
 20
-29.0306
 30
0.0
 10
-31.306899999999999
 20
-29.0306
 30
0.0
 10
-28.5321
 20
-27.3292
 30
0.0
 10
-27.879100000000001
 20
-24.298500000000001
 30
0.0
 10
-27.008600000000001
 20
-21.6401
 30
0.0
 10
-27.008600000000001
 20
-21.6401
 30
0.0
 10
-25.5396
 20
-22.9162
 30
0.0
 10
-23.798500000000001
 20
-23.713699999999999
 30
0.0
 10
-21.894200000000001
 20
-23.926400000000001
 30
0.0
 10
-21.894200000000001
 20
-23.926400000000001
 30
0.0
 10
-20.316400000000002
 20
-26.106300000000001
 30
0.0
 10
-15.3108
 20
-27.435600000000001
 30
0.0
 10
-17.0519
 20
-31.210599999999999
 30
0.0
 10
-17.0519
 20
-31.210599999999999
 30
0.0
 10
-20.7516
 20
-39.026400000000002
 30
0.0
 10
-29.348199999999999
 20
-44.0244
 30
0.0
 10
-37.183
 20
-46.363799999999998
 30
0.0
 10
-37.183
 20
-46.363799999999998
 30
0.0
 10
-37.183
 20
-46.363799999999998
 30
0.0
 10
-36.366900000000001
 20
-41.897599999999997
 30
0.0
 10
-36.366900000000001
 20
-41.897599999999997
 30
0.0
  0
SPLINE
  5
40
100
AcDbEntity
  8
RÚteg 1
100
AcDbSpline
210
0.0
220
0.0
230
1.0
 70
     1
 71
     3
 72
    16
 73
    12
 74
     0
 42
0.0000000001
 43
0.0000000001
 40
0.0
 40
0.0
 40
0.0
 40
0.0
 40
0.3333333333333333
 40
0.3333333333333333
 40
0.3333333333333333
 40
0.3333333333333333
 40
0.6666666666666666
 40
0.6666666666666666
 40
0.6666666666666666
 40
0.6666666666666666
 40
1.0
 40
1.0
 40
1.0
 40
1.0
 10
-22.438300000000002
 20
-20.842600000000001
 30
0.0
 10
-26.899799999999999
 20
-19.8324
 30
0.0
 10
-27.443899999999999
 20
-14.994
 30
0.0
 10
-28.314399999999999
 20
-11.4316
 30
0.0
 10
-28.314399999999999
 20
-11.4316
 30
0.0
 10
-25.757200000000001
 20
-10.261900000000001
 30
0.0
 10
-23.5809
 20
-7.8160999999999996
 30
0.0
 10
-23.5809
 20
-5.1576000000000004
 30
0.0
 10
-23.5809
 20
-5.1576000000000004
 30
0.0
 10
-19.137499999999999
 20
-18.768999999999998
 30
0.0
 10
-21.622199999999999
 20
-20.789400000000001
 30
0.0
 10
-22.438300000000002
 20
-20.842600000000001
 30
0.0
  0
SPLINE
  5
41
100
AcDbEntity
  8
RÚteg 1
100
AcDbSpline
210
0.0
220
0.0
230
1.0
 70
     1
 71
     3
 72
    28
 73
    24
 74
     0
 42
0.0000000001
 43
0.0000000001
 40
0.0
 40
0.0
 40
0.0
 40
0.0
 40
0.1666666666666667
 40
0.1666666666666667
 40
0.1666666666666667
 40
0.1666666666666667
 40
0.3333333333333333
 40
0.3333333333333333
 40
0.3333333333333333
 40
0.3333333333333333
 40
0.5
 40
0.5
 40
0.5
 40
0.5
 40
0.6666666666666666
 40
0.6666666666666666
 40
0.6666666666666666
 40
0.6666666666666666
 40
0.8333333333333333
 40
0.8333333333333333
 40
0.8333333333333333
 40
0.8333333333333333
 40
1.0
 40
1.0
 40
1.0
 40
1.0
 10
-26.355699999999999
 20
9.6233000000000004
 30
0.0
 10
-26.355699999999999
 20
9.6233000000000004
 30
0.0
 10
-30.381900000000002
 20
14.514900000000001
 30
0.0
 10
-30.381900000000002
 20
14.514900000000001
 30
0.0
 10
-30.381900000000002
 20
14.514900000000001
 30
0.0
 10
-27.226199999999999
 20
16.269400000000001
 30
0.0
 10
-25.648399999999999
 20
19.6191
 30
0.0
 10
-24.1249
 20
22.543399999999998
 30
0.0
 10
-24.1249
 20
22.543399999999998
 30
0.0
 10
-22.220600000000001
 20
24.563800000000001
 30
0.0
 10
-20.098700000000001
 20
27.1159
 30
0.0
 10
-16.943100000000001
 20
26.6374
 30
0.0
 10
-16.943100000000001
 20
26.6374
 30
0.0
 10
-18.847300000000001
 20
20.841999999999999
 30
0.0
 10
-19.1738
 20
13.0261
 30
0.0
 10
-15.6372
 20
7.8686999999999996
 30
0.0
 10
-15.6372
 20
7.8686999999999996
 30
0.0
 10
-17.958600000000001
 20
5.7774000000000001
 30
0.0
 10
-20.3889
 20
1.6124000000000001
 30
0.0
 10
-20.3889
 20
1.6124000000000001
 30
0.0
 10
-20.3889
 20
1.6124000000000001
 30
0.0
 10
-23.852900000000002
 20
2.0554999999999999
 30
0.0
 10
-23.907299999999999
 20
7.1775000000000002
 30
0.0
 10
-26.355699999999999
 20
9.6233000000000004
 30
0.0
  0
SPLINE
  5
42
100
AcDbEntity
  8
RÚteg 1
100
AcDbSpline
210
0.0
220
0.0
230
1.0
 70
     1
 71
     3
 72
    24
 73
    20
 74
     0
 42
0.0000000001
 43
0.0000000001
 40
0.0
 40
0.0
 40
0.0
 40
0.0
 40
0.2
 40
0.2
 40
0.2
 40
0.2
 40
0.4
 40
0.4
 40
0.4
 40
0.4
 40
0.6000000000000001
 40
0.6000000000000001
 40
0.6000000000000001
 40
0.6000000000000001
 40
0.8
 40
0.8
 40
0.8
 40
0.8
 40
1.0
 40
1.0
 40
1.0
 40
1.0
 10
11.1317
 20
45.991
 30
0.0
 10
12.9816
 20
42.747700000000002
 30
0.0
 10
18.041599999999999
 20
41.471600000000002
 30
0.0
 10
17.3887
 20
37.2181
 30
0.0
 10
17.3887
 20
37.2181
 30
0.0
 10
13.7796
 20
35.552100000000003
 30
0.0
 10
11.567
 20
30.501000000000001
 30
0.0
 10
11.567
 20
30.501000000000001
 30
0.0
 10
11.567
 20
30.501000000000001
 30
0.0
 10
9.2454999999999998
 20
31.652999999999999
 30
0.0
 10
7.3411999999999997
 20
28.905999999999999
 30
0.0
 10
5.6364000000000001
 20
30.837700000000002
 30
0.0
 10
5.6364000000000001
 20
30.837700000000002
 30
0.0
 10
3.9497
 20
32.9114
 30
0.0
 10
1.8460000000000001
 20
35.215400000000002
 30
0.0
 10
-0.4391
 20
36.757199999999997
 30
0.0
 10
-0.4391
 20
36.757199999999997
 30
0.0
 10
-0.4391
 20
36.757199999999997
 30
0.0
 10
7.3411999999999997
 20
41.312100000000001
 30
0.0
 10
11.1317
 20
45.991
 30
0.0
  0
SPLINE
  5
43
100
AcDbEntity
  8
RÚteg 1
100
AcDbSpline
210
0.0
220
0.0
230
1.0
 70
     1
 71
     3
 72
    44
 73
    40
 74
     0
 42
0.0000000001
 43
0.0000000001
 40
0.0
 40
0.0
 40
0.0
 40
0.0
 40
0.1
 40
0.1
 40
0.1
 40
0.1
 40
0.2
 40
0.2
 40
0.2
 40
0.2
 40
0.3
 40
0.3
 40
0.3
 40
0.3
 40
0.4
 40
0.4
 40
0.4
 40
0.4
 40
0.5
 40
0.5
 40
0.5
 40
0.5
 40
0.6
 40
0.6
 40
0.6
 40
0.6
 40
0.7
 40
0.7
 40
0.7
 40
0.7
 40
0.7999999999999999
 40
0.7999999999999999
 40
0.7999999999999999
 40
0.7999999999999999
 40
0.8999999999999999
 40
0.8999999999999999
 40
0.8999999999999999
 40
0.8999999999999999
 40
1.0
 40
1.0
 40
1.0
 40
1.0
 10
2.5352000000000001
 20
53.275199999999998
 30
0.0
 10
2.5352000000000001
 20
53.275199999999998
 30
0.0
 10
4.8746999999999998
 20
58.751600000000003
 30
0.0
 10
4.8746999999999998
 20
58.751600000000003
 30
0.0
 10
4.8746999999999998
 20
58.751600000000003
 30
0.0
 10
6.2892999999999999
 20
58.113599999999998
 30
0.0
 10
6.2892999999999999
 20
55.880400000000002
 30
0.0
 10
7.7584
 20
55.986800000000002
 30
0.0
 10
7.7584
 20
55.986800000000002
 30
0.0
 10
7.7584
 20
55.986800000000002
 30
0.0
 10
11.585100000000001
 20
58.379399999999997
 30
0.0
 10
11.585100000000001
 20
58.379399999999997
 30
0.0
 10
11.585100000000001
 20
58.379399999999997
 30
0.0
 10
11.585100000000001
 20
58.379399999999997
 30
0.0
 10
13.634499999999999
 20
54.710700000000003
 30
0.0
 10
13.634499999999999
 20
54.710700000000003
 30
0.0
 10
13.634499999999999
 20
54.710700000000003
 30
0.0
 10
13.4712
 20
54.285400000000003
 30
0.0
 10
13.036
 20
54.019500000000001
 30
0.0
 10
12.6007
 20
54.072699999999998
 30
0.0
 10
12.6007
 20
54.072699999999998
 30
0.0
 10
11.8934
 20
55.029699999999998
 30
0.0
 10
11.784599999999999
 20
56.1995
 30
0.0
 10
11.0228
 20
57.103299999999997
 30
0.0
 10
11.0228
 20
57.103299999999997
 30
0.0
 10
11.0228
 20
57.103299999999997
 30
0.0
 10
7.3775000000000004
 20
54.179000000000002
 30
0.0
 10
7.3775000000000004
 20
54.179000000000002
 30
0.0
 10
7.3775000000000004
 20
54.179000000000002
 30
0.0
 10
7.3775000000000004
 20
54.179000000000002
 30
0.0
 10
5.2556000000000003
 20
57.103299999999997
 30
0.0
 10
5.2556000000000003
 20
57.103299999999997
 30
0.0
 10
5.2556000000000003
 20
57.103299999999997
 30
0.0
 10
4.8928000000000003
 20
55.490499999999997
 30
0.0
 10
3.4601000000000002
 20
51.626899999999999
 30
0.0
 10
3.4601000000000002
 20
51.626899999999999
 30
0.0
 10
3.4601000000000002
 20
51.626899999999999
 30
0.0
 10
2.8978000000000002
 20
52.300400000000003
 30
0.0
 10
2.6438999999999999
 20
52.637099999999997
 30
0.0
 10
2.5352000000000001
 20
53.275199999999998
 30
0.0
  0
SPLINE
  5
44
100
AcDbEntity
  8
RÚteg 1
100
AcDbSpline
210
0.0
220
0.0
230
1.0
 70
     1
 71
     3
 72
    16
 73
    12
 74
     0
 42
0.0000000001
 43
0.0000000001
 40
0.0
 40
0.0
 40
0.0
 40
0.0
 40
0.3333333333333333
 40
0.3333333333333333
 40
0.3333333333333333
 40
0.3333333333333333
 40
0.6666666666666666
 40
0.6666666666666666
 40
0.6666666666666666
 40
0.6666666666666666
 40
1.0
 40
1.0
 40
1.0
 40
1.0
 10
10.7508
 20
11.430999999999999
 30
0.0
 10
8.8465000000000007
 20
12.069000000000001
 30
0.0
 10
6.8334000000000001
 20
12.6539
 30
0.0
 10
5.2556000000000003
 20
13.876799999999999
 30
0.0
 10
5.2556000000000003
 20
13.876799999999999
 30
0.0
 10
4.9291
 20
17.9176
 30
0.0
 10
7.7583000000000002
 20
21.054600000000001
 30
0.0
 10
10.4788
 20
24.0853
 30
0.0
 10
10.4788
 20
24.0853
 30
0.0
 10
10.968400000000001
 20
19.6723
 30
0.0
 10
9.4993999999999996
 20
15.3124
 30
0.0
 10
10.7508
 20
11.430999999999999
 30
0.0
  0
SPLINE
  5
45
100
AcDbEntity
  8
RÚteg 1
100
AcDbSpline
210
0.0
220
0.0
230
1.0
 70
     1
 71
     3
 72
    20
 73
    16
 74
     0
 42
0.0000000001
 43
0.0000000001
 40
0.0
 40
0.0
 40
0.0
 40
0.0
 40
0.25
 40
0.25
 40
0.25
 40
0.25
 40
0.5
 40
0.5
 40
0.5
 40
0.5
 40
0.75
 40
0.75
 40
0.75
 40
0.75
 40
1.0
 40
1.0
 40
1.0
 40
1.0
 10
7.1055000000000001
 20
24.936
 30
0.0
 10
7.1055000000000001
 20
24.936
 30
0.0
 10
2.6438999999999999
 20
16.003599999999999
 30
0.0
 10
2.6438999999999999
 20
16.003599999999999
 30
0.0
 10
2.6438999999999999
 20
16.003599999999999
 30
0.0
 10
0.9028000000000001
 20
15.6846
 30
0.0
 10
-0.8925
 20
15.365500000000001
 30
0.0
 10
-2.6880000000000002
 20
15.152799999999999
 30
0.0
 10
-2.6880000000000002
 20
15.152799999999999
 30
0.0
 10
-2.4159000000000002
 20
19.512699999999999
 30
0.0
 10
2.4262999999999999
 20
24.4575
 30
0.0
 10
7.1055000000000001
 20
25.8399
 30
0.0
 10
7.1055000000000001
 20
25.8399
 30
0.0
 10
7.1055000000000001
 20
25.8399
 30
0.0
 10
7.1055000000000001
 20
24.936
 30
0.0
 10
7.1055000000000001
 20
24.936
 30
0.0
  0
SPLINE
  5
46
100
AcDbEntity
  8
RÚteg 1
100
AcDbSpline
210
0.0
220
0.0
230
1.0
 70
     1
 71
     3
 72
    24
 73
    20
 74
     0
 42
0.0000000001
 43
0.0000000001
 40
0.0
 40
0.0
 40
0.0
 40
0.0
 40
0.2
 40
0.2
 40
0.2
 40
0.2
 40
0.4
 40
0.4
 40
0.4
 40
0.4
 40
0.6000000000000001
 40
0.6000000000000001
 40
0.6000000000000001
 40
0.6000000000000001
 40
0.8
 40
0.8
 40
0.8
 40
0.8
 40
1.0
 40
1.0
 40
1.0
 40
1.0
 10
0.6852
 20
13.610900000000001
 30
0.0
 10
2.8616000000000001
 20
12.1754
 30
0.0
 10
5.2556000000000003
 20
10.739800000000001
 30
0.0
 10
7.7583000000000002
 20
9.8890999999999991
 30
0.0
 10
7.7583000000000002
 20
9.8890999999999991
 30
0.0
 10
9.9891000000000005
 20
7.7622999999999998
 30
0.0
 10
10.805300000000001
 20
5.0507
 30
0.0
 10
11.947800000000001
 20
2.4986000000000002
 30
0.0
 10
11.947800000000001
 20
2.4986000000000002
 30
0.0
 10
10.097899999999999
 20
3.1898
 30
0.0
 10
8.1936
 20
5.1039000000000003
 30
0.0
 10
6.4524999999999997
 20
6.3268000000000004
 30
0.0
 10
6.4524999999999997
 20
6.3268000000000004
 30
0.0
 10
2.5352000000000001
 20
6.0609000000000002
 30
0.0
 10
-2.6335999999999999
 20
4.3063000000000002
 30
0.0
 10
-5.6803999999999997
 20
7.8686999999999996
 30
0.0
 10
-5.6803999999999997
 20
7.8686999999999996
 30
0.0
 10
-5.8437000000000001
 20
11.377800000000001
 30
0.0
 10
-1.7629999999999999
 20
12.494400000000001
 30
0.0
 10
0.6852
 20
13.610900000000001
 30
0.0
  0
SPLINE
  5
47
100
AcDbEntity
  8
RÚteg 1
100
AcDbSpline
210
0.0
220
0.0
230
1.0
 70
     1
 71
     3
 72
    28
 73
    24
 74
     0
 42
0.0000000001
 43
0.0000000001
 40
0.0
 40
0.0
 40
0.0
 40
0.0
 40
0.1666666666666667
 40
0.1666666666666667
 40
0.1666666666666667
 40
0.1666666666666667
 40
0.3333333333333333
 40
0.3333333333333333
 40
0.3333333333333333
 40
0.3333333333333333
 40
0.5
 40
0.5
 40
0.5
 40
0.5
 40
0.6666666666666666
 40
0.6666666666666666
 40
0.6666666666666666
 40
0.6666666666666666
 40
0.8333333333333333
 40
0.8333333333333333
 40
0.8333333333333333
 40
0.8333333333333333
 40
1.0
 40
1.0
 40
1.0
 40
1.0
 10
5.2556000000000003
 20
3.8809999999999998
 30
0.0
 10
7.2142999999999997
 20
3.0303
 30
0.0
 10
7.976
 20
1.3289
 30
0.0
 10
9.8259000000000007
 20
0.0528
 30
0.0
 10
9.8259000000000007
 20
0.0528
 30
0.0
 10
12.4375
 20
-1.5952999999999999
 30
0.0
 10
14.940300000000001
 20
-3.2968000000000002
 30
0.0
 10
17.660699999999999
 20
-4.6260000000000003
 30
0.0
 10
17.660699999999999
 20
-4.6260000000000003
 30
0.0
 10
17.279800000000002
 20
-5.2640000000000002
 30
0.0
 10
16.354900000000001
 20
-5.5830000000000002
 30
0.0
 10
15.5932
 20
-5.7957000000000001
 30
0.0
 10
15.5932
 20
-5.7957000000000001
 30
0.0
 10
9.4450000000000003
 20
-7.8160999999999996
 30
0.0
 10
2.5352000000000001
 20
-6.3273999999999999
 30
0.0
 10
-2.3071000000000002
 20
-2.6055000000000001
 30
0.0
 10
-2.3071000000000002
 20
-2.6055000000000001
 30
0.0
 10
-4.7554999999999996
 20
-0.2661
 30
0.0
 10
-6.6054000000000004
 20
2.339
 30
0.0
 10
-7.2583000000000002
 20
5.4229000000000003
 30
0.0
 10
-7.2583000000000002
 20
5.4229000000000003
 30
0.0
 10
-3.3953000000000002
 20
4.1467999999999998
 30
0.0
 10
0.9028000000000001
 20
2.4986000000000002
 30
0.0
 10
5.2556000000000003
 20
3.8809999999999998
 30
0.0
  0
SPLINE
  5
48
100
AcDbEntity
  8
RÚteg 1
100
AcDbSpline
210
0.0
220
0.0
230
1.0
 70
     1
 71
     3
 72
    20
 73
    16
 74
     0
 42
0.0000000001
 43
0.0000000001
 40
0.0
 40
0.0
 40
0.0
 40
0.0
 40
0.25
 40
0.25
 40
0.25
 40
0.25
 40
0.5
 40
0.5
 40
0.5
 40
0.5
 40
0.75
 40
0.75
 40
0.75
 40
0.75
 40
1.0
 40
1.0
 40
1.0
 40
1.0
 10
15.5932
 20
-0.4256
 30
0.0
 10
23.700099999999999
 20
0.5845
 30
0.0
 10
29.793800000000001
 20
6.5393999999999997
 30
0.0
 10
36.594900000000003
 20
10.6866
 30
0.0
 10
36.594900000000003
 20
10.6866
 30
0.0
 10
36.2684
 20
5.4760999999999997
 30
0.0
 10
34.364100000000001
 20
0.2655
 30
0.0
 10
29.4129
 20
-2.3397000000000001
 30
0.0
 10
29.4129
 20
-2.3397000000000001
 30
0.0
 10
26.094000000000001
 20
-4.0411000000000001
 30
0.0
 10
21.523700000000002
 20
-3.6158000000000001
 30
0.0
 10
18.204799999999999
 20
-2.2334000000000001
 30
0.0
 10
18.204799999999999
 20
-2.2334000000000001
 30
0.0
 10
18.204799999999999
 20
-2.2334000000000001
 30
0.0
 10
15.5932
 20
-0.4256
 30
0.0
 10
15.5932
 20
-0.4256
 30
0.0
  0
SPLINE
  5
49
100
AcDbEntity
  8
RÚteg 1
100
AcDbSpline
210
0.0
220
0.0
230
1.0
 70
     1
 71
     3
 72
    28
 73
    24
 74
     0
 42
0.0000000001
 43
0.0000000001
 40
0.0
 40
0.0
 40
0.0
 40
0.0
 40
0.1666666666666667
 40
0.1666666666666667
 40
0.1666666666666667
 40
0.1666666666666667
 40
0.3333333333333333
 40
0.3333333333333333
 40
0.3333333333333333
 40
0.3333333333333333
 40
0.5
 40
0.5
 40
0.5
 40
0.5
 40
0.6666666666666666
 40
0.6666666666666666
 40
0.6666666666666666
 40
0.6666666666666666
 40
0.8333333333333333
 40
0.8333333333333333
 40
0.8333333333333333
 40
0.8333333333333333
 40
1.0
 40
1.0
 40
1.0
 40
1.0
 10
22.611899999999999
 20
4.5190000000000001
 30
0.0
 10
20.5444
 20
3.6151
 30
0.0
 10
17.5519
 20
2.9239000000000002
 30
0.0
 10
15.5932
 20
4.6786000000000003
 30
0.0
 10
15.5932
 20
4.6786000000000003
 30
0.0
 10
13.906499999999999
 20
6.3268000000000004
 30
0.0
 10
12.4375
 20
8.2408999999999999
 30
0.0
 10
12.7095
 20
10.527200000000001
 30
0.0
 10
12.7095
 20
10.527200000000001
 30
0.0
 10
13.4712
 20
14.1426
 30
0.0
 10
15.321199999999999
 20
17.226500000000001
 30
0.0
 10
16.246099999999998
 20
20.735600000000002
 30
0.0
 10
16.246099999999998
 20
20.735600000000002
 30
0.0
 10
19.075299999999999
 20
19.831700000000001
 30
0.0
 10
22.557500000000001
 20
20.416599999999999
 30
0.0
 10
25.386700000000001
 20
19.353200000000001
 30
0.0
 10
25.386700000000001
 20
19.353200000000001
 30
0.0
 10
27.7807
 20
18.024000000000001
 30
0.0
 10
27.726299999999998
 20
15.525
 30
0.0
 10
28.270399999999999
 20
13.3451
 30
0.0
 10
28.270399999999999
 20
13.3451
 30
0.0
 10
28.433599999999998
 20
9.5701000000000001
 30
0.0
 10
25.930800000000001
 20
6.3268000000000004
 30
0.0
 10
22.611899999999999
 20
4.5190000000000001
 30
0.0
  0
SPLINE
  5
4A
100
AcDbEntity
  8
RÚteg 1
100
AcDbSpline
210
0.0
220
0.0
230
1.0
 70
     1
 71
     3
 72
    28
 73
    24
 74
     0
 42
0.0000000001
 43
0.0000000001
 40
0.0
 40
0.0
 40
0.0
 40
0.0
 40
0.1666666666666667
 40
0.1666666666666667
 40
0.1666666666666667
 40
0.1666666666666667
 40
0.3333333333333333
 40
0.3333333333333333
 40
0.3333333333333333
 40
0.3333333333333333
 40
0.5
 40
0.5
 40
0.5
 40
0.5
 40
0.6666666666666666
 40
0.6666666666666666
 40
0.6666666666666666
 40
0.6666666666666666
 40
0.8333333333333333
 40
0.8333333333333333
 40
0.8333333333333333
 40
0.8333333333333333
 40
1.0
 40
1.0
 40
1.0
 40
1.0
 10
13.362399999999999
 20
25.467700000000001
 30
0.0
 10
15.43
 20
26.105699999999999
 30
0.0
 10
17.2255
 20
24.5106
 30
0.0
 10
18.9665
 20
23.6599
 30
0.0
 10
18.9665
 20
23.6599
 30
0.0
 10
18.9665
 20
23.6599
 30
0.0
 10
18.9665
 20
22.543399999999998
 30
0.0
 10
18.9665
 20
22.543399999999998
 30
0.0
 10
18.9665
 20
22.543399999999998
 30
0.0
 10
18.9665
 20
22.543399999999998
 30
0.0
 10
15.5932
 20
23.925799999999999
 30
0.0
 10
15.5932
 20
23.925799999999999
 30
0.0
 10
15.5932
 20
23.925799999999999
 30
0.0
 10
15.5932
 20
23.925799999999999
 30
0.0
 10
13.906499999999999
 20
19.831700000000001
 30
0.0
 10
13.906499999999999
 20
19.831700000000001
 30
0.0
 10
13.906499999999999
 20
19.831700000000001
 30
0.0
 10
13.906499999999999
 20
19.831700000000001
 30
0.0
 10
13.2536
 20
19.831700000000001
 30
0.0
 10
13.2536
 20
19.831700000000001
 30
0.0
 10
13.2536
 20
19.831700000000001
 30
0.0
 10
12.8727
 20
21.745799999999999
 30
0.0
 10
13.308
 20
23.766200000000001
 30
0.0
 10
13.362399999999999
 20
25.467700000000001
 30
0.0
  0
SPLINE
  5
4B
100
AcDbEntity
  8
RÚteg 1
100
AcDbSpline
210
0.0
220
0.0
230
1.0
 70
     1
 71
     3
 72
    28
 73
    24
 74
     0
 42
0.0000000001
 43
0.0000000001
 40
0.0
 40
0.0
 40
0.0
 40
0.0
 40
0.1666666666666667
 40
0.1666666666666667
 40
0.1666666666666667
 40
0.1666666666666667
 40
0.3333333333333333
 40
0.3333333333333333
 40
0.3333333333333333
 40
0.3333333333333333
 40
0.5
 40
0.5
 40
0.5
 40
0.5
 40
0.6666666666666666
 40
0.6666666666666666
 40
0.6666666666666666
 40
0.6666666666666666
 40
0.8333333333333333
 40
0.8333333333333333
 40
0.8333333333333333
 40
0.8333333333333333
 40
1.0
 40
1.0
 40
1.0
 40
1.0
 10
23.0471
 20
22.649699999999999
 30
0.0
 10
20.272300000000001
 20
25.042300000000001
 30
0.0
 10
16.572500000000002
 20
25.733499999999999
 30
0.0
 10
13.4712
 20
27.009599999999999
 30
0.0
 10
13.4712
 20
27.009599999999999
 30
0.0
 10
12.7639
 20
26.796900000000001
 30
0.0
 10
12.111000000000001
 20
26.371500000000001
 30
0.0
 10
11.2949
 20
26.371500000000001
 30
0.0
 10
11.2949
 20
26.371500000000001
 30
0.0
 10
11.0228
 20
27.009599999999999
 30
0.0
 10
10.696400000000001
 20
27.5944
 30
0.0
 10
10.641999999999999
 20
28.285599999999999
 30
0.0
 10
10.641999999999999
 20
28.285599999999999
 30
0.0
 10
12.219900000000001
 20
29.7744
 30
0.0
 10
14.776999999999999
 20
28.604700000000001
 30
0.0
 10
16.626899999999999
 20
28.764099999999999
 30
0.0
 10
16.626899999999999
 20
28.764099999999999
 30
0.0
 10
18.585599999999999
 20
26.424700000000001
 30
0.0
 10
21.741299999999999
 20
26.052499999999998
 30
0.0
 10
23.428000000000001
 20
23.819400000000002
 30
0.0
 10
23.428000000000001
 20
23.819400000000002
 30
0.0
 10
23.482399999999998
 20
23.340900000000001
 30
0.0
 10
23.3736
 20
22.968699999999998
 30
0.0
 10
23.0471
 20
22.649699999999999
 30
0.0
  0
SPLINE
  5
4C
100
AcDbEntity
  8
RÚteg 1
100
AcDbSpline
210
0.0
220
0.0
230
1.0
 70
     1
 71
     3
 72
    28
 73
    24
 74
     0
 42
0.0000000001
 43
0.0000000001
 40
0.0
 40
0.0
 40
0.0
 40
0.0
 40
0.1666666666666667
 40
0.1666666666666667
 40
0.1666666666666667
 40
0.1666666666666667
 40
0.3333333333333333
 40
0.3333333333333333
 40
0.3333333333333333
 40
0.3333333333333333
 40
0.5
 40
0.5
 40
0.5
 40
0.5
 40
0.6666666666666666
 40
0.6666666666666666
 40
0.6666666666666666
 40
0.6666666666666666
 40
0.8333333333333333
 40
0.8333333333333333
 40
0.8333333333333333
 40
0.8333333333333333
 40
1.0
 40
1.0
 40
1.0
 40
1.0
 10
4.7659000000000002
 20
27.381799999999998
 30
0.0
 10
1.7734000000000001
 20
24.191600000000001
 30
0.0
 10
-2.9056000000000002
 20
22.596499999999999
 30
0.0
 10
-5.1908000000000003
 20
18.555700000000002
 30
0.0
 10
-5.1908000000000003
 20
18.555700000000002
 30
0.0
 10
-8.1832999999999991
 20
21.745799999999999
 30
0.0
 10
-10.9762
 20
27.3995
 30
0.0
 10
-10.5228
 20
31.209900000000001
 30
0.0
 10
-10.5228
 20
31.209900000000001
 30
0.0
 10
-12.7898
 20
30.501000000000001
 30
0.0
 10
-17.2151
 20
28.764099999999999
 30
0.0
 10
-17.2151
 20
28.764099999999999
 30
0.0
 10
-17.2151
 20
28.764099999999999
 30
0.0
 10
-15.9092
 20
31.316199999999998
 30
0.0
 10
-12.318300000000001
 20
31.369499999999999
 30
0.0
 10
-10.141999999999999
 20
33.2303
 30
0.0
 10
-10.141999999999999
 20
33.2303
 30
0.0
 10
-10.141999999999999
 20
33.2303
 30
0.0
 10
-5.4627999999999997
 20
36.207799999999999
 30
0.0
 10
-5.4627999999999997
 20
36.207799999999999
 30
0.0
 10
-5.4627999999999997
 20
36.207799999999999
 30
0.0
 10
-2.5247000000000002
 20
32.167000000000002
 30
0.0
 10
3.1880000000000002
 20
32.4328
 30
0.0
 10
4.7659000000000002
 20
27.381799999999998
 30
0.0
  0
SPLINE
  5
4D
100
AcDbEntity
  8
RÚteg 1
100
AcDbSpline
210
0.0
220
0.0
230
1.0
 70
     1
 71
     3
 72
    20
 73
    16
 74
     0
 42
0.0000000001
 43
0.0000000001
 40
0.0
 40
0.0
 40
0.0
 40
0.0
 40
0.25
 40
0.25
 40
0.25
 40
0.25
 40
0.5
 40
0.5
 40
0.5
 40
0.5
 40
0.75
 40
0.75
 40
0.75
 40
0.75
 40
1.0
 40
1.0
 40
1.0
 40
1.0
 10
-9.5978999999999992
 20
8.8788999999999998
 30
0.0
 10
-14.168200000000001
 20
11.0588
 30
0.0
 10
-15.5284
 20
15.9504
 30
0.0
 10
-15.746
 20
20.629300000000001
 30
0.0
 10
-15.746
 20
20.629300000000001
 30
0.0
 10
-15.582800000000001
 20
23.1282
 30
0.0
 10
-14.6578
 20
25.3613
 30
0.0
 10
-13.5153
 20
27.488099999999999
 30
0.0
 10
-13.5153
 20
27.488099999999999
 30
0.0
 10
-12.808
 20
23.500399999999999
 30
0.0
 10
-10.141999999999999
 20
19.938099999999999
 30
0.0
 10
-7.8023999999999996
 20
16.5352
 30
0.0
 10
-7.8023999999999996
 20
16.5352
 30
0.0
 10
-6.4421999999999997
 20
11.2715
 30
0.0
 10
-9.5978999999999992
 20
8.8788999999999998
 30
0.0
 10
-9.5978999999999992
 20
8.8788999999999998
 30
0.0
  0
SPLINE
  5
4E
100
AcDbEntity
  8
RÚteg 1
100
AcDbSpline
210
0.0
220
0.0
230
1.0
 70
     1
 71
     3
 72
    24
 73
    20
 74
     0
 42
0.0000000001
 43
0.0000000001
 40
0.0
 40
0.0
 40
0.0
 40
0.0
 40
0.2
 40
0.2
 40
0.2
 40
0.2
 40
0.4
 40
0.4
 40
0.4
 40
0.4
 40
0.6000000000000001
 40
0.6000000000000001
 40
0.6000000000000001
 40
0.6000000000000001
 40
0.8
 40
0.8
 40
0.8
 40
0.8
 40
1.0
 40
1.0
 40
1.0
 40
1.0
 10
41.799999999999997
 20
-16.3764
 30
0.0
 10
30.4648
 20
-17.7942
 30
0.0
 10
22.394200000000001
 20
-14.5154
 30
0.0
 10
18.313600000000001
 20
-7.8160999999999996
 30
0.0
 10
18.313600000000001
 20
-7.8160999999999996
 30
0.0
 10
18.313600000000001
 20
-7.8160999999999996
 30
0.0
 10
21.578099999999999
 20
-5.9020000000000001
 30
0.0
 10
21.578099999999999
 20
-5.9020000000000001
 30
0.0
 10
21.578099999999999
 20
-5.9020000000000001
 30
0.0
 10
24.896999999999998
 20
-6.6463999999999999
 30
0.0
 10
27.671800000000001
 20
-5.3171999999999997
 30
0.0
 10
30.6099
 20
-4.6260000000000003
 30
0.0
 10
30.6099
 20
-4.6260000000000003
 30
0.0
 10
38.118299999999998
 20
-6.0084
 30
0.0
 10
43.450299999999999
 20
-1.9675
 30
0.0
 10
48.510300000000001
 20
2.2326999999999999
 30
0.0
 10
48.510300000000001
 20
2.2326999999999999
 30
0.0
 10
49.3264
 20
-4.8563999999999998
 30
0.0
 10
45.245800000000003
 20
-13.540699999999999
 30
0.0
 10
41.799999999999997
 20
-16.3764
 30
0.0
  0
SPLINE
  5
4F
100
AcDbEntity
  8
RÚteg 1
100
AcDbSpline
210
0.0
220
0.0
230
1.0
 70
     1
 71
     3
 72
    36
 73
    32
 74
     0
 42
0.0000000001
 43
0.0000000001
 40
0.0
 40
0.0
 40
0.0
 40
0.0
 40
0.125
 40
0.125
 40
0.125
 40
0.125
 40
0.25
 40
0.25
 40
0.25
 40
0.25
 40
0.375
 40
0.375
 40
0.375
 40
0.375
 40
0.5
 40
0.5
 40
0.5
 40
0.5
 40
0.625
 40
0.625
 40
0.625
 40
0.625
 40
0.75
 40
0.75
 40
0.75
 40
0.75
 40
0.875
 40
0.875
 40
0.875
 40
0.875
 40
1.0
 40
1.0
 40
1.0
 40
1.0
 10
37.411000000000001
 20
20.363399999999999
 30
0.0
 10
38.2271
 20
22.011700000000001
 30
0.0
 10
38.172699999999999
 20
23.978999999999999
 30
0.0
 10
38.716799999999999
 20
25.733499999999999
 30
0.0
 10
38.716799999999999
 20
25.733499999999999
 30
0.0
 10
42.362200000000001
 20
25.095500000000001
 30
0.0
 10
46.932499999999997
 20
23.500399999999999
 30
0.0
 10
50.197000000000003
 20
26.105699999999999
 30
0.0
 10
50.197000000000003
 20
26.105699999999999
 30
0.0
 10
49.5441
 20
21.107800000000001
 30
0.0
 10
49.326500000000003
 20
16.748000000000001
 30
0.0
 10
48.891199999999998
 20
11.5373
 30
0.0
 10
48.891199999999998
 20
11.5373
 30
0.0
 10
48.238300000000002
 20
6.1672000000000002
 30
0.0
 10
44.919400000000003
 20
0.0528
 30
0.0
 10
39.097700000000003
 20
-1.4358
 30
0.0
 10
39.097700000000003
 20
-1.4358
 30
0.0
 10
37.084499999999998
 20
-2.0737999999999999
 30
0.0
 10
34.908200000000001
 20
-2.2865000000000002
 30
0.0
 10
32.840699999999998
 20
-2.7119
 30
0.0
 10
32.840699999999998
 20
-2.7119
 30
0.0
 10
34.908200000000001
 20
0.8504
 30
0.0
 10
38.807499999999997
 20
5.4229000000000003
 30
0.0
 10
39.206499999999998
 20
12.972899999999999
 30
0.0
 10
39.206499999999998
 20
12.972899999999999
 30
0.0
 10
35.724299999999999
 20
12.707100000000001
 30
0.0
 10
32.677399999999999
 20
10.6866
 30
0.0
 10
29.684999999999999
 20
8.8788999999999998
 30
0.0
 10
29.684999999999999
 20
8.8788999999999998
 30
0.0
 10
30.2835
 20
13.610900000000001
 30
0.0
 10
36.758099999999999
 20
15.8972
 30
0.0
 10
37.411000000000001
 20
20.363399999999999
 30
0.0
  0
SPLINE
  5
50
100
AcDbEntity
  8
RÚteg 1
100
AcDbSpline
210
0.0
220
0.0
230
1.0
 70
     1
 71
     3
 72
    32
 73
    28
 74
     0
 42
0.0000000001
 43
0.0000000001
 40
0.0
 40
0.0
 40
0.0
 40
0.0
 40
0.1428571428571429
 40
0.1428571428571429
 40
0.1428571428571429
 40
0.1428571428571429
 40
0.2857142857142857
 40
0.2857142857142857
 40
0.2857142857142857
 40
0.2857142857142857
 40
0.4285714285714286
 40
0.4285714285714286
 40
0.4285714285714286
 40
0.4285714285714286
 40
0.5714285714285714
 40
0.5714285714285714
 40
0.5714285714285714
 40
0.5714285714285714
 40
0.7142857142857142
 40
0.7142857142857142
 40
0.7142857142857142
 40
0.7142857142857142
 40
0.857142857142857
 40
0.857142857142857
 40
0.857142857142857
 40
0.857142857142857
 40
1.0
 40
1.0
 40
1.0
 40
1.0
 10
19.347300000000001
 20
35.782499999999999
 30
0.0
 10
24.0809
 20
34.6128
 30
0.0
 10
27.835100000000001
 20
35.357100000000003
 30
0.0
 10
32.568600000000004
 20
35.676200000000001
 30
0.0
 10
32.568600000000004
 20
35.676200000000001
 30
0.0
 10
32.1877
 20
29.667999999999999
 30
0.0
 10
37.737400000000001
 20
24.138500000000001
 30
0.0
 10
33.874400000000001
 20
18.555700000000002
 30
0.0
 10
33.874400000000001
 20
18.555700000000002
 30
0.0
 10
33.874400000000001
 20
18.555700000000002
 30
0.0
 10
30.6099
 20
14.993399999999999
 30
0.0
 10
30.6099
 20
14.993399999999999
 30
0.0
 10
30.6099
 20
14.993399999999999
 30
0.0
 10
29.467400000000001
 20
19.459599999999998
 30
0.0
 10
27.7807
 20
25.201799999999999
 30
0.0
 10
22.394200000000001
 20
27.488099999999999
 30
0.0
 10
22.394200000000001
 20
27.488099999999999
 30
0.0
 10
20.000299999999999
 20
28.0198
 30
0.0
 10
19.782599999999999
 20
30.6251
 30
0.0
 10
18.585599999999999
 20
32.113799999999998
 30
0.0
 10
18.585599999999999
 20
32.113799999999998
 30
0.0
 10
17.606300000000001
 20
31.847999999999999
 30
0.0
 10
16.354900000000001
 20
32.0075
 30
0.0
 10
15.43
 20
31.9543
 30
0.0
 10
15.43
 20
31.9543
 30
0.0
 10
16.354900000000001
 20
33.230400000000003
 30
0.0
 10
17.606300000000001
 20
35.0381
 30
0.0
 10
19.347300000000001
 20
35.782499999999999
 30
0.0
  0
SPLINE
  5
51
100
AcDbEntity
  8
RÚteg 1
100
AcDbSpline
210
0.0
220
0.0
230
1.0
 70
     1
 71
     3
 72
    60
 73
    56
 74
     0
 42
0.0000000001
 43
0.0000000001
 40
0.0
 40
0.0
 40
0.0
 40
0.0
 40
0.0714285714285714
 40
0.0714285714285714
 40
0.0714285714285714
 40
0.0714285714285714
 40
0.1428571428571429
 40
0.1428571428571429
 40
0.1428571428571429
 40
0.1428571428571429
 40
0.2142857142857143
 40
0.2142857142857143
 40
0.2142857142857143
 40
0.2142857142857143
 40
0.2857142857142857
 40
0.2857142857142857
 40
0.2857142857142857
 40
0.2857142857142857
 40
0.3571428571428571
 40
0.3571428571428571
 40
0.3571428571428571
 40
0.3571428571428571
 40
0.4285714285714285
 40
0.4285714285714285
 40
0.4285714285714285
 40
0.4285714285714285
 40
0.4999999999999999
 40
0.4999999999999999
 40
0.4999999999999999
 40
0.4999999999999999
 40
0.5714285714285713
 40
0.5714285714285713
 40
0.5714285714285713
 40
0.5714285714285713
 40
0.6428571428571427
 40
0.6428571428571427
 40
0.6428571428571427
 40
0.6428571428571427
 40
0.7142857142857141
 40
0.7142857142857141
 40
0.7142857142857141
 40
0.7142857142857141
 40
0.7857142857142855
 40
0.7857142857142855
 40
0.7857142857142855
 40
0.7857142857142855
 40
0.8571428571428569
 40
0.8571428571428569
 40
0.8571428571428569
 40
0.8571428571428569
 40
0.9285714285714283
 40
0.9285714285714283
 40
0.9285714285714283
 40
0.9285714285714283
 40
1.0
 40
1.0
 40
1.0
 40
1.0
 10
12.1655
 20
78.530500000000004
 30
0.0
 10
12.383100000000001
 20
78.264700000000005
 30
0.0
 10
12.4375
 20
75.872
 30
0.0
 10
12.7095
 20
74.968199999999996
 30
0.0
 10
12.7095
 20
74.968199999999996
 30
0.0
 10
12.7095
 20
74.968199999999996
 30
0.0
 10
18.476800000000001
 20
76.403700000000001
 30
0.0
 10
18.476800000000001
 20
76.403700000000001
 30
0.0
 10
18.476800000000001
 20
76.403700000000001
 30
0.0
 10
18.367999999999999
 20
74.277000000000001
 30
0.0
 10
17.7151
 20
72.362899999999996
 30
0.0
 10
17.0078
 20
70.501999999999995
 30
0.0
 10
17.0078
 20
70.501999999999995
 30
0.0
 10
17.0078
 20
70.501999999999995
 30
0.0
 10
15.974
 20
70.501999999999995
 30
0.0
 10
15.974
 20
70.501999999999995
 30
0.0
 10
15.974
 20
70.501999999999995
 30
0.0
 10
16.082899999999999
 20
71.990700000000004
 30
0.0
 10
16.953399999999998
 20
73.426299999999998
 30
0.0
 10
17.5519
 20
74.861900000000006
 30
0.0
 10
17.5519
 20
74.861900000000006
 30
0.0
 10
15.756399999999999
 20
75.180800000000005
 30
0.0
 10
14.069800000000001
 20
74.383300000000006
 30
0.0
 10
12.7095
 20
73.585800000000006
 30
0.0
 10
12.7095
 20
73.585800000000006
 30
0.0
 10
12.742699999999999
 20
73.342500000000001
 30
0.0
 10
13.1448
 20
71.175399999999996
 30
0.0
 10
12.1473
 20
70.820999999999998
 30
0.0
 10
12.1473
 20
70.820999999999998
 30
0.0
 10
11.875299999999999
 20
72.150199999999998
 30
0.0
 10
11.2949
 20
76.616399999999999
 30
0.0
 10
11.2949
 20
76.616399999999999
 30
0.0
 10
11.2949
 20
76.616399999999999
 30
0.0
 10
10.4244
 20
76.191100000000006
 30
0.0
 10
9.2273999999999994
 20
74.808599999999998
 30
0.0
 10
8.2479999999999993
 20
74.968199999999996
 30
0.0
 10
8.2479999999999993
 20
74.968199999999996
 30
0.0
 10
7.7583000000000002
 20
75.552999999999997
 30
0.0
 10
7.5951000000000004
 20
76.510099999999994
 30
0.0
 10
6.9421999999999997
 20
76.775899999999993
 30
0.0
 10
6.9421999999999997
 20
76.775899999999993
 30
0.0
 10
5.9084000000000003
 20
75.393500000000003
 30
0.0
 10
5.4188000000000001
 20
73.2136
 30
0.0
 10
3.8409
 20
72.681899999999999
 30
0.0
 10
3.8409
 20
72.681899999999999
 30
0.0
 10
3.8047
 20
74.277000000000001
 30
0.0
 10
5.9084000000000003
 20
77.6798
 30
0.0
 10
6.5613999999999999
 20
79.062200000000004
 30
0.0
 10
6.5613999999999999
 20
79.062200000000004
 30
0.0
 10
7.3411999999999997
 20
78.441900000000004
 30
0.0
 10
8.7920999999999996
 20
75.960700000000003
 30
0.0
 10
8.7920999999999996
 20
75.960700000000003
 30
0.0
 10
8.7920999999999996
 20
75.960700000000003
 30
0.0
 10
8.7920999999999996
 20
75.960700000000003
 30
0.0
 10
12.1655
 20
78.530500000000004
 30
0.0
 10
12.1655
 20
78.530500000000004
 30
0.0
  0
SPLINE
  5
52
100
AcDbEntity
  8
RÚteg 1
100
AcDbSpline
210
0.0
220
0.0
230
1.0
 70
     1
 71
     3
 72
    60
 73
    56
 74
     0
 42
0.0000000001
 43
0.0000000001
 40
0.0
 40
0.0
 40
0.0
 40
0.0
 40
0.0714285714285714
 40
0.0714285714285714
 40
0.0714285714285714
 40
0.0714285714285714
 40
0.1428571428571429
 40
0.1428571428571429
 40
0.1428571428571429
 40
0.1428571428571429
 40
0.2142857142857143
 40
0.2142857142857143
 40
0.2142857142857143
 40
0.2142857142857143
 40
0.2857142857142857
 40
0.2857142857142857
 40
0.2857142857142857
 40
0.2857142857142857
 40
0.3571428571428571
 40
0.3571428571428571
 40
0.3571428571428571
 40
0.3571428571428571
 40
0.4285714285714285
 40
0.4285714285714285
 40
0.4285714285714285
 40
0.4285714285714285
 40
0.4999999999999999
 40
0.4999999999999999
 40
0.4999999999999999
 40
0.4999999999999999
 40
0.5714285714285713
 40
0.5714285714285713
 40
0.5714285714285713
 40
0.5714285714285713
 40
0.6428571428571427
 40
0.6428571428571427
 40
0.6428571428571427
 40
0.6428571428571427
 40
0.7142857142857141
 40
0.7142857142857141
 40
0.7142857142857141
 40
0.7142857142857141
 40
0.7857142857142855
 40
0.7857142857142855
 40
0.7857142857142855
 40
0.7857142857142855
 40
0.8571428571428569
 40
0.8571428571428569
 40
0.8571428571428569
 40
0.8571428571428569
 40
0.9285714285714283
 40
0.9285714285714283
 40
0.9285714285714283
 40
0.9285714285714283
 40
1.0
 40
1.0
 40
1.0
 40
1.0
 10
0.3588
 20
97.405600000000007
 30
0.0
 10
1.8248
 20
97.689099999999996
 30
0.0
 10
2.9363999999999999
 20
99.651899999999998
 30
0.0
 10
4.3305999999999996
 20
100.1172
 30
0.0
 10
4.3305999999999996
 20
100.1172
 30
0.0
 10
4.1130000000000004
 20
98.575299999999999
 30
0.0
 10
4.0586000000000002
 20
96.448499999999996
 30
0.0
 10
4.1130000000000004
 20
94.747100000000003
 30
0.0
 10
4.1130000000000004
 20
94.747100000000003
 30
0.0
 10
4.1130000000000004
 20
94.747100000000003
 30
0.0
 10
7.7583000000000002
 20
95.278800000000004
 30
0.0
 10
7.7583000000000002
 20
95.278800000000004
 30
0.0
 10
7.7583000000000002
 20
95.278800000000004
 30
0.0
 10
7.7583000000000002
 20
95.278800000000004
 30
0.0
 10
5.1467000000000001
 20
90.015000000000001
 30
0.0
 10
5.1467000000000001
 20
90.015000000000001
 30
0.0
 10
5.1467000000000001
 20
90.015000000000001
 30
0.0
 10
5.1467000000000001
 20
90.015000000000001
 30
0.0
 10
4.4938000000000002
 20
90.174599999999998
 30
0.0
 10
4.4938000000000002
 20
90.174599999999998
 30
0.0
 10
4.4938000000000002
 20
90.174599999999998
 30
0.0
 10
4.4938000000000002
 20
90.174599999999998
 30
0.0
 10
5.5275999999999996
 20
93.630600000000001
 30
0.0
 10
5.5275999999999996
 20
93.630600000000001
 30
0.0
 10
5.5275999999999996
 20
93.630600000000001
 30
0.0
 10
4.4394
 20
93.683700000000002
 30
0.0
 10
4.3487
 20
93.506500000000003
 30
0.0
 10
3.0247999999999999
 20
93.471000000000004
 30
0.0
 10
3.0247999999999999
 20
93.471000000000004
 30
0.0
 10
2.8616000000000001
 20
94.853499999999997
 30
0.0
 10
2.9159999999999999
 20
96.289000000000001
 30
0.0
 10
2.5352000000000001
 20
97.565100000000001
 30
0.0
 10
2.5352000000000001
 20
97.565100000000001
 30
0.0
 10
2.5352000000000001
 20
97.565100000000001
 30
0.0
 10
1.0842000000000001
 20
96.342100000000002
 30
0.0
 10
0.5764
 20
95.562399999999997
 30
0.0
 10
0.5764
 20
95.562399999999997
 30
0.0
 10
0.5764
 20
95.562399999999997
 30
0.0
 10
-1.8173999999999999
 20
97.671400000000006
 30
0.0
 10
-1.8173999999999999
 20
97.671400000000006
 30
0.0
 10
-1.8173999999999999
 20
97.671400000000006
 30
0.0
 10
-1.8173999999999999
 20
97.671400000000006
 30
0.0
 10
-1.7629999999999999
 20
93.630600000000001
 30
0.0
 10
-1.7629999999999999
 20
93.630600000000001
 30
0.0
 10
-1.7629999999999999
 20
93.630600000000001
 30
0.0
 10
-1.7629999999999999
 20
93.630600000000001
 30
0.0
 10
-2.3071000000000002
 20
93.736900000000006
 30
0.0
 10
-2.3071000000000002
 20
93.736900000000006
 30
0.0
 10
-2.3071000000000002
 20
93.736900000000006
 30
0.0
 10
-2.3071000000000002
 20
93.736900000000006
 30
0.0
 10
-2.6335999999999999
 20
99.266499999999994
 30
0.0
 10
-2.6335999999999999
 20
99.266499999999994
 30
0.0
 10
-2.6335999999999999
 20
99.266499999999994
 30
0.0
 10
-1.2250000000000001
 20
98.302899999999994
 30
0.0
 10
-0.9106
 20
98.114500000000007
 30
0.0
 10
0.3588
 20
97.405600000000007
 30
0.0
  0
SPLINE
  5
53
100
AcDbEntity
  8
RÚteg 1
100
AcDbSpline
210
0.0
220
0.0
230
1.0
 70
     1
 71
     3
 72
    44
 73
    40
 74
     0
 42
0.0000000001
 43
0.0000000001
 40
0.0
 40
0.0
 40
0.0
 40
0.0
 40
0.1
 40
0.1
 40
0.1
 40
0.1
 40
0.2
 40
0.2
 40
0.2
 40
0.2
 40
0.3
 40
0.3
 40
0.3
 40
0.3
 40
0.4
 40
0.4
 40
0.4
 40
0.4
 40
0.5
 40
0.5
 40
0.5
 40
0.5
 40
0.6
 40
0.6
 40
0.6
 40
0.6
 40
0.7
 40
0.7
 40
0.7
 40
0.7
 40
0.7999999999999999
 40
0.7999999999999999
 40
0.7999999999999999
 40
0.7999999999999999
 40
0.8999999999999999
 40
0.8999999999999999
 40
0.8999999999999999
 40
0.8999999999999999
 40
1.0
 40
1.0
 40
1.0
 40
1.0
 10
-11.991899999999999
 20
63.005099999999999
 30
0.0
 10
-11.175700000000001
 20
60.984699999999997
 30
0.0
 10
-9.9786999999999999
 20
59.017400000000002
 30
0.0
 10
-10.033099999999999
 20
56.837499999999999
 30
0.0
 10
-10.033099999999999
 20
56.837499999999999
 30
0.0
 10
-10.196400000000001
 20
56.518500000000003
 30
0.0
 10
-10.5228
 20
56.6248
 30
0.0
 10
-10.7948
 20
56.6248
 30
0.0
 10
-10.7948
 20
56.6248
 30
0.0
 10
-10.686
 20
58.326300000000003
 30
0.0
 10
-12.0463
 20
59.442799999999998
 30
0.0
 10
-12.4815
 20
60.9315
 30
0.0
 10
-12.4815
 20
60.9315
 30
0.0
 10
-12.4815
 20
60.9315
 30
0.0
 10
-14.984299999999999
 20
57.369199999999999
 30
0.0
 10
-14.984299999999999
 20
57.369199999999999
 30
0.0
 10
-14.984299999999999
 20
57.369199999999999
 30
0.0
 10
-14.984299999999999
 20
57.369199999999999
 30
0.0
 10
-17.0519
 20
59.017400000000002
 30
0.0
 10
-17.0519
 20
59.017400000000002
 30
0.0
 10
-17.0519
 20
59.017400000000002
 30
0.0
 10
-17.704799999999999
 20
57.581899999999997
 30
0.0
 10
-17.541499999999999
 20
55.774099999999997
 30
0.0
 10
-17.5959
 20
54.072699999999998
 30
0.0
 10
-17.5959
 20
54.072699999999998
 30
0.0
 10
-18.031199999999998
 20
55.029699999999998
 30
0.0
 10
-18.140000000000001
 20
54.551200000000001
 30
0.0
 10
-18.520900000000001
 20
55.455100000000002
 30
0.0
 10
-18.520900000000001
 20
55.455100000000002
 30
0.0
 10
-18.956099999999999
 20
57.103299999999997
 30
0.0
 10
-18.702200000000001
 20
58.751600000000003
 30
0.0
 10
-18.539000000000001
 20
60.453000000000003
 30
0.0
 10
-18.539000000000001
 20
60.453000000000003
 30
0.0
 10
-16.961200000000002
 20
60.187100000000001
 30
0.0
 10
-16.5078
 20
60.187100000000001
 30
0.0
 10
-14.875500000000001
 20
59.832700000000003
 30
0.0
 10
-14.875500000000001
 20
59.832700000000003
 30
0.0
 10
-14.0594
 20
60.718899999999998
 30
0.0
 10
-13.5153
 20
61.604999999999997
 30
0.0
 10
-11.991899999999999
 20
63.005099999999999
 30
0.0
  0
SPLINE
  5
54
100
AcDbEntity
  8
RÚteg 1
100
AcDbSpline
210
0.0
220
0.0
230
1.0
 70
     1
 71
     3
 72
    28
 73
    24
 74
     0
 42
0.0000000001
 43
0.0000000001
 40
0.0
 40
0.0
 40
0.0
 40
0.0
 40
0.1666666666666667
 40
0.1666666666666667
 40
0.1666666666666667
 40
0.1666666666666667
 40
0.3333333333333333
 40
0.3333333333333333
 40
0.3333333333333333
 40
0.3333333333333333
 40
0.5
 40
0.5
 40
0.5
 40
0.5
 40
0.6666666666666666
 40
0.6666666666666666
 40
0.6666666666666666
 40
0.6666666666666666
 40
0.8333333333333333
 40
0.8333333333333333
 40
0.8333333333333333
 40
0.8333333333333333
 40
1.0
 40
1.0
 40
1.0
 40
1.0
 10
-14.712300000000001
 20
72.415999999999997
 30
0.0
 10
-16.3264
 20
73.8339
 30
0.0
 10
-18.502700000000001
 20
75.606200000000001
 30
0.0
 10
-18.502700000000001
 20
75.606200000000001
 30
0.0
 10
-18.502700000000001
 20
75.606200000000001
 30
0.0
 10
-19.6816
 20
73.390900000000002
 30
0.0
 10
-19.137499999999999
 20
71.618499999999997
 30
0.0
 10
-19.228200000000001
 20
69.491699999999994
 30
0.0
 10
-19.228200000000001
 20
69.491699999999994
 30
0.0
 10
-19.6816
 20
68.871499999999997
 30
0.0
 10
-19.409500000000001
 20
69.225899999999996
 30
0.0
 10
-20.2257
 20
67.985299999999995
 30
0.0
 10
-20.2257
 20
67.985299999999995
 30
0.0
 10
-20.5136
 20
70.518100000000004
 30
0.0
 10
-20.5884
 20
74.915000000000006
 30
0.0
 10
-19.826699999999999
 20
77.520300000000006
 30
0.0
 10
-19.826699999999999
 20
77.520300000000006
 30
0.0
 10
-18.031199999999998
 20
76.3506
 30
0.0
 10
-16.072500000000002
 20
75.446700000000007
 30
0.0
 10
-14.603400000000001
 20
73.585800000000006
 30
0.0
 10
-14.603400000000001
 20
73.585800000000006
 30
0.0
 10
-14.603400000000001
 20
73.585800000000006
 30
0.0
 10
-14.712300000000001
 20
72.415999999999997
 30
0.0
 10
-14.712300000000001
 20
72.415999999999997
 30
0.0
  0
SPLINE
  5
55
100
AcDbEntity
  8
RÚteg 1
100
AcDbSpline
210
0.0
220
0.0
230
1.0
 70
     1
 71
     3
 72
    52
 73
    48
 74
     0
 42
0.0000000001
 43
0.0000000001
 40
0.0
 40
0.0
 40
0.0
 40
0.0
 40
0.0833333333333333
 40
0.0833333333333333
 40
0.0833333333333333
 40
0.0833333333333333
 40
0.1666666666666667
 40
0.1666666666666667
 40
0.1666666666666667
 40
0.1666666666666667
 40
0.25
 40
0.25
 40
0.25
 40
0.25
 40
0.3333333333333333
 40
0.3333333333333333
 40
0.3333333333333333
 40
0.3333333333333333
 40
0.4166666666666666
 40
0.4166666666666666
 40
0.4166666666666666
 40
0.4166666666666666
 40
0.4999999999999999
 40
0.4999999999999999
 40
0.4999999999999999
 40
0.4999999999999999
 40
0.5833333333333333
 40
0.5833333333333333
 40
0.5833333333333333
 40
0.5833333333333333
 40
0.6666666666666666
 40
0.6666666666666666
 40
0.6666666666666666
 40
0.6666666666666666
 40
0.75
 40
0.75
 40
0.75
 40
0.75
 40
0.8333333333333334
 40
0.8333333333333334
 40
0.8333333333333334
 40
0.8333333333333334
 40
0.9166666666666667
 40
0.9166666666666667
 40
0.9166666666666667
 40
0.9166666666666667
 40
1.0
 40
1.0
 40
1.0
 40
1.0
 10
-19.8629
 20
90.6708
 30
0.0
 10
-19.8629
 20
90.6708
 30
0.0
 10
-16.398900000000001
 20
93.736900000000006
 30
0.0
 10
-16.398900000000001
 20
93.736900000000006
 30
0.0
 10
-16.398900000000001
 20
93.736900000000006
 30
0.0
 10
-15.3133
 20
91.880300000000005
 30
0.0
 10
-15.094099999999999
 20
89.706000000000003
 30
0.0
 10
-14.823
 20
87.478399999999993
 30
0.0
 10
-14.823
 20
87.478399999999993
 30
0.0
 10
-14.8171
 20
87.480800000000002
 30
0.0
 10
-14.8165
 20
87.476399999999998
 30
0.0
 10
-14.821099999999999
 20
87.462900000000005
 30
0.0
 10
-14.821099999999999
 20
87.462900000000005
 30
0.0
 10
-14.8217
 20
87.468100000000007
 30
0.0
 10
-14.8223
 20
87.473200000000006
 30
0.0
 10
-14.823
 20
87.478399999999993
 30
0.0
 10
-14.823
 20
87.478399999999993
 30
0.0
 10
-14.8634
 20
87.461500000000001
 30
0.0
 10
-15.164999999999999
 20
87.108199999999997
 30
0.0
 10
-15.9092
 20
86.984399999999994
 30
0.0
 10
-15.9092
 20
86.984399999999994
 30
0.0
 10
-15.9092
 20
86.984399999999994
 30
0.0
 10
-16.290099999999999
 20
92.354500000000002
 30
0.0
 10
-16.290099999999999
 20
92.354500000000002
 30
0.0
 10
-16.290099999999999
 20
92.354500000000002
 30
0.0
 10
-17.378299999999999
 20
91.929100000000005
 30
0.0
 10
-19.064900000000002
 20
89.4833
 30
0.0
 10
-19.282599999999999
 20
89.376999999999995
 30
0.0
 10
-19.282599999999999
 20
89.376999999999995
 30
0.0
 10
-20.316400000000002
 20
89.4833
 30
0.0
 10
-21.1325
 20
90.759399999999999
 30
0.0
 10
-22.003
 20
90.440399999999997
 30
0.0
 10
-22.003
 20
90.440399999999997
 30
0.0
 10
-21.785399999999999
 20
89.164299999999997
 30
0.0
 10
-21.731000000000002
 20
87.675600000000003
 30
0.0
 10
-21.785399999999999
 20
86.452699999999993
 30
0.0
 10
-21.785399999999999
 20
86.452699999999993
 30
0.0
 10
-23.199999999999999
 20
86.612200000000001
 30
0.0
 10
-22.819099999999999
 20
88.366799999999998
 30
0.0
 10
-23.091200000000001
 20
89.376999999999995
 30
0.0
 10
-23.091200000000001
 20
89.376999999999995
 30
0.0
 10
-23.091200000000001
 20
89.376999999999995
 30
0.0
 10
-23.308800000000002
 20
92.088700000000003
 30
0.0
 10
-23.308800000000002
 20
92.088700000000003
 30
0.0
 10
-23.308800000000002
 20
92.088700000000003
 30
0.0
 10
-22.492699999999999
 20
92.0
 30
0.0
 10
-21.223199999999999
 20
91.113900000000001
 30
0.0
 10
-19.8629
 20
90.6708
 30
0.0
  0
SPLINE
  5
56
100
AcDbEntity
  8
RÚteg 1
100
AcDbSpline
210
0.0
220
0.0
230
1.0
 70
     1
 71
     3
 72
    40
 73
    36
 74
     0
 42
0.0000000001
 43
0.0000000001
 40
0.0
 40
0.0
 40
0.0
 40
0.0
 40
0.1111111111111111
 40
0.1111111111111111
 40
0.1111111111111111
 40
0.1111111111111111
 40
0.2222222222222222
 40
0.2222222222222222
 40
0.2222222222222222
 40
0.2222222222222222
 40
0.3333333333333333
 40
0.3333333333333333
 40
0.3333333333333333
 40
0.3333333333333333
 40
0.4444444444444444
 40
0.4444444444444444
 40
0.4444444444444444
 40
0.4444444444444444
 40
0.5555555555555556
 40
0.5555555555555556
 40
0.5555555555555556
 40
0.5555555555555556
 40
0.6666666666666667
 40
0.6666666666666667
 40
0.6666666666666667
 40
0.6666666666666667
 40
0.7777777777777779
 40
0.7777777777777779
 40
0.7777777777777779
 40
0.7777777777777779
 40
0.8888888888888891
 40
0.8888888888888891
 40
0.8888888888888891
 40
0.8888888888888891
 40
1.0
 40
1.0
 40
1.0
 40
1.0
 10
-25.5396
 20
32.485999999999997
 30
0.0
 10
-25.5396
 20
32.485999999999997
 30
0.0
 10
-23.852900000000002
 20
38.228299999999997
 30
0.0
 10
-23.852900000000002
 20
38.228299999999997
 30
0.0
 10
-23.852900000000002
 20
38.228299999999997
 30
0.0
 10
-21.948599999999999
 20
40.833599999999997
 30
0.0
 10
-19.989899999999999
 20
43.438800000000001
 30
0.0
 10
-18.901700000000002
 20
46.4163
 30
0.0
 10
-18.901700000000002
 20
46.4163
 30
0.0
 10
-15.746
 20
42.588099999999997
 30
0.0
 10
-10.903700000000001
 20
44.449100000000001
 30
0.0
 10
-6.7686000000000002
 20
44.874400000000001
 30
0.0
 10
-6.7686000000000002
 20
44.874400000000001
 30
0.0
 10
-3.0689000000000002
 20
45.246600000000001
 30
0.0
 10
-0.566
 20
42.375500000000002
 30
0.0
 10
1.7190000000000001
 20
40.142400000000002
 30
0.0
 10
1.7190000000000001
 20
40.142400000000002
 30
0.0
 10
0.4132
 20
39.025799999999997
 30
0.0
 10
-1.2189000000000001
 20
38.334600000000002
 30
0.0
 10
-2.4159000000000002
 20
37.218000000000004
 30
0.0
 10
-2.4159000000000002
 20
37.218000000000004
 30
0.0
 10
-3.0144000000000002
 20
37.324399999999997
 30
0.0
 10
-4.1025999999999998
 20
38.387799999999999
 30
0.0
 10
-4.8098999999999998
 20
39.238500000000002
 30
0.0
 10
-4.8098999999999998
 20
39.238500000000002
 30
0.0
 10
-4.8098999999999998
 20
39.238500000000002
 30
0.0
 10
-5.2995999999999999
 20
39.770200000000003
 30
0.0
 10
-5.2995999999999999
 20
39.770200000000003
 30
0.0
 10
-5.2995999999999999
 20
39.770200000000003
 30
0.0
 10
-10.3596
 20
33.070900000000002
 30
0.0
 10
-19.228200000000001
 20
34.400100000000002
 30
0.0
 10
-24.505800000000001
 20
28.551500000000001
 30
0.0
 10
-24.505800000000001
 20
28.551500000000001
 30
0.0
 10
-26.791
 20
28.4983
 30
0.0
 10
-25.594000000000001
 20
31.316199999999998
 30
0.0
 10
-25.5396
 20
32.485999999999997
 30
0.0
  0
SPLINE
  5
57
100
AcDbEntity
  8
RÚteg 1
100
AcDbSpline
210
0.0
220
0.0
230
1.0
 70
     1
 71
     3
 72
    24
 73
    20
 74
     0
 42
0.0000000001
 43
0.0000000001
 40
0.0
 40
0.0
 40
0.0
 40
0.0
 40
0.2
 40
0.2
 40
0.2
 40
0.2
 40
0.4
 40
0.4
 40
0.4
 40
0.4
 40
0.6000000000000001
 40
0.6000000000000001
 40
0.6000000000000001
 40
0.6000000000000001
 40
0.8
 40
0.8
 40
0.8
 40
0.8
 40
1.0
 40
1.0
 40
1.0
 40
1.0
 10
-29.457000000000001
 20
29.8276
 30
0.0
 10
-29.457000000000001
 20
29.8276
 30
0.0
 10
-25.430700000000002
 20
25.467600000000001
 30
0.0
 10
-25.430700000000002
 20
25.467600000000001
 30
0.0
 10
-25.430700000000002
 20
25.467600000000001
 30
0.0
 10
-25.430700000000002
 20
25.467600000000001
 30
0.0
 10
-25.811599999999999
 20
24.297999999999998
 30
0.0
 10
-25.811599999999999
 20
24.297999999999998
 30
0.0
 10
-25.811599999999999
 20
24.297999999999998
 30
0.0
 10
-30.762799999999999
 20
25.733499999999999
 30
0.0
 10
-32.7759
 20
31.1568
 30
0.0
 10
-36.6389
 20
34.400100000000002
 30
0.0
 10
-36.6389
 20
34.400100000000002
 30
0.0
 10
-38.543199999999999
 20
38.1751
 30
0.0
 10
-35.169899999999998
 20
41.365299999999998
 30
0.0
 10
-33.537599999999998
 20
44.502200000000002
 30
0.0
 10
-33.537599999999998
 20
44.502200000000002
 30
0.0
 10
-30.4907
 20
40.354999999999997
 30
0.0
 10
-33.156799999999997
 20
33.762099999999997
 30
0.0
 10
-29.457000000000001
 20
29.8276
 30
0.0
  0
SPLINE
  5
58
100
AcDbEntity
  8
RÚteg 1
100
AcDbSpline
210
0.0
220
0.0
230
1.0
 70
     1
 71
     3
 72
    28
 73
    24
 74
     0
 42
0.0000000001
 43
0.0000000001
 40
0.0
 40
0.0
 40
0.0
 40
0.0
 40
0.1666666666666667
 40
0.1666666666666667
 40
0.1666666666666667
 40
0.1666666666666667
 40
0.3333333333333333
 40
0.3333333333333333
 40
0.3333333333333333
 40
0.3333333333333333
 40
0.5
 40
0.5
 40
0.5
 40
0.5
 40
0.6666666666666666
 40
0.6666666666666666
 40
0.6666666666666666
 40
0.6666666666666666
 40
0.8333333333333333
 40
0.8333333333333333
 40
0.8333333333333333
 40
0.8333333333333333
 40
1.0
 40
1.0
 40
1.0
 40
1.0
 10
-31.415700000000001
 20
59.283299999999997
 30
0.0
 10
-31.415700000000001
 20
59.283299999999997
 30
0.0
 10
-31.578900000000001
 20
58.645200000000003
 30
0.0
 10
-31.578900000000001
 20
58.645200000000003
 30
0.0
 10
-31.578900000000001
 20
58.645200000000003
 30
0.0
 10
-32.503799999999998
 20
58.911099999999998
 30
0.0
 10
-33.537599999999998
 20
59.708599999999997
 30
0.0
 10
-34.408200000000001
 20
59.389600000000002
 30
0.0
 10
-34.408200000000001
 20
59.389600000000002
 30
0.0
 10
-34.027299999999997
 20
57.688200000000002
 30
0.0
 10
-33.827800000000003
 20
55.933599999999998
 30
0.0
 10
-33.537599999999998
 20
54.179000000000002
 30
0.0
 10
-33.537599999999998
 20
54.179000000000002
 30
0.0
 10
-34.281199999999998
 20
54.958799999999997
 30
0.0
 10
-33.700800000000001
 20
54.196800000000003
 30
0.0
 10
-34.643900000000002
 20
55.579099999999997
 30
0.0
 10
-34.643900000000002
 20
55.579099999999997
 30
0.0
 10
-34.643900000000002
 20
55.579099999999997
 30
0.0
 10
-35.224299999999999
 20
62.101199999999999
 30
0.0
 10
-35.224299999999999
 20
62.101199999999999
 30
0.0
 10
-35.224299999999999
 20
62.101199999999999
 30
0.0
 10
-33.809699999999999
 20
61.463200000000001
 30
0.0
 10
-32.395000000000003
 20
60.399799999999999
 30
0.0
 10
-31.415700000000001
 20
59.283299999999997
 30
0.0
  0
SPLINE
  5
59
100
AcDbEntity
  8
RÚteg 1
100
AcDbSpline
210
0.0
220
0.0
230
1.0
 70
     1
 71
     3
 72
    20
 73
    16
 74
     0
 42
0.0000000001
 43
0.0000000001
 40
0.0
 40
0.0
 40
0.0
 40
0.0
 40
0.25
 40
0.25
 40
0.25
 40
0.25
 40
0.5
 40
0.5
 40
0.5
 40
0.5
 40
0.75
 40
0.75
 40
0.75
 40
0.75
 40
1.0
 40
1.0
 40
1.0
 40
1.0
 10
-38.760800000000003
 20
52.371299999999998
 30
0.0
 10
-36.802100000000003
 20
50.722999999999999
 30
0.0
 10
-36.258000000000003
 20
48.2241
 30
0.0
 10
-35.061100000000003
 20
46.150500000000001
 30
0.0
 10
-35.061100000000003
 20
46.150500000000001
 30
0.0
 10
-35.641399999999997
 20
45.388399999999997
 30
0.0
 10
-35.496299999999998
 20
45.193399999999997
 30
0.0
 10
-35.713999999999999
 20
44.7149
 30
0.0
 10
-35.713999999999999
 20
44.7149
 30
0.0
 10
-37.128599999999999
 20
45.5124
 30
0.0
 10
-38.543199999999999
 20
46.256799999999998
 30
0.0
 10
-39.903399999999998
 20
47.054400000000001
 30
0.0
 10
-39.903399999999998
 20
47.054400000000001
 30
0.0
 10
-39.903399999999998
 20
47.054400000000001
 30
0.0
 10
-38.760800000000003
 20
52.371299999999998
 30
0.0
 10
-38.760800000000003
 20
52.371299999999998
 30
0.0
  0
SPLINE
  5
5A
100
AcDbEntity
  8
RÚteg 1
100
AcDbSpline
210
0.0
220
0.0
230
1.0
 70
     1
 71
     3
 72
    20
 73
    16
 74
     0
 42
0.0000000001
 43
0.0000000001
 40
0.0
 40
0.0
 40
0.0
 40
0.0
 40
0.25
 40
0.25
 40
0.25
 40
0.25
 40
0.5
 40
0.5
 40
0.5
 40
0.5
 40
0.75
 40
0.75
 40
0.75
 40
0.75
 40
1.0
 40
1.0
 40
1.0
 40
1.0
 10
-37.563800000000001
 20
41.1526
 30
0.0
 10
-37.999099999999999
 20
40.408200000000001
 30
0.0
 10
-38.2712
 20
39.610700000000001
 30
0.0
 10
-38.325600000000001
 20
38.759900000000002
 30
0.0
 10
-38.325600000000001
 20
38.759900000000002
 30
0.0
 10
-38.325600000000001
 20
38.759900000000002
 30
0.0
 10
-42.134099999999997
 20
38.494100000000003
 30
0.0
 10
-42.134099999999997
 20
38.494100000000003
 30
0.0
 10
-42.134099999999997
 20
38.494100000000003
 30
0.0
 10
-44.419400000000003
 20
40.408200000000001
 30
0.0
 10
-44.201700000000002
 20
43.491999999999997
 30
0.0
 10
-44.364899999999999
 20
46.150500000000001
 30
0.0
 10
-44.364899999999999
 20
46.150500000000001
 30
0.0
 10
-42.569400000000002
 20
43.438800000000001
 30
0.0
 10
-35.713999999999999
 20
46.203600000000002
 30
0.0
 10
-37.563800000000001
 20
41.1526
 30
0.0
  0
SPLINE
  5
5B
100
AcDbEntity
  8
RÚteg 1
100
AcDbSpline
210
0.0
220
0.0
230
1.0
 70
     1
 71
     3
 72
    16
 73
    12
 74
     0
 42
0.0000000001
 43
0.0000000001
 40
0.0
 40
0.0
 40
0.0
 40
0.0
 40
0.3333333333333333
 40
0.3333333333333333
 40
0.3333333333333333
 40
0.3333333333333333
 40
0.6666666666666666
 40
0.6666666666666666
 40
0.6666666666666666
 40
0.6666666666666666
 40
1.0
 40
1.0
 40
1.0
 40
1.0
 10
-41.481299999999997
 20
47.798699999999997
 30
0.0
 10
-42.678199999999997
 20
47.585999999999999
 30
0.0
 10
-44.147300000000001
 20
47.585999999999999
 30
0.0
 10
-45.126600000000003
 20
48.330399999999997
 30
0.0
 10
-45.126600000000003
 20
48.330399999999997
 30
0.0
 10
-46.5413
 20
49.819200000000002
 30
0.0
 10
-46.214799999999997
 20
52.211799999999997
 30
0.0
 10
-46.432400000000001
 20
54.285400000000003
 30
0.0
 10
-46.432400000000001
 20
54.285400000000003
 30
0.0
 10
-44.364899999999999
 20
52.264899999999997
 30
0.0
 10
-41.263599999999997
 20
51.201599999999999
 30
0.0
 10
-41.481299999999997
 20
47.798699999999997
 30
0.0
  0
SPLINE
  5
5C
100
AcDbEntity
  8
RÚteg 1
100
AcDbSpline
210
0.0
220
0.0
230
1.0
 70
     1
 71
     3
 72
    24
 73
    20
 74
     0
 42
0.0000000001
 43
0.0000000001
 40
0.0
 40
0.0
 40
0.0
 40
0.0
 40
0.2
 40
0.2
 40
0.2
 40
0.2
 40
0.4
 40
0.4
 40
0.4
 40
0.4
 40
0.6000000000000001
 40
0.6000000000000001
 40
0.6000000000000001
 40
0.6000000000000001
 40
0.8
 40
0.8
 40
0.8
 40
0.8
 40
1.0
 40
1.0
 40
1.0
 40
1.0
 10
-45.942799999999998
 20
45.991
 30
0.0
 10
-45.942799999999998
 20
45.991
 30
0.0
 10
-45.779499999999999
 20
45.884700000000002
 30
0.0
 10
-45.779499999999999
 20
45.884700000000002
 30
0.0
 10
-45.779499999999999
 20
45.884700000000002
 30
0.0
 10
-46.214799999999997
 20
45.565600000000003
 30
0.0
 10
-46.9221
 20
45.459200000000003
 30
0.0
 10
-47.629399999999997
 20
45.5124
 30
0.0
 10
-47.629399999999997
 20
45.5124
 30
0.0
 10
-49.424900000000001
 20
46.575899999999997
 30
0.0
 10
-50.349800000000002
 20
48.489899999999999
 30
0.0
 10
-51.6556
 20
49.9786
 30
0.0
 10
-51.6556
 20
49.9786
 30
0.0
 10
-51.002800000000001
 20
50.244500000000002
 30
0.0
 10
-50.295400000000001
 20
49.9255
 30
0.0
 10
-49.696899999999999
 20
49.712800000000001
 30
0.0
 10
-49.696899999999999
 20
49.712800000000001
 30
0.0
 10
-48.3367
 20
48.755800000000001
 30
0.0
 10
-46.595700000000001
 20
47.585999999999999
 30
0.0
 10
-45.942799999999998
 20
45.991
 30
0.0
  0
SPLINE
  5
5D
100
AcDbEntity
  8
RÚteg 1
100
AcDbSpline
210
0.0
220
0.0
230
1.0
 70
     1
 71
     3
 72
    16
 73
    12
 74
     0
 42
0.0000000001
 43
0.0000000001
 40
0.0
 40
0.0
 40
0.0
 40
0.0
 40
0.3333333333333333
 40
0.3333333333333333
 40
0.3333333333333333
 40
0.3333333333333333
 40
0.6666666666666666
 40
0.6666666666666666
 40
0.6666666666666666
 40
0.6666666666666666
 40
1.0
 40
1.0
 40
1.0
 40
1.0
 10
-52.471800000000002
 20
91.184799999999996
 30
0.0
 10
-49.969000000000001
 20
79.8065
 30
0.0
 10
-49.805799999999998
 20
67.524500000000003
 30
0.0
 10
-49.0441
 20
55.455100000000002
 30
0.0
 10
-49.0441
 20
55.455100000000002
 30
0.0
 10
-52.1997
 20
64.0685
 30
0.0
 10
-50.241
 20
72.5047
 30
0.0
 10
-52.580599999999997
 20
84.060100000000006
 30
0.0
 10
-52.580599999999997
 20
84.060100000000006
 30
0.0
 10
-53.324199999999998
 20
89.607399999999998
 30
0.0
 10
-52.471800000000002
 20
91.184799999999996
 30
0.0
 10
-52.471800000000002
 20
91.184799999999996
 30
0.0
  0
SPLINE
  5
5E
100
AcDbEntity
  8
RÚteg 1
100
AcDbSpline
210
0.0
220
0.0
230
1.0
 70
     1
 71
     3
 72
    28
 73
    24
 74
     0
 42
0.0000000001
 43
0.0000000001
 40
0.0
 40
0.0
 40
0.0
 40
0.0
 40
0.1666666666666667
 40
0.1666666666666667
 40
0.1666666666666667
 40
0.1666666666666667
 40
0.3333333333333333
 40
0.3333333333333333
 40
0.3333333333333333
 40
0.3333333333333333
 40
0.5
 40
0.5
 40
0.5
 40
0.5
 40
0.6666666666666666
 40
0.6666666666666666
 40
0.6666666666666666
 40
0.6666666666666666
 40
0.8333333333333333
 40
0.8333333333333333
 40
0.8333333333333333
 40
0.8333333333333333
 40
1.0
 40
1.0
 40
1.0
 40
1.0
 10
-51.274799999999999
 20
38.866300000000003
 30
0.0
 10
-51.274799999999999
 20
38.866300000000003
 30
0.0
 10
-49.696899999999999
 20
40.514499999999998
 30
0.0
 10
-49.696899999999999
 20
40.514499999999998
 30
0.0
 10
-49.696899999999999
 20
40.514499999999998
 30
0.0
 10
-49.696899999999999
 20
40.514499999999998
 30
0.0
 10
-52.036499999999997
 20
44.076900000000002
 30
0.0
 10
-52.036499999999997
 20
44.076900000000002
 30
0.0
 10
-52.036499999999997
 20
44.076900000000002
 30
0.0
 10
-49.9146
 20
43.757899999999999
 30
0.0
 10
-47.466200000000001
 20
43.864199999999997
 30
0.0
 10
-45.779499999999999
 20
42.588099999999997
 30
0.0
 10
-45.779499999999999
 20
42.588099999999997
 30
0.0
 10
-45.453099999999999
 20
41.099400000000003
 30
0.0
 10
-46.051600000000001
 20
39.185299999999998
 30
0.0
 10
-44.745800000000003
 20
38.121899999999997
 30
0.0
 10
-44.745800000000003
 20
38.121899999999997
 30
0.0
 10
-45.725099999999998
 20
37.377600000000001
 30
0.0
 10
-46.758899999999997
 20
35.410299999999999
 30
0.0
 10
-48.119100000000003
 20
36.207799999999999
 30
0.0
 10
-48.119100000000003
 20
36.207799999999999
 30
0.0
 10
-49.207299999999996
 20
37.058500000000002
 30
0.0
 10
-50.241
 20
37.962400000000002
 30
0.0
 10
-51.274799999999999
 20
38.866300000000003
 30
0.0
  0
SPLINE
  5
5F
100
AcDbEntity
  8
RÚteg 1
100
AcDbSpline
210
0.0
220
0.0
230
1.0
 70
     1
 71
     3
 72
    16
 73
    12
 74
     0
 42
0.0000000001
 43
0.0000000001
 40
0.0
 40
0.0
 40
0.0
 40
0.0
 40
0.3333333333333333
 40
0.3333333333333333
 40
0.3333333333333333
 40
0.3333333333333333
 40
0.6666666666666666
 40
0.6666666666666666
 40
0.6666666666666666
 40
0.6666666666666666
 40
1.0
 40
1.0
 40
1.0
 40
1.0
 10
-46.160400000000003
 20
17.067
 30
0.0
 10
-46.160400000000003
 20
15.631399999999999
 30
0.0
 10
-46.595700000000001
 20
14.3553
 30
0.0
 10
-47.357399999999998
 20
13.2387
 30
0.0
 10
-47.357399999999998
 20
13.2387
 30
0.0
 10
-47.357399999999998
 20
13.2387
 30
0.0
 10
-51.818899999999999
 20
14.3553
 30
0.0
 10
-51.818899999999999
 20
14.3553
 30
0.0
 10
-51.818899999999999
 20
14.3553
 30
0.0
 10
-51.546900000000001
 20
17.173300000000001
 30
0.0
 10
-48.119100000000003
 20
16.322600000000001
 30
0.0
 10
-46.160400000000003
 20
17.067
 30
0.0
  0
SPLINE
  5
60
100
AcDbEntity
  8
RÚteg 1
100
AcDbSpline
210
0.0
220
0.0
230
1.0
 70
     1
 71
     3
 72
    16
 73
    12
 74
     0
 42
0.0000000001
 43
0.0000000001
 40
0.0
 40
0.0
 40
0.0
 40
0.0
 40
0.3333333333333333
 40
0.3333333333333333
 40
0.3333333333333333
 40
0.3333333333333333
 40
0.6666666666666666
 40
0.6666666666666666
 40
0.6666666666666666
 40
0.6666666666666666
 40
1.0
 40
1.0
 40
1.0
 40
1.0
 10
-49.316099999999999
 20
11.5373
 30
0.0
 10
-47.9559
 20
11.1652
 30
0.0
 10
-49.152900000000002
 20
9.9422999999999995
 30
0.0
 10
-48.771999999999998
 20
8.9852000000000007
 30
0.0
 10
-48.771999999999998
 20
8.9852000000000007
 30
0.0
 10
-50.023400000000002
 20
9.0915999999999997
 30
0.0
 10
-51.546900000000001
 20
8.2408999999999999
 30
0.0
 10
-52.580599999999997
 20
9.2510999999999992
 30
0.0
 10
-52.580599999999997
 20
9.2510999999999992
 30
0.0
 10
-52.1997
 20
9.8890999999999991
 30
0.0
 10
-50.4587
 20
10.952500000000001
 30
0.0
 10
-49.316099999999999
 20
11.5373
 30
0.0
  0
SPLINE
  5
61
100
AcDbEntity
  8
RÚteg 1
100
AcDbSpline
210
0.0
220
0.0
230
1.0
 70
     1
 71
     3
 72
    36
 73
    32
 74
     0
 42
0.0000000001
 43
0.0000000001
 40
0.0
 40
0.0
 40
0.0
 40
0.0
 40
0.125
 40
0.125
 40
0.125
 40
0.125
 40
0.25
 40
0.25
 40
0.25
 40
0.25
 40
0.375
 40
0.375
 40
0.375
 40
0.375
 40
0.5
 40
0.5
 40
0.5
 40
0.5
 40
0.625
 40
0.625
 40
0.625
 40
0.625
 40
0.75
 40
0.75
 40
0.75
 40
0.75
 40
0.875
 40
0.875
 40
0.875
 40
0.875
 40
1.0
 40
1.0
 40
1.0
 40
1.0
 10
-51.002800000000001
 20
-65.504599999999996
 30
0.0
 10
-51.002800000000001
 20
-65.504599999999996
 30
0.0
 10
-47.466200000000001
 20
-64.281800000000004
 30
0.0
 10
-46.160400000000003
 20
-62.846200000000003
 30
0.0
 10
-46.160400000000003
 20
-62.846200000000003
 30
0.0
 10
-46.160400000000003
 20
-63.112000000000002
 30
0.0
 10
-45.797699999999999
 20
-62.172800000000002
 30
0.0
 10
-45.525599999999997
 20
-62.013199999999998
 30
0.0
 10
-45.525599999999997
 20
-62.013199999999998
 30
0.0
 10
-45.525599999999997
 20
-62.013199999999998
 30
0.0
 10
-45.5075
 20
-68.322699999999998
 30
0.0
 10
-45.5075
 20
-68.322699999999998
 30
0.0
 10
-45.5075
 20
-68.322699999999998
 30
0.0
 10
-47.302999999999997
 20
-69.704999999999998
 30
0.0
 10
-49.424900000000001
 20
-70.236699999999999
 30
0.0
 10
-51.002800000000001
 20
-72.044499999999999
 30
0.0
 10
-51.002800000000001
 20
-72.044499999999999
 30
0.0
 10
-50.132199999999997
 20
-73.9054
 30
0.0
 10
-48.554400000000001
 20
-75.713200000000001
 30
0.0
 10
-46.595700000000001
 20
-76.617000000000004
 30
0.0
 10
-46.595700000000001
 20
-76.617000000000004
 30
0.0
 10
-47.411799999999999
 20
-77.946299999999994
 30
0.0
 10
-47.901499999999999
 20
-79.700800000000001
 30
0.0
 10
-49.696899999999999
 20
-80.072999999999993
 30
0.0
 10
-49.696899999999999
 20
-80.072999999999993
 30
0.0
 10
-51.111600000000003
 20
-79.966700000000003
 30
0.0
 10
-51.8733
 20
-79.807199999999995
 30
0.0
 10
-52.689399999999999
 20
-78.903300000000002
 30
0.0
 10
-52.689399999999999
 20
-78.903300000000002
 30
0.0
 10
-53.124699999999997
 20
-74.383899999999997
 30
0.0
 10
-52.145299999999999
 20
-69.758200000000002
 30
0.0
 10
-51.002800000000001
 20
-65.504599999999996
 30
0.0
  0
SPLINE
  5
62
100
AcDbEntity
  8
RÚteg 1
100
AcDbSpline
210
0.0
220
0.0
230
1.0
 70
     1
 71
     3
 72
    20
 73
    16
 74
     0
 42
0.0000000001
 43
0.0000000001
 40
0.0
 40
0.0
 40
0.0
 40
0.0
 40
0.25
 40
0.25
 40
0.25
 40
0.25
 40
0.5
 40
0.5
 40
0.5
 40
0.5
 40
0.75
 40
0.75
 40
0.75
 40
0.75
 40
1.0
 40
1.0
 40
1.0
 40
1.0
 10
-56.497999999999998
 20
-88.739599999999996
 30
0.0
 10
-57.042099999999998
 20
-89.218100000000007
 30
0.0
 10
-57.586199999999998
 20
-90.068799999999996
 30
0.0
 10
-58.347900000000003
 20
-89.749799999999993
 30
0.0
 10
-58.347900000000003
 20
-89.749799999999993
 30
0.0
 10
-60.578699999999998
 20
-85.762100000000004
 30
0.0
 10
-60.578699999999998
 20
-80.764200000000002
 30
0.0
 10
-58.347900000000003
 20
-76.723399999999998
 30
0.0
 10
-58.347900000000003
 20
-76.723399999999998
 30
0.0
 10
-57.368600000000001
 20
-77.042299999999997
 30
0.0
 10
-56.334800000000001
 20
-77.201899999999995
 30
0.0
 10
-55.1922
 20
-77.148700000000005
 30
0.0
 10
-55.1922
 20
-77.148700000000005
 30
0.0
 10
-55.137799999999999
 20
-81.030100000000004
 30
0.0
 10
-56.225999999999999
 20
-84.805000000000007
 30
0.0
 10
-56.497999999999998
 20
-88.739599999999996
 30
0.0
  0
SPLINE
  5
63
100
AcDbEntity
  8
RÚteg 1
100
AcDbSpline
210
0.0
220
0.0
230
1.0
 70
     1
 71
     3
 72
    24
 73
    20
 74
     0
 42
0.0000000001
 43
0.0000000001
 40
0.0
 40
0.0
 40
0.0
 40
0.0
 40
0.2
 40
0.2
 40
0.2
 40
0.2
 40
0.4
 40
0.4
 40
0.4
 40
0.4
 40
0.6000000000000001
 40
0.6000000000000001
 40
0.6000000000000001
 40
0.6000000000000001
 40
0.8
 40
0.8
 40
0.8
 40
0.8
 40
1.0
 40
1.0
 40
1.0
 40
1.0
 10
-57.695
 20
-74.330799999999996
 30
0.0
 10
-58.7288
 20
-74.171199999999999
 30
0.0
 10
-59.055199999999999
 20
-73.001599999999996
 30
0.0
 10
-59.490499999999997
 20
-72.257199999999997
 30
0.0
 10
-59.490499999999997
 20
-72.257199999999997
 30
0.0
 10
-60.306600000000003
 20
-66.568100000000001
 30
0.0
 10
-56.770000000000003
 20
-61.942300000000003
 30
0.0
 10
-54.539299999999997
 20
-57.103900000000003
 30
0.0
 10
-54.539299999999997
 20
-57.103900000000003
 30
0.0
 10
-54.539299999999997
 20
-57.103900000000003
 30
0.0
 10
-52.689399999999999
 20
-61.570099999999996
 30
0.0
 10
-52.689399999999999
 20
-61.570099999999996
 30
0.0
 10
-52.689399999999999
 20
-61.570099999999996
 30
0.0
 10
-53.342300000000002
 20
-65.557900000000004
 30
0.0
 10
-53.995199999999997
 20
-69.545500000000004
 30
0.0
 10
-54.648099999999999
 20
-73.533199999999994
 30
0.0
 10
-54.648099999999999
 20
-73.533199999999994
 30
0.0
 10
-55.464199999999998
 20
-74.277600000000007
 30
0.0
 10
-56.552500000000002
 20
-74.7029
 30
0.0
 10
-57.695
 20
-74.330799999999996
 30
0.0
  0
SPLINE
  5
64
100
AcDbEntity
  8
RÚteg 1
100
AcDbSpline
210
0.0
220
0.0
230
1.0
 70
     1
 71
     3
 72
    16
 73
    12
 74
     0
 42
0.0000000001
 43
0.0000000001
 40
0.0
 40
0.0
 40
0.0
 40
0.0
 40
0.3333333333333333
 40
0.3333333333333333
 40
0.3333333333333333
 40
0.3333333333333333
 40
0.6666666666666666
 40
0.6666666666666666
 40
0.6666666666666666
 40
0.6666666666666666
 40
1.0
 40
1.0
 40
1.0
 40
1.0
 10
-53.124699999999997
 20
-107.50830000000001
 30
0.0
 10
-54.811399999999999
 20
-102.9889
 30
0.0
 10
-54.702500000000001
 20
-96.449100000000001
 30
0.0
 10
-54.267299999999999
 20
-90.919499999999999
 30
0.0
 10
-54.267299999999999
 20
-90.919499999999999
 30
0.0
 10
-52.689399999999999
 20
-97.725200000000001
 30
0.0
 10
-48.554400000000001
 20
-96.395899999999997
 30
0.0
 10
-48.554400000000001
 20
-96.395899999999997
 30
0.0
 10
-48.554400000000001
 20
-96.395899999999997
 30
0.0
 10
-47.883400000000002
 20
-113.9418
 30
0.0
 10
-52.580599999999997
 20
-108.4654
 30
0.0
 10
-53.124699999999997
 20
-107.50830000000001
 30
0.0
  0
SPLINE
  5
65
100
AcDbEntity
  8
RÚteg 1
100
AcDbSpline
210
0.0
220
0.0
230
1.0
 70
     1
 71
     3
 72
    24
 73
    20
 74
     0
 42
0.0000000001
 43
0.0000000001
 40
0.0
 40
0.0
 40
0.0
 40
0.0
 40
0.2
 40
0.2
 40
0.2
 40
0.2
 40
0.4
 40
0.4
 40
0.4
 40
0.4
 40
0.6000000000000001
 40
0.6000000000000001
 40
0.6000000000000001
 40
0.6000000000000001
 40
0.8
 40
0.8
 40
0.8
 40
0.8
 40
1.0
 40
1.0
 40
1.0
 40
1.0
 10
-48.119100000000003
 20
-92.939999999999998
 30
0.0
 10
-48.790199999999999
 20
-93.382999999999996
 30
0.0
 10
-50.023400000000002
 20
-93.950199999999995
 30
0.0
 10
-50.730699999999999
 20
-93.312100000000001
 30
0.0
 10
-50.730699999999999
 20
-93.312100000000001
 30
0.0
 10
-53.560000000000002
 20
-90.122
 30
0.0
 10
-54.049599999999998
 20
-85.390000000000001
 30
0.0
 10
-53.342300000000002
 20
-80.976900000000001
 30
0.0
 10
-53.342300000000002
 20
-80.976900000000001
 30
0.0
 10
-52.308599999999998
 20
-82.944199999999995
 30
0.0
 10
-49.969000000000001
 20
-82.465699999999998
 30
0.0
 10
-48.282400000000003
 20
-81.987099999999998
 30
0.0
 10
-48.282400000000003
 20
-81.987099999999998
 30
0.0
 10
-48.282400000000003
 20
-81.987099999999998
 30
0.0
 10
-45.5075
 20
-80.551599999999993
 30
0.0
 10
-45.5075
 20
-80.551599999999993
 30
0.0
 10
-45.5075
 20
-80.551599999999993
 30
0.0
 10
-45.453099999999999
 20
-84.805099999999996
 30
0.0
 10
-45.235399999999998
 20
-89.643500000000003
 30
0.0
 10
-48.119100000000003
 20
-92.939999999999998
 30
0.0
  0
SPLINE
  5
66
100
AcDbEntity
  8
RÚteg 1
100
AcDbSpline
210
0.0
220
0.0
230
1.0
 70
     1
 71
     3
 72
    40
 73
    36
 74
     0
 42
0.0000000001
 43
0.0000000001
 40
0.0
 40
0.0
 40
0.0
 40
0.0
 40
0.1111111111111111
 40
0.1111111111111111
 40
0.1111111111111111
 40
0.1111111111111111
 40
0.2222222222222222
 40
0.2222222222222222
 40
0.2222222222222222
 40
0.2222222222222222
 40
0.3333333333333333
 40
0.3333333333333333
 40
0.3333333333333333
 40
0.3333333333333333
 40
0.4444444444444444
 40
0.4444444444444444
 40
0.4444444444444444
 40
0.4444444444444444
 40
0.5555555555555556
 40
0.5555555555555556
 40
0.5555555555555556
 40
0.5555555555555556
 40
0.6666666666666667
 40
0.6666666666666667
 40
0.6666666666666667
 40
0.6666666666666667
 40
0.7777777777777779
 40
0.7777777777777779
 40
0.7777777777777779
 40
0.7777777777777779
 40
0.8888888888888891
 40
0.8888888888888891
 40
0.8888888888888891
 40
0.8888888888888891
 40
1.0
 40
1.0
 40
1.0
 40
1.0
 10
-12.862399999999999
 20
-55.8279
 30
0.0
 10
-15.3108
 20
-59.602899999999998
 30
0.0
 10
-19.228200000000001
 20
-61.410699999999999
 30
0.0
 10
-22.927900000000001
 20
-62.952500000000001
 30
0.0
 10
-22.927900000000001
 20
-62.952500000000001
 30
0.0
 10
-29.0761
 20
-65.504599999999996
 30
0.0
 10
-35.441899999999997
 20
-67.471900000000005
 30
0.0
 10
-42.515000000000001
 20
-67.684600000000003
 30
0.0
 10
-42.515000000000001
 20
-67.684600000000003
 30
0.0
 10
-42.515000000000001
 20
-67.684600000000003
 30
0.0
 10
-43.8934
 20
-56.607700000000001
 30
0.0
 10
-43.984099999999998
 20
-50.829999999999998
 30
0.0
 10
-43.984099999999998
 20
-50.829999999999998
 30
0.0
 10
-41.317999999999998
 20
-49.819800000000001
 30
0.0
 10
-40.121099999999998
 20
-53.063099999999999
 30
0.0
 10
-38.216799999999999
 20
-54.179600000000001
 30
0.0
 10
-38.216799999999999
 20
-54.179600000000001
 30
0.0
 10
-35.369399999999999
 20
-56.341799999999999
 30
0.0
 10
-23.3995
 20
-52.442799999999998
 30
0.0
 10
-14.3314
 20
-41.525399999999998
 30
0.0
 10
-14.3314
 20
-41.525399999999998
 30
0.0
 10
-12.862399999999999
 20
-38.494700000000002
 30
0.0
 10
-12.6447
 20
-34.985599999999998
 30
0.0
 10
-11.5566
 20
-31.848600000000001
 30
0.0
 10
-11.5566
 20
-31.848600000000001
 30
0.0
 10
-11.5566
 20
-31.848600000000001
 30
0.0
 10
-10.903700000000001
 20
-31.848600000000001
 30
0.0
 10
-10.903700000000001
 20
-31.848600000000001
 30
0.0
 10
-10.903700000000001
 20
-31.848600000000001
 30
0.0
 10
-10.903700000000001
 20
-31.848600000000001
 30
0.0
 10
-11.447800000000001
 20
-38.441499999999998
 30
0.0
 10
-11.447800000000001
 20
-38.441499999999998
 30
0.0
 10
-11.447800000000001
 20
-38.441499999999998
 30
0.0
 10
-9.5978999999999992
 20
-43.917999999999999
 30
0.0
 10
-7.9112
 20
-51.202199999999998
 30
0.0
 10
-12.862399999999999
 20
-55.8279
 30
0.0
  0
SPLINE
  5
67
100
AcDbEntity
  8
RÚteg 1
100
AcDbSpline
210
0.0
220
0.0
230
1.0
 70
     1
 71
     3
 72
    32
 73
    28
 74
     0
 42
0.0000000001
 43
0.0000000001
 40
0.0
 40
0.0
 40
0.0
 40
0.0
 40
0.1428571428571429
 40
0.1428571428571429
 40
0.1428571428571429
 40
0.1428571428571429
 40
0.2857142857142857
 40
0.2857142857142857
 40
0.2857142857142857
 40
0.2857142857142857
 40
0.4285714285714286
 40
0.4285714285714286
 40
0.4285714285714286
 40
0.4285714285714286
 40
0.5714285714285714
 40
0.5714285714285714
 40
0.5714285714285714
 40
0.5714285714285714
 40
0.7142857142857142
 40
0.7142857142857142
 40
0.7142857142857142
 40
0.7142857142857142
 40
0.857142857142857
 40
0.857142857142857
 40
0.857142857142857
 40
0.857142857142857
 40
1.0
 40
1.0
 40
1.0
 40
1.0
 10
-19.0105
 20
-13.558400000000001
 30
0.0
 10
-20.479500000000002
 20
-9.3048999999999999
 30
0.0
 10
-21.8398
 20
-4.9981
 30
0.0
 10
-22.003
 20
-0.1598
 30
0.0
 10
-22.003
 20
-0.1598
 30
0.0
 10
-22.003
 20
-0.1598
 30
0.0
 10
-20.2075
 20
-0.6915
 30
0.0
 10
-20.2075
 20
-0.6915
 30
0.0
 10
-20.2075
 20
-0.6915
 30
0.0
 10
-19.663399999999999
 20
-6.4869000000000003
 30
0.0
 10
-15.8004
 20
-11.6975
 30
0.0
 10
-10.414
 20
-14.3559
 30
0.0
 10
-10.414
 20
-14.3559
 30
0.0
 10
-7.9112
 20
-15.632
 30
0.0
 10
-5.6803999999999997
 20
-18.0246
 30
0.0
 10
-3.8849999999999998
 20
-19.566500000000001
 30
0.0
 10
-3.8849999999999998
 20
-19.566500000000001
 30
0.0
 10
-2.0895000000000001
 20
-19.194299999999998
 30
0.0
 10
-0.0764
 20
-18.662600000000001
 30
0.0
 10
1.7190000000000001
 20
-19.088000000000001
 30
0.0
 10
1.7190000000000001
 20
-19.088000000000001
 30
0.0
 10
1.7190000000000001
 20
-19.088000000000001
 30
0.0
 10
3.7502
 20
-25.486000000000001
 30
0.0
 10
3.7502
 20
-25.486000000000001
 30
0.0
 10
3.7502
 20
-25.486000000000001
 30
0.0
 10
-2.1802000000000001
 20
-25.769600000000001
 30
0.0
 10
-14.784800000000001
 20
-23.642800000000001
 30
0.0
 10
-19.0105
 20
-13.558400000000001
 30
0.0
  0
SPLINE
  5
68
100
AcDbEntity
  8
RÚteg 1
100
AcDbSpline
210
0.0
220
0.0
230
1.0
 70
     1
 71
     3
 72
    24
 73
    20
 74
     0
 42
0.0000000001
 43
0.0000000001
 40
0.0
 40
0.0
 40
0.0
 40
0.0
 40
0.2
 40
0.2
 40
0.2
 40
0.2
 40
0.4
 40
0.4
 40
0.4
 40
0.4
 40
0.6000000000000001
 40
0.6000000000000001
 40
0.6000000000000001
 40
0.6000000000000001
 40
0.8
 40
0.8
 40
0.8
 40
0.8
 40
1.0
 40
1.0
 40
1.0
 40
1.0
 10
1.9911000000000001
 20
-43.439500000000002
 30
0.0
 10
1.1205000000000001
 20
-43.971200000000003
 30
0.0
 10
-0.1308
 20
-44.343299999999999
 30
0.0
 10
-1.1101000000000001
 20
-43.811599999999999
 30
0.0
 10
-1.1101000000000001
 20
-43.811599999999999
 30
0.0
 10
-3.0144000000000002
 20
-43.226799999999997
 30
0.0
 10
-3.1777000000000002
 20
-41.3127
 30
0.0
 10
-3.7218
 20
-39.877099999999999
 30
0.0
 10
-3.7218
 20
-39.877099999999999
 30
0.0
 10
-4.9187000000000003
 20
-35.889400000000002
 30
0.0
 10
-6.0068999999999999
 20
-31.848600000000001
 30
0.0
 10
-7.5303000000000004
 20
-28.020399999999999
 30
0.0
 10
-7.5303000000000004
 20
-28.020399999999999
 30
0.0
 10
-3.0144000000000002
 20
-29.0306
 30
0.0
 10
1.5014000000000001
 20
-32.220799999999997
 30
0.0
 10
2.6438999999999999
 20
-36.527500000000003
 30
0.0
 10
2.6438999999999999
 20
-36.527500000000003
 30
0.0
 10
3.0247999999999999
 20
-38.920099999999998
 30
0.0
 10
2.5895999999999999
 20
-41.3127
 30
0.0
 10
1.9911000000000001
 20
-43.439500000000002
 30
0.0
  0
SPLINE
  5
69
100
AcDbEntity
  8
RÚteg 1
100
AcDbSpline
210
0.0
220
0.0
230
1.0
 70
     1
 71
     3
 72
    60
 73
    56
 74
     0
 42
0.0000000001
 43
0.0000000001
 40
0.0
 40
0.0
 40
0.0
 40
0.0
 40
0.0714285714285714
 40
0.0714285714285714
 40
0.0714285714285714
 40
0.0714285714285714
 40
0.1428571428571429
 40
0.1428571428571429
 40
0.1428571428571429
 40
0.1428571428571429
 40
0.2142857142857143
 40
0.2142857142857143
 40
0.2142857142857143
 40
0.2142857142857143
 40
0.2857142857142857
 40
0.2857142857142857
 40
0.2857142857142857
 40
0.2857142857142857
 40
0.3571428571428571
 40
0.3571428571428571
 40
0.3571428571428571
 40
0.3571428571428571
 40
0.4285714285714285
 40
0.4285714285714285
 40
0.4285714285714285
 40
0.4285714285714285
 40
0.4999999999999999
 40
0.4999999999999999
 40
0.4999999999999999
 40
0.4999999999999999
 40
0.5714285714285713
 40
0.5714285714285713
 40
0.5714285714285713
 40
0.5714285714285713
 40
0.6428571428571427
 40
0.6428571428571427
 40
0.6428571428571427
 40
0.6428571428571427
 40
0.7142857142857141
 40
0.7142857142857141
 40
0.7142857142857141
 40
0.7142857142857141
 40
0.7857142857142855
 40
0.7857142857142855
 40
0.7857142857142855
 40
0.7857142857142855
 40
0.8571428571428569
 40
0.8571428571428569
 40
0.8571428571428569
 40
0.8571428571428569
 40
0.9285714285714283
 40
0.9285714285714283
 40
0.9285714285714283
 40
0.9285714285714283
 40
1.0
 40
1.0
 40
1.0
 40
1.0
 10
26.964600000000001
 20
-35.6768
 30
0.0
 10
22.231000000000002
 20
-38.2821
 30
0.0
 10
17.5519
 20
-40.887300000000003
 30
0.0
 10
12.1654
 20
-41.897599999999997
 30
0.0
 10
12.1654
 20
-41.897599999999997
 30
0.0
 10
11.2949
 20
-45.300400000000003
 30
0.0
 10
11.240500000000001
 20
-49.979300000000002
 30
0.0
 10
7.2142999999999997
 20
-51.095799999999997
 30
0.0
 10
7.2142999999999997
 20
-51.095799999999997
 30
0.0
 10
5.4732000000000003
 20
-51.308500000000002
 30
0.0
 10
4.3305999999999996
 20
-49.926099999999998
 30
0.0
 10
3.0247999999999999
 20
-48.649999999999999
 30
0.0
 10
3.0247999999999999
 20
-48.649999999999999
 30
0.0
 10
3.0792000000000002
 20
-48.437399999999997
 30
0.0
 10
3.1880000000000002
 20
-47.746200000000002
 30
0.0
 10
3.5689000000000002
 20
-48.171500000000002
 30
0.0
 10
3.5689000000000002
 20
-48.171500000000002
 30
0.0
 10
4.2762000000000002
 20
-48.969000000000001
 30
0.0
 10
5.2556000000000003
 20
-49.181800000000003
 30
0.0
 10
6.1805000000000003
 20
-49.447600000000001
 30
0.0
 10
6.1805000000000003
 20
-49.447600000000001
 30
0.0
 10
8.0847999999999995
 20
-49.394399999999997
 30
0.0
 10
9.3905999999999992
 20
-47.799300000000002
 30
0.0
 10
10.097899999999999
 20
-46.257399999999997
 30
0.0
 10
10.097899999999999
 20
-46.257399999999997
 30
0.0
 10
11.784599999999999
 20
-41.738100000000003
 30
0.0
 10
10.0435
 20
-37.006
 30
0.0
 10
7.8672000000000004
 20
-33.231000000000002
 30
0.0
 10
7.8672000000000004
 20
-33.231000000000002
 30
0.0
 10
12.3287
 20
-34.241199999999999
 30
0.0
 10
16.6814
 20
-36.208500000000001
 30
0.0
 10
20.816400000000002
 20
-37.431399999999996
 30
0.0
 10
20.816400000000002
 20
-37.431399999999996
 30
0.0
 10
22.6663
 20
-36.314799999999998
 30
0.0
 10
24.733799999999999
 20
-35.570399999999999
 30
0.0
 10
26.692499999999999
 20
-34.613399999999999
 30
0.0
 10
26.692499999999999
 20
-34.613399999999999
 30
0.0
 10
20.0547
 20
-32.699300000000001
 30
0.0
 10
13.362399999999999
 20
-30.891500000000001
 30
0.0
 10
6.8334000000000001
 20
-28.764800000000001
 30
0.0
 10
6.8334000000000001
 20
-28.764800000000001
 30
0.0
 10
6.8334000000000001
 20
-28.764800000000001
 30
0.0
 10
7.3775000000000004
 20
-27.7546
 30
0.0
 10
7.3775000000000004
 20
-27.7546
 30
0.0
 10
7.3775000000000004
 20
-27.7546
 30
0.0
 10
14.341799999999999
 20
-30.997900000000001
 30
0.0
 10
22.285399999999999
 20
-32.008099999999999
 30
0.0
 10
29.793800000000001
 20
-33.975299999999997
 30
0.0
 10
29.793800000000001
 20
-33.975299999999997
 30
0.0
 10
30.4467
 20
-33.869
 30
0.0
 10
31.045200000000001
 20
-33.709499999999998
 30
0.0
 10
31.752500000000001
 20
-33.762700000000002
 30
0.0
 10
31.752500000000001
 20
-33.762700000000002
 30
0.0
 10
30.2835
 20
-34.453899999999997
 30
0.0
 10
28.488
 20
-34.879199999999997
 30
0.0
 10
26.964600000000001
 20
-35.6768
 30
0.0
  0
SPLINE
  5
6A
100
AcDbEntity
  8
RÚteg 1
100
AcDbSpline
210
0.0
220
0.0
230
1.0
 70
     1
 71
     3
 72
    40
 73
    36
 74
     0
 42
0.0000000001
 43
0.0000000001
 40
0.0
 40
0.0
 40
0.0
 40
0.0
 40
0.1111111111111111
 40
0.1111111111111111
 40
0.1111111111111111
 40
0.1111111111111111
 40
0.2222222222222222
 40
0.2222222222222222
 40
0.2222222222222222
 40
0.2222222222222222
 40
0.3333333333333333
 40
0.3333333333333333
 40
0.3333333333333333
 40
0.3333333333333333
 40
0.4444444444444444
 40
0.4444444444444444
 40
0.4444444444444444
 40
0.4444444444444444
 40
0.5555555555555556
 40
0.5555555555555556
 40
0.5555555555555556
 40
0.5555555555555556
 40
0.6666666666666667
 40
0.6666666666666667
 40
0.6666666666666667
 40
0.6666666666666667
 40
0.7777777777777779
 40
0.7777777777777779
 40
0.7777777777777779
 40
0.7777777777777779
 40
0.8888888888888891
 40
0.8888888888888891
 40
0.8888888888888891
 40
0.8888888888888891
 40
1.0
 40
1.0
 40
1.0
 40
1.0
 10
52.917400000000001
 20
-40.5152
 30
0.0
 10
55.148099999999999
 20
-38.441499999999998
 30
0.0
 10
55.964300000000001
 20
-35.6768
 30
0.0
 10
56.834800000000001
 20
-32.965200000000003
 30
0.0
 10
56.834800000000001
 20
-32.965200000000003
 30
0.0
 10
53.4071
 20
-32.1676
 30
0.0
 10
50.360199999999999
 20
-34.453899999999997
 30
0.0
 10
48.238300000000002
 20
-36.9529
 30
0.0
 10
48.238300000000002
 20
-36.9529
 30
0.0
 10
47.966299999999997
 20
-36.899700000000003
 30
0.0
 10
47.802999999999997
 20
-36.580599999999997
 30
0.0
 10
47.5854
 20
-36.421100000000003
 30
0.0
 10
47.5854
 20
-36.421100000000003
 30
0.0
 10
50.033799999999999
 20
-33.337299999999999
 30
0.0
 10
53.243899999999996
 20
-30.253499999999999
 30
0.0
 10
57.759799999999998
 20
-31.210599999999999
 30
0.0
 10
57.759799999999998
 20
-31.210599999999999
 30
0.0
 10
59.609699999999997
 20
-29.5623
 30
0.0
 10
60.969900000000003
 20
-27.7014
 30
0.0
 10
63.255099999999999
 20
-26.8507
 30
0.0
 10
63.255099999999999
 20
-26.8507
 30
0.0
 10
60.534599999999998
 20
-29.721800000000002
 30
0.0
 10
57.705399999999997
 20
-33.4968
 30
0.0
 10
56.345199999999998
 20
-37.165500000000002
 30
0.0
 10
56.345199999999998
 20
-37.165500000000002
 30
0.0
 10
56.073099999999997
 20
-37.590899999999998
 30
0.0
 10
55.801099999999998
 20
-37.963000000000001
 30
0.0
 10
55.529000000000003
 20
-38.3352
 30
0.0
 10
55.529000000000003
 20
-38.3352
 30
0.0
 10
58.739100000000001
 20
-38.122599999999998
 30
0.0
 10
62.275700000000001
 20
-36.474299999999999
 30
0.0
 10
65.485799999999998
 20
-38.228900000000003
 30
0.0
 10
65.485799999999998
 20
-38.228900000000003
 30
0.0
 10
60.8611
 20
-38.016199999999998
 30
0.0
 10
57.052500000000002
 20
-39.6113
 30
0.0
 10
52.917400000000001
 20
-40.5152
 30
0.0
  0
ENDSEC
  0
SECTION
  2
OBJECTS
  0
DICTIONARY
  5
19
100
AcDbDictionary
280
     0
281
     1
  3
ACAD_GROUP
350
1A
  3
ACAD_MLINESTYLE
350
1B
  3
ACAD_LAYOUT
350
1E
  3
ACAD_PLOTSETTINGS
350
22
  3
ACAD_PLOTSTYLENAME
350
1F
  3
ACAD_WIPEOUT_VARS
350
23
  0
DICTIONARY
  5
1A
102
{ACAD_REACTORS
330
19
102
}
100
AcDbDictionary
280
     0
281
     1
  0
DICTIONARY
  5
1B
102
{ACAD_REACTORS
330
19
102
}
100
AcDbDictionary
280
     0
281
     1
  3
Standard
350
1C
  0
MLINESTYLE
  5
1C
102
{ACAD_REACTORS
330
1B
102
}
100
AcDbMlineStyle
  2
Standard
 70
     0
  3

 62
     0
 51
90.0
 52
90.0
 71
     2
 49
0.5
 62
   256
  6
BYLAYER
 49
-0.5
 62
   256
  6
BYLAYER
  0
ACDBDICTIONARYWDFLT
  5
1F
102
{ACAD_REACTORS
330
19
102
}
100
AcDbDictionary
281
     1
  3
Normal
350
1D
100
AcDbDictionaryWithDefault
340
1D
  0
ACDBPLACEHOLDER
  5
1D
102
{ACAD_REACTORS
330
1F
102
}
  0
LAYOUT
  5
20
102
{ACAD_REACTORS
330
1E
102
}
100
AcDbPlotSettings
  1

  2

  4

  6

 40
0.0
 41
0.0
 42
0.0
 43
0.0
 44
0.0
 45
0.0
 46
0.0
 47
0.0
 48
0.0
 49
0.0
140
0.0
141
0.0
142
1.0
143
1.0
 70
  1024
 72
     0
 73
     0
 74
     0
  7

 75
     0
147
1.0
148
0.0
149
0.0
100
AcDbLayout
  1
Model
 70
     0
 71
     0
 10
0.0
 20
0.0
 11
0.0
 21
0.0
 12
0.0
 22
0.0
 32
0.0
 14
0.0
 24
0.0
 34
0.0
 15
0.0
 25
0.0
 35
0.0
146
0.0
 13
0.0
 23
0.0
 33
0.0
 16
0.0
 26
0.0
 36
0.0
 17
0.0
 27
0.0
 37
0.0
 76
     0
330
A
331
0
345
0
346
0
  0
LAYOUT
  5
21
102
{ACAD_REACTORS
330
1E
102
}
100
AcDbPlotSettings
  1

  2

  4

  6

 40
0.0
 41
0.0
 42
0.0
 43
0.0
 44
0.0
 45
0.0
 46
0.0
 47
0.0
 48
0.0
 49
0.0
140
0.0
141
0.0
142
1.0
143
1.0
 70
     0
 72
     0
 73
     0
 74
     0
  7

 75
     0
147
1.0
148
0.0
149
0.0
100
AcDbLayout
  1
Layout1
 70
     0
 71
     0
 10
0.0
 20
0.0
 11
0.0
 21
0.0
 12
0.0
 22
0.0
 32
0.0
 14
0.0
 24
0.0
 34
0.0
 15
0.0
 25
0.0
 35
0.0
146
0.0
 13
0.0
 23
0.0
 33
0.0
 16
0.0
 26
0.0
 36
0.0
 17
0.0
 27
0.0
 37
0.0
 76
     0
330
B
331
0
345
0
346
0
  0
DICTIONARY
  5
1E
102
{ACAD_REACTORS
330
19
102
}
100
AcDbDictionary
280
     0
281
     1
  3
Layout1
350
21
  3
Model
350
20
  0
DICTIONARY
  5
22
102
{ACAD_REACTORS
330
19
102
}
100
AcDbDictionary
280
     0
281
     1
  0
WIPEOUTVARIABLES
  5
23
100
AcDbWipeoutVariables
 70
     1
  0
ENDSEC
  0
EOF
