  0
SECTION
  2
HEADER
  9
$ACADVER
  1
AC1015
  9
$ACADMAINTVER
 70
     6
  9
$DWGCODEPAGE
  3
DOS850
  9
$INSBASE
 10
0.0
 20
0.0
 30
0.0
  9
$EXTMIN
 10
-93.8328
 20
-79.9774
 30
1.000000E+20
  9
$EXTMAX
 10
93.7564
 20
80.2948
 30
-1.000000E+20
  9
$LIMMIN
 10
0.0
 20
0.0
  9
$LIMMAX
 10
0.0
 20
0.0
  9
$ORTHOMODE
 70
     0
  9
$REGENMODE
 70
     1
  9
$FILLMODE
 70
     1
  9
$QTEXTMODE
 70
     0
  9
$MIRRTEXT
 70
     1
  9
$LTSCALE
 40
1.0
  9
$ATTMODE
 70
     1
  9
$TEXTSIZE
 40
0.2
  9
$TRACEWID
 40
0.05
  9
$TEXTSTYLE
  7
Standard
  9
$CLAYER
  8
0
  9
$CELTYPE
  6
Continuous
  9
$CECOLOR
 62
   256
  9
$CELTSCALE
 40
1.0
  9
$DISPSILH
 70
     0
  9
$DIMSCALE
 40
1.0
  9
$DIMASZ
 40
0.18
  9
$DIMEXO
 40
0.0625
  9
$DIMDLI
 40
0.38
  9
$DIMRND
 40
0.0
  9
$DIMDLE
 40
0.0
  9
$DIMEXE
 40
0.18
  9
$DIMTP
 40
0.0
  9
$DIMTM
 40
0.0
  9
$DIMTXT
 40
0.18
  9
$DIMCEN
 40
0.09
  9
$DIMTSZ
 40
0.0
  9
$DIMTOL
 70
     0
  9
$DIMLIM
 70
     0
  9
$DIMTIH
 70
     1
  9
$DIMTOH
 70
     1
  9
$DIMSE1
 70
     0
  9
$DIMSE2
 70
     0
  9
$DIMTAD
 70
     0
  9
$DIMZIN
 70
     0
  9
$DIMBLK
  1

  9
$DIMASO
 70
     1
  9
$DIMSHO
 70
     1
  9
$DIMPOST
  1

  9
$DIMAPOST
  1

  9
$DIMALT
 70
     0
  9
$DIMALTD
 70
     2
  9
$DIMALTF
 40
25.4
  9
$DIMLFAC
 40
1.0
  9
$DIMTOFL
 70
     0
  9
$DIMTVP
 40
0.0
  9
$DIMTIX
 70
     0
  9
$DIMSOXD
 70
     0
  9
$DIMSAH
 70
     0
  9
$DIMBLK1
  1

  9
$DIMBLK2
  1

  9
$DIMSTYLE
  2
Standard
  9
$DIMCLRD
 70
     0
  9
$DIMCLRE
 70
     0
  9
$DIMCLRT
 70
     0
  9
$DIMTFAC
 40
1.0
  9
$DIMGAP
 40
0.09
  9
$DIMJUST
 70
     0
  9
$DIMSD1
 70
     0
  9
$DIMSD2
 70
     0
  9
$DIMTOLJ
 70
     1
  9
$DIMTZIN
 70
     0
  9
$DIMALTZ
 70
     0
  9
$DIMALTTZ
 70
     0
  9
$DIMUPT
 70
     0
  9
$DIMDEC
 70
     4
  9
$DIMTDEC
 70
     4
  9
$DIMALTU
 70
     2
  9
$DIMALTTD
 70
     2
  9
$DIMTXSTY
  7
Standard
  9
$DIMAUNIT
 70
     0
  9
$DIMADEC
 70
     0
  9
$DIMALTRND
 40
0.0
  9
$DIMAZIN
 70
     0
  9
$DIMDSEP
 70
     0
  9
$DIMATFIT
 70
     3
  9
$DIMFRAC
 70
     0
  9
$DIMLDRBLK
  1

  9
$DIMLUNIT
 70
     2
  9
$DIMLWD
 70
     0
  9
$DIMLWE
 70
     0
  9
$DIMTMOVE
 70
     0
  9
$LUNITS
 70
     2
  9
$LUPREC
 70
     4
  9
$SKETCHINC
 40
0.1
  9
$FILLETRAD
 40
0.0
  9
$AUNITS
 70
     0
  9
$AUPREC
 70
     0
  9
$MENU
  1
acad
  9
$ELEVATION
 40
0.0
  9
$PELEVATION
 40
0.0
  9
$THICKNESS
 40
0.0
  9
$LIMCHECK
 70
     0
  9
$CHAMFERA
 40
0.0
  9
$CHAMFERB
 40
0.0
  9
$CHAMFERC
 40
0.0
  9
$CHAMFERD
 40
0.0
  9
$SKPOLY
 70
     0
  9
$TDCREATE
 40
0.000000000
  9
$TDUCREATE
 40
0.000000000
  9
$TDUPDATE
 40
0.000000000
  9
$TDUUPDATE
 40
0.000000000
  9
$TDINDWG
 40
0.0000000000
  9
$TDUSRTIMER
 40
0.0000000000
  9
$USRTIMER
 70
     1
  9
$ANGBASE
 50
0.0
  9
$ANGDIR
 70
     0
  9
$PDMODE
 70
     0
  9
$PDSIZE
 40
0.0
  9
$PLINEWID
 40
0.0
  9
$SPLFRAME
 70
     0
  9
$SPLINETYPE
 70
     6
  9
$SPLINESEGS
 70
     8
  9
$HANDSEED
  5
58
  9
$SURFTAB1
 70
     6
  9
$SURFTAB2
 70
     6
  9
$SURFTYPE
 70
     6
  9
$SURFU
 70
     6
  9
$SURFV
 70
     6
  9
$UCSBASE
  2

  9
$UCSNAME
  2

  9
$UCSORG
 10
0.0
 20
0.0
 30
0.0
  9
$UCSXDIR
 10
1.0
 20
0.0
 30
0.0
  9
$UCSYDIR
 10
0.0
 20
1.0
 30
0.0
  9
$UCSORTHOREF
  2

  9
$UCSORTHOVIEW
 70
     0
  9
$UCSORGTOP
 10
0.0
 20
0.0
 30
0.0
  9
$UCSORGBOTTOM
 10
0.0
 20
0.0
 30
0.0
  9
$UCSORGLEFT
 10
0.0
 20
0.0
 30
0.0
  9
$UCSORGRIGHT
 10
0.0
 20
0.0
 30
0.0
  9
$UCSORGFRONT
 10
0.0
 20
0.0
 30
0.0
  9
$UCSORGBACK
 10
0.0
 20
0.0
 30
0.0
  9
$PUCSBASE
  2

  9
$PUCSNAME
  2

  9
$PUCSORG
 10
0.0
 20
0.0
 30
0.0
  9
$PUCSXDIR
 10
1.0
 20
0.0
 30
0.0
  9
$PUCSYDIR
 10
0.0
 20
1.0
 30
0.0
  9
$PUCSORTHOREF
  2

  9
$PUCSORTHOVIEW
 70
     0
  9
$PUCSORGTOP
 10
0.0
 20
0.0
 30
0.0
  9
$PUCSORGBOTTOM
 10
0.0
 20
0.0
 30
0.0
  9
$PUCSORGLEFT
 10
0.0
 20
0.0
 30
0.0
  9
$PUCSORGRIGHT
 10
0.0
 20
0.0
 30
0.0
  9
$PUCSORGFRONT
 10
0.0
 20
0.0
 30
0.0
  9
$PUCSORGBACK
 10
0.0
 20
0.0
 30
0.0
  9
$USERI1
 70
     0
  9
$USERI2
 70
     0
  9
$USERI3
 70
     0
  9
$USERI4
 70
     0
  9
$USERI5
 70
     0
  9
$USERR1
 40
0.0
  9
$USERR2
 40
0.0
  9
$USERR3
 40
0.0
  9
$USERR4
 40
0.0
  9
$USERR5
 40
0.0
  9
$WORLDVIEW
 70
     1
  9
$SHADEDGE
 70
     3
  9
$SHADEDIF
 70
    70
  9
$TILEMODE
 70
     1
  9
$MAXACTVP
 70
    16
  9
$PINSBASE
 10
0.0
 20
0.0
 30
0.0
  9
$PLIMCHECK
 70
     0
  9
$PEXTMIN
 10
1.000000E+20
 20
1.000000E+20
 30
1.000000E+20
  9
$PEXTMAX
 10
-1.000000E+20
 20
-1.000000E+20
 30
-1.000000E+20
  9
$PLIMMIN
 10
0.0
 20
0.0
  9
$PLIMMAX
 10
12.0
 20
9.0
  9
$UNITMODE
 70
     0
  9
$VISRETAIN
 70
     0
  9
$PLINEGEN
 70
     1
  9
$PSLTSCALE
 70
     0
  9
$TREEDEPTH
 70
  3020
  9
$CMLSTYLE
  2
Standard
  9
$CMLJUST
 70
     0
  9
$CMLSCALE
 40
1.0
  9
$PROXYGRAPHICS
 70
     0
  9
$MEASUREMENT
 70
     0
  9
$CELWEIGHT
370
     0
  9
$ENDCAPS
280
     0
  9
$JOINSTYLE
280
     0
  9
$LWDISPLAY
290
     0
  9
$INSUNITS
 70
     4
  9
$HYPERLINKBASE
  1

  9
$XEDIT
290
     1
  9
$CEPSNTYPE
380
     0
  9
$PSTYLEMODE
290
     1
  9
$FINGERPRINTGUID
  2

  9
$VERSIONGUID
  2

  9
$EXTNAMES
290
     1
  9
$PSVPSCALE
 40
0.0
  0
ENDSEC
  0
SECTION
  2
CLASSES
  0
CLASS
  1
LWPOLYLINE
  2
AcDbPolyline
  3
AutoCAD 2000
 90
    32768
280
     0
281
     1
  0
CLASS
  1
IMAGE
  2
AcDbRasterImage
  3
ISM
 90
    32895
280
     0
281
     1
  0
CLASS
  1
OLE2FRAME
  2
AcDbOle2Frame
  3
AutoCAD 2000
 90
    32768
280
     0
281
     1
  0
CLASS
  1
HATCH
  2
AcDbHatch
  3
AutoCAD 2000
 90
    32768
280
     0
281
     1
  0
CLASS
  1
DICTIONARYVAR
  2
AcDbDictionaryVar
  3
AutoCAD 2000
 90
    32768
280
     0
281
     0
  0
CLASS
  1
RASTERVARIABLES
  2
AcDbRasterVariables
  3
ISM
 90
    32768
280
     0
281
     0
  0
CLASS
  1
IMAGEDEF
  2
AcDbRasterImageDef
  3
ISM
 90
    32768
280
     0
281
     0
  0
CLASS
  1
IMAGEDEF_REACTOR
  2
AcDbRasterImageDefReactor
  3
ISM
 90
    32769
280
     0
281
     0
  0
CLASS
  1
IDBUFFER
  2
AcDbIdBuffer
  3
AutoCAD 2000
 90
    32768
280
     0
281
     0
  0
CLASS
  1
SPATIAL_FILTER
  2
AcDbSpatialFilter
  3
AutoCAD 2000
 90
    32768
280
     0
281
     0
  0
CLASS
  1
XRECORD
  2
AcDbXrecord
  3
AutoCAD 2000
 90
    32768
280
     0
281
     0
  0
CLASS
  1
SORTENTSTABLE
  2
AcDbSortentsTable
  3
AutoCAD 2000
 90
    32768
280
     0
281
     0
  0
CLASS
  1
LAYER_INDEX
  2
AcDbLayerIndex
  3
AutoCAD 2000
 90
    32768
280
     0
281
     0
  0
CLASS
  1
SPATIAL_INDEX
  2
AcDbSpatialIndex
  3
AutoCAD 2000
 90
    32768
280
     0
281
     0
  0
CLASS
  1
OBJECT_PTR
  2
CAseDLPNTableRecord
  3
"ASE-LPNTableRecord"
 90
    32769
280
     0
281
     0
  0
CLASS
  1
LAYOUT
  2
AcDbLayout
  3
AutoCAD 2000
 90
        0
280
     0
281
     0
  0
CLASS
  1
PLOTSETTINGS
  2
AcDbPlotSettings
  3
AutoCAD 2000
 90
    32768
280
     0
281
     0
  0
CLASS
  1
ACDBDICTIONARYWDFLT
  2
AcDbDictionaryWithDefault
  3
AutoCAD 2000
 90
        0
280
     0
281
     0
  0
CLASS
  1
ACDBPLACEHOLDER
  2
AcDbPlaceHolder
  3
AutoCAD 2000
 90
        0
280
     0
281
     0
  0
CLASS
  1
VBA_PROJECT
  2
AcDbVbaProject
  3
acadvba
 90
    32768
280
     0
281
     0
  0
CLASS
  1
WIPEOUT
  2
AcDbWipeout
  3
WipeOut|AutoCAD Express Tool|expresstools@autodesk.com
 90
    32895
280
     0
281
     1
  0
CLASS
  1
WIPEOUTVARIABLES
  2
AcDbWipeoutVariables
  3
WipeOut|AutoCAD Express Tool|expresstools@autodesk.com
 90
        0
280
     0
281
     0
  0
CLASS
  1
RTEXT
  2
RText
  3
RText|AutoCAD Express Tool|expresstools@autodesk.com
 90
    32768
280
     0
281
     1
  0
CLASS
  1
ARCALIGNEDTEXT
  2
AcDbArcAlignedText
  3
ATEXT|AutoCAD Express Tool|expresstools@autodesk.com
 90
    32768
280
     0
281
     1
  0
ENDSEC
  0
SECTION
  2
TABLES
  0
TABLE
  2
VPORT
  5
7
100
AcDbSymbolTable
 70
     1
  0
VPORT
  5
15
100
AcDbSymbolTableRecord
100
AcDbViewportTableRecord
  2
*ACTIVE
 70
     0
 10
0.0
 20
0.0
 11
1.0
 21
1.0
 12
6.591288
 22
4.579184
 13
0.0
 23
0.0
 14
1.0
 24
1.0
 15
0.0
 25
0.0
 16
0.0
 26
0.0
 36
1.0
 17
0.0
 27
0.0
 37
0.0
 40
9.158369
 41
0.688564
 42
50.0
 43
0.0
 44
0.0
 50
0.0
 51
0.0
 71
     0
 72
   100
 73
     1
 74
     1
 75
     0
 76
     0
 77
     0
 78
     0
281
     0
 65
     0
110
0.0
120
0.0
130
0.0
111
1.0
121
0.0
131
0.0
112
0.0
122
1.0
132
0.0
345
0
346
0
 79
     0
146
0.0
  0
ENDTAB
  0
TABLE
  2
LTYPE
  5
4
100
AcDbSymbolTable
 70
     3
  0
LTYPE
  5
11
100
AcDbSymbolTableRecord
100
AcDbLinetypeTableRecord
  2
ByBlock
 70
    64
  3

 72
    65
 73
     0
 40
0.0
  0
LTYPE
  5
12
100
AcDbSymbolTableRecord
100
AcDbLinetypeTableRecord
  2
ByLayer
 70
    64
  3

 72
    65
 73
     0
 40
0.0
  0
LTYPE
  5
13
100
AcDbSymbolTableRecord
100
AcDbLinetypeTableRecord
  2
Continuous
 70
    64
  3
Solid line
 72
    65
 73
     0
 40
0.0
  0
ENDTAB
  0
TABLE
  2
LAYER
  5
2
100
AcDbSymbolTable
 70
     2
  0
LAYER
  5
14
100
AcDbSymbolTableRecord
100
AcDbLayerTableRecord
  2
0
 70
     0
 62
     7
  6
Continuous
290
     1
370
    -3
390
1D
  0
LAYER
  5
24
100
AcDbSymbolTableRecord
100
AcDbLayerTableRecord
  2
RÚteg 1
 70
     0
 62
     7
  6
Continuous
290
     1
370
    -3
390
1F
  0
ENDTAB
  0
TABLE
  2
STYLE
  5
3
100
AcDbSymbolTable
 70
     1
  0
STYLE
  5
17
100
AcDbSymbolTableRecord
100
AcDbTextStyleTableRecord
  2
Standard
 70
     0
 40
0.0
 41
1.0
 50
0.0
 71
     0
 42
0.0
  3
txt
  4

  0
ENDTAB
  0
TABLE
  2
VIEW
  5
5
100
AcDbSymbolTable
 70
     0
  0
ENDTAB
  0
TABLE
  2
UCS
  5
6
100
AcDbSymbolTable
 70
     0
  0
ENDTAB
  0
TABLE
  2
APPID
  5
8
100
AcDbSymbolTable
 70
     1
  0
APPID
  5
16
100
AcDbSymbolTableRecord
100
AcDbRegAppTableRecord
  2
ACAD
 70
     0
  0
ENDTAB
  0
TABLE
  2
DIMSTYLE
  5
9
100
AcDbSymbolTable
 70
     1
100
AcDbDimStyleTable
 71
     0
  0
DIMSTYLE
105
18
100
AcDbSymbolTableRecord
100
AcDbDimStyleTableRecord
  2
Standard
 70
     0
  3

  4

 40
1.0
 41
0.18
 42
0.0625
 43
0.38
 44
0.18
 45
0.0
 46
0.0
 47
0.0
 48
0.0
 71
     0
 72
     0
 73
     1
 74
     1
 75
     0
 76
     0
 77
     0
 78
     0
 79
     0
140
0.18
141
0.09
142
0.0
143
25.4
144
1.0
145
0.0
146
1.0
147
0.09
148
0.0
170
     0
171
     2
172
     0
173
     0
174
     0
175
     0
176
     0
177
     0
178
     0
179
     0
271
     4
272
     4
273
     2
274
     2
275
     0
276
     0
277
     2
278
    46
279
     0
280
     0
281
     0
282
     0
283
     1
284
     0
285
     0
286
     0
288
     0
340
17
341
0
342
0
343
0
344
0
371
    -2
372
    -2
  0
ENDTAB
  0
TABLE
  2
BLOCK_RECORD
  5
1
100
AcDbSymbolTable
 70
     0
  0
BLOCK_RECORD
  5
A
100
AcDbSymbolTableRecord
100
AcDbBlockTableRecord
  2
*MODEL_SPACE
340
20
  0
BLOCK_RECORD
  5
B
100
AcDbSymbolTableRecord
100
AcDbBlockTableRecord
  2
*PAPER_SPACE
340
21
  0
ENDTAB
  0
ENDSEC
  0
SECTION
  2
BLOCKS
  0
BLOCK
  5
D
100
AcDbEntity
  8
0
100
AcDbBlockBegin
  2
*MODEL_SPACE
 70
     0
 10
0.0
 20
0.0
 30
0.0
  3
*MODEL_SPACE
  1

  0
ENDBLK
  5
E
100
AcDbEntity
  8
0
100
AcDbBlockEnd
  0
BLOCK
  5
F
100
AcDbEntity
 67
     1
  8
0
100
AcDbBlockBegin
  2
*PAPER_SPACE
 70
     0
 10
0.0
 20
0.0
 30
0.0
  3
*PAPER_SPACE
  1

  0
ENDBLK
  5
10
100
AcDbEntity
 67
     1
  8
0
100
AcDbBlockEnd
  0
ENDSEC
  0
SECTION
  2
ENTITIES
  0
SPLINE
  5
25
100
AcDbEntity
  8
RÚteg 1
100
AcDbSpline
210
0.0
220
0.0
230
1.0
 70
     1
 71
     3
 72
   428
 73
   424
 74
     0
 42
0.0000000001
 43
0.0000000001
 40
0.0
 40
0.0
 40
0.0
 40
0.0
 40
0.0094339622641509
 40
0.0094339622641509
 40
0.0094339622641509
 40
0.0094339622641509
 40
0.0188679245283019
 40
0.0188679245283019
 40
0.0188679245283019
 40
0.0188679245283019
 40
0.0283018867924528
 40
0.0283018867924528
 40
0.0283018867924528
 40
0.0283018867924528
 40
0.0377358490566038
 40
0.0377358490566038
 40
0.0377358490566038
 40
0.0377358490566038
 40
0.0471698113207547
 40
0.0471698113207547
 40
0.0471698113207547
 40
0.0471698113207547
 40
0.0566037735849057
 40
0.0566037735849057
 40
0.0566037735849057
 40
0.0566037735849057
 40
0.0660377358490566
 40
0.0660377358490566
 40
0.0660377358490566
 40
0.0660377358490566
 40
0.0754716981132075
 40
0.0754716981132075
 40
0.0754716981132075
 40
0.0754716981132075
 40
0.0849056603773585
 40
0.0849056603773585
 40
0.0849056603773585
 40
0.0849056603773585
 40
0.0943396226415094
 40
0.0943396226415094
 40
0.0943396226415094
 40
0.0943396226415094
 40
0.1037735849056604
 40
0.1037735849056604
 40
0.1037735849056604
 40
0.1037735849056604
 40
0.1132075471698113
 40
0.1132075471698113
 40
0.1132075471698113
 40
0.1132075471698113
 40
0.1226415094339623
 40
0.1226415094339623
 40
0.1226415094339623
 40
0.1226415094339623
 40
0.1320754716981132
 40
0.1320754716981132
 40
0.1320754716981132
 40
0.1320754716981132
 40
0.1415094339622642
 40
0.1415094339622642
 40
0.1415094339622642
 40
0.1415094339622642
 40
0.1509433962264151
 40
0.1509433962264151
 40
0.1509433962264151
 40
0.1509433962264151
 40
0.160377358490566
 40
0.160377358490566
 40
0.160377358490566
 40
0.160377358490566
 40
0.169811320754717
 40
0.169811320754717
 40
0.169811320754717
 40
0.169811320754717
 40
0.1792452830188679
 40
0.1792452830188679
 40
0.1792452830188679
 40
0.1792452830188679
 40
0.1886792452830189
 40
0.1886792452830189
 40
0.1886792452830189
 40
0.1886792452830189
 40
0.1981132075471698
 40
0.1981132075471698
 40
0.1981132075471698
 40
0.1981132075471698
 40
0.2075471698113207
 40
0.2075471698113207
 40
0.2075471698113207
 40
0.2075471698113207
 40
0.2169811320754717
 40
0.2169811320754717
 40
0.2169811320754717
 40
0.2169811320754717
 40
0.2264150943396226
 40
0.2264150943396226
 40
0.2264150943396226
 40
0.2264150943396226
 40
0.2358490566037736
 40
0.2358490566037736
 40
0.2358490566037736
 40
0.2358490566037736
 40
0.2452830188679245
 40
0.2452830188679245
 40
0.2452830188679245
 40
0.2452830188679245
 40
0.2547169811320755
 40
0.2547169811320755
 40
0.2547169811320755
 40
0.2547169811320755
 40
0.2641509433962264
 40
0.2641509433962264
 40
0.2641509433962264
 40
0.2641509433962264
 40
0.2735849056603774
 40
0.2735849056603774
 40
0.2735849056603774
 40
0.2735849056603774
 40
0.2830188679245283
 40
0.2830188679245283
 40
0.2830188679245283
 40
0.2830188679245283
 40
0.2924528301886792
 40
0.2924528301886792
 40
0.2924528301886792
 40
0.2924528301886792
 40
0.3018867924528302
 40
0.3018867924528302
 40
0.3018867924528302
 40
0.3018867924528302
 40
0.3113207547169811
 40
0.3113207547169811
 40
0.3113207547169811
 40
0.3113207547169811
 40
0.3207547169811321
 40
0.3207547169811321
 40
0.3207547169811321
 40
0.3207547169811321
 40
0.330188679245283
 40
0.330188679245283
 40
0.330188679245283
 40
0.330188679245283
 40
0.3396226415094339
 40
0.3396226415094339
 40
0.3396226415094339
 40
0.3396226415094339
 40
0.3490566037735849
 40
0.3490566037735849
 40
0.3490566037735849
 40
0.3490566037735849
 40
0.3584905660377358
 40
0.3584905660377358
 40
0.3584905660377358
 40
0.3584905660377358
 40
0.3679245283018868
 40
0.3679245283018868
 40
0.3679245283018868
 40
0.3679245283018868
 40
0.3773584905660377
 40
0.3773584905660377
 40
0.3773584905660377
 40
0.3773584905660377
 40
0.3867924528301887
 40
0.3867924528301887
 40
0.3867924528301887
 40
0.3867924528301887
 40
0.3962264150943396
 40
0.3962264150943396
 40
0.3962264150943396
 40
0.3962264150943396
 40
0.4056603773584905
 40
0.4056603773584905
 40
0.4056603773584905
 40
0.4056603773584905
 40
0.4150943396226415
 40
0.4150943396226415
 40
0.4150943396226415
 40
0.4150943396226415
 40
0.4245283018867924
 40
0.4245283018867924
 40
0.4245283018867924
 40
0.4245283018867924
 40
0.4339622641509434
 40
0.4339622641509434
 40
0.4339622641509434
 40
0.4339622641509434
 40
0.4433962264150943
 40
0.4433962264150943
 40
0.4433962264150943
 40
0.4433962264150943
 40
0.4528301886792452
 40
0.4528301886792452
 40
0.4528301886792452
 40
0.4528301886792452
 40
0.4622641509433962
 40
0.4622641509433962
 40
0.4622641509433962
 40
0.4622641509433962
 40
0.4716981132075471
 40
0.4716981132075471
 40
0.4716981132075471
 40
0.4716981132075471
 40
0.4811320754716981
 40
0.4811320754716981
 40
0.4811320754716981
 40
0.4811320754716981
 40
0.490566037735849
 40
0.490566037735849
 40
0.490566037735849
 40
0.490566037735849
 40
0.4999999999999999
 40
0.4999999999999999
 40
0.4999999999999999
 40
0.4999999999999999
 40
0.5094339622641509
 40
0.5094339622641509
 40
0.5094339622641509
 40
0.5094339622641509
 40
0.5188679245283019
 40
0.5188679245283019
 40
0.5188679245283019
 40
0.5188679245283019
 40
0.5283018867924528
 40
0.5283018867924528
 40
0.5283018867924528
 40
0.5283018867924528
 40
0.5377358490566038
 40
0.5377358490566038
 40
0.5377358490566038
 40
0.5377358490566038
 40
0.5471698113207547
 40
0.5471698113207547
 40
0.5471698113207547
 40
0.5471698113207547
 40
0.5566037735849057
 40
0.5566037735849057
 40
0.5566037735849057
 40
0.5566037735849057
 40
0.5660377358490566
 40
0.5660377358490566
 40
0.5660377358490566
 40
0.5660377358490566
 40
0.5754716981132075
 40
0.5754716981132075
 40
0.5754716981132075
 40
0.5754716981132075
 40
0.5849056603773585
 40
0.5849056603773585
 40
0.5849056603773585
 40
0.5849056603773585
 40
0.5943396226415094
 40
0.5943396226415094
 40
0.5943396226415094
 40
0.5943396226415094
 40
0.6037735849056604
 40
0.6037735849056604
 40
0.6037735849056604
 40
0.6037735849056604
 40
0.6132075471698113
 40
0.6132075471698113
 40
0.6132075471698113
 40
0.6132075471698113
 40
0.6226415094339622
 40
0.6226415094339622
 40
0.6226415094339622
 40
0.6226415094339622
 40
0.6320754716981132
 40
0.6320754716981132
 40
0.6320754716981132
 40
0.6320754716981132
 40
0.6415094339622641
 40
0.6415094339622641
 40
0.6415094339622641
 40
0.6415094339622641
 40
0.6509433962264151
 40
0.6509433962264151
 40
0.6509433962264151
 40
0.6509433962264151
 40
0.660377358490566
 40
0.660377358490566
 40
0.660377358490566
 40
0.660377358490566
 40
0.6698113207547169
 40
0.6698113207547169
 40
0.6698113207547169
 40
0.6698113207547169
 40
0.6792452830188679
 40
0.6792452830188679
 40
0.6792452830188679
 40
0.6792452830188679
 40
0.6886792452830188
 40
0.6886792452830188
 40
0.6886792452830188
 40
0.6886792452830188
 40
0.6981132075471698
 40
0.6981132075471698
 40
0.6981132075471698
 40
0.6981132075471698
 40
0.7075471698113207
 40
0.7075471698113207
 40
0.7075471698113207
 40
0.7075471698113207
 40
0.7169811320754717
 40
0.7169811320754717
 40
0.7169811320754717
 40
0.7169811320754717
 40
0.7264150943396226
 40
0.7264150943396226
 40
0.7264150943396226
 40
0.7264150943396226
 40
0.7358490566037735
 40
0.7358490566037735
 40
0.7358490566037735
 40
0.7358490566037735
 40
0.7452830188679245
 40
0.7452830188679245
 40
0.7452830188679245
 40
0.7452830188679245
 40
0.7547169811320754
 40
0.7547169811320754
 40
0.7547169811320754
 40
0.7547169811320754
 40
0.7641509433962264
 40
0.7641509433962264
 40
0.7641509433962264
 40
0.7641509433962264
 40
0.7735849056603773
 40
0.7735849056603773
 40
0.7735849056603773
 40
0.7735849056603773
 40
0.7830188679245282
 40
0.7830188679245282
 40
0.7830188679245282
 40
0.7830188679245282
 40
0.7924528301886792
 40
0.7924528301886792
 40
0.7924528301886792
 40
0.7924528301886792
 40
0.8018867924528301
 40
0.8018867924528301
 40
0.8018867924528301
 40
0.8018867924528301
 40
0.8113207547169811
 40
0.8113207547169811
 40
0.8113207547169811
 40
0.8113207547169811
 40
0.820754716981132
 40
0.820754716981132
 40
0.820754716981132
 40
0.820754716981132
 40
0.830188679245283
 40
0.830188679245283
 40
0.830188679245283
 40
0.830188679245283
 40
0.8396226415094339
 40
0.8396226415094339
 40
0.8396226415094339
 40
0.8396226415094339
 40
0.8490566037735848
 40
0.8490566037735848
 40
0.8490566037735848
 40
0.8490566037735848
 40
0.8584905660377358
 40
0.8584905660377358
 40
0.8584905660377358
 40
0.8584905660377358
 40
0.8679245283018867
 40
0.8679245283018867
 40
0.8679245283018867
 40
0.8679245283018867
 40
0.8773584905660377
 40
0.8773584905660377
 40
0.8773584905660377
 40
0.8773584905660377
 40
0.8867924528301886
 40
0.8867924528301886
 40
0.8867924528301886
 40
0.8867924528301886
 40
0.8962264150943395
 40
0.8962264150943395
 40
0.8962264150943395
 40
0.8962264150943395
 40
0.9056603773584905
 40
0.9056603773584905
 40
0.9056603773584905
 40
0.9056603773584905
 40
0.9150943396226414
 40
0.9150943396226414
 40
0.9150943396226414
 40
0.9150943396226414
 40
0.9245283018867924
 40
0.9245283018867924
 40
0.9245283018867924
 40
0.9245283018867924
 40
0.9339622641509433
 40
0.9339622641509433
 40
0.9339622641509433
 40
0.9339622641509433
 40
0.9433962264150942
 40
0.9433962264150942
 40
0.9433962264150942
 40
0.9433962264150942
 40
0.9528301886792452
 40
0.9528301886792452
 40
0.9528301886792452
 40
0.9528301886792452
 40
0.9622641509433961
 40
0.9622641509433961
 40
0.9622641509433961
 40
0.9622641509433961
 40
0.9716981132075471
 40
0.9716981132075471
 40
0.9716981132075471
 40
0.9716981132075471
 40
0.981132075471698
 40
0.981132075471698
 40
0.981132075471698
 40
0.981132075471698
 40
0.990566037735849
 40
0.990566037735849
 40
0.990566037735849
 40
0.990566037735849
 40
1.0
 40
1.0
 40
1.0
 40
1.0
 10
88.529499999999999
 20
21.543199999999999
 30
0.0
 10
89.587900000000005
 20
24.982800000000001
 30
0.0
 10
90.804900000000004
 20
29.1632
 30
0.0
 10
89.429100000000005
 20
32.867400000000004
 30
0.0
 10
89.429100000000005
 20
32.867400000000004
 30
0.0
 10
86.095399999999998
 20
37.153599999999997
 30
0.0
 10
85.195800000000006
 20
42.392400000000002
 30
0.0
 10
82.814499999999995
 20
47.101999999999997
 30
0.0
 10
82.814499999999995
 20
47.101999999999997
 30
0.0
 10
80.803700000000006
 20
49.271500000000003
 30
0.0
 10
77.946200000000005
 20
49.588999999999999
 30
0.0
 10
75.300399999999996
 20
50.277000000000001
 30
0.0
 10
75.300399999999996
 20
50.277000000000001
 30
0.0
 10
73.924499999999995
 20
52.658200000000001
 30
0.0
 10
71.596199999999996
 20
54.245699999999999
 30
0.0
 10
69.585400000000007
 20
56.203600000000002
 30
0.0
 10
69.585400000000007
 20
56.203600000000002
 30
0.0
 10
66.357500000000002
 20
59.272799999999997
 30
0.0
 10
65.616600000000005
 20
63.717799999999997
 30
0.0
 10
63.394100000000002
 20
67.157399999999996
 30
0.0
 10
63.394100000000002
 20
67.157399999999996
 30
0.0
 10
57.679099999999998
 20
64.088200000000001
 30
0.0
 10
50.059100000000001
 20
64.458600000000004
 30
0.0
 10
43.444499999999998
 20
64.882000000000005
 30
0.0
 10
43.444499999999998
 20
64.882000000000005
 30
0.0
 10
40.639899999999997
 20
64.882000000000005
 30
0.0
 10
38.5762
 20
62.712400000000002
 30
0.0
 10
36.829900000000002
 20
60.648600000000002
 30
0.0
 10
36.829900000000002
 20
60.648600000000002
 30
0.0
 10
35.136600000000001
 20
59.219900000000003
 30
0.0
 10
32.596600000000002
 20
60.7545
 30
0.0
 10
30.479900000000001
 20
60.807400000000001
 30
0.0
 10
30.479900000000001
 20
60.807400000000001
 30
0.0
 10
29.844999999999999
 20
64.458600000000004
 30
0.0
 10
29.580400000000001
 20
68.215699999999998
 30
0.0
 10
26.4054
 20
70.808599999999998
 30
0.0
 10
26.4054
 20
70.808599999999998
 30
0.0
 10
25.0825
 20
72.025700000000001
 30
0.0
 10
22.965800000000002
 20
71.443600000000004
 30
0.0
 10
21.854500000000002
 20
70.702799999999996
 30
0.0
 10
21.854500000000002
 20
70.702799999999996
 30
0.0
 10
19.7379
 20
70.173599999999993
 30
0.0
 10
18.573699999999999
 20
71.972800000000007
 30
0.0
 10
17.039100000000001
 20
72.872399999999999
 30
0.0
 10
17.039100000000001
 20
72.872399999999999
 30
0.0
 10
15.292899999999999
 20
74.406999999999996
 30
0.0
 10
13.529
 20
73.331000000000003
 30
0.0
 10
11.6769
 20
72.695999999999998
 30
0.0
 10
11.6769
 20
72.695999999999998
 30
0.0
 10
11.6769
 20
72.695999999999998
 30
0.0
 10
6.9966999999999997
 20
70.849500000000006
 30
0.0
 10
5.1740000000000004
 20
69.144400000000005
 30
0.0
 10
5.1740000000000004
 20
69.144400000000005
 30
0.0
 10
5.1740000000000004
 20
69.144400000000005
 30
0.0
 10
4.9387999999999996
 20
71.378600000000006
 30
0.0
 10
10.1717
 20
73.436499999999995
 30
0.0
 10
10.1717
 20
73.436499999999995
 30
0.0
 10
9.9365000000000006
 20
74.259699999999995
 30
0.0
 10
8.3607999999999993
 20
77.687799999999996
 30
0.0
 10
8.3607999999999993
 20
77.687799999999996
 30
0.0
 10
8.3607999999999993
 20
77.687799999999996
 30
0.0
 10
6.9850000000000003
 20
80.227800000000002
 30
0.0
 10
4.0744999999999996
 20
80.492400000000004
 30
0.0
 10
1.3757999999999999
 20
80.122
 30
0.0
 10
1.3757999999999999
 20
80.122
 30
0.0
 10
-1.3757999999999999
 20
79.486999999999995
 30
0.0
 10
-5.3975
 20
81.6036
 30
0.0
 10
-6.8791000000000002
 20
78.322800000000001
 30
0.0
 10
-6.8791000000000002
 20
78.322800000000001
 30
0.0
 10
-9.5250000000000004
 20
77.423199999999994
 30
0.0
 10
-11.1654
 20
79.804500000000004
 30
0.0
 10
-13.599500000000001
 20
79.963200000000001
 30
0.0
 10
-13.599500000000001
 20
79.963200000000001
 30
0.0
 10
-15.927899999999999
 20
79.857399999999998
 30
0.0
 10
-18.309100000000001
 20
79.910300000000007
 30
0.0
 10
-20.055399999999999
 20
78.428600000000003
 30
0.0
 10
-20.055399999999999
 20
78.428600000000003
 30
0.0
 10
-21.801600000000001
 20
77.3703
 30
0.0
 10
-23.0716
 20
75.042000000000002
 30
0.0
 10
-25.135400000000001
 20
74.7774
 30
0.0
 10
-25.135400000000001
 20
74.7774
 30
0.0
 10
-29.8979
 20
73.401499999999999
 30
0.0
 10
-34.554499999999997
 20
68.956500000000005
 30
0.0
 10
-35.454099999999997
 20
64.247
 30
0.0
 10
-35.454099999999997
 20
64.247
 30
0.0
 10
-32.966999999999999
 20
62.553600000000003
 30
0.0
 10
-28.839500000000001
 20
62.2361
 30
0.0
 10
-28.310400000000001
 20
58.637799999999999
 30
0.0
 10
-28.310400000000001
 20
58.637799999999999
 30
0.0
 10
-28.151599999999998
 20
57.473599999999998
 30
0.0
 10
-28.151599999999998
 20
55.939
 30
0.0
 10
-28.310400000000001
 20
54.933599999999998
 30
0.0
 10
-28.310400000000001
 20
54.933599999999998
 30
0.0
 10
-29.262899999999998
 20
56.944499999999998
 30
0.0
 10
-30.973800000000001
 20
58.355600000000003
 30
0.0
 10
-32.455500000000001
 20
60.101799999999997
 30
0.0
 10
-32.455500000000001
 20
60.101799999999997
 30
0.0
 10
-35.895099999999999
 20
60.578099999999999
 30
0.0
 10
-35.295400000000001
 20
65.516999999999996
 30
0.0
 10
-38.840800000000002
 20
65.7286
 30
0.0
 10
-38.840800000000002
 20
65.7286
 30
0.0
 10
-42.491999999999997
 20
64.828999999999994
 30
0.0
 10
-45.825800000000001
 20
66.945700000000002
 30
0.0
 10
-48.3658
 20
69.803200000000004
 30
0.0
 10
-48.3658
 20
69.803200000000004
 30
0.0
 10
-50.164900000000003
 20
66.204899999999995
 30
0.0
 10
-53.869100000000003
 20
62.923999999999999
 30
0.0
 10
-57.149900000000002
 20
60.648600000000002
 30
0.0
 10
-57.149900000000002
 20
60.648600000000002
 30
0.0
 10
-61.171599999999998
 20
58.267400000000002
 30
0.0
 10
-63.711599999999997
 20
54.404499999999999
 30
0.0
 10
-64.0291
 20
49.8536
 30
0.0
 10
-64.0291
 20
49.8536
 30
0.0
 10
-65.246200000000002
 20
49.959499999999998
 30
0.0
 10
-65.440200000000004
 20
49.712499999999999
 30
0.0
 10
-67.204099999999997
 20
49.642000000000003
 30
0.0
 10
-67.204099999999997
 20
49.642000000000003
 30
0.0
 10
-71.172899999999998
 20
47.842799999999997
 30
0.0
 10
-76.252899999999997
 20
47.366500000000002
 30
0.0
 10
-80.644900000000007
 20
47.948599999999999
 30
0.0
 10
-80.644900000000007
 20
47.948599999999999
 30
0.0
 10
-80.644900000000007
 20
47.948599999999999
 30
0.0
 10
-79.745400000000004
 20
45.673200000000001
 30
0.0
 10
-79.745400000000004
 20
45.673200000000001
 30
0.0
 10
-79.745400000000004
 20
45.673200000000001
 30
0.0
 10
-78.210800000000006
 20
41.387
 30
0.0
 10
-81.756200000000007
 20
38.5824
 30
0.0
 10
-82.655799999999999
 20
35.036999999999999
 30
0.0
 10
-82.655799999999999
 20
35.036999999999999
 30
0.0
 10
-82.602900000000005
 20
30.962399999999999
 30
0.0
 10
-80.327399999999997
 20
27.8932
 30
0.0
 10
-78.104900000000001
 20
24.7182
 30
0.0
 10
-78.104900000000001
 20
24.7182
 30
0.0
 10
-80.909499999999994
 20
21.8078
 30
0.0
 10
-86.095399999999998
 20
19.5853
 30
0.0
 10
-85.830799999999996
 20
14.928599999999999
 30
0.0
 10
-85.830799999999996
 20
14.928599999999999
 30
0.0
 10
-84.5608
 20
9.7957000000000001
 30
0.0
 10
-81.597399999999993
 20
3.1810999999999998
 30
0.0
 10
-75.564899999999994
 20
2.1227999999999998
 30
0.0
 10
-75.564899999999994
 20
2.1227999999999998
 30
0.0
 10
-72.9191
 20
1.4349000000000001
 30
0.0
 10
-73.395399999999995
 20
-1.4754
 30
0.0
 10
-71.860799999999998
 20
-3.0629
 30
0.0
 10
-71.860799999999998
 20
-3.0629
 30
0.0
 10
-70.273300000000006
 20
-5.2324999999999999
 30
0.0
 10
-67.5745
 20
-4.3329000000000004
 30
0.0
 10
-65.404899999999998
 20
-4.3329000000000004
 30
0.0
 10
-65.404899999999998
 20
-4.3329000000000004
 30
0.0
 10
-63.870399999999997
 20
-5.4970999999999997
 30
0.0
 10
-61.965400000000002
 20
-5.6558999999999999
 30
0.0
 10
-60.219099999999997
 20
-6.2378999999999998
 30
0.0
 10
-60.219099999999997
 20
-6.2378999999999998
 30
0.0
 10
-57.149900000000002
 20
-5.2854000000000001
 30
0.0
 10
-54.504100000000001
 20
-6.9259000000000004
 30
0.0
 10
-51.6995
 20
-7.2962999999999996
 30
0.0
 10
-51.6995
 20
-7.2962999999999996
 30
0.0
 10
-47.572000000000003
 20
-8.1428999999999991
 30
0.0
 10
-45.561199999999999
 20
-3.645
 30
0.0
 10
-41.380800000000001
 20
-4.9679000000000002
 30
0.0
 10
-41.380800000000001
 20
-4.9679000000000002
 30
0.0
 10
-39.951999999999998
 20
-4.1212999999999997
 30
0.0
 10
-38.946599999999997
 20
-2.5337999999999998
 30
0.0
 10
-37.8354
 20
-1.4225000000000001
 30
0.0
 10
-37.8354
 20
-1.4225000000000001
 30
0.0
 10
-37.8354
 20
-1.4225000000000001
 30
0.0
 10
-34.395800000000001
 20
-6.0263
 30
0.0
 10
-34.395800000000001
 20
-6.0263
 30
0.0
 10
-34.395800000000001
 20
-6.0263
 30
0.0
 10
-31.5383
 20
-9.9420999999999999
 30
0.0
 10
-26.987400000000001
 20
-13.328799999999999
 30
0.0
 10
-24.659099999999999
 20
-17.297499999999999
 30
0.0
 10
-24.659099999999999
 20
-17.297499999999999
 30
0.0
 10
-25.929099999999998
 20
-17.032900000000001
 30
0.0
 10
-27.093299999999999
 20
-16.3979
 30
0.0
 10
-28.310400000000001
 20
-15.9217
 30
0.0
 10
-28.310400000000001
 20
-15.9217
 30
0.0
 10
-34.3429
 20
-13.0642
 30
0.0
 10
-42.015799999999999
 20
-14.704599999999999
 30
0.0
 10
-47.624899999999997
 20
-17.297499999999999
 30
0.0
 10
-47.624899999999997
 20
-17.297499999999999
 30
0.0
 10
-49.635800000000003
 20
-17.562100000000001
 30
0.0
 10
-51.8583
 20
-16.821300000000001
 30
0.0
 10
-53.869100000000003
 20
-17.456299999999999
 30
0.0
 10
-53.869100000000003
 20
-17.456299999999999
 30
0.0
 10
-57.996600000000001
 20
-19.625900000000001
 30
0.0
 10
-62.441600000000001
 20
-21.425000000000001
 30
0.0
 10
-65.775400000000005
 20
-25.2879
 30
0.0
 10
-65.775400000000005
 20
-25.2879
 30
0.0
 10
-63.817399999999999
 20
-25.711300000000001
 30
0.0
 10
-61.436199999999999
 20
-25.499600000000001
 30
0.0
 10
-59.7958
 20
-26.452100000000002
 30
0.0
 10
-59.7958
 20
-26.452100000000002
 30
0.0
 10
-62.864899999999999
 20
-28.992100000000001
 30
0.0
 10
-65.404899999999998
 20
-32.008400000000002
 30
0.0
 10
-66.304500000000004
 20
-35.606699999999996
 30
0.0
 10
-66.304500000000004
 20
-35.606699999999996
 30
0.0
 10
-73.289500000000004
 20
-42.644599999999997
 30
0.0
 10
-79.427899999999994
 20
-51.164200000000001
 30
0.0
 10
-88.000399999999999
 20
-55.767899999999997
 30
0.0
 10
-88.000399999999999
 20
-55.767899999999997
 30
0.0
 10
-89.587900000000005
 20
-56.402900000000002
 30
0.0
 10
-92.286600000000007
 20
-55.503399999999999
 30
0.0
 10
-93.715400000000002
 20
-57.0379
 30
0.0
 10
-93.715400000000002
 20
-57.0379
 30
0.0
 10
-94.244500000000002
 20
-59.842500000000001
 30
0.0
 10
-91.969099999999997
 20
-62.064999999999998
 30
0.0
 10
-92.445400000000006
 20
-64.657899999999998
 30
0.0
 10
-92.445400000000006
 20
-64.657899999999998
 30
0.0
 10
-92.445400000000006
 20
-64.657899999999998
 30
0.0
 10
-90.169899999999998
 20
-65.451700000000002
 30
0.0
 10
-90.169899999999998
 20
-65.451700000000002
 30
0.0
 10
-90.169899999999998
 20
-65.451700000000002
 30
0.0
 10
-90.169899999999998
 20
-65.451700000000002
 30
0.0
 10
-89.164500000000004
 20
-67.727099999999993
 30
0.0
 10
-89.164500000000004
 20
-67.727099999999993
 30
0.0
 10
-89.164500000000004
 20
-67.727099999999993
 30
0.0
 10
-89.164500000000004
 20
-67.727099999999993
 30
0.0
 10
-87.100800000000007
 20
-68.097499999999997
 30
0.0
 10
-87.100800000000007
 20
-68.097499999999997
 30
0.0
 10
-87.100800000000007
 20
-68.097499999999997
 30
0.0
 10
-86.465800000000002
 20
-72.436700000000002
 30
0.0
 10
-82.814499999999995
 20
-68.362099999999998
 30
0.0
 10
-80.644900000000007
 20
-69.632099999999994
 30
0.0
 10
-80.644900000000007
 20
-69.632099999999994
 30
0.0
 10
-79.374899999999997
 20
-71.590000000000003
 30
0.0
 10
-77.999099999999999
 20
-69.208799999999997
 30
0.0
 10
-76.570400000000006
 20
-69.261700000000005
 30
0.0
 10
-76.570400000000006
 20
-69.261700000000005
 30
0.0
 10
-76.570400000000006
 20
-69.261700000000005
 30
0.0
 10
-74.400800000000004
 20
-70.372900000000001
 30
0.0
 10
-74.400800000000004
 20
-70.372900000000001
 30
0.0
 10
-74.400800000000004
 20
-70.372900000000001
 30
0.0
 10
-72.848600000000005
 20
-71.084699999999998
 30
0.0
 10
-71.907799999999995
 20
-69.555999999999997
 30
0.0
 10
-72.554599999999994
 20
-68.144900000000007
 30
0.0
 10
-72.554599999999994
 20
-68.144900000000007
 30
0.0
 10
-73.142499999999998
 20
-66.087000000000003
 30
0.0
 10
-73.024900000000002
 20
-63.176299999999998
 30
0.0
 10
-72.284099999999995
 20
-60.847900000000003
 30
0.0
 10
-72.284099999999995
 20
-60.847900000000003
 30
0.0
 10
-66.939499999999995
 20
-51.799199999999999
 30
0.0
 10
-59.7958
 20
-43.438400000000001
 30
0.0
 10
-53.340000000000003
 20
-34.812899999999999
 30
0.0
 10
-53.340000000000003
 20
-34.812899999999999
 30
0.0
 10
-53.340000000000003
 20
-34.812899999999999
 30
0.0
 10
-48.8949
 20
-31.267499999999998
 30
0.0
 10
-48.8949
 20
-31.267499999999998
 30
0.0
 10
-48.8949
 20
-31.267499999999998
 30
0.0
 10
-48.048299999999998
 20
-35.712499999999999
 30
0.0
 10
-50.747
 20
-40.157499999999999
 30
0.0
 10
-51.540799999999997
 20
-43.861699999999999
 30
0.0
 10
-51.540799999999997
 20
-43.861699999999999
 30
0.0
 10
-51.540799999999997
 20
-43.861699999999999
 30
0.0
 10
-42.392099999999999
 20
-40.569400000000002
 30
0.0
 10
-43.038800000000002
 20
-27.810600000000001
 30
0.0
 10
-43.038800000000002
 20
-27.810600000000001
 30
0.0
 10
-43.038800000000002
 20
-27.810600000000001
 30
0.0
 10
-37.864800000000002
 20
-28.104600000000001
 30
0.0
 10
-32.014499999999998
 20
-26.981300000000001
 30
0.0
 10
-32.014499999999998
 20
-26.981300000000001
 30
0.0
 10
-30.797499999999999
 20
-28.462900000000001
 30
0.0
 10
-29.950800000000001
 20
-30.2621
 30
0.0
 10
-28.310400000000001
 20
-31.5321
 30
0.0
 10
-28.310400000000001
 20
-31.5321
 30
0.0
 10
-31.273700000000002
 20
-33.701700000000002
 30
0.0
 10
-34.448700000000002
 20
-35.924199999999999
 30
0.0
 10
-36.829999999999998
 20
-38.887500000000003
 30
0.0
 10
-36.829999999999998
 20
-38.887500000000003
 30
0.0
 10
-43.0212
 20
-47.936300000000003
 30
0.0
 10
-36.988700000000001
 20
-58.572499999999998
 30
0.0
 10
-33.655000000000001
 20
-66.9863
 30
0.0
 10
-33.655000000000001
 20
-66.9863
 30
0.0
 10
-32.543700000000001
 20
-71.113799999999998
 30
0.0
 10
-33.601999999999997
 20
-75.611699999999999
 30
0.0
 10
-33.655000000000001
 20
-79.897900000000007
 30
0.0
 10
-33.655000000000001
 20
-79.897900000000007
 30
0.0
 10
-26.722899999999999
 20
-74.235900000000001
 30
0.0
 10
-19.5791
 20
-69.155900000000003
 30
0.0
 10
-11.0595
 20
-67.356700000000004
 30
0.0
 10
-11.0595
 20
-67.356700000000004
 30
0.0
 10
-5.3975
 20
-65.3459
 30
0.0
 10
-0.7937
 20
-59.448900000000002
 30
0.0
 10
1.5874999999999999
 20
-54.210099999999997
 30
0.0
 10
1.5874999999999999
 20
-54.210099999999997
 30
0.0
 10
1.5874999999999999
 20
-54.210099999999997
 30
0.0
 10
5.8208000000000002
 20
-57.326300000000003
 30
0.0
 10
12.876300000000001
 20
-56.268000000000001
 30
0.0
 10
12.876300000000001
 20
-56.268000000000001
 30
0.0
 10
20.754999999999999
 20
-55.503599999999999
 30
0.0
 10
26.722899999999999
 20
-55.715000000000003
 30
0.0
 10
32.014499999999998
 20
-59.842500000000001
 30
0.0
 10
32.014499999999998
 20
-59.842500000000001
 30
0.0
 10
32.014499999999998
 20
-59.842500000000001
 30
0.0
 10
31.855799999999999
 20
-55.397500000000001
 30
0.0
 10
31.855799999999999
 20
-55.397500000000001
 30
0.0
 10
31.855799999999999
 20
-55.397500000000001
 30
0.0
 10
32.2791
 20
-48.253799999999998
 30
0.0
 10
24.976600000000001
 20
-44.284999999999997
 30
0.0
 10
20.584499999999998
 20
-39.787100000000002
 30
0.0
 10
20.584499999999998
 20
-39.787100000000002
 30
0.0
 10
25.6645
 20
-39.204999999999998
 30
0.0
 10
31.062000000000001
 20
-39.363799999999998
 30
0.0
 10
35.8245
 20
-39.152099999999997
 30
0.0
 10
35.8245
 20
-39.152099999999997
 30
0.0
 10
33.549100000000003
 20
-35.130400000000002
 30
0.0
 10
29.950800000000001
 20
-31.637899999999998
 30
0.0
 10
27.410799999999998
 20
-27.722100000000001
 30
0.0
 10
27.410799999999998
 20
-27.722100000000001
 30
0.0
 10
26.7758
 20
-27.192900000000002
 30
0.0
 10
25.929099999999998
 20
-26.716699999999999
 30
0.0
 10
26.299499999999998
 20
-25.8171
 30
0.0
 10
26.299499999999998
 20
-25.8171
 30
0.0
 10
27.463699999999999
 20
-26.081700000000001
 30
0.0
 10
28.680800000000001
 20
-26.346299999999999
 30
0.0
 10
29.844999999999999
 20
-26.5579
 30
0.0
 10
29.844999999999999
 20
-26.5579
 30
0.0
 10
33.972499999999997
 20
-29.944600000000001
 30
0.0
 10
37.570799999999998
 20
-34.548400000000001
 30
0.0
 10
41.1691
 20
-38.517099999999999
 30
0.0
 10
41.1691
 20
-38.517099999999999
 30
0.0
 10
41.856999999999999
 20
-36.030000000000001
 30
0.0
 10
41.380800000000001
 20
-33.437100000000001
 30
0.0
 10
41.539499999999997
 20
-30.897099999999998
 30
0.0
 10
41.539499999999997
 20
-30.897099999999998
 30
0.0
 10
41.539499999999997
 20
-30.897099999999998
 30
0.0
 10
47.2545
 20
-30.897099999999998
 30
0.0
 10
47.2545
 20
-30.897099999999998
 30
0.0
 10
47.2545
 20
-30.897099999999998
 30
0.0
 10
50.323700000000002
 20
-30.526700000000002
 30
0.0
 10
53.392899999999997
 20
-29.732900000000001
 30
0.0
 10
56.144500000000001
 20
-28.727499999999999
 30
0.0
 10
56.144500000000001
 20
-28.727499999999999
 30
0.0
 10
56.144500000000001
 20
-28.727499999999999
 30
0.0
 10
55.985799999999998
 20
-28.727499999999999
 30
0.0
 10
55.985799999999998
 20
-28.727499999999999
 30
0.0
 10
55.985799999999998
 20
-28.727499999999999
 30
0.0
 10
52.704900000000002
 20
-25.6584
 30
0.0
 10
49.053699999999999
 20
-21.901299999999999
 30
0.0
 10
44.714500000000001
 20
-20.4725
 30
0.0
 10
44.714500000000001
 20
-20.4725
 30
0.0
 10
45.667000000000002
 20
-17.985399999999998
 30
0.0
 10
46.037399999999998
 20
-15.074999999999999
 30
0.0
 10
45.825800000000001
 20
-12.217499999999999
 30
0.0
 10
45.825800000000001
 20
-12.217499999999999
 30
0.0
 10
45.825800000000001
 20
-12.217499999999999
 30
0.0
 10
40.534100000000002
 20
-15.216100000000001
 30
0.0
 10
40.534100000000002
 20
-15.216100000000001
 30
0.0
 10
40.534100000000002
 20
-15.216100000000001
 30
0.0
 10
40.534100000000002
 20
-15.216100000000001
 30
0.0
 10
39.934399999999997
 20
-15.551299999999999
 30
0.0
 10
39.934399999999997
 20
-15.551299999999999
 30
0.0
 10
39.934399999999997
 20
-15.551299999999999
 30
0.0
 10
39.934399999999997
 20
-15.551299999999999
 30
0.0
 10
39.634500000000003
 20
-15.8688
 30
0.0
 10
39.264099999999999
 20
-16.0275
 30
0.0
 10
39.264099999999999
 20
-16.0275
 30
0.0
 10
38.046999999999997
 20
-13.9109
 30
0.0
 10
36.7241
 20
-11.6884
 30
0.0
 10
34.819099999999999
 20
-9.9420999999999999
 30
0.0
 10
34.819099999999999
 20
-9.9420999999999999
 30
0.0
 10
33.601999999999997
 20
-12.0588
 30
0.0
 10
32.332000000000001
 20
-14.1225
 30
0.0
 10
31.220800000000001
 20
-16.292100000000001
 30
0.0
 10
31.220800000000001
 20
-16.292100000000001
 30
0.0
 10
30.162400000000002
 20
-17.667899999999999
 30
0.0
 10
29.474499999999999
 20
-19.7317
 30
0.0
 10
27.569500000000001
 20
-20.207899999999999
 30
0.0
 10
27.569500000000001
 20
-20.207899999999999
 30
0.0
 10
21.748699999999999
 20
-20.525400000000001
 30
0.0
 10
15.6633
 20
-20.737100000000002
 30
0.0
 10
10.0541
 20
-20.207899999999999
 30
0.0
 10
10.0541
 20
-20.207899999999999
 30
0.0
 10
10.212899999999999
 20
-19.572900000000001
 30
0.0
 10
10.3187
 20
-18.832100000000001
 30
0.0
 10
10.795
 20
-18.302900000000001
 30
0.0
 10
10.795
 20
-18.302900000000001
 30
0.0
 10
14.816599999999999
 20
-16.927099999999999
 30
0.0
 10
16.827400000000001
 20
-12.6409
 30
0.0
 10
19.790800000000001
 20
-9.8362999999999996
 30
0.0
 10
19.790800000000001
 20
-9.8362999999999996
 30
0.0
 10
26.140799999999999
 20
-5.9733999999999998
 30
0.0
 10
34.713299999999997
 20
-7.6666999999999996
 30
0.0
 10
42.2804
 20
-6.8728999999999996
 30
0.0
 10
42.2804
 20
-6.8728999999999996
 30
0.0
 10
42.2804
 20
-6.8728999999999996
 30
0.0
 10
31.3795
 20
-0.0467
 30
0.0
 10
31.3795
 20
-0.0467
 30
0.0
 10
31.3795
 20
-0.0467
 30
0.0
 10
36.618299999999998
 20
1.5407
 30
0.0
 10
42.121600000000001
 20
2.5461
 30
0.0
 10
47.624899999999997
 20
3.4986000000000002
 30
0.0
 10
47.624899999999997
 20
3.4986000000000002
 30
0.0
 10
44.238300000000002
 20
5.2449000000000003
 30
0.0
 10
39.816800000000001
 20
5.9443000000000001
 30
0.0
 10
36.218499999999999
 20
7.0555000000000003
 30
0.0
 10
36.218499999999999
 20
7.0555000000000003
 30
0.0
 10
39.981400000000001
 20
8.5253999999999994
 30
0.0
 10
44.979100000000003
 20
12.0532
 30
0.0
 10
50.164900000000003
 20
14.082000000000001
 30
0.0
 10
50.164900000000003
 20
14.082000000000001
 30
0.0
 10
54.821599999999997
 20
11.330299999999999
 30
0.0
 10
55.209699999999998
 20
6.3208000000000002
 30
0.0
 10
59.160800000000002
 20
2.4931999999999999
 30
0.0
 10
59.160800000000002
 20
2.4931999999999999
 30
0.0
 10
62.000599999999999
 20
-0.3818
 30
0.0
 10
65.669499999999999
 20
-1.8988
 30
0.0
 10
69.479500000000002
 20
-0.9463
 30
0.0
 10
69.479500000000002
 20
-0.9463
 30
0.0
 10
72.707499999999996
 20
-0.8404
 30
0.0
 10
74.965199999999996
 20
2.5282
 30
0.0
 10
75.259200000000007
 20
3.8216999999999999
 30
0.0
 10
75.259200000000007
 20
3.8216999999999999
 30
0.0
 10
75.729600000000005
 20
6.1147999999999998
 30
0.0
 10
76.676199999999994
 20
6.5678000000000001
 30
0.0
 10
77.364099999999993
 20
7.3086000000000002
 30
0.0
 10
77.364099999999993
 20
7.3086000000000002
 30
0.0
 10
82.602900000000005
 20
9.6898999999999997
 30
0.0
 10
90.540400000000005
 20
5.774
 30
0.0
 10
93.609499999999997
 20
12.177
 30
0.0
 10
93.609499999999997
 20
12.177
 30
0.0
 10
94.350399999999993
 20
16.0928
 30
0.0
 10
91.175399999999996
 20
18.791499999999999
 30
0.0
 10
88.529499999999999
 20
21.543199999999999
 30
0.0
  0
SPLINE
  5
26
100
AcDbEntity
  8
RÚteg 1
100
AcDbSpline
210
0.0
220
0.0
230
1.0
 70
     1
 71
     3
 72
    16
 73
    12
 74
     0
 42
0.0000000001
 43
0.0000000001
 40
0.0
 40
0.0
 40
0.0
 40
0.0
 40
0.3333333333333333
 40
0.3333333333333333
 40
0.3333333333333333
 40
0.3333333333333333
 40
0.6666666666666666
 40
0.6666666666666666
 40
0.6666666666666666
 40
0.6666666666666666
 40
1.0
 40
1.0
 40
1.0
 40
1.0
 10
73.659899999999993
 20
46.943199999999997
 30
0.0
 10
76.964299999999994
 20
45.390700000000002
 30
0.0
 10
69.614800000000002
 20
35.218899999999998
 30
0.0
 10
65.510800000000003
 20
32.602800000000002
 30
0.0
 10
65.510800000000003
 20
32.602800000000002
 30
0.0
 10
65.510800000000003
 20
32.602800000000002
 30
0.0
 10
65.034499999999994
 20
33.131999999999998
 30
0.0
 10
65.034499999999994
 20
33.131999999999998
 30
0.0
 10
65.034499999999994
 20
33.131999999999998
 30
0.0
 10
68.2624
 20
37.576999999999998
 30
0.0
 10
72.813299999999998
 20
41.492800000000003
 30
0.0
 10
73.659899999999993
 20
46.943199999999997
 30
0.0
  0
SPLINE
  5
27
100
AcDbEntity
  8
RÚteg 1
100
AcDbSpline
210
0.0
220
0.0
230
1.0
 70
     1
 71
     3
 72
    16
 73
    12
 74
     0
 42
0.0000000001
 43
0.0000000001
 40
0.0
 40
0.0
 40
0.0
 40
0.0
 40
0.3333333333333333
 40
0.3333333333333333
 40
0.3333333333333333
 40
0.3333333333333333
 40
0.6666666666666666
 40
0.6666666666666666
 40
0.6666666666666666
 40
0.6666666666666666
 40
1.0
 40
1.0
 40
1.0
 40
1.0
 10
60.430799999999998
 20
30.433199999999999
 30
0.0
 10
59.742899999999999
 20
30.962399999999999
 30
0.0
 10
58.296500000000002
 20
31.456299999999999
 30
0.0
 10
58.525799999999997
 20
32.497
 30
0.0
 10
58.525799999999997
 20
32.497
 30
0.0
 10
59.707599999999999
 20
33.043799999999997
 30
0.0
 10
60.589500000000001
 20
32.761499999999998
 30
0.0
 10
61.489100000000001
 20
31.9678
 30
0.0
 10
61.489100000000001
 20
31.9678
 30
0.0
 10
61.6479
 20
31.191700000000001
 30
0.0
 10
61.295099999999998
 20
30.927099999999999
 30
0.0
 10
60.430799999999998
 20
30.433199999999999
 30
0.0
  0
SPLINE
  5
28
100
AcDbEntity
  8
RÚteg 1
100
AcDbSpline
210
0.0
220
0.0
230
1.0
 70
     1
 71
     3
 72
    20
 73
    16
 74
     0
 42
0.0000000001
 43
0.0000000001
 40
0.0
 40
0.0
 40
0.0
 40
0.0
 40
0.25
 40
0.25
 40
0.25
 40
0.25
 40
0.5
 40
0.5
 40
0.5
 40
0.5
 40
0.75
 40
0.75
 40
0.75
 40
0.75
 40
1.0
 40
1.0
 40
1.0
 40
1.0
 10
59.7958
 20
35.883600000000001
 30
0.0
 10
59.901600000000002
 20
35.0899
 30
0.0
 10
59.372500000000002
 20
34.560699999999997
 30
0.0
 10
58.949100000000001
 20
33.9786
 30
0.0
 10
58.949100000000001
 20
33.9786
 30
0.0
 10
57.890799999999999
 20
33.502400000000002
 30
0.0
 10
56.797199999999997
 20
34.807699999999997
 30
0.0
 10
56.514899999999997
 20
35.248600000000003
 30
0.0
 10
56.514899999999997
 20
35.248600000000003
 30
0.0
 10
56.673699999999997
 20
35.724899999999998
 30
0.0
 10
56.938299999999998
 20
36.201099999999997
 30
0.0
 10
57.414499999999997
 20
36.412799999999997
 30
0.0
 10
57.414499999999997
 20
36.412799999999997
 30
0.0
 10
58.261200000000002
 20
36.836100000000002
 30
0.0
 10
59.266599999999997
 20
36.836100000000002
 30
0.0
 10
59.7958
 20
35.883600000000001
 30
0.0
  0
SPLINE
  5
29
100
AcDbEntity
  8
RÚteg 1
100
AcDbSpline
210
0.0
220
0.0
230
1.0
 70
     1
 71
     3
 72
    28
 73
    24
 74
     0
 42
0.0000000001
 43
0.0000000001
 40
0.0
 40
0.0
 40
0.0
 40
0.0
 40
0.1666666666666667
 40
0.1666666666666667
 40
0.1666666666666667
 40
0.1666666666666667
 40
0.3333333333333333
 40
0.3333333333333333
 40
0.3333333333333333
 40
0.3333333333333333
 40
0.5
 40
0.5
 40
0.5
 40
0.5
 40
0.6666666666666666
 40
0.6666666666666666
 40
0.6666666666666666
 40
0.6666666666666666
 40
0.8333333333333333
 40
0.8333333333333333
 40
0.8333333333333333
 40
0.8333333333333333
 40
1.0
 40
1.0
 40
1.0
 40
1.0
 10
42.650799999999997
 20
58.637799999999999
 30
0.0
 10
48.471600000000002
 20
57.156100000000002
 30
0.0
 10
55.721200000000003
 20
53.134500000000003
 30
0.0
 10
57.255800000000001
 20
46.466999999999999
 30
0.0
 10
57.255800000000001
 20
46.466999999999999
 30
0.0
 10
57.679099999999998
 20
43.238999999999997
 30
0.0
 10
56.561999999999998
 20
40.451799999999999
 30
0.0
 10
54.504100000000001
 20
38.158799999999999
 30
0.0
 10
54.504100000000001
 20
38.158799999999999
 30
0.0
 10
54.3277
 20
38.158799999999999
 30
0.0
 10
54.033799999999999
 20
37.9236
 30
0.0
 10
53.445799999999998
 20
38.217500000000001
 30
0.0
 10
53.445799999999998
 20
38.217500000000001
 30
0.0
 10
55.444899999999997
 20
41.098599999999998
 30
0.0
 10
56.885399999999997
 20
46.149500000000003
 30
0.0
 10
54.874499999999998
 20
49.1128
 30
0.0
 10
54.874499999999998
 20
49.1128
 30
0.0
 10
51.911200000000001
 20
53.610700000000001
 30
0.0
 10
46.831200000000003
 20
55.1982
 30
0.0
 10
42.650799999999997
 20
58.002800000000001
 30
0.0
 10
42.650799999999997
 20
58.002800000000001
 30
0.0
 10
42.650799999999997
 20
58.002800000000001
 30
0.0
 10
42.650799999999997
 20
58.637799999999999
 30
0.0
 10
42.650799999999997
 20
58.637799999999999
 30
0.0
  0
SPLINE
  5
2A
100
AcDbEntity
  8
RÚteg 1
100
AcDbSpline
210
0.0
220
0.0
230
1.0
 70
     1
 71
     3
 72
    24
 73
    20
 74
     0
 42
0.0000000001
 43
0.0000000001
 40
0.0
 40
0.0
 40
0.0
 40
0.0
 40
0.2
 40
0.2
 40
0.2
 40
0.2
 40
0.4
 40
0.4
 40
0.4
 40
0.4
 40
0.6000000000000001
 40
0.6000000000000001
 40
0.6000000000000001
 40
0.6000000000000001
 40
0.8
 40
0.8
 40
0.8
 40
0.8
 40
1.0
 40
1.0
 40
1.0
 40
1.0
 10
32.649500000000003
 20
53.293199999999999
 30
0.0
 10
35.506999999999998
 20
52.182000000000002
 30
0.0
 10
38.205800000000004
 20
50.118200000000002
 30
0.0
 10
40.375399999999999
 20
47.948599999999999
 30
0.0
 10
40.375399999999999
 20
47.948599999999999
 30
0.0
 10
40.375399999999999
 20
47.948599999999999
 30
0.0
 10
49.000799999999998
 20
38.053199999999997
 30
0.0
 10
49.000799999999998
 20
38.053199999999997
 30
0.0
 10
49.000799999999998
 20
38.053199999999997
 30
0.0
 10
42.333300000000001
 20
42.8157
 30
0.0
 10
36.882899999999999
 20
50.435699999999997
 30
0.0
 10
29.104099999999999
 20
52.393599999999999
 30
0.0
 10
29.104099999999999
 20
52.393599999999999
 30
0.0
 10
26.5641
 20
52.975700000000003
 30
0.0
 10
25.029499999999999
 20
53.875300000000003
 30
0.0
 10
22.3308
 20
54.087000000000003
 30
0.0
 10
22.3308
 20
54.087000000000003
 30
0.0
 10
25.505800000000001
 20
56.044899999999998
 30
0.0
 10
29.262899999999998
 20
53.663600000000002
 30
0.0
 10
32.649500000000003
 20
53.293199999999999
 30
0.0
  0
SPLINE
  5
2B
100
AcDbEntity
  8
RÚteg 1
100
AcDbSpline
210
0.0
220
0.0
230
1.0
 70
     1
 71
     3
 72
    60
 73
    56
 74
     0
 42
0.0000000001
 43
0.0000000001
 40
0.0
 40
0.0
 40
0.0
 40
0.0
 40
0.0714285714285714
 40
0.0714285714285714
 40
0.0714285714285714
 40
0.0714285714285714
 40
0.1428571428571429
 40
0.1428571428571429
 40
0.1428571428571429
 40
0.1428571428571429
 40
0.2142857142857143
 40
0.2142857142857143
 40
0.2142857142857143
 40
0.2142857142857143
 40
0.2857142857142857
 40
0.2857142857142857
 40
0.2857142857142857
 40
0.2857142857142857
 40
0.3571428571428571
 40
0.3571428571428571
 40
0.3571428571428571
 40
0.3571428571428571
 40
0.4285714285714285
 40
0.4285714285714285
 40
0.4285714285714285
 40
0.4285714285714285
 40
0.4999999999999999
 40
0.4999999999999999
 40
0.4999999999999999
 40
0.4999999999999999
 40
0.5714285714285713
 40
0.5714285714285713
 40
0.5714285714285713
 40
0.5714285714285713
 40
0.6428571428571427
 40
0.6428571428571427
 40
0.6428571428571427
 40
0.6428571428571427
 40
0.7142857142857141
 40
0.7142857142857141
 40
0.7142857142857141
 40
0.7142857142857141
 40
0.7857142857142855
 40
0.7857142857142855
 40
0.7857142857142855
 40
0.7857142857142855
 40
0.8571428571428569
 40
0.8571428571428569
 40
0.8571428571428569
 40
0.8571428571428569
 40
0.9285714285714283
 40
0.9285714285714283
 40
0.9285714285714283
 40
0.9285714285714283
 40
1.0
 40
1.0
 40
1.0
 40
1.0
 10
14.4991
 20
54.087000000000003
 30
0.0
 10
19.896599999999999
 20
49.694899999999997
 30
0.0
 10
21.854500000000002
 20
43.7682
 30
0.0
 10
22.4895
 20
37.312399999999997
 30
0.0
 10
22.4895
 20
37.312399999999997
 30
0.0
 10
22.9129
 20
30.8565
 30
0.0
 10
29.739100000000001
 20
27.840299999999999
 30
0.0
 10
34.289900000000003
 20
24.982800000000001
 30
0.0
 10
34.289900000000003
 20
24.982800000000001
 30
0.0
 10
27.093299999999999
 20
18.738600000000002
 30
0.0
 10
21.007899999999999
 20
10.748200000000001
 30
0.0
 10
15.345800000000001
 20
3.7631999999999999
 30
0.0
 10
15.345800000000001
 20
3.7631999999999999
 30
0.0
 10
15.0518
 20
6.1147999999999998
 30
0.0
 10
14.875400000000001
 20
11.053599999999999
 30
0.0
 10
15.345800000000001
 20
14.452400000000001
 30
0.0
 10
15.345800000000001
 20
14.452400000000001
 30
0.0
 10
15.6104
 20
19.5853
 30
0.0
 10
14.1816
 20
25.247399999999999
 30
0.0
 10
16.139500000000002
 20
29.798200000000001
 30
0.0
 10
16.139500000000002
 20
29.798200000000001
 30
0.0
 10
16.139500000000002
 20
29.798200000000001
 30
0.0
 10
13.8171
 20
29.515699999999999
 30
0.0
 10
13.8171
 20
29.515699999999999
 30
0.0
 10
13.8171
 20
29.515699999999999
 30
0.0
 10
8.7018000000000004
 20
26.6935
 30
0.0
 10
4.7095000000000002
 20
25.806000000000001
 30
0.0
 10
4.7095000000000002
 20
25.806000000000001
 30
0.0
 10
4.7095000000000002
 20
25.806000000000001
 30
0.0
 10
4.5273000000000003
 20
25.8703
 30
0.0
 10
4.7095000000000002
 20
26.305700000000002
 30
0.0
 10
4.7095000000000002
 20
26.887799999999999
 30
0.0
 10
4.7095000000000002
 20
26.887799999999999
 30
0.0
 10
6.5616000000000003
 20
35.0899
 30
0.0
 10
5.9794999999999998
 20
44.403199999999998
 30
0.0
 10
12.0649
 20
50.7532
 30
0.0
 10
12.0649
 20
50.7532
 30
0.0
 10
14.075799999999999
 20
49.3245
 30
0.0
 10
14.552
 20
45.990699999999997
 30
0.0
 10
17.409500000000001
 20
45.4086
 30
0.0
 10
17.409500000000001
 20
45.4086
 30
0.0
 10
18.0975
 20
45.143999999999998
 30
0.0
 10
18.891200000000001
 20
45.143999999999998
 30
0.0
 10
19.5791
 20
44.773600000000002
 30
0.0
 10
19.5791
 20
44.773600000000002
 30
0.0
 10
18.414899999999999
 20
48.372
 30
0.0
 10
14.9754
 20
51.335299999999997
 30
0.0
 10
12.699999999999999
 20
54.563200000000002
 30
0.0
 10
12.699999999999999
 20
54.563200000000002
 30
0.0
 10
12.9939
 20
56.326799999999999
 30
0.0
 10
22.342500000000001
 20
59.442999999999998
 30
0.0
 10
25.505800000000001
 20
58.108600000000003
 30
0.0
 10
25.505800000000001
 20
58.108600000000003
 30
0.0
 10
21.801600000000001
 20
57.156100000000002
 30
0.0
 10
17.8858
 20
56.150700000000001
 30
0.0
 10
14.4991
 20
54.087000000000003
 30
0.0
  0
SPLINE
  5
2C
100
AcDbEntity
  8
RÚteg 1
100
AcDbSpline
210
0.0
220
0.0
230
1.0
 70
     1
 71
     3
 72
    20
 73
    16
 74
     0
 42
0.0000000001
 43
0.0000000001
 40
0.0
 40
0.0
 40
0.0
 40
0.0
 40
0.25
 40
0.25
 40
0.25
 40
0.25
 40
0.5
 40
0.5
 40
0.5
 40
0.5
 40
0.75
 40
0.75
 40
0.75
 40
0.75
 40
1.0
 40
1.0
 40
1.0
 40
1.0
 10
38.840800000000002
 20
19.3736
 30
0.0
 10
37.623699999999999
 20
17.468599999999999
 30
0.0
 10
35.087899999999998
 20
15.769399999999999
 30
0.0
 10
33.020000000000003
 20
14.2936
 30
0.0
 10
33.020000000000003
 20
14.2936
 30
0.0
 10
29.015899999999998
 20
11.4361
 30
0.0
 10
24.870799999999999
 20
7.2027999999999999
 30
0.0
 10
20.584499999999998
 20
4.2923999999999998
 30
0.0
 10
20.584499999999998
 20
4.2923999999999998
 30
0.0
 10
20.584499999999998
 20
4.2923999999999998
 30
0.0
 10
20.214099999999998
 20
4.6627999999999998
 30
0.0
 10
20.214099999999998
 20
4.6627999999999998
 30
0.0
 10
20.214099999999998
 20
4.6627999999999998
 30
0.0
 10
23.577300000000001
 20
9.9953000000000003
 30
0.0
 10
38.840800000000002
 20
19.3736
 30
0.0
 10
38.840800000000002
 20
19.3736
 30
0.0
  0
SPLINE
  5
2D
100
AcDbEntity
  8
RÚteg 1
100
AcDbSpline
210
0.0
220
0.0
230
1.0
 70
     1
 71
     3
 72
    36
 73
    32
 74
     0
 42
0.0000000001
 43
0.0000000001
 40
0.0
 40
0.0
 40
0.0
 40
0.0
 40
0.125
 40
0.125
 40
0.125
 40
0.125
 40
0.25
 40
0.25
 40
0.25
 40
0.25
 40
0.375
 40
0.375
 40
0.375
 40
0.375
 40
0.5
 40
0.5
 40
0.5
 40
0.5
 40
0.625
 40
0.625
 40
0.625
 40
0.625
 40
0.75
 40
0.75
 40
0.75
 40
0.75
 40
0.875
 40
0.875
 40
0.875
 40
0.875
 40
1.0
 40
1.0
 40
1.0
 40
1.0
 10
12.699999999999999
 20
11.0128
 30
0.0
 10
12.699999999999999
 20
11.0128
 30
0.0
 10
12.594099999999999
 20
11.0128
 30
0.0
 10
12.594099999999999
 20
11.0128
 30
0.0
 10
12.594099999999999
 20
11.0128
 30
0.0
 10
11.3241
 20
11.700699999999999
 30
0.0
 10
9.8954000000000004
 20
12.759
 30
0.0
 10
8.5195000000000007
 20
13.446999999999999
 30
0.0
 10
8.5195000000000007
 20
13.446999999999999
 30
0.0
 10
8.5195000000000007
 20
10.0603
 30
0.0
 10
10.583299999999999
 20
6.8323999999999998
 30
0.0
 10
9.6308000000000007
 20
3.3927999999999998
 30
0.0
 10
9.6308000000000007
 20
3.3927999999999998
 30
0.0
 10
8.6783000000000001
 20
0.694
 30
0.0
 10
7.1966000000000001
 20
-1.74
 30
0.0
 10
5.0800000000000001
 20
-3.9624999999999999
 30
0.0
 10
5.0800000000000001
 20
-3.9624999999999999
 30
0.0
 10
5.0800000000000001
 20
-3.9624999999999999
 30
0.0
 10
1.7990999999999999
 20
0.4824
 30
0.0
 10
1.7990999999999999
 20
0.4824
 30
0.0
 10
1.7990999999999999
 20
0.4824
 30
0.0
 10
2.7515999999999998
 20
6.8323999999999998
 30
0.0
 10
4.0744999999999996
 20
13.0236
 30
0.0
 10
8.7841000000000005
 20
17.891999999999999
 30
0.0
 10
8.7841000000000005
 20
17.891999999999999
 30
0.0
 10
8.7841000000000005
 20
17.891999999999999
 30
0.0
 10
11.959099999999999
 20
21.913599999999999
 30
0.0
 10
11.959099999999999
 20
21.913599999999999
 30
0.0
 10
11.959099999999999
 20
21.913599999999999
 30
0.0
 10
13.1233
 20
18.685700000000001
 30
0.0
 10
12.5412
 20
14.558199999999999
 30
0.0
 10
12.699999999999999
 20
11.0128
 30
0.0
  0
SPLINE
  5
2E
100
AcDbEntity
  8
RÚteg 1
100
AcDbSpline
210
0.0
220
0.0
230
1.0
 70
     1
 71
     3
 72
    28
 73
    24
 74
     0
 42
0.0000000001
 43
0.0000000001
 40
0.0
 40
0.0
 40
0.0
 40
0.0
 40
0.1666666666666667
 40
0.1666666666666667
 40
0.1666666666666667
 40
0.1666666666666667
 40
0.3333333333333333
 40
0.3333333333333333
 40
0.3333333333333333
 40
0.3333333333333333
 40
0.5
 40
0.5
 40
0.5
 40
0.5
 40
0.6666666666666666
 40
0.6666666666666666
 40
0.6666666666666666
 40
0.6666666666666666
 40
0.8333333333333333
 40
0.8333333333333333
 40
0.8333333333333333
 40
0.8333333333333333
 40
1.0
 40
1.0
 40
1.0
 40
1.0
 10
-11.5358
 20
-18.302900000000001
 30
0.0
 10
-13.335000000000001
 20
-16.821300000000001
 30
0.0
 10
-13.3879
 20
-14.44
 30
0.0
 10
-13.705399999999999
 20
-12.217499999999999
 30
0.0
 10
-13.705399999999999
 20
-12.217499999999999
 30
0.0
 10
-13.705399999999999
 20
-12.217499999999999
 30
0.0
 10
-11.8004
 20
4.3982000000000001
 30
0.0
 10
-11.8004
 20
4.3982000000000001
 30
0.0
 10
-11.8004
 20
4.3982000000000001
 30
0.0
 10
-7.4082999999999997
 20
-1.6871
 30
0.0
 10
-4.4450000000000003
 20
-8.3545999999999996
 30
0.0
 10
-1.7990999999999999
 20
-15.1279
 30
0.0
 10
-1.7990999999999999
 20
-15.1279
 30
0.0
 10
-0.0529
 20
-17.456299999999999
 30
0.0
 10
-2.3283
 20
-19.7317
 30
0.0
 10
-2.2753999999999999
 20
-22.1129
 30
0.0
 10
-2.2753999999999999
 20
-22.1129
 30
0.0
 10
-2.2753999999999999
 20
-22.1129
 30
0.0
 10
-2.8045
 20
-24.5471
 30
0.0
 10
-2.8045
 20
-24.5471
 30
0.0
 10
-2.8045
 20
-24.5471
 30
0.0
 10
-5.6090999999999998
 20
-22.165900000000001
 30
0.0
 10
-8.2550000000000008
 20
-19.467099999999999
 30
0.0
 10
-11.5358
 20
-18.302900000000001
 30
0.0
  0
SPLINE
  5
2F
100
AcDbEntity
  8
RÚteg 1
100
AcDbSpline
210
0.0
220
0.0
230
1.0
 70
     1
 71
     3
 72
    24
 73
    20
 74
     0
 42
0.0000000001
 43
0.0000000001
 40
0.0
 40
0.0
 40
0.0
 40
0.0
 40
0.2
 40
0.2
 40
0.2
 40
0.2
 40
0.4
 40
0.4
 40
0.4
 40
0.4
 40
0.6000000000000001
 40
0.6000000000000001
 40
0.6000000000000001
 40
0.6000000000000001
 40
0.8
 40
0.8
 40
0.8
 40
0.8
 40
1.0
 40
1.0
 40
1.0
 40
1.0
 10
-4.0744999999999996
 20
-27.986699999999999
 30
0.0
 10
-8.7841000000000005
 20
-24.494199999999999
 30
0.0
 10
-15.6633
 20
-26.822500000000002
 30
0.0
 10
-20.8491
 20
-26.346299999999999
 30
0.0
 10
-20.8491
 20
-26.346299999999999
 30
0.0
 10
-23.336200000000002
 20
-25.922899999999998
 30
0.0
 10
-25.6645
 20
-25.129200000000001
 30
0.0
 10
-27.834099999999999
 20
-23.912099999999999
 30
0.0
 10
-27.834099999999999
 20
-23.912099999999999
 30
0.0
 10
-26.4054
 20
-23.382899999999999
 30
0.0
 10
-24.500399999999999
 20
-23.4359
 30
0.0
 10
-22.965800000000002
 20
-22.906700000000001
 30
0.0
 10
-22.965800000000002
 20
-22.906700000000001
 30
0.0
 10
-19.632000000000001
 20
-22.165900000000001
 30
0.0
 10
-13.4055
 20
-19.402699999999999
 30
0.0
 10
-7.7257999999999996
 20
-23.8063
 30
0.0
 10
-7.7257999999999996
 20
-23.8063
 30
0.0
 10
-6.056
 20
-25.106000000000002
 30
0.0
 10
-5.0564
 20
-26.340699999999998
 30
0.0
 10
-4.0744999999999996
 20
-27.986699999999999
 30
0.0
  0
SPLINE
  5
30
100
AcDbEntity
  8
RÚteg 1
100
AcDbSpline
210
0.0
220
0.0
230
1.0
 70
     1
 71
     3
 72
    24
 73
    20
 74
     0
 42
0.0000000001
 43
0.0000000001
 40
0.0
 40
0.0
 40
0.0
 40
0.0
 40
0.2
 40
0.2
 40
0.2
 40
0.2
 40
0.4
 40
0.4
 40
0.4
 40
0.4
 40
0.6000000000000001
 40
0.6000000000000001
 40
0.6000000000000001
 40
0.6000000000000001
 40
0.8
 40
0.8
 40
0.8
 40
0.8
 40
1.0
 40
1.0
 40
1.0
 40
1.0
 10
-12.329499999999999
 20
8.8431999999999995
 30
0.0
 10
-12.1708
 20
11.7536
 30
0.0
 10
-11.6416
 20
14.664
 30
0.0
 10
-11.3241
 20
17.3628
 30
0.0
 10
-11.3241
 20
17.3628
 30
0.0
 10
-11.3241
 20
17.3628
 30
0.0
 10
-10.5304
 20
17.3628
 30
0.0
 10
-10.5304
 20
17.3628
 30
0.0
 10
-10.5304
 20
17.3628
 30
0.0
 10
-9.8424999999999994
 20
13.711499999999999
 30
0.0
 10
-8.1491000000000007
 20
10.272
 30
0.0
 10
-8.2550000000000008
 20
6.4619999999999997
 30
0.0
 10
-8.2550000000000008
 20
6.4619999999999997
 30
0.0
 10
-9.5778999999999996
 20
6.7794999999999996
 30
0.0
 10
-10.5304
 20
8.3140000000000001
 30
0.0
 10
-11.959099999999999
 20
8.1023999999999994
 30
0.0
 10
-11.959099999999999
 20
8.1023999999999994
 30
0.0
 10
-11.959099999999999
 20
8.1023999999999994
 30
0.0
 10
-12.329499999999999
 20
8.8431999999999995
 30
0.0
 10
-12.329499999999999
 20
8.8431999999999995
 30
0.0
  0
SPLINE
  5
31
100
AcDbEntity
  8
RÚteg 1
100
AcDbSpline
210
0.0
220
0.0
230
1.0
 70
     1
 71
     3
 72
    20
 73
    16
 74
     0
 42
0.0000000001
 43
0.0000000001
 40
0.0
 40
0.0
 40
0.0
 40
0.0
 40
0.25
 40
0.25
 40
0.25
 40
0.25
 40
0.5
 40
0.5
 40
0.5
 40
0.5
 40
0.75
 40
0.75
 40
0.75
 40
0.75
 40
1.0
 40
1.0
 40
1.0
 40
1.0
 10
-9.2604000000000006
 20
4.7686000000000002
 30
0.0
 10
-4.0216000000000003
 20
0.8528
 30
0.0
 10
3.8628999999999998
 20
-3.6979000000000002
 30
0.0
 10
3.9157999999999999
 20
-10.841699999999999
 30
0.0
 10
3.9157999999999999
 20
-10.841699999999999
 30
0.0
 10
3.1219999999999999
 20
-12.4292
 30
0.0
 10
2.54
 20
-14.1225
 30
0.0
 10
1.5345
 20
-15.6571
 30
0.0
 10
1.5345
 20
-15.6571
 30
0.0
 10
1.27
 20
-15.710000000000001
 30
0.0
 10
1.5345
 20
-15.6571
 30
0.0
 10
0.8995
 20
-15.551299999999999
 30
0.0
 10
0.8995
 20
-15.551299999999999
 30
0.0
 10
-1.6933
 20
-8.7779000000000007
 30
0.0
 10
-5.1858000000000004
 20
-1.6871
 30
0.0
 10
-9.2604000000000006
 20
4.7686000000000002
 30
0.0
  0
SPLINE
  5
32
100
AcDbEntity
  8
RÚteg 1
100
AcDbSpline
210
0.0
220
0.0
230
1.0
 70
     1
 71
     3
 72
    20
 73
    16
 74
     0
 42
0.0000000001
 43
0.0000000001
 40
0.0
 40
0.0
 40
0.0
 40
0.0
 40
0.25
 40
0.25
 40
0.25
 40
0.25
 40
0.5
 40
0.5
 40
0.5
 40
0.5
 40
0.75
 40
0.75
 40
0.75
 40
0.75
 40
1.0
 40
1.0
 40
1.0
 40
1.0
 10
-7.9904000000000002
 20
20.537800000000001
 30
0.0
 10
-7.2495000000000003
 20
20.167400000000001
 30
0.0
 10
-6.8791000000000002
 20
19.161999999999999
 30
0.0
 10
-6.6144999999999996
 20
18.368200000000002
 30
0.0
 10
-6.6144999999999996
 20
18.368200000000002
 30
0.0
 10
-6.6144999999999996
 20
18.368200000000002
 30
0.0
 10
-5.7149000000000001
 20
12.6532
 30
0.0
 10
-5.7149000000000001
 20
12.6532
 30
0.0
 10
-5.7149000000000001
 20
12.6532
 30
0.0
 10
-6.7732999999999999
 20
12.759
 30
0.0
 10
-6.8262
 20
14.452400000000001
 30
0.0
 10
-7.0907999999999998
 20
15.457800000000001
 30
0.0
 10
-7.0907999999999998
 20
15.457800000000001
 30
0.0
 10
-7.0907999999999998
 20
15.457800000000001
 30
0.0
 10
-7.9904000000000002
 20
20.537800000000001
 30
0.0
 10
-7.9904000000000002
 20
20.537800000000001
 30
0.0
  0
SPLINE
  5
33
100
AcDbEntity
  8
RÚteg 1
100
AcDbSpline
210
0.0
220
0.0
230
1.0
 70
     1
 71
     3
 72
    20
 73
    16
 74
     0
 42
0.0000000001
 43
0.0000000001
 40
0.0
 40
0.0
 40
0.0
 40
0.0
 40
0.25
 40
0.25
 40
0.25
 40
0.25
 40
0.5
 40
0.5
 40
0.5
 40
0.5
 40
0.75
 40
0.75
 40
0.75
 40
0.75
 40
1.0
 40
1.0
 40
1.0
 40
1.0
 10
0.1058
 20
19.3736
 30
0.0
 10
4.7035999999999998
 20
22.930499999999999
 30
0.0
 10
12.112
 20
26.2819
 30
0.0
 10
12.112
 20
26.2819
 30
0.0
 10
12.112
 20
26.2819
 30
0.0
 10
0.0
 20
12.9351
 30
0.0
 10
-0.8995
 20
1.4878
 30
0.0
 10
-0.8995
 20
1.4878
 30
0.0
 10
-0.8995
 20
1.4878
 30
0.0
 10
-0.8995
 20
1.4878
 30
0.0
 10
-3.1749999999999998
 20
3.2869999999999999
 30
0.0
 10
-3.1749999999999998
 20
3.2869999999999999
 30
0.0
 10
-3.1749999999999998
 20
3.2869999999999999
 30
0.0
 10
-3.2279
 20
8.1553000000000004
 30
0.0
 10
-4.7625000000000002
 20
15.6165
 30
0.0
 10
0.1058
 20
19.3736
 30
0.0
  0
SPLINE
  5
34
100
AcDbEntity
  8
RÚteg 1
100
AcDbSpline
210
0.0
220
0.0
230
1.0
 70
     1
 71
     3
 72
    20
 73
    16
 74
     0
 42
0.0000000001
 43
0.0000000001
 40
0.0
 40
0.0
 40
0.0
 40
0.0
 40
0.25
 40
0.25
 40
0.25
 40
0.25
 40
0.5
 40
0.5
 40
0.5
 40
0.5
 40
0.75
 40
0.75
 40
0.75
 40
0.75
 40
1.0
 40
1.0
 40
1.0
 40
1.0
 10
3.2808000000000002
 20
64.617400000000004
 30
0.0
 10
4.3391000000000002
 20
64.723200000000006
 30
0.0
 10
5.3445
 20
64.458600000000004
 30
0.0
 10
5.9794999999999998
 20
63.823599999999999
 30
0.0
 10
5.9794999999999998
 20
63.823599999999999
 30
0.0
 10
5.9265999999999996
 20
62.976999999999997
 30
0.0
 10
5.4504000000000001
 20
62.130299999999998
 30
0.0
 10
4.4450000000000003
 20
62.341999999999999
 30
0.0
 10
4.4450000000000003
 20
62.341999999999999
 30
0.0
 10
3.5983000000000001
 20
62.341999999999999
 30
0.0
 10
2.5929000000000002
 20
62.077399999999997
 30
0.0
 10
2.54
 20
63.188600000000001
 30
0.0
 10
2.54
 20
63.188600000000001
 30
0.0
 10
2.6457999999999999
 20
63.717799999999997
 30
0.0
 10
2.8045
 20
64.247
 30
0.0
 10
3.2808000000000002
 20
64.617400000000004
 30
0.0
  0
SPLINE
  5
35
100
AcDbEntity
  8
RÚteg 1
100
AcDbSpline
210
0.0
220
0.0
230
1.0
 70
     1
 71
     3
 72
    16
 73
    12
 74
     0
 42
0.0000000001
 43
0.0000000001
 40
0.0
 40
0.0
 40
0.0
 40
0.0
 40
0.3333333333333333
 40
0.3333333333333333
 40
0.3333333333333333
 40
0.3333333333333333
 40
0.6666666666666666
 40
0.6666666666666666
 40
0.6666666666666666
 40
0.6666666666666666
 40
1.0
 40
1.0
 40
1.0
 40
1.0
 10
-2.6457999999999999
 20
63.717799999999997
 30
0.0
 10
-1.8520000000000001
 20
64.617400000000004
 30
0.0
 10
-0.582
 20
63.717799999999997
 30
0.0
 10
-0.2645
 20
62.818199999999997
 30
0.0
 10
-0.2645
 20
62.818199999999997
 30
0.0
 10
-0.2645
 20
62.818199999999997
 30
0.0
 10
-0.1058
 20
61.918599999999998
 30
0.0
 10
-0.1058
 20
61.918599999999998
 30
0.0
 10
-0.1058
 20
61.918599999999998
 30
0.0
 10
-1.0583
 20
61.918599999999998
 30
0.0
 10
-3.8805000000000001
 20
61.8536
 30
0.0
 10
-2.6457999999999999
 20
63.717799999999997
 30
0.0
  0
SPLINE
  5
36
100
AcDbEntity
  8
RÚteg 1
100
AcDbSpline
210
0.0
220
0.0
230
1.0
 70
     1
 71
     3
 72
    20
 73
    16
 74
     0
 42
0.0000000001
 43
0.0000000001
 40
0.0
 40
0.0
 40
0.0
 40
0.0
 40
0.25
 40
0.25
 40
0.25
 40
0.25
 40
0.5
 40
0.5
 40
0.5
 40
0.5
 40
0.75
 40
0.75
 40
0.75
 40
0.75
 40
1.0
 40
1.0
 40
1.0
 40
1.0
 10
-17.8858
 20
74.142399999999995
 30
0.0
 10
-16.0337
 20
72.501999999999995
 30
0.0
 10
-13.5466
 20
70.596999999999994
 30
0.0
 10
-12.964499999999999
 20
68.057000000000002
 30
0.0
 10
-12.964499999999999
 20
68.057000000000002
 30
0.0
 10
-15.186999999999999
 20
69.009500000000003
 30
0.0
 10
-16.9862
 20
71.284899999999993
 30
0.0
 10
-18.785399999999999
 20
72.978200000000001
 30
0.0
 10
-18.785399999999999
 20
72.978200000000001
 30
0.0
 10
-18.8383
 20
73.295699999999997
 30
0.0
 10
-18.891200000000001
 20
73.613200000000006
 30
0.0
 10
-19.050000000000001
 20
73.877799999999993
 30
0.0
 10
-19.050000000000001
 20
73.877799999999993
 30
0.0
 10
-18.679500000000001
 20
73.983599999999996
 30
0.0
 10
-18.361999999999998
 20
74.142399999999995
 30
0.0
 10
-17.8858
 20
74.142399999999995
 30
0.0
  0
SPLINE
  5
37
100
AcDbEntity
  8
RÚteg 1
100
AcDbSpline
210
0.0
220
0.0
230
1.0
 70
     1
 71
     3
 72
   140
 73
   136
 74
     0
 42
0.0000000001
 43
0.0000000001
 40
0.0
 40
0.0
 40
0.0
 40
0.0
 40
0.0294117647058824
 40
0.0294117647058824
 40
0.0294117647058824
 40
0.0294117647058824
 40
0.0588235294117647
 40
0.0588235294117647
 40
0.0588235294117647
 40
0.0588235294117647
 40
0.0882352941176471
 40
0.0882352941176471
 40
0.0882352941176471
 40
0.0882352941176471
 40
0.1176470588235294
 40
0.1176470588235294
 40
0.1176470588235294
 40
0.1176470588235294
 40
0.1470588235294118
 40
0.1470588235294118
 40
0.1470588235294118
 40
0.1470588235294118
 40
0.1764705882352941
 40
0.1764705882352941
 40
0.1764705882352941
 40
0.1764705882352941
 40
0.2058823529411765
 40
0.2058823529411765
 40
0.2058823529411765
 40
0.2058823529411765
 40
0.2352941176470589
 40
0.2352941176470589
 40
0.2352941176470589
 40
0.2352941176470589
 40
0.2647058823529412
 40
0.2647058823529412
 40
0.2647058823529412
 40
0.2647058823529412
 40
0.2941176470588235
 40
0.2941176470588235
 40
0.2941176470588235
 40
0.2941176470588235
 40
0.3235294117647059
 40
0.3235294117647059
 40
0.3235294117647059
 40
0.3235294117647059
 40
0.3529411764705883
 40
0.3529411764705883
 40
0.3529411764705883
 40
0.3529411764705883
 40
0.3823529411764706
 40
0.3823529411764706
 40
0.3823529411764706
 40
0.3823529411764706
 40
0.411764705882353
 40
0.411764705882353
 40
0.411764705882353
 40
0.411764705882353
 40
0.4411764705882353
 40
0.4411764705882353
 40
0.4411764705882353
 40
0.4411764705882353
 40
0.4705882352941177
 40
0.4705882352941177
 40
0.4705882352941177
 40
0.4705882352941177
 40
0.5
 40
0.5
 40
0.5
 40
0.5
 40
0.5294117647058824
 40
0.5294117647058824
 40
0.5294117647058824
 40
0.5294117647058824
 40
0.5588235294117647
 40
0.5588235294117647
 40
0.5588235294117647
 40
0.5588235294117647
 40
0.5882352941176471
 40
0.5882352941176471
 40
0.5882352941176471
 40
0.5882352941176471
 40
0.6176470588235294
 40
0.6176470588235294
 40
0.6176470588235294
 40
0.6176470588235294
 40
0.6470588235294118
 40
0.6470588235294118
 40
0.6470588235294118
 40
0.6470588235294118
 40
0.6764705882352942
 40
0.6764705882352942
 40
0.6764705882352942
 40
0.6764705882352942
 40
0.7058823529411765
 40
0.7058823529411765
 40
0.7058823529411765
 40
0.7058823529411765
 40
0.7352941176470589
 40
0.7352941176470589
 40
0.7352941176470589
 40
0.7352941176470589
 40
0.7647058823529412
 40
0.7647058823529412
 40
0.7647058823529412
 40
0.7647058823529412
 40
0.7941176470588236
 40
0.7941176470588236
 40
0.7941176470588236
 40
0.7941176470588236
 40
0.823529411764706
 40
0.823529411764706
 40
0.823529411764706
 40
0.823529411764706
 40
0.8529411764705883
 40
0.8529411764705883
 40
0.8529411764705883
 40
0.8529411764705883
 40
0.8823529411764707
 40
0.8823529411764707
 40
0.8823529411764707
 40
0.8823529411764707
 40
0.911764705882353
 40
0.911764705882353
 40
0.911764705882353
 40
0.911764705882353
 40
0.9411764705882354
 40
0.9411764705882354
 40
0.9411764705882354
 40
0.9411764705882354
 40
0.9705882352941178
 40
0.9705882352941178
 40
0.9705882352941178
 40
0.9705882352941178
 40
1.0
 40
1.0
 40
1.0
 40
1.0
 10
-37.994100000000003
 20
41.122399999999999
 30
0.0
 10
-35.8245
 20
44.032800000000002
 30
0.0
 10
-31.644100000000002
 20
45.990699999999997
 30
0.0
 10
-29.844899999999999
 20
48.213200000000001
 30
0.0
 10
-29.844899999999999
 20
48.213200000000001
 30
0.0
 10
-29.844899999999999
 20
48.213200000000001
 30
0.0
 10
-26.7758
 20
51.652799999999999
 30
0.0
 10
-26.7758
 20
51.652799999999999
 30
0.0
 10
-26.7758
 20
51.652799999999999
 30
0.0
 10
-25.981999999999999
 20
54.4574
 30
0.0
 10
-25.929099999999998
 20
57.579500000000003
 30
0.0
 10
-24.394500000000001
 20
60.013599999999997
 30
0.0
 10
-24.394500000000001
 20
60.013599999999997
 30
0.0
 10
-22.595400000000001
 20
62.024500000000003
 30
0.0
 10
-19.2087
 20
60.172400000000003
 30
0.0
 10
-17.780000000000001
 20
63.082799999999999
 30
0.0
 10
-17.780000000000001
 20
63.082799999999999
 30
0.0
 10
-13.1762
 20
64.299899999999994
 30
0.0
 10
-9.0487000000000002
 20
62.077399999999997
 30
0.0
 10
-5.0799000000000003
 20
60.5428
 30
0.0
 10
-5.0799000000000003
 20
60.5428
 30
0.0
 10
1.3229
 20
58.849499999999999
 30
0.0
 10
8.3607999999999993
 20
59.802
 30
0.0
 10
14.340400000000001
 20
61.707000000000001
 30
0.0
 10
14.340400000000001
 20
61.707000000000001
 30
0.0
 10
17.674099999999999
 20
61.759900000000002
 30
0.0
 10
21.2195
 20
61.601100000000002
 30
0.0
 10
24.500399999999999
 20
61.2836
 30
0.0
 10
24.500399999999999
 20
61.2836
 30
0.0
 10
20.4787
 20
60.436999999999998
 30
0.0
 10
16.4041
 20
59.802
 30
0.0
 10
12.4354
 20
59.907800000000002
 30
0.0
 10
12.4354
 20
59.907800000000002
 30
0.0
 10
5.9794999999999998
 20
57.209000000000003
 30
0.0
 10
-2.3812000000000002
 20
57.209000000000003
 30
0.0
 10
-8.6254000000000008
 20
60.436999999999998
 30
0.0
 10
-8.6254000000000008
 20
60.436999999999998
 30
0.0
 10
-11.8004
 20
61.2836
 30
0.0
 10
-16.351199999999999
 20
61.4953
 30
0.0
 10
-19.314499999999999
 20
59.6432
 30
0.0
 10
-19.314499999999999
 20
59.6432
 30
0.0
 10
-20.531600000000001
 20
59.960700000000003
 30
0.0
 10
-21.801600000000001
 20
59.696100000000001
 30
0.0
 10
-22.754100000000001
 20
59.008200000000002
 30
0.0
 10
-22.754100000000001
 20
59.008200000000002
 30
0.0
 10
-24.235800000000001
 20
57.632399999999997
 30
0.0
 10
-24.976600000000001
 20
55.833199999999998
 30
0.0
 10
-25.135400000000001
 20
54.087000000000003
 30
0.0
 10
-25.135400000000001
 20
54.087000000000003
 30
0.0
 10
-23.442
 20
55.727400000000003
 30
0.0
 10
-20.902000000000001
 20
56.627000000000002
 30
0.0
 10
-18.785399999999999
 20
56.203600000000002
 30
0.0
 10
-18.785399999999999
 20
56.203600000000002
 30
0.0
 10
-16.880400000000002
 20
54.351500000000001
 30
0.0
 10
-14.552
 20
55.462800000000001
 30
0.0
 10
-12.1708
 20
55.568600000000004
 30
0.0
 10
-12.1708
 20
55.568600000000004
 30
0.0
 10
-7.4082999999999997
 20
55.568600000000004
 30
0.0
 10
-2.5929000000000002
 20
51.917400000000001
 30
0.0
 10
1.905
 20
55.092399999999998
 30
0.0
 10
1.905
 20
55.092399999999998
 30
0.0
 10
4.9211999999999998
 20
55.780299999999997
 30
0.0
 10
7.3554000000000004
 20
54.033999999999999
 30
0.0
 10
9.5250000000000004
 20
52.658200000000001
 30
0.0
 10
9.5250000000000004
 20
52.658200000000001
 30
0.0
 10
7.4082999999999997
 20
52.234900000000003
 30
0.0
 10
5.6090999999999998
 20
53.3461
 30
0.0
 10
3.7040999999999999
 20
53.663600000000002
 30
0.0
 10
3.7040999999999999
 20
53.663600000000002
 30
0.0
 10
0.7408
 20
52.869900000000001
 30
0.0
 10
-2.1166
 20
51.017800000000001
 30
0.0
 10
-5.4504000000000001
 20
51.917400000000001
 30
0.0
 10
-5.4504000000000001
 20
51.917400000000001
 30
0.0
 10
-8.4137000000000004
 20
52.975700000000003
 30
0.0
 10
-11.5358
 20
55.145299999999999
 30
0.0
 10
-14.9754
 20
53.5578
 30
0.0
 10
-14.9754
 20
53.5578
 30
0.0
 10
-12.7529
 20
52.182000000000002
 30
0.0
 10
-9.8424999999999994
 20
50.223999999999997
 30
0.0
 10
-9.4191000000000003
 20
47.313600000000001
 30
0.0
 10
-9.4191000000000003
 20
47.313600000000001
 30
0.0
 10
-7.8315999999999999
 20
43.5565
 30
0.0
 10
-12.012
 20
40.222799999999999
 30
0.0
 10
-8.8899000000000008
 20
37.153599999999997
 30
0.0
 10
-8.8899000000000008
 20
37.153599999999997
 30
0.0
 10
-6.5616000000000003
 20
34.613599999999998
 30
0.0
 10
-1.6404000000000001
 20
34.402000000000001
 30
0.0
 10
-1.9049
 20
30.062799999999999
 30
0.0
 10
-1.9049
 20
30.062799999999999
 30
0.0
 10
-1.7462
 20
27.099499999999999
 30
0.0
 10
-3.2808000000000002
 20
24.7182
 30
0.0
 10
-5.8208000000000002
 20
23.183599999999998
 30
0.0
 10
-5.8208000000000002
 20
23.183599999999998
 30
0.0
 10
-7.0378999999999996
 20
22.654499999999999
 30
0.0
 10
-8.202
 20
22.072399999999998
 30
0.0
 10
-9.5250000000000004
 20
21.913599999999999
 30
0.0
 10
-9.5250000000000004
 20
21.913599999999999
 30
0.0
 10
-9.6837
 20
22.125299999999999
 30
0.0
 10
-9.6308000000000007
 20
22.442799999999998
 30
0.0
 10
-9.6308000000000007
 20
22.7074
 30
0.0
 10
-9.6308000000000007
 20
22.7074
 30
0.0
 10
-6.9320000000000004
 20
23.501100000000001
 30
0.0
 10
-3.8628999999999998
 20
25.512
 30
0.0
 10
-3.2808000000000002
 20
28.528199999999998
 30
0.0
 10
-3.2808000000000002
 20
28.528199999999998
 30
0.0
 10
-2.8574999999999999
 20
29.692399999999999
 30
0.0
 10
-3.4923999999999999
 20
30.697800000000001
 30
0.0
 10
-4.0744999999999996
 20
31.5974
 30
0.0
 10
-4.0744999999999996
 20
31.5974
 30
0.0
 10
-6.6144999999999996
 20
33.9786
 30
0.0
 10
-11.218299999999999
 20
35.566099999999999
 30
0.0
 10
-11.43
 20
39.587800000000001
 30
0.0
 10
-11.43
 20
39.587800000000001
 30
0.0
 10
-11.8872
 20
42.991999999999997
 30
0.0
 10
-8.2974999999999994
 20
47.243099999999998
 30
0.0
 10
-12.329499999999999
 20
49.483199999999997
 30
0.0
 10
-12.329499999999999
 20
49.483199999999997
 30
0.0
 10
-15.9808
 20
50.118200000000002
 30
0.0
 10
-15.927899999999999
 20
56.256500000000003
 30
0.0
 10
-20.425799999999999
 20
54.563200000000002
 30
0.0
 10
-20.425799999999999
 20
54.563200000000002
 30
0.0
 10
-24.764900000000001
 20
53.504899999999999
 30
0.0
 10
-26.246600000000001
 20
47.066699999999997
 30
0.0
 10
-30.585799999999999
 20
45.585000000000001
 30
0.0
 10
-30.585799999999999
 20
45.585000000000001
 30
0.0
 10
-35.348300000000002
 20
42.621699999999997
 30
0.0
 10
-38.7879
 20
38.317799999999998
 30
0.0
 10
-40.639899999999997
 20
33.502400000000002
 30
0.0
 10
-40.639899999999997
 20
33.502400000000002
 30
0.0
 10
-40.639899999999997
 20
33.502400000000002
 30
0.0
 10
-41.380800000000001
 20
33.608199999999997
 30
0.0
 10
-41.380800000000001
 20
33.608199999999997
 30
0.0
 10
-41.380800000000001
 20
33.608199999999997
 30
0.0
 10
-40.639899999999997
 20
36.307000000000002
 30
0.0
 10
-39.634500000000003
 20
38.847000000000001
 30
0.0
 10
-37.994100000000003
 20
41.122399999999999
 30
0.0
  0
SPLINE
  5
38
100
AcDbEntity
  8
RÚteg 1
100
AcDbSpline
210
0.0
220
0.0
230
1.0
 70
     1
 71
     3
 72
    16
 73
    12
 74
     0
 42
0.0000000001
 43
0.0000000001
 40
0.0
 40
0.0
 40
0.0
 40
0.0
 40
0.3333333333333333
 40
0.3333333333333333
 40
0.3333333333333333
 40
0.3333333333333333
 40
0.6666666666666666
 40
0.6666666666666666
 40
0.6666666666666666
 40
0.6666666666666666
 40
1.0
 40
1.0
 40
1.0
 40
1.0
 10
-5.7149000000000001
 20
37.047800000000002
 30
0.0
 10
-5.7149000000000001
 20
37.047800000000002
 30
0.0
 10
-6.2441000000000004
 20
36.942
 30
0.0
 10
-6.2441000000000004
 20
36.942
 30
0.0
 10
-6.2441000000000004
 20
36.942
 30
0.0
 10
-6.8791000000000002
 20
40.381500000000003
 30
0.0
 10
-7.0907999999999998
 20
43.979900000000001
 30
0.0
 10
-6.9850000000000003
 20
47.737000000000002
 30
0.0
 10
-6.9850000000000003
 20
47.737000000000002
 30
0.0
 10
-5.9794999999999998
 20
44.509
 30
0.0
 10
-4.6742999999999997
 20
40.1875
 30
0.0
 10
-5.7149000000000001
 20
37.047800000000002
 30
0.0
  0
SPLINE
  5
39
100
AcDbEntity
  8
RÚteg 1
100
AcDbSpline
210
0.0
220
0.0
230
1.0
 70
     1
 71
     3
 72
    16
 73
    12
 74
     0
 42
0.0000000001
 43
0.0000000001
 40
0.0
 40
0.0
 40
0.0
 40
0.0
 40
0.3333333333333333
 40
0.3333333333333333
 40
0.3333333333333333
 40
0.3333333333333333
 40
0.6666666666666666
 40
0.6666666666666666
 40
0.6666666666666666
 40
0.6666666666666666
 40
1.0
 40
1.0
 40
1.0
 40
1.0
 10
-21.0608
 20
39.217399999999998
 30
0.0
 10
-25.4529
 20
36.994900000000001
 30
0.0
 10
-30.48
 20
36.412799999999997
 30
0.0
 10
-34.025399999999998
 20
32.232399999999998
 30
0.0
 10
-34.025399999999998
 20
32.232399999999998
 30
0.0
 10
-34.3429
 20
32.1265
 30
0.0
 10
-34.607399999999998
 20
32.338200000000001
 30
0.0
 10
-34.660400000000003
 20
32.602800000000002
 30
0.0
 10
-34.660400000000003
 20
32.602800000000002
 30
0.0
 10
-34.042999999999999
 20
35.1601
 30
0.0
 10
-25.341100000000001
 20
40.2166
 30
0.0
 10
-21.0608
 20
39.217399999999998
 30
0.0
  0
SPLINE
  5
3A
100
AcDbEntity
  8
RÚteg 1
100
AcDbSpline
210
0.0
220
0.0
230
1.0
 70
     1
 71
     3
 72
    24
 73
    20
 74
     0
 42
0.0000000001
 43
0.0000000001
 40
0.0
 40
0.0
 40
0.0
 40
0.0
 40
0.2
 40
0.2
 40
0.2
 40
0.2
 40
0.4
 40
0.4
 40
0.4
 40
0.4
 40
0.6000000000000001
 40
0.6000000000000001
 40
0.6000000000000001
 40
0.6000000000000001
 40
0.8
 40
0.8
 40
0.8
 40
0.8
 40
1.0
 40
1.0
 40
1.0
 40
1.0
 10
-36.9358
 20
27.787400000000002
 30
0.0
 10
-37.782400000000003
 20
27.258199999999999
 30
0.0
 10
-38.893700000000003
 20
27.1524
 30
0.0
 10
-39.899099999999997
 20
27.417000000000002
 30
0.0
 10
-39.899099999999997
 20
27.417000000000002
 30
0.0
 10
-40.4283
 20
27.8932
 30
0.0
 10
-40.4283
 20
28.739899999999999
 30
0.0
 10
-40.375399999999999
 20
29.321999999999999
 30
0.0
 10
-40.375399999999999
 20
29.321999999999999
 30
0.0
 10
-40.110799999999998
 20
30.6449
 30
0.0
 10
-39.003900000000002
 20
29.978999999999999
 30
0.0
 10
-38.038200000000003
 20
29.842300000000002
 30
0.0
 10
-38.038200000000003
 20
29.842300000000002
 30
0.0
 10
-38.038200000000003
 20
29.842300000000002
 30
0.0
 10
-37.769199999999998
 20
29.714400000000001
 30
0.0
 10
-37.769199999999998
 20
29.714400000000001
 30
0.0
 10
-37.769199999999998
 20
29.714400000000001
 30
0.0
 10
-37.041600000000003
 20
29.480699999999999
 30
0.0
 10
-36.865200000000002
 20
28.2592
 30
0.0
 10
-36.9358
 20
27.787400000000002
 30
0.0
  0
SPLINE
  5
3B
100
AcDbEntity
  8
RÚteg 1
100
AcDbSpline
210
0.0
220
0.0
230
1.0
 70
     1
 71
     3
 72
    20
 73
    16
 74
     0
 42
0.0000000001
 43
0.0000000001
 40
0.0
 40
0.0
 40
0.0
 40
0.0
 40
0.25
 40
0.25
 40
0.25
 40
0.25
 40
0.5
 40
0.5
 40
0.5
 40
0.5
 40
0.75
 40
0.75
 40
0.75
 40
0.75
 40
1.0
 40
1.0
 40
1.0
 40
1.0
 10
-40.375399999999999
 20
25.247399999999999
 30
0.0
 10
-39.528700000000001
 20
25.617799999999999
 30
0.0
 10
-39.581600000000002
 20
24.665299999999998
 30
0.0
 10
-39.369900000000001
 20
24.242000000000001
 30
0.0
 10
-39.369900000000001
 20
24.242000000000001
 30
0.0
 10
-39.268500000000003
 20
23.386500000000002
 30
0.0
 10
-39.409999999999997
 20
22.444199999999999
 30
0.0
 10
-40.375399999999999
 20
22.337
 30
0.0
 10
-40.375399999999999
 20
22.337
 30
0.0
 10
-41.063299999999998
 20
22.1782
 30
0.0
 10
-41.645400000000002
 20
22.495699999999999
 30
0.0
 10
-41.9099
 20
23.0778
 30
0.0
 10
-41.9099
 20
23.0778
 30
0.0
 10
-42.333300000000001
 20
24.294899999999998
 30
0.0
 10
-41.274900000000002
 20
25.035699999999999
 30
0.0
 10
-40.375399999999999
 20
25.247399999999999
 30
0.0
  0
SPLINE
  5
3C
100
AcDbEntity
  8
RÚteg 1
100
AcDbSpline
210
0.0
220
0.0
230
1.0
 70
     1
 71
     3
 72
    20
 73
    16
 74
     0
 42
0.0000000001
 43
0.0000000001
 40
0.0
 40
0.0
 40
0.0
 40
0.0
 40
0.25
 40
0.25
 40
0.25
 40
0.25
 40
0.5
 40
0.5
 40
0.5
 40
0.5
 40
0.75
 40
0.75
 40
0.75
 40
0.75
 40
1.0
 40
1.0
 40
1.0
 40
1.0
 10
-43.179900000000004
 20
27.417000000000002
 30
0.0
 10
-44.502899999999997
 20
27.205300000000001
 30
0.0
 10
-45.719900000000003
 20
27.575700000000001
 30
0.0
 10
-46.460799999999999
 20
28.528199999999998
 30
0.0
 10
-46.460799999999999
 20
28.528199999999998
 30
0.0
 10
-46.249099999999999
 20
30.2745
 30
0.0
 10
-44.180999999999997
 20
29.815799999999999
 30
0.0
 10
-42.963900000000002
 20
30.2392
 30
0.0
 10
-42.963900000000002
 20
30.2392
 30
0.0
 10
-42.963900000000002
 20
30.2392
 30
0.0
 10
-42.496400000000001
 20
29.361599999999999
 30
0.0
 10
-42.496400000000001
 20
29.361599999999999
 30
0.0
 10
-42.496400000000001
 20
29.361599999999999
 30
0.0
 10
-42.289200000000001
 20
29.074999999999999
 30
0.0
 10
-42.491999999999997
 20
27.787400000000002
 30
0.0
 10
-43.179900000000004
 20
27.417000000000002
 30
0.0
  0
SPLINE
  5
3D
100
AcDbEntity
  8
RÚteg 1
100
AcDbSpline
210
0.0
220
0.0
230
1.0
 70
     1
 71
     3
 72
    20
 73
    16
 74
     0
 42
0.0000000001
 43
0.0000000001
 40
0.0
 40
0.0
 40
0.0
 40
0.0
 40
0.25
 40
0.25
 40
0.25
 40
0.25
 40
0.5
 40
0.5
 40
0.5
 40
0.5
 40
0.75
 40
0.75
 40
0.75
 40
0.75
 40
1.0
 40
1.0
 40
1.0
 40
1.0
 10
-42.8095
 20
53.822400000000002
 30
0.0
 10
-43.179900000000004
 20
47.578200000000002
 30
0.0
 10
-44.132399999999997
 20
41.598599999999998
 30
0.0
 10
-43.9208
 20
35.142800000000001
 30
0.0
 10
-43.9208
 20
35.142800000000001
 30
0.0
 10
-43.9208
 20
35.142800000000001
 30
0.0
 10
-44.185400000000001
 20
34.8782
 30
0.0
 10
-44.185400000000001
 20
34.8782
 30
0.0
 10
-44.185400000000001
 20
34.8782
 30
0.0
 10
-45.4024
 20
36.783200000000001
 30
0.0
 10
-46.037399999999998
 20
39.111499999999999
 30
0.0
 10
-46.354900000000001
 20
41.492800000000003
 30
0.0
 10
-46.354900000000001
 20
41.492800000000003
 30
0.0
 10
-46.936999999999998
 20
46.043599999999998
 30
0.0
 10
-44.608699999999999
 20
49.959499999999998
 30
0.0
 10
-42.8095
 20
53.822400000000002
 30
0.0
  0
SPLINE
  5
3E
100
AcDbEntity
  8
RÚteg 1
100
AcDbSpline
210
0.0
220
0.0
230
1.0
 70
     1
 71
     3
 72
    24
 73
    20
 74
     0
 42
0.0000000001
 43
0.0000000001
 40
0.0
 40
0.0
 40
0.0
 40
0.0
 40
0.2
 40
0.2
 40
0.2
 40
0.2
 40
0.4
 40
0.4
 40
0.4
 40
0.4
 40
0.6000000000000001
 40
0.6000000000000001
 40
0.6000000000000001
 40
0.6000000000000001
 40
0.8
 40
0.8
 40
0.8
 40
0.8
 40
1.0
 40
1.0
 40
1.0
 40
1.0
 10
-62.864899999999999
 20
39.481999999999999
 30
0.0
 10
-60.906999999999996
 20
38.158999999999999
 30
0.0
 10
-58.631599999999999
 20
37.100700000000003
 30
0.0
 10
-57.255800000000001
 20
34.8782
 30
0.0
 10
-57.255800000000001
 20
34.8782
 30
0.0
 10
-57.255800000000001
 20
34.8782
 30
0.0
 10
-64.664100000000005
 20
38.952800000000003
 30
0.0
 10
-64.664100000000005
 20
38.952800000000003
 30
0.0
 10
-64.664100000000005
 20
38.952800000000003
 30
0.0
 10
-67.521600000000007
 20
39.958199999999998
 30
0.0
 10
-71.278700000000001
 20
38.847000000000001
 30
0.0
 10
-73.659899999999993
 20
40.9636
 30
0.0
 10
-73.659899999999993
 20
40.9636
 30
0.0
 10
-73.659899999999993
 20
40.9636
 30
0.0
 10
-75.829499999999996
 20
44.6678
 30
0.0
 10
-75.829499999999996
 20
44.6678
 30
0.0
 10
-75.829499999999996
 20
44.6678
 30
0.0
 10
-71.9666
 20
41.863199999999999
 30
0.0
 10
-66.674899999999994
 20
42.392400000000002
 30
0.0
 10
-62.864899999999999
 20
39.481999999999999
 30
0.0
  0
SPLINE
  5
3F
100
AcDbEntity
  8
RÚteg 1
100
AcDbSpline
210
0.0
220
0.0
230
1.0
 70
     1
 71
     3
 72
    16
 73
    12
 74
     0
 42
0.0000000001
 43
0.0000000001
 40
0.0
 40
0.0
 40
0.0
 40
0.0
 40
0.3333333333333333
 40
0.3333333333333333
 40
0.3333333333333333
 40
0.3333333333333333
 40
0.6666666666666666
 40
0.6666666666666666
 40
0.6666666666666666
 40
0.6666666666666666
 40
1.0
 40
1.0
 40
1.0
 40
1.0
 10
-76.323400000000007
 20
25.4238
 30
0.0
 10
-70.185100000000006
 20
30.133299999999998
 30
0.0
 10
-61.965400000000002
 20
30.962399999999999
 30
0.0
 10
-54.2395
 20
28.4224
 30
0.0
 10
-54.2395
 20
28.4224
 30
0.0
 10
-54.2395
 20
28.4224
 30
0.0
 10
-49.000799999999998
 20
26.517399999999999
 30
0.0
 10
-49.000799999999998
 20
26.517399999999999
 30
0.0
 10
-49.000799999999998
 20
26.517399999999999
 30
0.0
 10
-57.996600000000001
 20
27.3111
 30
0.0
 10
-67.856800000000007
 20
28.969200000000001
 30
0.0
 10
-76.323400000000007
 20
25.4238
 30
0.0
  0
SPLINE
  5
40
100
AcDbEntity
  8
RÚteg 1
100
AcDbSpline
210
0.0
220
0.0
230
1.0
 70
     1
 71
     3
 72
    20
 73
    16
 74
     0
 42
0.0000000001
 43
0.0000000001
 40
0.0
 40
0.0
 40
0.0
 40
0.0
 40
0.25
 40
0.25
 40
0.25
 40
0.25
 40
0.5
 40
0.5
 40
0.5
 40
0.5
 40
0.75
 40
0.75
 40
0.75
 40
0.75
 40
1.0
 40
1.0
 40
1.0
 40
1.0
 10
-63.499899999999997
 20
-2.8513000000000002
 30
0.0
 10
-63.870399999999997
 20
-2.5867
 30
0.0
 10
-64.558300000000003
 20
-2.1103999999999998
 30
0.0
 10
-64.769900000000007
 20
-1.4225000000000001
 30
0.0
 10
-64.769900000000007
 20
-1.4225000000000001
 30
0.0
 10
-64.928700000000006
 20
1.9111
 30
0.0
 10
-63.341200000000001
 20
4.8215000000000003
 30
0.0
 10
-61.224499999999999
 20
7.3086000000000002
 30
0.0
 10
-61.224499999999999
 20
7.3086000000000002
 30
0.0
 10
-60.906999999999996
 20
7.2557
 30
0.0
 10
-60.483699999999999
 20
7.4673999999999996
 30
0.0
 10
-60.3249
 20
7.0970000000000004
 30
0.0
 10
-60.3249
 20
7.0970000000000004
 30
0.0
 10
-62.6004
 20
4.2923999999999998
 30
0.0
 10
-62.706200000000003
 20
0.5882
 30
0.0
 10
-63.499899999999997
 20
-2.8513000000000002
 30
0.0
  0
SPLINE
  5
41
100
AcDbEntity
  8
RÚteg 1
100
AcDbSpline
210
0.0
220
0.0
230
1.0
 70
     1
 71
     3
 72
    20
 73
    16
 74
     0
 42
0.0000000001
 43
0.0000000001
 40
0.0
 40
0.0
 40
0.0
 40
0.0
 40
0.25
 40
0.25
 40
0.25
 40
0.25
 40
0.5
 40
0.5
 40
0.5
 40
0.5
 40
0.75
 40
0.75
 40
0.75
 40
0.75
 40
1.0
 40
1.0
 40
1.0
 40
1.0
 10
-47.624899999999997
 20
21.913599999999999
 30
0.0
 10
-53.869100000000003
 20
21.067
 30
0.0
 10
-58.1554
 20
15.2461
 30
0.0
 10
-63.1295
 20
11.6478
 30
0.0
 10
-63.1295
 20
11.6478
 30
0.0
 10
-63.1295
 20
11.6478
 30
0.0
 10
-61.971299999999999
 20
16.110099999999999
 30
0.0
 10
-56.799199999999999
 20
19.884599999999999
 30
0.0
 10
-56.799199999999999
 20
19.884599999999999
 30
0.0
 10
-54.445300000000003
 20
21.166599999999999
 30
0.0
 10
-51.691200000000002
 20
22.923999999999999
 30
0.0
 10
-47.624899999999997
 20
22.5486
 30
0.0
 10
-47.624899999999997
 20
22.5486
 30
0.0
 10
-47.624899999999997
 20
22.5486
 30
0.0
 10
-47.624899999999997
 20
21.913599999999999
 30
0.0
 10
-47.624899999999997
 20
21.913599999999999
 30
0.0
  0
SPLINE
  5
42
100
AcDbEntity
  8
RÚteg 1
100
AcDbSpline
210
0.0
220
0.0
230
1.0
 70
     1
 71
     3
 72
    32
 73
    28
 74
     0
 42
0.0000000001
 43
0.0000000001
 40
0.0
 40
0.0
 40
0.0
 40
0.0
 40
0.1428571428571429
 40
0.1428571428571429
 40
0.1428571428571429
 40
0.1428571428571429
 40
0.2857142857142857
 40
0.2857142857142857
 40
0.2857142857142857
 40
0.2857142857142857
 40
0.4285714285714286
 40
0.4285714285714286
 40
0.4285714285714286
 40
0.4285714285714286
 40
0.5714285714285714
 40
0.5714285714285714
 40
0.5714285714285714
 40
0.5714285714285714
 40
0.7142857142857142
 40
0.7142857142857142
 40
0.7142857142857142
 40
0.7142857142857142
 40
0.857142857142857
 40
0.857142857142857
 40
0.857142857142857
 40
0.857142857142857
 40
1.0
 40
1.0
 40
1.0
 40
1.0
 10
-49.900399999999998
 20
35.407400000000003
 30
0.0
 10
-54.980400000000003
 20
37.259500000000003
 30
0.0
 10
-61.965400000000002
 20
40.011099999999999
 30
0.0
 10
-62.970799999999997
 20
46.202399999999997
 30
0.0
 10
-62.970799999999997
 20
46.202399999999997
 30
0.0
 10
-62.811999999999998
 20
46.3611
 30
0.0
 10
-62.811999999999998
 20
46.572800000000001
 30
0.0
 10
-62.6004
 20
46.678600000000003
 30
0.0
 10
-62.6004
 20
46.678600000000003
 30
0.0
 10
-60.007399999999997
 20
41.810299999999998
 30
0.0
 10
-54.980400000000003
 20
38.688200000000002
 30
0.0
 10
-50.270800000000001
 20
36.677399999999999
 30
0.0
 10
-50.270800000000001
 20
36.677399999999999
 30
0.0
 10
-51.805399999999999
 20
39.852400000000003
 30
0.0
 10
-51.223300000000002
 20
43.874000000000002
 30
0.0
 10
-50.799900000000001
 20
47.313600000000001
 30
0.0
 10
-50.799900000000001
 20
47.313600000000001
 30
0.0
 10
-50.2179
 20
42.0749
 30
0.0
 10
-48.789099999999998
 20
37.153599999999997
 30
0.0
 10
-46.249099999999999
 20
32.708599999999997
 30
0.0
 10
-46.249099999999999
 20
32.708599999999997
 30
0.0
 10
-46.249099999999999
 20
32.497
 30
0.0
 10
-46.5137
 20
32.232399999999998
 30
0.0
 10
-46.7254
 20
32.232399999999998
 30
0.0
 10
-46.7254
 20
32.232399999999998
 30
0.0
 10
-48.312899999999999
 20
32.497
 30
0.0
 10
-48.683300000000003
 20
34.507800000000003
 30
0.0
 10
-49.900399999999998
 20
35.407400000000003
 30
0.0
  0
SPLINE
  5
43
100
AcDbEntity
  8
RÚteg 1
100
AcDbSpline
210
0.0
220
0.0
230
1.0
 70
     1
 71
     3
 72
    40
 73
    36
 74
     0
 42
0.0000000001
 43
0.0000000001
 40
0.0
 40
0.0
 40
0.0
 40
0.0
 40
0.1111111111111111
 40
0.1111111111111111
 40
0.1111111111111111
 40
0.1111111111111111
 40
0.2222222222222222
 40
0.2222222222222222
 40
0.2222222222222222
 40
0.2222222222222222
 40
0.3333333333333333
 40
0.3333333333333333
 40
0.3333333333333333
 40
0.3333333333333333
 40
0.4444444444444444
 40
0.4444444444444444
 40
0.4444444444444444
 40
0.4444444444444444
 40
0.5555555555555556
 40
0.5555555555555556
 40
0.5555555555555556
 40
0.5555555555555556
 40
0.6666666666666667
 40
0.6666666666666667
 40
0.6666666666666667
 40
0.6666666666666667
 40
0.7777777777777779
 40
0.7777777777777779
 40
0.7777777777777779
 40
0.7777777777777779
 40
0.8888888888888891
 40
0.8888888888888891
 40
0.8888888888888891
 40
0.8888888888888891
 40
1.0
 40
1.0
 40
1.0
 40
1.0
 10
-42.174500000000002
 20
14.717000000000001
 30
0.0
 10
-43.979599999999998
 20
8.5253999999999994
 30
0.0
 10
-46.096299999999999
 20
-0.8231000000000001
 30
0.0
 10
-46.096299999999999
 20
-0.8231000000000001
 30
0.0
 10
-46.096299999999999
 20
-0.8231000000000001
 30
0.0
 10
-47.683799999999998
 20
4.5861000000000001
 30
0.0
 10
-45.084899999999998
 20
11.965299999999999
 30
0.0
 10
-42.915399999999998
 20
17.3628
 30
0.0
 10
-42.915399999999998
 20
17.3628
 30
0.0
 10
-41.592399999999998
 20
19.9557
 30
0.0
 10
-38.258699999999997
 20
18.8445
 30
0.0
 10
-36.459499999999998
 20
20.802399999999999
 30
0.0
 10
-36.459499999999998
 20
20.802399999999999
 30
0.0
 10
-32.808300000000003
 20
25.512
 30
0.0
 10
-28.204499999999999
 20
31.861999999999998
 30
0.0
 10
-21.484100000000002
 20
29.798200000000001
 30
0.0
 10
-21.484100000000002
 20
29.798200000000001
 30
0.0
 10
-19.314499999999999
 20
29.1632
 30
0.0
 10
-17.5154
 20
27.575700000000001
 30
0.0
 10
-15.6104
 20
26.252800000000001
 30
0.0
 10
-15.6104
 20
26.252800000000001
 30
0.0
 10
-18.309100000000001
 20
26.834900000000001
 30
0.0
 10
-21.325399999999998
 20
28.7928
 30
0.0
 10
-24.500399999999999
 20
28.052
 30
0.0
 10
-24.500399999999999
 20
28.052
 30
0.0
 10
-27.040400000000002
 20
28.052
 30
0.0
 10
-28.7866
 20
26.1999
 30
0.0
 10
-30.585799999999999
 20
24.453600000000002
 30
0.0
 10
-30.585799999999999
 20
24.453600000000002
 30
0.0
 10
-31.802900000000001
 20
22.813199999999998
 30
0.0
 10
-31.485399999999998
 20
20.220300000000002
 30
0.0
 10
-33.760800000000003
 20
19.3736
 30
0.0
 10
-33.760800000000003
 20
19.3736
 30
0.0
 10
-36.9358
 20
18.738600000000002
 30
0.0
 10
-40.534100000000002
 20
18.050699999999999
 30
0.0
 10
-42.174500000000002
 20
14.717000000000001
 30
0.0
  0
SPLINE
  5
44
100
AcDbEntity
  8
RÚteg 1
100
AcDbSpline
210
0.0
220
0.0
230
1.0
 70
     1
 71
     3
 72
    56
 73
    52
 74
     0
 42
0.0000000001
 43
0.0000000001
 40
0.0
 40
0.0
 40
0.0
 40
0.0
 40
0.0769230769230769
 40
0.0769230769230769
 40
0.0769230769230769
 40
0.0769230769230769
 40
0.1538461538461539
 40
0.1538461538461539
 40
0.1538461538461539
 40
0.1538461538461539
 40
0.2307692307692308
 40
0.2307692307692308
 40
0.2307692307692308
 40
0.2307692307692308
 40
0.3076923076923077
 40
0.3076923076923077
 40
0.3076923076923077
 40
0.3076923076923077
 40
0.3846153846153846
 40
0.3846153846153846
 40
0.3846153846153846
 40
0.3846153846153846
 40
0.4615384615384616
 40
0.4615384615384616
 40
0.4615384615384616
 40
0.4615384615384616
 40
0.5384615384615386
 40
0.5384615384615386
 40
0.5384615384615386
 40
0.5384615384615386
 40
0.6153846153846154
 40
0.6153846153846154
 40
0.6153846153846154
 40
0.6153846153846154
 40
0.6923076923076923
 40
0.6923076923076923
 40
0.6923076923076923
 40
0.6923076923076923
 40
0.7692307692307692
 40
0.7692307692307692
 40
0.7692307692307692
 40
0.7692307692307692
 40
0.846153846153846
 40
0.846153846153846
 40
0.846153846153846
 40
0.846153846153846
 40
0.9230769230769229
 40
0.9230769230769229
 40
0.9230769230769229
 40
0.9230769230769229
 40
1.0
 40
1.0
 40
1.0
 40
1.0
 10
-32.755400000000002
 20
-0.3113
 30
0.0
 10
-32.755400000000002
 20
-0.3113
 30
0.0
 10
-36.089100000000002
 20
-0.0467
 30
0.0
 10
-36.089100000000002
 20
-0.0467
 30
0.0
 10
-36.089100000000002
 20
-0.0467
 30
0.0
 10
-33.178699999999999
 20
0.1649
 30
0.0
 10
-30.532900000000001
 20
1.6465000000000001
 30
0.0
 10
-28.839500000000001
 20
4.2923999999999998
 30
0.0
 10
-28.839500000000001
 20
4.2923999999999998
 30
0.0
 10
-24.817900000000002
 20
6.6207000000000003
 30
0.0
 10
-21.4312
 20
2.0699000000000001
 30
0.0
 10
-17.250800000000002
 20
3.2869999999999999
 30
0.0
 10
-17.250800000000002
 20
3.2869999999999999
 30
0.0
 10
-16.6158
 20
3.7103000000000002
 30
0.0
 10
-15.821999999999999
 20
3.8690000000000002
 30
0.0
 10
-15.1341
 20
4.2923999999999998
 30
0.0
 10
-15.1341
 20
4.2923999999999998
 30
0.0
 10
-14.340400000000001
 20
0.059
 30
0.0
 10
-15.5398
 20
-4.9271000000000003
 30
0.0
 10
-15.698600000000001
 20
-9.0546000000000006
 30
0.0
 10
-15.698600000000001
 20
-9.0546000000000006
 30
0.0
 10
-15.8573
 20
-9.0546000000000006
 30
0.0
 10
-16.874500000000001
 20
-4.5273000000000003
 30
0.0
 10
-21.2195
 20
2.7578
 30
0.0
 10
-21.2195
 20
2.7578
 30
0.0
 10
-23.124500000000001
 20
3.1282000000000001
 30
0.0
 10
-25.6645
 20
4.2923999999999998
 30
0.0
 10
-27.410799999999998
 20
2.7578
 30
0.0
 10
-27.410799999999998
 20
2.7578
 30
0.0
 10
-27.410799999999998
 20
2.7578
 30
0.0
 10
-30.585799999999999
 20
-0.1525
 30
0.0
 10
-30.585799999999999
 20
-0.1525
 30
0.0
 10
-30.585799999999999
 20
-0.1525
 30
0.0
 10
-27.887
 20
-4.5446
 30
0.0
 10
-24.235800000000001
 20
-8.5134000000000007
 30
0.0
 10
-20.8491
 20
-12.587899999999999
 30
0.0
 10
-20.8491
 20
-12.587899999999999
 30
0.0
 10
-21.378299999999999
 20
-9.4129000000000005
 30
0.0
 10
-22.9011
 20
-5.7502000000000004
 30
0.0
 10
-23.694900000000001
 20
-2.4693999999999998
 30
0.0
 10
-23.694900000000001
 20
-2.4693999999999998
 30
0.0
 10
-23.694900000000001
 20
-2.4693999999999998
 30
0.0
 10
-18.756
 20
-10.230499999999999
 30
0.0
 10
-18.414899999999999
 20
-15.551299999999999
 30
0.0
 10
-18.414899999999999
 20
-15.551299999999999
 30
0.0
 10
-19.050000000000001
 20
-15.345800000000001
 30
0.0
 10
-19.226299999999998
 20
-15.4046
 30
0.0
 10
-19.790800000000001
 20
-15.3925
 30
0.0
 10
-19.790800000000001
 20
-15.3925
 30
0.0
 10
-24.5533
 20
-10.894600000000001
 30
0.0
 10
-29.474499999999999
 20
-5.6558999999999999
 30
0.0
 10
-32.755400000000002
 20
-0.3113
 30
0.0
  0
SPLINE
  5
45
100
AcDbEntity
  8
RÚteg 1
100
AcDbSpline
210
0.0
220
0.0
230
1.0
 70
     1
 71
     3
 72
    16
 73
    12
 74
     0
 42
0.0000000001
 43
0.0000000001
 40
0.0
 40
0.0
 40
0.0
 40
0.0
 40
0.3333333333333333
 40
0.3333333333333333
 40
0.3333333333333333
 40
0.3333333333333333
 40
0.6666666666666666
 40
0.6666666666666666
 40
0.6666666666666666
 40
0.6666666666666666
 40
1.0
 40
1.0
 40
1.0
 40
1.0
 10
-75.6708
 20
-60.847900000000003
 30
0.0
 10
-75.6708
 20
-60.847900000000003
 30
0.0
 10
-76.094099999999997
 20
-60.477499999999999
 30
0.0
 10
-76.094099999999997
 20
-60.477499999999999
 30
0.0
 10
-76.094099999999997
 20
-60.477499999999999
 30
0.0
 10
-72.178299999999993
 20
-53.069200000000002
 30
0.0
 10
-67.204099999999997
 20
-45.925400000000003
 30
0.0
 10
-61.065800000000003
 20
-39.522500000000001
 30
0.0
 10
-61.065800000000003
 20
-39.522500000000001
 30
0.0
 10
-65.352000000000004
 20
-46.613399999999999
 30
0.0
 10
-70.061599999999999
 20
-54.286299999999997
 30
0.0
 10
-75.6708
 20
-60.847900000000003
 30
0.0
  0
SPLINE
  5
46
100
AcDbEntity
  8
RÚteg 1
100
AcDbSpline
210
0.0
220
0.0
230
1.0
 70
     1
 71
     3
 72
    16
 73
    12
 74
     0
 42
0.0000000001
 43
0.0000000001
 40
0.0
 40
0.0
 40
0.0
 40
0.0
 40
0.3333333333333333
 40
0.3333333333333333
 40
0.3333333333333333
 40
0.3333333333333333
 40
0.6666666666666666
 40
0.6666666666666666
 40
0.6666666666666666
 40
0.6666666666666666
 40
1.0
 40
1.0
 40
1.0
 40
1.0
 10
-78.104900000000001
 20
-53.4925
 30
0.0
 10
-74.0304
 20
-46.772100000000002
 30
0.0
 10
-68.421199999999999
 20
-41.639200000000002
 30
0.0
 10
-62.970799999999997
 20
-35.447899999999997
 30
0.0
 10
-62.970799999999997
 20
-35.447899999999997
 30
0.0
 10
-62.970799999999997
 20
-35.447899999999997
 30
0.0
 10
-60.695399999999999
 20
-35.606699999999996
 30
0.0
 10
-60.695399999999999
 20
-35.606699999999996
 30
0.0
 10
-60.695399999999999
 20
-35.606699999999996
 30
0.0
 10
-66.304500000000004
 20
-41.744999999999997
 30
0.0
 10
-71.014099999999999
 20
-49.312100000000001
 30
0.0
 10
-78.104900000000001
 20
-53.4925
 30
0.0
  0
SPLINE
  5
47
100
AcDbEntity
  8
RÚteg 1
100
AcDbSpline
210
0.0
220
0.0
230
1.0
 70
     1
 71
     3
 72
    40
 73
    36
 74
     0
 42
0.0000000001
 43
0.0000000001
 40
0.0
 40
0.0
 40
0.0
 40
0.0
 40
0.1111111111111111
 40
0.1111111111111111
 40
0.1111111111111111
 40
0.1111111111111111
 40
0.2222222222222222
 40
0.2222222222222222
 40
0.2222222222222222
 40
0.2222222222222222
 40
0.3333333333333333
 40
0.3333333333333333
 40
0.3333333333333333
 40
0.3333333333333333
 40
0.4444444444444444
 40
0.4444444444444444
 40
0.4444444444444444
 40
0.4444444444444444
 40
0.5555555555555556
 40
0.5555555555555556
 40
0.5555555555555556
 40
0.5555555555555556
 40
0.6666666666666667
 40
0.6666666666666667
 40
0.6666666666666667
 40
0.6666666666666667
 40
0.7777777777777779
 40
0.7777777777777779
 40
0.7777777777777779
 40
0.7777777777777779
 40
0.8888888888888891
 40
0.8888888888888891
 40
0.8888888888888891
 40
0.8888888888888891
 40
1.0
 40
1.0
 40
1.0
 40
1.0
 10
-43.709099999999999
 20
-24.9175
 30
0.0
 10
-46.936999999999998
 20
-29.415400000000002
 30
0.0
 10
-44.291200000000003
 20
-36.559199999999997
 30
0.0
 10
-48.8949
 20
-40.316299999999998
 30
0.0
 10
-48.8949
 20
-40.316299999999998
 30
0.0
 10
-46.989899999999999
 20
-34.812899999999999
 30
0.0
 10
-47.730800000000002
 20
-28.833400000000001
 30
0.0
 10
-47.730800000000002
 20
-22.906700000000001
 30
0.0
 10
-47.730800000000002
 20
-22.906700000000001
 30
0.0
 10
-51.646599999999999
 20
-27.722100000000001
 30
0.0
 10
-56.567900000000002
 20
-32.431699999999999
 30
0.0
 10
-62.759099999999997
 20
-32.696300000000001
 30
0.0
 10
-62.759099999999997
 20
-32.696300000000001
 30
0.0
 10
-59.689900000000002
 20
-29.097899999999999
 30
0.0
 10
-56.356200000000001
 20
-26.0288
 30
0.0
 10
-52.5991
 20
-23.8063
 30
0.0
 10
-52.5991
 20
-23.8063
 30
0.0
 10
-58.325899999999997
 20
-24.459199999999999
 30
0.0
 10
-61.489100000000001
 20
-23.8827
 30
0.0
 10
-61.489100000000001
 20
-23.8827
 30
0.0
 10
-61.489100000000001
 20
-23.8827
 30
0.0
 10
-58.049500000000002
 20
-22.877300000000002
 30
0.0
 10
-54.504100000000001
 20
-20.578399999999998
 30
0.0
 10
-51.170400000000001
 20
-19.202500000000001
 30
0.0
 10
-51.170400000000001
 20
-19.202500000000001
 30
0.0
 10
-46.037399999999998
 20
-20.419599999999999
 30
0.0
 10
-42.597900000000003
 20
-16.080400000000001
 30
0.0
 10
-37.4649
 20
-16.556699999999999
 30
0.0
 10
-37.4649
 20
-16.556699999999999
 30
0.0
 10
-32.384999999999998
 20
-16.450900000000001
 30
0.0
 10
-27.939900000000002
 20
-17.8796
 30
0.0
 10
-23.865400000000001
 20
-20.207899999999999
 30
0.0
 10
-23.865400000000001
 20
-20.207899999999999
 30
0.0
 10
-30.585799999999999
 20
-21.530899999999999
 30
0.0
 10
-36.300800000000002
 20
-27.140000000000001
 30
0.0
 10
-43.709099999999999
 20
-24.9175
 30
0.0
  0
SPLINE
  5
48
100
AcDbEntity
  8
RÚteg 1
100
AcDbSpline
210
0.0
220
0.0
230
1.0
 70
     1
 71
     3
 72
    24
 73
    20
 74
     0
 42
0.0000000001
 43
0.0000000001
 40
0.0
 40
0.0
 40
0.0
 40
0.0
 40
0.2
 40
0.2
 40
0.2
 40
0.2
 40
0.4
 40
0.4
 40
0.4
 40
0.4
 40
0.6000000000000001
 40
0.6000000000000001
 40
0.6000000000000001
 40
0.6000000000000001
 40
0.8
 40
0.8
 40
0.8
 40
0.8
 40
1.0
 40
1.0
 40
1.0
 40
1.0
 10
-29.580400000000001
 20
-26.452100000000002
 30
0.0
 10
-24.288699999999999
 20
-27.510400000000001
 30
0.0
 10
-18.891200000000001
 20
-29.1509
 30
0.0
 10
-13.229100000000001
 20
-28.462900000000001
 30
0.0
 10
-13.229100000000001
 20
-28.462900000000001
 30
0.0
 10
-10.212899999999999
 20
-28.41
 30
0.0
 10
-7.3554000000000004
 20
-29.468399999999999
 30
0.0
 10
-4.7095000000000002
 20
-30.526700000000002
 30
0.0
 10
-4.7095000000000002
 20
-30.526700000000002
 30
0.0
 10
-8.1491000000000007
 20
-32.802100000000003
 30
0.0
 10
-12.1708
 20
-34.230899999999998
 30
0.0
 10
-16.510000000000002
 20
-34.707099999999997
 30
0.0
 10
-16.510000000000002
 20
-34.707099999999997
 30
0.0
 10
-19.632000000000001
 20
-34.601300000000002
 30
0.0
 10
-22.013300000000001
 20
-32.749200000000002
 30
0.0
 10
-24.500399999999999
 20
-31.1617
 30
0.0
 10
-24.500399999999999
 20
-31.1617
 30
0.0
 10
-24.500399999999999
 20
-31.1617
 30
0.0
 10
-29.580400000000001
 20
-26.452100000000002
 30
0.0
 10
-29.580400000000001
 20
-26.452100000000002
 30
0.0
  0
SPLINE
  5
49
100
AcDbEntity
  8
RÚteg 1
100
AcDbSpline
210
0.0
220
0.0
230
1.0
 70
     1
 71
     3
 72
    32
 73
    28
 74
     0
 42
0.0000000001
 43
0.0000000001
 40
0.0
 40
0.0
 40
0.0
 40
0.0
 40
0.1428571428571429
 40
0.1428571428571429
 40
0.1428571428571429
 40
0.1428571428571429
 40
0.2857142857142857
 40
0.2857142857142857
 40
0.2857142857142857
 40
0.2857142857142857
 40
0.4285714285714286
 40
0.4285714285714286
 40
0.4285714285714286
 40
0.4285714285714286
 40
0.5714285714285714
 40
0.5714285714285714
 40
0.5714285714285714
 40
0.5714285714285714
 40
0.7142857142857142
 40
0.7142857142857142
 40
0.7142857142857142
 40
0.7142857142857142
 40
0.857142857142857
 40
0.857142857142857
 40
0.857142857142857
 40
0.857142857142857
 40
1.0
 40
1.0
 40
1.0
 40
1.0
 10
-35.454099999999997
 20
-41.427500000000002
 30
0.0
 10
-34.184100000000001
 20
-37.8292
 30
0.0
 10
-30.744499999999999
 20
-34.918799999999997
 30
0.0
 10
-27.199100000000001
 20
-33.807499999999997
 30
0.0
 10
-27.199100000000001
 20
-33.807499999999997
 30
0.0
 10
-23.018699999999999
 20
-36.7179
 30
0.0
 10
-17.3566
 20
-38.993400000000001
 30
0.0
 10
-12.329499999999999
 20
-36.7179
 30
0.0
 10
-12.329499999999999
 20
-36.7179
 30
0.0
 10
-12.329499999999999
 20
-36.7179
 30
0.0
 10
-6.7203999999999997
 20
-33.966299999999997
 30
0.0
 10
-6.7203999999999997
 20
-33.966299999999997
 30
0.0
 10
-6.7203999999999997
 20
-33.966299999999997
 30
0.0
 10
-7.4082999999999997
 20
-38.7288
 30
0.0
 10
-12.9116
 20
-39.416699999999999
 30
0.0
 10
-15.875
 20
-42.327100000000002
 30
0.0
 10
-15.875
 20
-42.327100000000002
 30
0.0
 10
-23.6008
 20
-48.782899999999998
 30
0.0
 10
-29.580400000000001
 20
-57.090899999999998
 30
0.0
 10
-31.3795
 20
-66.562899999999999
 30
0.0
 10
-31.3795
 20
-66.562899999999999
 30
0.0
 10
-31.3795
 20
-66.562899999999999
 30
0.0
 10
-31.485399999999998
 20
-66.721699999999998
 30
0.0
 10
-31.485399999999998
 20
-66.721699999999998
 30
0.0
 10
-31.485399999999998
 20
-66.721699999999998
 30
0.0
 10
-34.448700000000002
 20
-58.942900000000002
 30
0.0
 10
-39.951999999999998
 20
-50.2117
 30
0.0
 10
-35.454099999999997
 20
-41.427500000000002
 30
0.0
  0
SPLINE
  5
4A
100
AcDbEntity
  8
RÚteg 1
100
AcDbSpline
210
0.0
220
0.0
230
1.0
 70
     1
 71
     3
 72
    24
 73
    20
 74
     0
 42
0.0000000001
 43
0.0000000001
 40
0.0
 40
0.0
 40
0.0
 40
0.0
 40
0.2
 40
0.2
 40
0.2
 40
0.2
 40
0.4
 40
0.4
 40
0.4
 40
0.4
 40
0.6000000000000001
 40
0.6000000000000001
 40
0.6000000000000001
 40
0.6000000000000001
 40
0.8
 40
0.8
 40
0.8
 40
0.8
 40
1.0
 40
1.0
 40
1.0
 40
1.0
 10
-10.4245
 20
-64.446299999999994
 30
0.0
 10
-17.991599999999998
 20
-66.562899999999999
 30
0.0
 10
-25.135400000000001
 20
-70.108400000000003
 30
0.0
 10
-31.3795
 20
-75.241299999999995
 30
0.0
 10
-31.3795
 20
-75.241299999999995
 30
0.0
 10
-28.098700000000001
 20
-64.446299999999994
 30
0.0
 10
-26.087900000000001
 20
-53.069200000000002
 30
0.0
 10
-15.9808
 20
-45.237499999999997
 30
0.0
 10
-15.9808
 20
-45.237499999999997
 30
0.0
 10
-13.705399999999999
 20
-43.491300000000003
 30
0.0
 10
-11.482900000000001
 20
-40.951300000000003
 30
0.0
 10
-8.6254000000000008
 20
-40.157499999999999
 30
0.0
 10
-8.6254000000000008
 20
-40.157499999999999
 30
0.0
 10
-8.2314000000000007
 20
-50.329599999999999
 30
0.0
 10
-1.0583
 20
-53.174999999999997
 30
0.0
 10
-0.8995
 20
-53.122100000000003
 30
0.0
 10
-0.8995
 20
-53.122100000000003
 30
0.0
 10
-2.6987000000000001
 20
-57.461300000000001
 30
0.0
 10
-5.7149000000000001
 20
-62.3825
 30
0.0
 10
-10.4245
 20
-64.446299999999994
 30
0.0
  0
SPLINE
  5
4B
100
AcDbEntity
  8
RÚteg 1
100
AcDbSpline
210
0.0
220
0.0
230
1.0
 70
     1
 71
     3
 72
    32
 73
    28
 74
     0
 42
0.0000000001
 43
0.0000000001
 40
0.0
 40
0.0
 40
0.0
 40
0.0
 40
0.1428571428571429
 40
0.1428571428571429
 40
0.1428571428571429
 40
0.1428571428571429
 40
0.2857142857142857
 40
0.2857142857142857
 40
0.2857142857142857
 40
0.2857142857142857
 40
0.4285714285714286
 40
0.4285714285714286
 40
0.4285714285714286
 40
0.4285714285714286
 40
0.5714285714285714
 40
0.5714285714285714
 40
0.5714285714285714
 40
0.5714285714285714
 40
0.7142857142857142
 40
0.7142857142857142
 40
0.7142857142857142
 40
0.7142857142857142
 40
0.857142857142857
 40
0.857142857142857
 40
0.857142857142857
 40
0.857142857142857
 40
1.0
 40
1.0
 40
1.0
 40
1.0
 10
28.310400000000001
 20
-55.027099999999997
 30
0.0
 10
21.872199999999999
 20
-51.710999999999999
 30
0.0
 10
4.3920000000000003
 20
-58.784199999999998
 30
0.0
 10
-2.8045
 20
-48.1479
 30
0.0
 10
-2.8045
 20
-48.1479
 30
0.0
 10
-6.0853999999999999
 20
-44.549599999999998
 30
0.0
 10
-5.7149000000000001
 20
-38.464199999999998
 30
0.0
 10
-4.0744999999999996
 20
-34.177900000000001
 30
0.0
 10
-4.0744999999999996
 20
-34.177900000000001
 30
0.0
 10
-4.0744999999999996
 20
-34.177900000000001
 30
0.0
 10
-2.8045
 20
-31.796700000000001
 30
0.0
 10
-2.8045
 20
-31.796700000000001
 30
0.0
 10
-2.8045
 20
-31.796700000000001
 30
0.0
 10
2.54
 20
-36.770899999999997
 30
0.0
 10
7.6729000000000003
 20
-43.7029
 30
0.0
 10
14.8695
 20
-44.972900000000003
 30
0.0
 10
14.8695
 20
-44.972900000000003
 30
0.0
 10
20.161200000000001
 20
-46.031300000000002
 30
0.0
 10
24.606200000000001
 20
-50.881999999999998
 30
0.0
 10
28.204499999999999
 20
-54.744900000000001
 30
0.0
 10
28.204499999999999
 20
-54.744900000000001
 30
0.0
 10
28.204499999999999
 20
-54.744900000000001
 30
0.0
 10
28.6631
 20
-55.362200000000001
 30
0.0
 10
28.6631
 20
-55.362200000000001
 30
0.0
 10
28.6631
 20
-55.362200000000001
 30
0.0
 10
28.6631
 20
-55.362200000000001
 30
0.0
 10
28.310400000000001
 20
-55.027099999999997
 30
0.0
 10
28.310400000000001
 20
-55.027099999999997
 30
0.0
  0
SPLINE
  5
4C
100
AcDbEntity
  8
RÚteg 1
100
AcDbSpline
210
0.0
220
0.0
230
1.0
 70
     1
 71
     3
 72
    28
 73
    24
 74
     0
 42
0.0000000001
 43
0.0000000001
 40
0.0
 40
0.0
 40
0.0
 40
0.0
 40
0.1666666666666667
 40
0.1666666666666667
 40
0.1666666666666667
 40
0.1666666666666667
 40
0.3333333333333333
 40
0.3333333333333333
 40
0.3333333333333333
 40
0.3333333333333333
 40
0.5
 40
0.5
 40
0.5
 40
0.5
 40
0.6666666666666666
 40
0.6666666666666666
 40
0.6666666666666666
 40
0.6666666666666666
 40
0.8333333333333333
 40
0.8333333333333333
 40
0.8333333333333333
 40
0.8333333333333333
 40
1.0
 40
1.0
 40
1.0
 40
1.0
 10
29.315799999999999
 20
-52.381300000000003
 30
0.0
 10
29.315799999999999
 20
-52.381300000000003
 30
0.0
 10
31.0091
 20
-55.397500000000001
 30
0.0
 10
31.0091
 20
-55.397500000000001
 30
0.0
 10
31.0091
 20
-55.397500000000001
 30
0.0
 10
25.8233
 20
-49.1004
 30
0.0
 10
19.314499999999999
 20
-43.385399999999997
 30
0.0
 10
11.8004
 20
-41.3217
 30
0.0
 10
11.8004
 20
-41.3217
 30
0.0
 10
7.3025000000000002
 20
-38.305399999999999
 30
0.0
 10
1.3229
 20
-35.7654
 30
0.0
 10
-0.3704
 20
-29.997499999999999
 30
0.0
 10
-0.3704
 20
-29.997499999999999
 30
0.0
 10
4.7095000000000002
 20
-30.2621
 30
0.0
 10
9.5250000000000004
 20
-31.055900000000001
 30
0.0
 10
13.229100000000001
 20
-34.707099999999997
 30
0.0
 10
13.229100000000001
 20
-34.707099999999997
 30
0.0
 10
13.229100000000001
 20
-34.707099999999997
 30
0.0
 10
18.520800000000001
 20
-41.692100000000003
 30
0.0
 10
18.520800000000001
 20
-41.692100000000003
 30
0.0
 10
18.520800000000001
 20
-41.692100000000003
 30
0.0
 10
22.806999999999999
 20
-43.861699999999999
 30
0.0
 10
27.6754
 20
-47.671700000000001
 30
0.0
 10
29.315799999999999
 20
-52.381300000000003
 30
0.0
  0
SPLINE
  5
4D
100
AcDbEntity
  8
RÚteg 1
100
AcDbSpline
210
0.0
220
0.0
230
1.0
 70
     1
 71
     3
 72
    12
 73
     8
 74
     0
 42
0.0000000001
 43
0.0000000001
 40
0.0
 40
0.0
 40
0.0
 40
0.0
 40
0.5
 40
0.5
 40
0.5
 40
0.5
 40
1.0
 40
1.0
 40
1.0
 40
1.0
 10
2.2753999999999999
 20
-25.4467
 30
0.0
 10
2.9104000000000001
 20
-22.271699999999999
 30
0.0
 10
4.2862
 20
-19.1496
 30
0.0
 10
6.9850000000000003
 20
-17.191700000000001
 30
0.0
 10
6.9850000000000003
 20
-17.191700000000001
 30
0.0
 10
7.3025000000000002
 20
-20.525400000000001
 30
0.0
 10
4.9741
 20
-23.277100000000001
 30
0.0
 10
2.2753999999999999
 20
-25.4467
 30
0.0
  0
SPLINE
  5
4E
100
AcDbEntity
  8
RÚteg 1
100
AcDbSpline
210
0.0
220
0.0
230
1.0
 70
     1
 71
     3
 72
    20
 73
    16
 74
     0
 42
0.0000000001
 43
0.0000000001
 40
0.0
 40
0.0
 40
0.0
 40
0.0
 40
0.25
 40
0.25
 40
0.25
 40
0.25
 40
0.5
 40
0.5
 40
0.5
 40
0.5
 40
0.75
 40
0.75
 40
0.75
 40
0.75
 40
1.0
 40
1.0
 40
1.0
 40
1.0
 10
27.3049
 20
-36.347499999999997
 30
0.0
 10
27.3049
 20
-36.347499999999997
 30
0.0
 10
19.050000000000001
 20
-37.141300000000001
 30
0.0
 10
19.050000000000001
 20
-37.141300000000001
 30
0.0
 10
19.050000000000001
 20
-37.141300000000001
 30
0.0
 10
15.287000000000001
 20
-33.572600000000001
 30
0.0
 10
7.6435000000000004
 20
-28.692499999999999
 30
0.0
 10
7.6435000000000004
 20
-28.692499999999999
 30
0.0
 10
7.6435000000000004
 20
-28.692499999999999
 30
0.0
 10
15.9338
 20
-27.869399999999999
 30
0.0
 10
22.277899999999999
 20
-31.214600000000001
 30
0.0
 10
27.939900000000002
 20
-35.9771
 30
0.0
 10
27.939900000000002
 20
-35.9771
 30
0.0
 10
27.939900000000002
 20
-35.9771
 30
0.0
 10
27.3049
 20
-36.347499999999997
 30
0.0
 10
27.3049
 20
-36.347499999999997
 30
0.0
  0
SPLINE
  5
4F
100
AcDbEntity
  8
RÚteg 1
100
AcDbSpline
210
0.0
220
0.0
230
1.0
 70
     1
 71
     3
 72
    48
 73
    44
 74
     0
 42
0.0000000001
 43
0.0000000001
 40
0.0
 40
0.0
 40
0.0
 40
0.0
 40
0.0909090909090909
 40
0.0909090909090909
 40
0.0909090909090909
 40
0.0909090909090909
 40
0.1818181818181818
 40
0.1818181818181818
 40
0.1818181818181818
 40
0.1818181818181818
 40
0.2727272727272727
 40
0.2727272727272727
 40
0.2727272727272727
 40
0.2727272727272727
 40
0.3636363636363637
 40
0.3636363636363637
 40
0.3636363636363637
 40
0.3636363636363637
 40
0.4545454545454546
 40
0.4545454545454546
 40
0.4545454545454546
 40
0.4545454545454546
 40
0.5454545454545455
 40
0.5454545454545455
 40
0.5454545454545455
 40
0.5454545454545455
 40
0.6363636363636365
 40
0.6363636363636365
 40
0.6363636363636365
 40
0.6363636363636365
 40
0.7272727272727274
 40
0.7272727272727274
 40
0.7272727272727274
 40
0.7272727272727274
 40
0.8181818181818183
 40
0.8181818181818183
 40
0.8181818181818183
 40
0.8181818181818183
 40
0.9090909090909093
 40
0.9090909090909093
 40
0.9090909090909093
 40
0.9090909090909093
 40
1.0
 40
1.0
 40
1.0
 40
1.0
 10
17.145
 20
-22.377500000000001
 30
0.0
 10
21.0608
 20
-21.530899999999999
 30
0.0
 10
25.4529
 20
-22.959599999999998
 30
0.0
 10
29.315799999999999
 20
-22.1129
 30
0.0
 10
29.315799999999999
 20
-22.1129
 30
0.0
 10
33.2316
 20
-19.625900000000001
 30
0.0
 10
33.654899999999998
 20
-15.6571
 30
0.0
 10
35.454099999999997
 20
-12.217499999999999
 30
0.0
 10
35.454099999999997
 20
-12.217499999999999
 30
0.0
 10
36.459499999999998
 20
-14.492900000000001
 30
0.0
 10
37.094499999999996
 20
-16.874199999999998
 30
0.0
 10
37.359099999999998
 20
-19.467099999999999
 30
0.0
 10
37.359099999999998
 20
-19.467099999999999
 30
0.0
 10
39.793300000000002
 20
-19.043800000000001
 30
0.0
 10
41.909999999999997
 20
-16.662500000000001
 30
0.0
 10
44.079500000000003
 20
-15.3925
 30
0.0
 10
44.079500000000003
 20
-15.3925
 30
0.0
 10
42.8095
 20
-18.144200000000001
 30
0.0
 10
40.534100000000002
 20
-20.366700000000002
 30
0.0
 10
38.099899999999998
 20
-22.377500000000001
 30
0.0
 10
38.099899999999998
 20
-22.377500000000001
 30
0.0
 10
41.063299999999998
 20
-24.282499999999999
 30
0.0
 10
44.6616
 20
-25.4467
 30
0.0
 10
47.360399999999998
 20
-27.986699999999999
 30
0.0
 10
47.360399999999998
 20
-27.986699999999999
 30
0.0
 10
43.285800000000002
 20
-27.140000000000001
 30
0.0
 10
39.369999999999997
 20
-25.764199999999999
 30
0.0
 10
35.560000000000002
 20
-24.282499999999999
 30
0.0
 10
35.560000000000002
 20
-24.282499999999999
 30
0.0
 10
36.406599999999997
 20
-27.2988
 30
0.0
 10
38.946599999999997
 20
-30.209199999999999
 30
0.0
 10
39.264099999999999
 20
-33.331299999999999
 30
0.0
 10
39.264099999999999
 20
-33.331299999999999
 30
0.0
 10
36.882899999999999
 20
-30.2621
 30
0.0
 10
34.237000000000002
 20
-26.769600000000001
 30
0.0
 10
30.8504
 20
-24.811699999999998
 30
0.0
 10
30.8504
 20
-24.811699999999998
 30
0.0
 10
26.087900000000001
 20
-24.652899999999999
 30
0.0
 10
21.642900000000001
 20
-23.700399999999998
 30
0.0
 10
17.145
 20
-22.906700000000001
 30
0.0
 10
17.145
 20
-22.906700000000001
 30
0.0
 10
17.145
 20
-22.906700000000001
 30
0.0
 10
17.145
 20
-22.377500000000001
 30
0.0
 10
17.145
 20
-22.377500000000001
 30
0.0
  0
SPLINE
  5
50
100
AcDbEntity
  8
RÚteg 1
100
AcDbSpline
210
0.0
220
0.0
230
1.0
 70
     1
 71
     3
 72
    24
 73
    20
 74
     0
 42
0.0000000001
 43
0.0000000001
 40
0.0
 40
0.0
 40
0.0
 40
0.0
 40
0.2
 40
0.2
 40
0.2
 40
0.2
 40
0.4
 40
0.4
 40
0.4
 40
0.4
 40
0.6000000000000001
 40
0.6000000000000001
 40
0.6000000000000001
 40
0.6000000000000001
 40
0.8
 40
0.8
 40
0.8
 40
0.8
 40
1.0
 40
1.0
 40
1.0
 40
1.0
 10
26.140799999999999
 20
-29.097899999999999
 30
0.0
 10
26.140799999999999
 20
-29.097899999999999
 30
0.0
 10
31.3795
 20
-34.812899999999999
 30
0.0
 10
31.3795
 20
-34.812899999999999
 30
0.0
 10
31.3795
 20
-34.812899999999999
 30
0.0
 10
32.014499999999998
 20
-35.306800000000003
 30
0.0
 10
31.802900000000001
 20
-35.553800000000003
 30
0.0
 10
31.644100000000002
 20
-35.606699999999996
 30
0.0
 10
31.644100000000002
 20
-35.606699999999996
 30
0.0
 10
31.167899999999999
 20
-35.7654
 30
0.0
 10
31.273700000000002
 20
-35.553800000000003
 30
0.0
 10
30.956199999999999
 20
-35.500900000000001
 30
0.0
 10
30.956199999999999
 20
-35.500900000000001
 30
0.0
 10
23.495000000000001
 20
-29.362500000000001
 30
0.0
 10
15.1341
 20
-24.9175
 30
0.0
 10
4.9741
 20
-26.081700000000001
 30
0.0
 10
4.9741
 20
-26.081700000000001
 30
0.0
 10
8.0549999999999997
 20
-23.342099999999999
 30
0.0
 10
17.9328
 20
-21.989799999999999
 30
0.0
 10
26.140799999999999
 20
-29.097899999999999
 30
0.0
  0
SPLINE
  5
51
100
AcDbEntity
  8
RÚteg 1
100
AcDbSpline
210
0.0
220
0.0
230
1.0
 70
     1
 71
     3
 72
    52
 73
    48
 74
     0
 42
0.0000000001
 43
0.0000000001
 40
0.0
 40
0.0
 40
0.0
 40
0.0
 40
0.0833333333333333
 40
0.0833333333333333
 40
0.0833333333333333
 40
0.0833333333333333
 40
0.1666666666666667
 40
0.1666666666666667
 40
0.1666666666666667
 40
0.1666666666666667
 40
0.25
 40
0.25
 40
0.25
 40
0.25
 40
0.3333333333333333
 40
0.3333333333333333
 40
0.3333333333333333
 40
0.3333333333333333
 40
0.4166666666666666
 40
0.4166666666666666
 40
0.4166666666666666
 40
0.4166666666666666
 40
0.4999999999999999
 40
0.4999999999999999
 40
0.4999999999999999
 40
0.4999999999999999
 40
0.5833333333333333
 40
0.5833333333333333
 40
0.5833333333333333
 40
0.5833333333333333
 40
0.6666666666666666
 40
0.6666666666666666
 40
0.6666666666666666
 40
0.6666666666666666
 40
0.75
 40
0.75
 40
0.75
 40
0.75
 40
0.8333333333333334
 40
0.8333333333333334
 40
0.8333333333333334
 40
0.8333333333333334
 40
0.9166666666666667
 40
0.9166666666666667
 40
0.9166666666666667
 40
0.9166666666666667
 40
1.0
 40
1.0
 40
1.0
 40
1.0
 10
19.155799999999999
 20
-3.9624999999999999
 30
0.0
 10
24.1829
 20
-2.9041999999999999
 30
0.0
 10
31.161999999999999
 20
-3.1160999999999999
 30
0.0
 10
35.483499999999999
 20
-5.3501000000000003
 30
0.0
 10
35.483499999999999
 20
-5.3501000000000003
 30
0.0
 10
35.483499999999999
 20
-5.3501000000000003
 30
0.0
 10
23.5185
 20
-5.6444000000000001
 30
0.0
 10
18.520800000000001
 20
-7.7725
 30
0.0
 10
18.520800000000001
 20
-7.7725
 30
0.0
 10
15.875
 20
-9.5716999999999999
 30
0.0
 10
14.922499999999999
 20
-13.222899999999999
 30
0.0
 10
11.6945
 20
-14.1225
 30
0.0
 10
11.6945
 20
-14.1225
 30
0.0
 10
11.6945
 20
-14.1225
 30
0.0
 10
6.0853999999999999
 20
-15.0221
 30
0.0
 10
6.0853999999999999
 20
-15.0221
 30
0.0
 10
6.0853999999999999
 20
-15.0221
 30
0.0
 10
3.1749999999999998
 20
-18.0913
 30
0.0
 10
1.6933
 20
-21.795400000000001
 30
0.0
 10
0.1058
 20
-25.4467
 30
0.0
 10
0.1058
 20
-25.4467
 30
0.0
 10
-0.2351
 20
-25.4588
 30
0.0
 10
-0.635
 20
-25.4467
 30
0.0
 10
-0.8995
 20
-25.182099999999998
 30
0.0
 10
-0.8995
 20
-25.182099999999998
 30
0.0
 10
0.1587
 20
-20.948799999999999
 30
0.0
 10
2.2753999999999999
 20
-16.7684
 30
0.0
 10
5.4504000000000001
 20
-13.222899999999999
 30
0.0
 10
5.4504000000000001
 20
-13.222899999999999
 30
0.0
 10
6.3499999999999996
 20
-9.9420999999999999
 30
0.0
 10
5.9794999999999998
 20
-6.1321000000000003
 30
0.0
 10
8.5195000000000007
 20
-3.4863
 30
0.0
 10
8.5195000000000007
 20
-3.4863
 30
0.0
 10
10.371600000000001
 20
-1.1578999999999999
 30
0.0
 10
11.959099999999999
 20
1.2761
 30
0.0
 10
12.1708
 20
4.2923999999999998
 30
0.0
 10
12.1708
 20
4.2923999999999998
 30
0.0
 10
13.970000000000001
 20
2.2286000000000001
 30
0.0
 10
13.970000000000001
 20
-0.5229
 30
0.0
 10
14.710800000000001
 20
-2.9571000000000001
 30
0.0
 10
14.710800000000001
 20
-2.9571000000000001
 30
0.0
 10
20.6904
 20
1.1173999999999999
 30
0.0
 10
27.939900000000002
 20
2.7578
 30
0.0
 10
35.454099999999997
 20
3.3927999999999998
 30
0.0
 10
35.454099999999997
 20
3.3927999999999998
 30
0.0
 10
30.003699999999998
 20
1.2232000000000001
 30
0.0
 10
23.9712
 20
-0.0467
 30
0.0
 10
19.155799999999999
 20
-3.9624999999999999
 30
0.0
  0
SPLINE
  5
52
100
AcDbEntity
  8
RÚteg 1
100
AcDbSpline
210
0.0
220
0.0
230
1.0
 70
     1
 71
     3
 72
    20
 73
    16
 74
     0
 42
0.0000000001
 43
0.0000000001
 40
0.0
 40
0.0
 40
0.0
 40
0.0
 40
0.25
 40
0.25
 40
0.25
 40
0.25
 40
0.5
 40
0.5
 40
0.5
 40
0.5
 40
0.75
 40
0.75
 40
0.75
 40
0.75
 40
1.0
 40
1.0
 40
1.0
 40
1.0
 10
43.709099999999999
 20
15.933999999999999
 30
0.0
 10
43.709099999999999
 20
15.933999999999999
 30
0.0
 10
25.929099999999998
 20
3.7629000000000001
 30
0.0
 10
24.970700000000001
 20
3.1105999999999998
 30
0.0
 10
24.970700000000001
 20
3.1105999999999998
 30
0.0
 10
24.970700000000001
 20
3.1105999999999998
 30
0.0
 10
24.518000000000001
 20
4.1159999999999997
 30
0.0
 10
24.518000000000001
 20
4.1159999999999997
 30
0.0
 10
24.518000000000001
 20
4.1159999999999997
 30
0.0
 10
30.285900000000002
 20
9.3018000000000001
 30
0.0
 10
37.517899999999997
 20
13.076499999999999
 30
0.0
 10
43.9208
 20
16.833600000000001
 30
0.0
 10
43.9208
 20
16.833600000000001
 30
0.0
 10
43.9208
 20
16.833600000000001
 30
0.0
 10
43.709099999999999
 20
15.933999999999999
 30
0.0
 10
43.709099999999999
 20
15.933999999999999
 30
0.0
  0
SPLINE
  5
53
100
AcDbEntity
  8
RÚteg 1
100
AcDbSpline
210
0.0
220
0.0
230
1.0
 70
     1
 71
     3
 72
    52
 73
    48
 74
     0
 42
0.0000000001
 43
0.0000000001
 40
0.0
 40
0.0
 40
0.0
 40
0.0
 40
0.0833333333333333
 40
0.0833333333333333
 40
0.0833333333333333
 40
0.0833333333333333
 40
0.1666666666666667
 40
0.1666666666666667
 40
0.1666666666666667
 40
0.1666666666666667
 40
0.25
 40
0.25
 40
0.25
 40
0.25
 40
0.3333333333333333
 40
0.3333333333333333
 40
0.3333333333333333
 40
0.3333333333333333
 40
0.4166666666666666
 40
0.4166666666666666
 40
0.4166666666666666
 40
0.4166666666666666
 40
0.4999999999999999
 40
0.4999999999999999
 40
0.4999999999999999
 40
0.4999999999999999
 40
0.5833333333333333
 40
0.5833333333333333
 40
0.5833333333333333
 40
0.5833333333333333
 40
0.6666666666666666
 40
0.6666666666666666
 40
0.6666666666666666
 40
0.6666666666666666
 40
0.75
 40
0.75
 40
0.75
 40
0.75
 40
0.8333333333333334
 40
0.8333333333333334
 40
0.8333333333333334
 40
0.8333333333333334
 40
0.9166666666666667
 40
0.9166666666666667
 40
0.9166666666666667
 40
0.9166666666666667
 40
1.0
 40
1.0
 40
1.0
 40
1.0
 10
41.539499999999997
 20
23.606999999999999
 30
0.0
 10
37.623699999999999
 20
28.634
 30
0.0
 10
30.532900000000001
 20
27.469899999999999
 30
0.0
 10
27.3049
 20
32.867400000000004
 30
0.0
 10
27.3049
 20
32.867400000000004
 30
0.0
 10
26.670000000000002
 20
34.190300000000001
 30
0.0
 10
27.093299999999999
 20
35.619
 30
0.0
 10
27.6754
 20
36.783200000000001
 30
0.0
 10
27.6754
 20
36.783200000000001
 30
0.0
 10
32.384999999999998
 20
40.540300000000002
 30
0.0
 10
40.4283
 20
40.540300000000002
 30
0.0
 10
45.614100000000001
 20
37.788600000000002
 30
0.0
 10
45.614100000000001
 20
37.788600000000002
 30
0.0
 10
48.841999999999999
 20
36.042400000000001
 30
0.0
 10
52.704900000000002
 20
32.444000000000003
 30
0.0
 10
53.869100000000003
 20
28.7928
 30
0.0
 10
53.869100000000003
 20
28.7928
 30
0.0
 10
53.763300000000001
 20
28.475300000000001
 30
0.0
 10
53.392899999999997
 20
28.369499999999999
 30
0.0
 10
53.075400000000002
 20
28.4224
 30
0.0
 10
53.075400000000002
 20
28.4224
 30
0.0
 10
50.694099999999999
 20
32.497
 30
0.0
 10
46.778300000000002
 20
37.136000000000003
 30
0.0
 10
41.751199999999997
 20
38.141399999999997
 30
0.0
 10
41.751199999999997
 20
38.141399999999997
 30
0.0
 10
38.488
 20
39.229100000000003
 30
0.0
 10
31.9498
 20
37.8827
 30
0.0
 10
30.656300000000002
 20
36.589199999999998
 30
0.0
 10
30.656300000000002
 20
36.589199999999998
 30
0.0
 10
30.074300000000001
 20
35.689599999999999
 30
0.0
 10
29.809699999999999
 20
34.807699999999997
 30
0.0
 10
30.462299999999999
 20
33.960999999999999
 30
0.0
 10
30.462299999999999
 20
33.960999999999999
 30
0.0
 10
30.867999999999999
 20
32.514600000000002
 30
0.0
 10
38.099899999999998
 20
29.427800000000001
 30
0.0
 10
41.380800000000001
 20
25.723600000000001
 30
0.0
 10
41.380800000000001
 20
25.723600000000001
 30
0.0
 10
44.238300000000002
 20
23.342400000000001
 30
0.0
 10
48.259999999999998
 20
23.924499999999998
 30
0.0
 10
50.694099999999999
 20
20.537800000000001
 30
0.0
 10
50.694099999999999
 20
20.537800000000001
 30
0.0
 10
53.498699999999999
 20
17.5745
 30
0.0
 10
54.715800000000002
 20
13.976100000000001
 30
0.0
 10
56.620800000000003
 20
10.6424
 30
0.0
 10
56.620800000000003
 20
10.6424
 30
0.0
 10
53.075400000000002
 20
16.145700000000001
 30
0.0
 10
47.730800000000002
 20
21.754899999999999
 30
0.0
 10
41.539499999999997
 20
23.606999999999999
 30
0.0
  0
SPLINE
  5
54
100
AcDbEntity
  8
RÚteg 1
100
AcDbSpline
210
0.0
220
0.0
230
1.0
 70
     1
 71
     3
 72
    20
 73
    16
 74
     0
 42
0.0000000001
 43
0.0000000001
 40
0.0
 40
0.0
 40
0.0
 40
0.0
 40
0.25
 40
0.25
 40
0.25
 40
0.25
 40
0.5
 40
0.5
 40
0.5
 40
0.5
 40
0.75
 40
0.75
 40
0.75
 40
0.75
 40
1.0
 40
1.0
 40
1.0
 40
1.0
 10
54.2395
 20
33.2378
 30
0.0
 10
54.398299999999999
 20
33.872799999999998
 30
0.0
 10
54.927399999999999
 20
34.1374
 30
0.0
 10
55.509500000000003
 20
34.402000000000001
 30
0.0
 10
55.509500000000003
 20
34.402000000000001
 30
0.0
 10
55.985799999999998
 20
34.084499999999998
 30
0.0
 10
56.620800000000003
 20
33.4495
 30
0.0
 10
56.885399999999997
 20
32.867400000000004
 30
0.0
 10
56.885399999999997
 20
32.867400000000004
 30
0.0
 10
56.779499999999999
 20
32.232399999999998
 30
0.0
 10
56.620800000000003
 20
31.650300000000001
 30
0.0
 10
56.620800000000003
 20
30.962399999999999
 30
0.0
 10
56.620800000000003
 20
30.962399999999999
 30
0.0
 10
55.774099999999997
 20
31.068200000000001
 30
0.0
 10
54.821599999999997
 20
32.391100000000002
 30
0.0
 10
54.2395
 20
33.2378
 30
0.0
  0
SPLINE
  5
55
100
AcDbEntity
  8
RÚteg 1
100
AcDbSpline
210
0.0
220
0.0
230
1.0
 70
     1
 71
     3
 72
    28
 73
    24
 74
     0
 42
0.0000000001
 43
0.0000000001
 40
0.0
 40
0.0
 40
0.0
 40
0.0
 40
0.1666666666666667
 40
0.1666666666666667
 40
0.1666666666666667
 40
0.1666666666666667
 40
0.3333333333333333
 40
0.3333333333333333
 40
0.3333333333333333
 40
0.3333333333333333
 40
0.5
 40
0.5
 40
0.5
 40
0.5
 40
0.6666666666666666
 40
0.6666666666666666
 40
0.6666666666666666
 40
0.6666666666666666
 40
0.8333333333333333
 40
0.8333333333333333
 40
0.8333333333333333
 40
0.8333333333333333
 40
1.0
 40
1.0
 40
1.0
 40
1.0
 10
66.039900000000003
 20
9.0020000000000007
 30
0.0
 10
64.505399999999995
 20
7.7320000000000002
 30
0.0
 10
62.229900000000001
 20
8.6315000000000008
 30
0.0
 10
60.430799999999998
 20
8.7373999999999992
 30
0.0
 10
60.430799999999998
 20
8.7373999999999992
 30
0.0
 10
61.965400000000002
 20
9.1077999999999992
 30
0.0
 10
63.870399999999997
 20
10.007400000000001
 30
0.0
 10
64.505399999999995
 20
11.6478
 30
0.0
 10
64.505399999999995
 20
11.6478
 30
0.0
 10
64.664100000000005
 20
14.2407
 30
0.0
 10
64.611199999999997
 20
17.098199999999999
 30
0.0
 10
66.145799999999994
 20
19.267800000000001
 30
0.0
 10
66.145799999999994
 20
19.267800000000001
 30
0.0
 10
65.510800000000003
 20
23.924499999999998
 30
0.0
 10
60.3249
 20
26.252800000000001
 30
0.0
 10
56.779499999999999
 20
28.157800000000002
 30
0.0
 10
56.779499999999999
 20
28.157800000000002
 30
0.0
 10
59.266599999999997
 20
29.9861
 30
0.0
 10
68.144900000000007
 20
24.047599999999999
 30
0.0
 10
68.474100000000007
 20
17.7332
 30
0.0
 10
68.474100000000007
 20
17.7332
 30
0.0
 10
66.674899999999994
 20
15.352
 30
0.0
 10
69.585400000000007
 20
10.853999999999999
 30
0.0
 10
66.039900000000003
 20
9.0020000000000007
 30
0.0
  0
SPLINE
  5
56
100
AcDbEntity
  8
RÚteg 1
100
AcDbSpline
210
0.0
220
0.0
230
1.0
 70
     1
 71
     3
 72
    20
 73
    16
 74
     0
 42
0.0000000001
 43
0.0000000001
 40
0.0
 40
0.0
 40
0.0
 40
0.0
 40
0.25
 40
0.25
 40
0.25
 40
0.25
 40
0.5
 40
0.5
 40
0.5
 40
0.5
 40
0.75
 40
0.75
 40
0.75
 40
0.75
 40
1.0
 40
1.0
 40
1.0
 40
1.0
 10
85.090000000000003
 20
21.278600000000001
 30
0.0
 10
79.110399999999998
 20
22.813199999999998
 30
0.0
 10
73.501199999999997
 20
25.3003
 30
0.0
 10
67.5745
 20
26.993600000000001
 30
0.0
 10
67.5745
 20
26.993600000000001
 30
0.0
 10
67.5745
 20
26.993600000000001
 30
0.0
 10
67.5745
 20
27.258199999999999
 30
0.0
 10
67.5745
 20
27.258199999999999
 30
0.0
 10
67.5745
 20
27.258199999999999
 30
0.0
 10
74.136200000000002
 20
27.258199999999999
 30
0.0
 10
79.639499999999998
 20
24.771100000000001
 30
0.0
 10
85.090000000000003
 20
22.072399999999998
 30
0.0
 10
85.090000000000003
 20
22.072399999999998
 30
0.0
 10
85.090000000000003
 20
22.072399999999998
 30
0.0
 10
85.090000000000003
 20
21.278600000000001
 30
0.0
 10
85.090000000000003
 20
21.278600000000001
 30
0.0
  0
SPLINE
  5
57
100
AcDbEntity
  8
RÚteg 1
100
AcDbSpline
210
0.0
220
0.0
230
1.0
 70
     1
 71
     3
 72
    16
 73
    12
 74
     0
 42
0.0000000001
 43
0.0000000001
 40
0.0
 40
0.0
 40
0.0
 40
0.0
 40
0.3333333333333333
 40
0.3333333333333333
 40
0.3333333333333333
 40
0.3333333333333333
 40
0.6666666666666666
 40
0.6666666666666666
 40
0.6666666666666666
 40
0.6666666666666666
 40
1.0
 40
1.0
 40
1.0
 40
1.0
 10
66.569100000000006
 20
30.697800000000001
 30
0.0
 10
66.498599999999996
 20
31.809000000000001
 30
0.0
 10
66.569100000000006
 20
30.697800000000001
 30
0.0
 10
66.622
 20
31.5092
 30
0.0
 10
66.622
 20
31.5092
 30
0.0
 10
68.209500000000006
 20
32.091299999999997
 30
0.0
 10
75.435599999999994
 20
36.159700000000001
 30
0.0
 10
85.989500000000007
 20
30.962399999999999
 30
0.0
 10
85.989500000000007
 20
30.962399999999999
 30
0.0
 10
79.798299999999998
 20
32.020699999999998
 30
0.0
 10
72.495800000000003
 20
32.867400000000004
 30
0.0
 10
66.569100000000006
 20
30.697800000000001
 30
0.0
  0
ENDSEC
  0
SECTION
  2
OBJECTS
  0
DICTIONARY
  5
19
100
AcDbDictionary
280
     0
281
     1
  3
ACAD_GROUP
350
1A
  3
ACAD_MLINESTYLE
350
1B
  3
ACAD_LAYOUT
350
1E
  3
ACAD_PLOTSETTINGS
350
22
  3
ACAD_PLOTSTYLENAME
350
1F
  3
ACAD_WIPEOUT_VARS
350
23
  0
DICTIONARY
  5
1A
102
{ACAD_REACTORS
330
19
102
}
100
AcDbDictionary
280
     0
281
     1
  0
DICTIONARY
  5
1B
102
{ACAD_REACTORS
330
19
102
}
100
AcDbDictionary
280
     0
281
     1
  3
Standard
350
1C
  0
MLINESTYLE
  5
1C
102
{ACAD_REACTORS
330
1B
102
}
100
AcDbMlineStyle
  2
Standard
 70
     0
  3

 62
     0
 51
90.0
 52
90.0
 71
     2
 49
0.5
 62
   256
  6
BYLAYER
 49
-0.5
 62
   256
  6
BYLAYER
  0
ACDBDICTIONARYWDFLT
  5
1F
102
{ACAD_REACTORS
330
19
102
}
100
AcDbDictionary
281
     1
  3
Normal
350
1D
100
AcDbDictionaryWithDefault
340
1D
  0
ACDBPLACEHOLDER
  5
1D
102
{ACAD_REACTORS
330
1F
102
}
  0
LAYOUT
  5
20
102
{ACAD_REACTORS
330
1E
102
}
100
AcDbPlotSettings
  1

  2

  4

  6

 40
0.0
 41
0.0
 42
0.0
 43
0.0
 44
0.0
 45
0.0
 46
0.0
 47
0.0
 48
0.0
 49
0.0
140
0.0
141
0.0
142
1.0
143
1.0
 70
  1024
 72
     0
 73
     0
 74
     0
  7

 75
     0
147
1.0
148
0.0
149
0.0
100
AcDbLayout
  1
Model
 70
     0
 71
     0
 10
0.0
 20
0.0
 11
0.0
 21
0.0
 12
0.0
 22
0.0
 32
0.0
 14
0.0
 24
0.0
 34
0.0
 15
0.0
 25
0.0
 35
0.0
146
0.0
 13
0.0
 23
0.0
 33
0.0
 16
0.0
 26
0.0
 36
0.0
 17
0.0
 27
0.0
 37
0.0
 76
     0
330
A
331
0
345
0
346
0
  0
LAYOUT
  5
21
102
{ACAD_REACTORS
330
1E
102
}
100
AcDbPlotSettings
  1

  2

  4

  6

 40
0.0
 41
0.0
 42
0.0
 43
0.0
 44
0.0
 45
0.0
 46
0.0
 47
0.0
 48
0.0
 49
0.0
140
0.0
141
0.0
142
1.0
143
1.0
 70
     0
 72
     0
 73
     0
 74
     0
  7

 75
     0
147
1.0
148
0.0
149
0.0
100
AcDbLayout
  1
Layout1
 70
     0
 71
     0
 10
0.0
 20
0.0
 11
0.0
 21
0.0
 12
0.0
 22
0.0
 32
0.0
 14
0.0
 24
0.0
 34
0.0
 15
0.0
 25
0.0
 35
0.0
146
0.0
 13
0.0
 23
0.0
 33
0.0
 16
0.0
 26
0.0
 36
0.0
 17
0.0
 27
0.0
 37
0.0
 76
     0
330
B
331
0
345
0
346
0
  0
DICTIONARY
  5
1E
102
{ACAD_REACTORS
330
19
102
}
100
AcDbDictionary
280
     0
281
     1
  3
Layout1
350
21
  3
Model
350
20
  0
DICTIONARY
  5
22
102
{ACAD_REACTORS
330
19
102
}
100
AcDbDictionary
280
     0
281
     1
  0
WIPEOUTVARIABLES
  5
23
100
AcDbWipeoutVariables
 70
     1
  0
ENDSEC
  0
EOF
