  0
SECTION
  2
HEADER
  9
$ACADVER
  1
AC1015
  9
$ACADMAINTVER
 70
     6
  9
$DWGCODEPAGE
  3
DOS850
  9
$INSBASE
 10
0.0
 20
0.0
 30
0.0
  9
$EXTMIN
 10
-77.4727
 20
-98.3159
 30
1.000000E+20
  9
$EXTMAX
 10
77.454
 20
98.4862
 30
-1.000000E+20
  9
$LIMMIN
 10
0.0
 20
0.0
  9
$LIMMAX
 10
0.0
 20
0.0
  9
$ORTHOMODE
 70
     0
  9
$REGENMODE
 70
     1
  9
$FILLMODE
 70
     1
  9
$QTEXTMODE
 70
     0
  9
$MIRRTEXT
 70
     1
  9
$LTSCALE
 40
1.0
  9
$ATTMODE
 70
     1
  9
$TEXTSIZE
 40
0.2
  9
$TRACEWID
 40
0.05
  9
$TEXTSTYLE
  7
Standard
  9
$CLAYER
  8
0
  9
$CELTYPE
  6
Continuous
  9
$CECOLOR
 62
   256
  9
$CELTSCALE
 40
1.0
  9
$DISPSILH
 70
     0
  9
$DIMSCALE
 40
1.0
  9
$DIMASZ
 40
0.18
  9
$DIMEXO
 40
0.0625
  9
$DIMDLI
 40
0.38
  9
$DIMRND
 40
0.0
  9
$DIMDLE
 40
0.0
  9
$DIMEXE
 40
0.18
  9
$DIMTP
 40
0.0
  9
$DIMTM
 40
0.0
  9
$DIMTXT
 40
0.18
  9
$DIMCEN
 40
0.09
  9
$DIMTSZ
 40
0.0
  9
$DIMTOL
 70
     0
  9
$DIMLIM
 70
     0
  9
$DIMTIH
 70
     1
  9
$DIMTOH
 70
     1
  9
$DIMSE1
 70
     0
  9
$DIMSE2
 70
     0
  9
$DIMTAD
 70
     0
  9
$DIMZIN
 70
     0
  9
$DIMBLK
  1

  9
$DIMASO
 70
     1
  9
$DIMSHO
 70
     1
  9
$DIMPOST
  1

  9
$DIMAPOST
  1

  9
$DIMALT
 70
     0
  9
$DIMALTD
 70
     2
  9
$DIMALTF
 40
25.4
  9
$DIMLFAC
 40
1.0
  9
$DIMTOFL
 70
     0
  9
$DIMTVP
 40
0.0
  9
$DIMTIX
 70
     0
  9
$DIMSOXD
 70
     0
  9
$DIMSAH
 70
     0
  9
$DIMBLK1
  1

  9
$DIMBLK2
  1

  9
$DIMSTYLE
  2
Standard
  9
$DIMCLRD
 70
     0
  9
$DIMCLRE
 70
     0
  9
$DIMCLRT
 70
     0
  9
$DIMTFAC
 40
1.0
  9
$DIMGAP
 40
0.09
  9
$DIMJUST
 70
     0
  9
$DIMSD1
 70
     0
  9
$DIMSD2
 70
     0
  9
$DIMTOLJ
 70
     1
  9
$DIMTZIN
 70
     0
  9
$DIMALTZ
 70
     0
  9
$DIMALTTZ
 70
     0
  9
$DIMUPT
 70
     0
  9
$DIMDEC
 70
     4
  9
$DIMTDEC
 70
     4
  9
$DIMALTU
 70
     2
  9
$DIMALTTD
 70
     2
  9
$DIMTXSTY
  7
Standard
  9
$DIMAUNIT
 70
     0
  9
$DIMADEC
 70
     0
  9
$DIMALTRND
 40
0.0
  9
$DIMAZIN
 70
     0
  9
$DIMDSEP
 70
     0
  9
$DIMATFIT
 70
     3
  9
$DIMFRAC
 70
     0
  9
$DIMLDRBLK
  1

  9
$DIMLUNIT
 70
     2
  9
$DIMLWD
 70
     0
  9
$DIMLWE
 70
     0
  9
$DIMTMOVE
 70
     0
  9
$LUNITS
 70
     2
  9
$LUPREC
 70
     4
  9
$SKETCHINC
 40
0.1
  9
$FILLETRAD
 40
0.0
  9
$AUNITS
 70
     0
  9
$AUPREC
 70
     0
  9
$MENU
  1
acad
  9
$ELEVATION
 40
0.0
  9
$PELEVATION
 40
0.0
  9
$THICKNESS
 40
0.0
  9
$LIMCHECK
 70
     0
  9
$CHAMFERA
 40
0.0
  9
$CHAMFERB
 40
0.0
  9
$CHAMFERC
 40
0.0
  9
$CHAMFERD
 40
0.0
  9
$SKPOLY
 70
     0
  9
$TDCREATE
 40
0.000000000
  9
$TDUCREATE
 40
0.000000000
  9
$TDUPDATE
 40
0.000000000
  9
$TDUUPDATE
 40
0.000000000
  9
$TDINDWG
 40
0.0000000000
  9
$TDUSRTIMER
 40
0.0000000000
  9
$USRTIMER
 70
     1
  9
$ANGBASE
 50
0.0
  9
$ANGDIR
 70
     0
  9
$PDMODE
 70
     0
  9
$PDSIZE
 40
0.0
  9
$PLINEWID
 40
0.0
  9
$SPLFRAME
 70
     0
  9
$SPLINETYPE
 70
     6
  9
$SPLINESEGS
 70
     8
  9
$HANDSEED
  5
6C
  9
$SURFTAB1
 70
     6
  9
$SURFTAB2
 70
     6
  9
$SURFTYPE
 70
     6
  9
$SURFU
 70
     6
  9
$SURFV
 70
     6
  9
$UCSBASE
  2

  9
$UCSNAME
  2

  9
$UCSORG
 10
0.0
 20
0.0
 30
0.0
  9
$UCSXDIR
 10
1.0
 20
0.0
 30
0.0
  9
$UCSYDIR
 10
0.0
 20
1.0
 30
0.0
  9
$UCSORTHOREF
  2

  9
$UCSORTHOVIEW
 70
     0
  9
$UCSORGTOP
 10
0.0
 20
0.0
 30
0.0
  9
$UCSORGBOTTOM
 10
0.0
 20
0.0
 30
0.0
  9
$UCSORGLEFT
 10
0.0
 20
0.0
 30
0.0
  9
$UCSORGRIGHT
 10
0.0
 20
0.0
 30
0.0
  9
$UCSORGFRONT
 10
0.0
 20
0.0
 30
0.0
  9
$UCSORGBACK
 10
0.0
 20
0.0
 30
0.0
  9
$PUCSBASE
  2

  9
$PUCSNAME
  2

  9
$PUCSORG
 10
0.0
 20
0.0
 30
0.0
  9
$PUCSXDIR
 10
1.0
 20
0.0
 30
0.0
  9
$PUCSYDIR
 10
0.0
 20
1.0
 30
0.0
  9
$PUCSORTHOREF
  2

  9
$PUCSORTHOVIEW
 70
     0
  9
$PUCSORGTOP
 10
0.0
 20
0.0
 30
0.0
  9
$PUCSORGBOTTOM
 10
0.0
 20
0.0
 30
0.0
  9
$PUCSORGLEFT
 10
0.0
 20
0.0
 30
0.0
  9
$PUCSORGRIGHT
 10
0.0
 20
0.0
 30
0.0
  9
$PUCSORGFRONT
 10
0.0
 20
0.0
 30
0.0
  9
$PUCSORGBACK
 10
0.0
 20
0.0
 30
0.0
  9
$USERI1
 70
     0
  9
$USERI2
 70
     0
  9
$USERI3
 70
     0
  9
$USERI4
 70
     0
  9
$USERI5
 70
     0
  9
$USERR1
 40
0.0
  9
$USERR2
 40
0.0
  9
$USERR3
 40
0.0
  9
$USERR4
 40
0.0
  9
$USERR5
 40
0.0
  9
$WORLDVIEW
 70
     1
  9
$SHADEDGE
 70
     3
  9
$SHADEDIF
 70
    70
  9
$TILEMODE
 70
     1
  9
$MAXACTVP
 70
    16
  9
$PINSBASE
 10
0.0
 20
0.0
 30
0.0
  9
$PLIMCHECK
 70
     0
  9
$PEXTMIN
 10
1.000000E+20
 20
1.000000E+20
 30
1.000000E+20
  9
$PEXTMAX
 10
-1.000000E+20
 20
-1.000000E+20
 30
-1.000000E+20
  9
$PLIMMIN
 10
0.0
 20
0.0
  9
$PLIMMAX
 10
12.0
 20
9.0
  9
$UNITMODE
 70
     0
  9
$VISRETAIN
 70
     0
  9
$PLINEGEN
 70
     1
  9
$PSLTSCALE
 70
     0
  9
$TREEDEPTH
 70
  3020
  9
$CMLSTYLE
  2
Standard
  9
$CMLJUST
 70
     0
  9
$CMLSCALE
 40
1.0
  9
$PROXYGRAPHICS
 70
     0
  9
$MEASUREMENT
 70
     0
  9
$CELWEIGHT
370
     0
  9
$ENDCAPS
280
     0
  9
$JOINSTYLE
280
     0
  9
$LWDISPLAY
290
     0
  9
$INSUNITS
 70
     4
  9
$HYPERLINKBASE
  1

  9
$XEDIT
290
     1
  9
$CEPSNTYPE
380
     0
  9
$PSTYLEMODE
290
     1
  9
$FINGERPRINTGUID
  2

  9
$VERSIONGUID
  2

  9
$EXTNAMES
290
     1
  9
$PSVPSCALE
 40
0.0
  0
ENDSEC
  0
SECTION
  2
CLASSES
  0
CLASS
  1
LWPOLYLINE
  2
AcDbPolyline
  3
AutoCAD 2000
 90
    32768
280
     0
281
     1
  0
CLASS
  1
IMAGE
  2
AcDbRasterImage
  3
ISM
 90
    32895
280
     0
281
     1
  0
CLASS
  1
OLE2FRAME
  2
AcDbOle2Frame
  3
AutoCAD 2000
 90
    32768
280
     0
281
     1
  0
CLASS
  1
HATCH
  2
AcDbHatch
  3
AutoCAD 2000
 90
    32768
280
     0
281
     1
  0
CLASS
  1
DICTIONARYVAR
  2
AcDbDictionaryVar
  3
AutoCAD 2000
 90
    32768
280
     0
281
     0
  0
CLASS
  1
RASTERVARIABLES
  2
AcDbRasterVariables
  3
ISM
 90
    32768
280
     0
281
     0
  0
CLASS
  1
IMAGEDEF
  2
AcDbRasterImageDef
  3
ISM
 90
    32768
280
     0
281
     0
  0
CLASS
  1
IMAGEDEF_REACTOR
  2
AcDbRasterImageDefReactor
  3
ISM
 90
    32769
280
     0
281
     0
  0
CLASS
  1
IDBUFFER
  2
AcDbIdBuffer
  3
AutoCAD 2000
 90
    32768
280
     0
281
     0
  0
CLASS
  1
SPATIAL_FILTER
  2
AcDbSpatialFilter
  3
AutoCAD 2000
 90
    32768
280
     0
281
     0
  0
CLASS
  1
XRECORD
  2
AcDbXrecord
  3
AutoCAD 2000
 90
    32768
280
     0
281
     0
  0
CLASS
  1
SORTENTSTABLE
  2
AcDbSortentsTable
  3
AutoCAD 2000
 90
    32768
280
     0
281
     0
  0
CLASS
  1
LAYER_INDEX
  2
AcDbLayerIndex
  3
AutoCAD 2000
 90
    32768
280
     0
281
     0
  0
CLASS
  1
SPATIAL_INDEX
  2
AcDbSpatialIndex
  3
AutoCAD 2000
 90
    32768
280
     0
281
     0
  0
CLASS
  1
OBJECT_PTR
  2
CAseDLPNTableRecord
  3
"ASE-LPNTableRecord"
 90
    32769
280
     0
281
     0
  0
CLASS
  1
LAYOUT
  2
AcDbLayout
  3
AutoCAD 2000
 90
        0
280
     0
281
     0
  0
CLASS
  1
PLOTSETTINGS
  2
AcDbPlotSettings
  3
AutoCAD 2000
 90
    32768
280
     0
281
     0
  0
CLASS
  1
ACDBDICTIONARYWDFLT
  2
AcDbDictionaryWithDefault
  3
AutoCAD 2000
 90
        0
280
     0
281
     0
  0
CLASS
  1
ACDBPLACEHOLDER
  2
AcDbPlaceHolder
  3
AutoCAD 2000
 90
        0
280
     0
281
     0
  0
CLASS
  1
VBA_PROJECT
  2
AcDbVbaProject
  3
acadvba
 90
    32768
280
     0
281
     0
  0
CLASS
  1
WIPEOUT
  2
AcDbWipeout
  3
WipeOut|AutoCAD Express Tool|expresstools@autodesk.com
 90
    32895
280
     0
281
     1
  0
CLASS
  1
WIPEOUTVARIABLES
  2
AcDbWipeoutVariables
  3
WipeOut|AutoCAD Express Tool|expresstools@autodesk.com
 90
        0
280
     0
281
     0
  0
CLASS
  1
RTEXT
  2
RText
  3
RText|AutoCAD Express Tool|expresstools@autodesk.com
 90
    32768
280
     0
281
     1
  0
CLASS
  1
ARCALIGNEDTEXT
  2
AcDbArcAlignedText
  3
ATEXT|AutoCAD Express Tool|expresstools@autodesk.com
 90
    32768
280
     0
281
     1
  0
ENDSEC
  0
SECTION
  2
TABLES
  0
TABLE
  2
VPORT
  5
7
100
AcDbSymbolTable
 70
     1
  0
VPORT
  5
15
100
AcDbSymbolTableRecord
100
AcDbViewportTableRecord
  2
*ACTIVE
 70
     0
 10
0.0
 20
0.0
 11
1.0
 21
1.0
 12
6.591288
 22
4.579184
 13
0.0
 23
0.0
 14
1.0
 24
1.0
 15
0.0
 25
0.0
 16
0.0
 26
0.0
 36
1.0
 17
0.0
 27
0.0
 37
0.0
 40
9.158369
 41
0.688564
 42
50.0
 43
0.0
 44
0.0
 50
0.0
 51
0.0
 71
     0
 72
   100
 73
     1
 74
     1
 75
     0
 76
     0
 77
     0
 78
     0
281
     0
 65
     0
110
0.0
120
0.0
130
0.0
111
1.0
121
0.0
131
0.0
112
0.0
122
1.0
132
0.0
345
0
346
0
 79
     0
146
0.0
  0
ENDTAB
  0
TABLE
  2
LTYPE
  5
4
100
AcDbSymbolTable
 70
     3
  0
LTYPE
  5
11
100
AcDbSymbolTableRecord
100
AcDbLinetypeTableRecord
  2
ByBlock
 70
    64
  3

 72
    65
 73
     0
 40
0.0
  0
LTYPE
  5
12
100
AcDbSymbolTableRecord
100
AcDbLinetypeTableRecord
  2
ByLayer
 70
    64
  3

 72
    65
 73
     0
 40
0.0
  0
LTYPE
  5
13
100
AcDbSymbolTableRecord
100
AcDbLinetypeTableRecord
  2
Continuous
 70
    64
  3
Solid line
 72
    65
 73
     0
 40
0.0
  0
ENDTAB
  0
TABLE
  2
LAYER
  5
2
100
AcDbSymbolTable
 70
     2
  0
LAYER
  5
14
100
AcDbSymbolTableRecord
100
AcDbLayerTableRecord
  2
0
 70
     0
 62
     7
  6
Continuous
290
     1
370
    -3
390
1D
  0
LAYER
  5
24
100
AcDbSymbolTableRecord
100
AcDbLayerTableRecord
  2
RÚteg 1
 70
     0
 62
     7
  6
Continuous
290
     1
370
    -3
390
1F
  0
ENDTAB
  0
TABLE
  2
STYLE
  5
3
100
AcDbSymbolTable
 70
     1
  0
STYLE
  5
17
100
AcDbSymbolTableRecord
100
AcDbTextStyleTableRecord
  2
Standard
 70
     0
 40
0.0
 41
1.0
 50
0.0
 71
     0
 42
0.0
  3
txt
  4

  0
ENDTAB
  0
TABLE
  2
VIEW
  5
5
100
AcDbSymbolTable
 70
     0
  0
ENDTAB
  0
TABLE
  2
UCS
  5
6
100
AcDbSymbolTable
 70
     0
  0
ENDTAB
  0
TABLE
  2
APPID
  5
8
100
AcDbSymbolTable
 70
     1
  0
APPID
  5
16
100
AcDbSymbolTableRecord
100
AcDbRegAppTableRecord
  2
ACAD
 70
     0
  0
ENDTAB
  0
TABLE
  2
DIMSTYLE
  5
9
100
AcDbSymbolTable
 70
     1
100
AcDbDimStyleTable
 71
     0
  0
DIMSTYLE
105
18
100
AcDbSymbolTableRecord
100
AcDbDimStyleTableRecord
  2
Standard
 70
     0
  3

  4

 40
1.0
 41
0.18
 42
0.0625
 43
0.38
 44
0.18
 45
0.0
 46
0.0
 47
0.0
 48
0.0
 71
     0
 72
     0
 73
     1
 74
     1
 75
     0
 76
     0
 77
     0
 78
     0
 79
     0
140
0.18
141
0.09
142
0.0
143
25.4
144
1.0
145
0.0
146
1.0
147
0.09
148
0.0
170
     0
171
     2
172
     0
173
     0
174
     0
175
     0
176
     0
177
     0
178
     0
179
     0
271
     4
272
     4
273
     2
274
     2
275
     0
276
     0
277
     2
278
    46
279
     0
280
     0
281
     0
282
     0
283
     1
284
     0
285
     0
286
     0
288
     0
340
17
341
0
342
0
343
0
344
0
371
    -2
372
    -2
  0
ENDTAB
  0
TABLE
  2
BLOCK_RECORD
  5
1
100
AcDbSymbolTable
 70
     0
  0
BLOCK_RECORD
  5
A
100
AcDbSymbolTableRecord
100
AcDbBlockTableRecord
  2
*MODEL_SPACE
340
20
  0
BLOCK_RECORD
  5
B
100
AcDbSymbolTableRecord
100
AcDbBlockTableRecord
  2
*PAPER_SPACE
340
21
  0
ENDTAB
  0
ENDSEC
  0
SECTION
  2
BLOCKS
  0
BLOCK
  5
D
100
AcDbEntity
  8
0
100
AcDbBlockBegin
  2
*MODEL_SPACE
 70
     0
 10
0.0
 20
0.0
 30
0.0
  3
*MODEL_SPACE
  1

  0
ENDBLK
  5
E
100
AcDbEntity
  8
0
100
AcDbBlockEnd
  0
BLOCK
  5
F
100
AcDbEntity
 67
     1
  8
0
100
AcDbBlockBegin
  2
*PAPER_SPACE
 70
     0
 10
0.0
 20
0.0
 30
0.0
  3
*PAPER_SPACE
  1

  0
ENDBLK
  5
10
100
AcDbEntity
 67
     1
  8
0
100
AcDbBlockEnd
  0
ENDSEC
  0
SECTION
  2
ENTITIES
  0
SPLINE
  5
25
100
AcDbEntity
  8
RÚteg 1
100
AcDbSpline
210
0.0
220
0.0
230
1.0
 70
     1
 71
     3
 72
   564
 73
   560
 74
     0
 42
0.0000000001
 43
0.0000000001
 40
0.0
 40
0.0
 40
0.0
 40
0.0
 40
0.0071428571428571
 40
0.0071428571428571
 40
0.0071428571428571
 40
0.0071428571428571
 40
0.0142857142857143
 40
0.0142857142857143
 40
0.0142857142857143
 40
0.0142857142857143
 40
0.0214285714285714
 40
0.0214285714285714
 40
0.0214285714285714
 40
0.0214285714285714
 40
0.0285714285714286
 40
0.0285714285714286
 40
0.0285714285714286
 40
0.0285714285714286
 40
0.0357142857142857
 40
0.0357142857142857
 40
0.0357142857142857
 40
0.0357142857142857
 40
0.0428571428571429
 40
0.0428571428571429
 40
0.0428571428571429
 40
0.0428571428571429
 40
0.05
 40
0.05
 40
0.05
 40
0.05
 40
0.0571428571428571
 40
0.0571428571428571
 40
0.0571428571428571
 40
0.0571428571428571
 40
0.0642857142857143
 40
0.0642857142857143
 40
0.0642857142857143
 40
0.0642857142857143
 40
0.0714285714285714
 40
0.0714285714285714
 40
0.0714285714285714
 40
0.0714285714285714
 40
0.0785714285714286
 40
0.0785714285714286
 40
0.0785714285714286
 40
0.0785714285714286
 40
0.0857142857142857
 40
0.0857142857142857
 40
0.0857142857142857
 40
0.0857142857142857
 40
0.0928571428571429
 40
0.0928571428571429
 40
0.0928571428571429
 40
0.0928571428571429
 40
0.1
 40
0.1
 40
0.1
 40
0.1
 40
0.1071428571428572
 40
0.1071428571428572
 40
0.1071428571428572
 40
0.1071428571428572
 40
0.1142857142857143
 40
0.1142857142857143
 40
0.1142857142857143
 40
0.1142857142857143
 40
0.1214285714285715
 40
0.1214285714285715
 40
0.1214285714285715
 40
0.1214285714285715
 40
0.1285714285714286
 40
0.1285714285714286
 40
0.1285714285714286
 40
0.1285714285714286
 40
0.1357142857142857
 40
0.1357142857142857
 40
0.1357142857142857
 40
0.1357142857142857
 40
0.1428571428571429
 40
0.1428571428571429
 40
0.1428571428571429
 40
0.1428571428571429
 40
0.15
 40
0.15
 40
0.15
 40
0.15
 40
0.1571428571428572
 40
0.1571428571428572
 40
0.1571428571428572
 40
0.1571428571428572
 40
0.1642857142857143
 40
0.1642857142857143
 40
0.1642857142857143
 40
0.1642857142857143
 40
0.1714285714285715
 40
0.1714285714285715
 40
0.1714285714285715
 40
0.1714285714285715
 40
0.1785714285714286
 40
0.1785714285714286
 40
0.1785714285714286
 40
0.1785714285714286
 40
0.1857142857142858
 40
0.1857142857142858
 40
0.1857142857142858
 40
0.1857142857142858
 40
0.1928571428571429
 40
0.1928571428571429
 40
0.1928571428571429
 40
0.1928571428571429
 40
0.2
 40
0.2
 40
0.2
 40
0.2
 40
0.2071428571428572
 40
0.2071428571428572
 40
0.2071428571428572
 40
0.2071428571428572
 40
0.2142857142857143
 40
0.2142857142857143
 40
0.2142857142857143
 40
0.2142857142857143
 40
0.2214285714285715
 40
0.2214285714285715
 40
0.2214285714285715
 40
0.2214285714285715
 40
0.2285714285714286
 40
0.2285714285714286
 40
0.2285714285714286
 40
0.2285714285714286
 40
0.2357142857142858
 40
0.2357142857142858
 40
0.2357142857142858
 40
0.2357142857142858
 40
0.2428571428571429
 40
0.2428571428571429
 40
0.2428571428571429
 40
0.2428571428571429
 40
0.2500000000000001
 40
0.2500000000000001
 40
0.2500000000000001
 40
0.2500000000000001
 40
0.2571428571428572
 40
0.2571428571428572
 40
0.2571428571428572
 40
0.2571428571428572
 40
0.2642857142857143
 40
0.2642857142857143
 40
0.2642857142857143
 40
0.2642857142857143
 40
0.2714285714285714
 40
0.2714285714285714
 40
0.2714285714285714
 40
0.2714285714285714
 40
0.2785714285714285
 40
0.2785714285714285
 40
0.2785714285714285
 40
0.2785714285714285
 40
0.2857142857142856
 40
0.2857142857142856
 40
0.2857142857142856
 40
0.2857142857142856
 40
0.2928571428571428
 40
0.2928571428571428
 40
0.2928571428571428
 40
0.2928571428571428
 40
0.2999999999999999
 40
0.2999999999999999
 40
0.2999999999999999
 40
0.2999999999999999
 40
0.307142857142857
 40
0.307142857142857
 40
0.307142857142857
 40
0.307142857142857
 40
0.3142857142857141
 40
0.3142857142857141
 40
0.3142857142857141
 40
0.3142857142857141
 40
0.3214285714285712
 40
0.3214285714285712
 40
0.3214285714285712
 40
0.3214285714285712
 40
0.3285714285714284
 40
0.3285714285714284
 40
0.3285714285714284
 40
0.3285714285714284
 40
0.3357142857142855
 40
0.3357142857142855
 40
0.3357142857142855
 40
0.3357142857142855
 40
0.3428571428571426
 40
0.3428571428571426
 40
0.3428571428571426
 40
0.3428571428571426
 40
0.3499999999999997
 40
0.3499999999999997
 40
0.3499999999999997
 40
0.3499999999999997
 40
0.3571428571428568
 40
0.3571428571428568
 40
0.3571428571428568
 40
0.3571428571428568
 40
0.3642857142857139
 40
0.3642857142857139
 40
0.3642857142857139
 40
0.3642857142857139
 40
0.3714285714285711
 40
0.3714285714285711
 40
0.3714285714285711
 40
0.3714285714285711
 40
0.3785714285714282
 40
0.3785714285714282
 40
0.3785714285714282
 40
0.3785714285714282
 40
0.3857142857142853
 40
0.3857142857142853
 40
0.3857142857142853
 40
0.3857142857142853
 40
0.3928571428571424
 40
0.3928571428571424
 40
0.3928571428571424
 40
0.3928571428571424
 40
0.3999999999999995
 40
0.3999999999999995
 40
0.3999999999999995
 40
0.3999999999999995
 40
0.4071428571428566
 40
0.4071428571428566
 40
0.4071428571428566
 40
0.4071428571428566
 40
0.4142857142857138
 40
0.4142857142857138
 40
0.4142857142857138
 40
0.4142857142857138
 40
0.4214285714285709
 40
0.4214285714285709
 40
0.4214285714285709
 40
0.4214285714285709
 40
0.428571428571428
 40
0.428571428571428
 40
0.428571428571428
 40
0.428571428571428
 40
0.4357142857142851
 40
0.4357142857142851
 40
0.4357142857142851
 40
0.4357142857142851
 40
0.4428571428571422
 40
0.4428571428571422
 40
0.4428571428571422
 40
0.4428571428571422
 40
0.4499999999999993
 40
0.4499999999999993
 40
0.4499999999999993
 40
0.4499999999999993
 40
0.4571428571428565
 40
0.4571428571428565
 40
0.4571428571428565
 40
0.4571428571428565
 40
0.4642857142857136
 40
0.4642857142857136
 40
0.4642857142857136
 40
0.4642857142857136
 40
0.4714285714285707
 40
0.4714285714285707
 40
0.4714285714285707
 40
0.4714285714285707
 40
0.4785714285714278
 40
0.4785714285714278
 40
0.4785714285714278
 40
0.4785714285714278
 40
0.4857142857142849
 40
0.4857142857142849
 40
0.4857142857142849
 40
0.4857142857142849
 40
0.4928571428571421
 40
0.4928571428571421
 40
0.4928571428571421
 40
0.4928571428571421
 40
0.4999999999999992
 40
0.4999999999999992
 40
0.4999999999999992
 40
0.4999999999999992
 40
0.5071428571428563
 40
0.5071428571428563
 40
0.5071428571428563
 40
0.5071428571428563
 40
0.5142857142857135
 40
0.5142857142857135
 40
0.5142857142857135
 40
0.5142857142857135
 40
0.5214285714285706
 40
0.5214285714285706
 40
0.5214285714285706
 40
0.5214285714285706
 40
0.5285714285714277
 40
0.5285714285714277
 40
0.5285714285714277
 40
0.5285714285714277
 40
0.5357142857142848
 40
0.5357142857142848
 40
0.5357142857142848
 40
0.5357142857142848
 40
0.5428571428571419
 40
0.5428571428571419
 40
0.5428571428571419
 40
0.5428571428571419
 40
0.5499999999999991
 40
0.5499999999999991
 40
0.5499999999999991
 40
0.5499999999999991
 40
0.5571428571428562
 40
0.5571428571428562
 40
0.5571428571428562
 40
0.5571428571428562
 40
0.5642857142857133
 40
0.5642857142857133
 40
0.5642857142857133
 40
0.5642857142857133
 40
0.5714285714285704
 40
0.5714285714285704
 40
0.5714285714285704
 40
0.5714285714285704
 40
0.5785714285714275
 40
0.5785714285714275
 40
0.5785714285714275
 40
0.5785714285714275
 40
0.5857142857142846
 40
0.5857142857142846
 40
0.5857142857142846
 40
0.5857142857142846
 40
0.5928571428571418
 40
0.5928571428571418
 40
0.5928571428571418
 40
0.5928571428571418
 40
0.5999999999999989
 40
0.5999999999999989
 40
0.5999999999999989
 40
0.5999999999999989
 40
0.607142857142856
 40
0.607142857142856
 40
0.607142857142856
 40
0.607142857142856
 40
0.6142857142857131
 40
0.6142857142857131
 40
0.6142857142857131
 40
0.6142857142857131
 40
0.6214285714285702
 40
0.6214285714285702
 40
0.6214285714285702
 40
0.6214285714285702
 40
0.6285714285714273
 40
0.6285714285714273
 40
0.6285714285714273
 40
0.6285714285714273
 40
0.6357142857142845
 40
0.6357142857142845
 40
0.6357142857142845
 40
0.6357142857142845
 40
0.6428571428571416
 40
0.6428571428571416
 40
0.6428571428571416
 40
0.6428571428571416
 40
0.6499999999999987
 40
0.6499999999999987
 40
0.6499999999999987
 40
0.6499999999999987
 40
0.6571428571428558
 40
0.6571428571428558
 40
0.6571428571428558
 40
0.6571428571428558
 40
0.6642857142857129
 40
0.6642857142857129
 40
0.6642857142857129
 40
0.6642857142857129
 40
0.67142857142857
 40
0.67142857142857
 40
0.67142857142857
 40
0.67142857142857
 40
0.6785714285714272
 40
0.6785714285714272
 40
0.6785714285714272
 40
0.6785714285714272
 40
0.6857142857142843
 40
0.6857142857142843
 40
0.6857142857142843
 40
0.6857142857142843
 40
0.6928571428571414
 40
0.6928571428571414
 40
0.6928571428571414
 40
0.6928571428571414
 40
0.6999999999999985
 40
0.6999999999999985
 40
0.6999999999999985
 40
0.6999999999999985
 40
0.7071428571428556
 40
0.7071428571428556
 40
0.7071428571428556
 40
0.7071428571428556
 40
0.7142857142857128
 40
0.7142857142857128
 40
0.7142857142857128
 40
0.7142857142857128
 40
0.7214285714285699
 40
0.7214285714285699
 40
0.7214285714285699
 40
0.7214285714285699
 40
0.728571428571427
 40
0.728571428571427
 40
0.728571428571427
 40
0.728571428571427
 40
0.7357142857142841
 40
0.7357142857142841
 40
0.7357142857142841
 40
0.7357142857142841
 40
0.7428571428571412
 40
0.7428571428571412
 40
0.7428571428571412
 40
0.7428571428571412
 40
0.7499999999999983
 40
0.7499999999999983
 40
0.7499999999999983
 40
0.7499999999999983
 40
0.7571428571428555
 40
0.7571428571428555
 40
0.7571428571428555
 40
0.7571428571428555
 40
0.7642857142857126
 40
0.7642857142857126
 40
0.7642857142857126
 40
0.7642857142857126
 40
0.7714285714285697
 40
0.7714285714285697
 40
0.7714285714285697
 40
0.7714285714285697
 40
0.7785714285714268
 40
0.7785714285714268
 40
0.7785714285714268
 40
0.7785714285714268
 40
0.7857142857142839
 40
0.7857142857142839
 40
0.7857142857142839
 40
0.7857142857142839
 40
0.792857142857141
 40
0.792857142857141
 40
0.792857142857141
 40
0.792857142857141
 40
0.7999999999999982
 40
0.7999999999999982
 40
0.7999999999999982
 40
0.7999999999999982
 40
0.8071428571428553
 40
0.8071428571428553
 40
0.8071428571428553
 40
0.8071428571428553
 40
0.8142857142857124
 40
0.8142857142857124
 40
0.8142857142857124
 40
0.8142857142857124
 40
0.8214285714285695
 40
0.8214285714285695
 40
0.8214285714285695
 40
0.8214285714285695
 40
0.8285714285714266
 40
0.8285714285714266
 40
0.8285714285714266
 40
0.8285714285714266
 40
0.8357142857142837
 40
0.8357142857142837
 40
0.8357142857142837
 40
0.8357142857142837
 40
0.8428571428571409
 40
0.8428571428571409
 40
0.8428571428571409
 40
0.8428571428571409
 40
0.849999999999998
 40
0.849999999999998
 40
0.849999999999998
 40
0.849999999999998
 40
0.8571428571428551
 40
0.8571428571428551
 40
0.8571428571428551
 40
0.8571428571428551
 40
0.8642857142857122
 40
0.8642857142857122
 40
0.8642857142857122
 40
0.8642857142857122
 40
0.8714285714285693
 40
0.8714285714285693
 40
0.8714285714285693
 40
0.8714285714285693
 40
0.8785714285714265
 40
0.8785714285714265
 40
0.8785714285714265
 40
0.8785714285714265
 40
0.8857142857142836
 40
0.8857142857142836
 40
0.8857142857142836
 40
0.8857142857142836
 40
0.8928571428571407
 40
0.8928571428571407
 40
0.8928571428571407
 40
0.8928571428571407
 40
0.8999999999999978
 40
0.8999999999999978
 40
0.8999999999999978
 40
0.8999999999999978
 40
0.9071428571428549
 40
0.9071428571428549
 40
0.9071428571428549
 40
0.9071428571428549
 40
0.914285714285712
 40
0.914285714285712
 40
0.914285714285712
 40
0.914285714285712
 40
0.9214285714285692
 40
0.9214285714285692
 40
0.9214285714285692
 40
0.9214285714285692
 40
0.9285714285714263
 40
0.9285714285714263
 40
0.9285714285714263
 40
0.9285714285714263
 40
0.9357142857142834
 40
0.9357142857142834
 40
0.9357142857142834
 40
0.9357142857142834
 40
0.9428571428571405
 40
0.9428571428571405
 40
0.9428571428571405
 40
0.9428571428571405
 40
0.9499999999999976
 40
0.9499999999999976
 40
0.9499999999999976
 40
0.9499999999999976
 40
0.9571428571428547
 40
0.9571428571428547
 40
0.9571428571428547
 40
0.9571428571428547
 40
0.9642857142857119
 40
0.9642857142857119
 40
0.9642857142857119
 40
0.9642857142857119
 40
0.971428571428569
 40
0.971428571428569
 40
0.971428571428569
 40
0.971428571428569
 40
0.9785714285714261
 40
0.9785714285714261
 40
0.9785714285714261
 40
0.9785714285714261
 40
0.9857142857142832
 40
0.9857142857142832
 40
0.9857142857142832
 40
0.9857142857142832
 40
0.9928571428571403
 40
0.9928571428571403
 40
0.9928571428571403
 40
0.9928571428571403
 40
1.0
 40
1.0
 40
1.0
 40
1.0
 10
76.965100000000007
 20
26.5641
 30
0.0
 10
76.965100000000007
 20
26.5641
 30
0.0
 10
61.478099999999998
 20
40.1813
 30
0.0
 10
61.478099999999998
 20
40.1813
 30
0.0
 10
61.478099999999998
 20
40.1813
 30
0.0
 10
61.478099999999998
 20
40.1813
 30
0.0
 10
56.292299999999997
 20
44.238300000000002
 30
0.0
 10
56.292299999999997
 20
44.238300000000002
 30
0.0
 10
56.292299999999997
 20
44.238300000000002
 30
0.0
 10
52.976199999999999
 20
47.095799999999997
 30
0.0
 10
48.707599999999999
 20
47.730800000000002
 30
0.0
 10
44.192
 20
47.730800000000002
 30
0.0
 10
44.192
 20
47.730800000000002
 30
0.0
 10
41.087600000000002
 20
49.388800000000003
 30
0.0
 10
37.101199999999999
 20
49.424100000000003
 30
0.0
 10
33.361699999999999
 20
49.071300000000001
 30
0.0
 10
33.361699999999999
 20
49.071300000000001
 30
0.0
 10
29.7987
 20
48.189399999999999
 30
0.0
 10
25.3184
 20
46.743000000000002
 30
0.0
 10
22.1081
 20
49.247700000000002
 30
0.0
 10
22.1081
 20
49.247700000000002
 30
0.0
 10
24.048400000000001
 20
49.318300000000001
 30
0.0
 10
25.777000000000001
 20
48.4011
 30
0.0
 10
27.928899999999999
 20
48.718600000000002
 30
0.0
 10
27.928899999999999
 20
48.718600000000002
 30
0.0
 10
30.856999999999999
 20
49.177199999999999
 30
0.0
 10
33.5381
 20
50.270800000000001
 30
0.0
 10
36.748399999999997
 20
50.0944
 30
0.0
 10
36.748399999999997
 20
50.0944
 30
0.0
 10
36.748399999999997
 20
50.0944
 30
0.0
 10
36.818899999999999
 20
52.951900000000002
 30
0.0
 10
36.818899999999999
 20
52.951900000000002
 30
0.0
 10
36.818899999999999
 20
52.951900000000002
 30
0.0
 10
42.6751
 20
55.809399999999997
 30
0.0
 10
49.6248
 20
57.961300000000001
 30
0.0
 10
53.1526
 20
64.381900000000002
 30
0.0
 10
53.1526
 20
64.381900000000002
 30
0.0
 10
55.692599999999999
 20
71.084699999999998
 30
0.0
 10
59.290900000000001
 20
77.364099999999993
 30
0.0
 10
63.735900000000001
 20
83.290800000000004
 30
0.0
 10
63.735900000000001
 20
83.290800000000004
 30
0.0
 10
60.5961
 20
83.220200000000006
 30
0.0
 10
57.491700000000002
 20
83.079099999999997
 30
0.0
 10
54.422499999999999
 20
82.761600000000001
 30
0.0
 10
54.422499999999999
 20
82.761600000000001
 30
0.0
 10
50.506700000000002
 20
83.008600000000001
 30
0.0
 10
48.213700000000003
 20
78.916300000000007
 30
0.0
 10
44.015599999999999
 20
80.045199999999994
 30
0.0
 10
44.015599999999999
 20
80.045199999999994
 30
0.0
 10
38.088900000000002
 20
81.280000000000001
 30
0.0
 10
31.738900000000001
 20
80.468599999999995
 30
0.0
 10
27.3292
 20
76.517499999999998
 30
0.0
 10
27.3292
 20
76.517499999999998
 30
0.0
 10
26.0945
 20
75.317999999999998
 30
0.0
 10
25.036200000000001
 20
77.187700000000007
 30
0.0
 10
23.872
 20
77.505200000000002
 30
0.0
 10
23.872
 20
77.505200000000002
 30
0.0
 10
22.460899999999999
 20
77.081900000000005
 30
0.0
 10
21.085000000000001
 20
76.305800000000005
 30
0.0
 10
19.6387
 20
76.164699999999996
 30
0.0
 10
19.6387
 20
76.164699999999996
 30
0.0
 10
23.166399999999999
 20
80.644999999999996
 30
0.0
 10
23.766200000000001
 20
86.324700000000007
 30
0.0
 10
25.3889
 20
91.581100000000006
 30
0.0
 10
25.3889
 20
91.581100000000006
 30
0.0
 10
21.085000000000001
 20
90.134699999999995
 30
0.0
 10
16.6753
 20
88.970500000000001
 30
0.0
 10
12.0892
 20
88.0886
 30
0.0
 10
12.0892
 20
88.0886
 30
0.0
 10
10.1137
 20
87.241900000000001
 30
0.0
 10
9.6903000000000006
 20
84.772400000000005
 30
0.0
 10
7.5384000000000002
 20
84.278599999999997
 30
0.0
 10
7.5384000000000002
 20
84.278599999999997
 30
0.0
 10
5.6687000000000003
 20
83.008600000000001
 30
0.0
 10
5.1395
 20
80.891900000000007
 30
0.0
 10
5.1748000000000003
 20
78.704700000000003
 30
0.0
 10
5.1748000000000003
 20
78.704700000000003
 30
0.0
 10
5.1748000000000003
 20
78.704700000000003
 30
0.0
 10
4.8925999999999998
 20
78.457700000000003
 30
0.0
 10
4.8925999999999998
 20
78.457700000000003
 30
0.0
 10
4.8925999999999998
 20
78.457700000000003
 30
0.0
 10
4.8925999999999998
 20
78.457700000000003
 30
0.0
 10
1.2588999999999999
 20
79.621899999999997
 30
0.0
 10
1.2588999999999999
 20
79.621899999999997
 30
0.0
 10
1.2588999999999999
 20
79.621899999999997
 30
0.0
 10
-3.0095999999999998
 20
81.350499999999997
 30
0.0
 10
-2.8332000000000002
 20
86.959699999999998
 30
0.0
 10
-7.4546000000000001
 20
88.018000000000001
 30
0.0
 10
-7.4546000000000001
 20
88.018000000000001
 30
0.0
 10
-9.5359999999999996
 20
90.840199999999996
 30
0.0
 10
-12.428800000000001
 20
93.486099999999993
 30
0.0
 10
-15.921200000000001
 20
93.768299999999996
 30
0.0
 10
-15.921200000000001
 20
93.768299999999996
 30
0.0
 10
-19.272600000000001
 20
94.438599999999994
 30
0.0
 10
-21.953800000000001
 20
96.802199999999999
 30
0.0
 10
-24.881799999999998
 20
98.424999999999997
 30
0.0
 10
-24.881799999999998
 20
98.424999999999997
 30
0.0
 10
-25.340399999999999
 20
93.415499999999994
 30
0.0
 10
-27.210100000000001
 20
88.970500000000001
 30
0.0
 10
-28.550699999999999
 20
84.278599999999997
 30
0.0
 10
-28.550699999999999
 20
84.278599999999997
 30
0.0
 10
-29.044599999999999
 20
81.809100000000001
 30
0.0
 10
-28.409600000000001
 20
79.727699999999999
 30
0.0
 10
-27.7746
 20
77.505200000000002
 30
0.0
 10
-27.7746
 20
77.505200000000002
 30
0.0
 10
-26.822099999999999
 20
74.295000000000002
 30
0.0
 10
-24.105699999999999
 20
71.790199999999999
 30
0.0
 10
-22.5182
 20
68.791600000000003
 30
0.0
 10
-22.5182
 20
68.791600000000003
 30
0.0
 10
-22.0596
 20
67.380499999999998
 30
0.0
 10
-21.847899999999999
 20
65.2286
 30
0.0
 10
-23.0473
 20
64.064400000000006
 30
0.0
 10
-23.0473
 20
64.064400000000006
 30
0.0
 10
-23.506
 20
63.923299999999998
 30
0.0
 10
-23.717700000000001
 20
64.522999999999996
 30
0.0
 10
-24.0351
 20
64.734700000000004
 30
0.0
 10
-24.0351
 20
64.734700000000004
 30
0.0
 10
-27.174800000000001
 20
66.569100000000006
 30
0.0
 10
-30.279299999999999
 20
68.438800000000001
 30
0.0
 10
-34.195099999999996
 20
68.368300000000005
 30
0.0
 10
-34.195099999999996
 20
68.368300000000005
 30
0.0
 10
-34.195099999999996
 20
67.803799999999995
 30
0.0
 10
-34.301000000000002
 20
67.274699999999996
 30
0.0
 10
-34.618499999999997
 20
66.780799999999999
 30
0.0
 10
-34.618499999999997
 20
66.780799999999999
 30
0.0
 10
-37.899299999999997
 20
67.168800000000005
 30
0.0
 10
-41.673999999999999
 20
66.816100000000006
 30
0.0
 10
-44.884300000000003
 20
66.075199999999995
 30
0.0
 10
-44.884300000000003
 20
66.075199999999995
 30
0.0
 10
-44.037599999999998
 20
62.759099999999997
 30
0.0
 10
-42.308999999999997
 20
59.831099999999999
 30
0.0
 10
-40.827399999999997
 20
56.761899999999997
 30
0.0
 10
-40.827399999999997
 20
56.761899999999997
 30
0.0
 10
-37.899299999999997
 20
51.505499999999998
 30
0.0
 10
-33.7012
 20
46.743000000000002
 30
0.0
 10
-28.974
 20
42.474400000000003
 30
0.0
 10
-28.974
 20
42.474400000000003
 30
0.0
 10
-29.573699999999999
 20
42.1569
 30
0.0
 10
-30.138200000000001
 20
41.662999999999997
 30
0.0
 10
-30.808499999999999
 20
41.521900000000002
 30
0.0
 10
-30.808499999999999
 20
41.521900000000002
 30
0.0
 10
-34.442100000000003
 20
42.368600000000001
 30
0.0
 10
-38.604799999999997
 20
42.439100000000003
 30
0.0
 10
-42.520699999999998
 20
42.121600000000001
 30
0.0
 10
-42.520699999999998
 20
42.121600000000001
 30
0.0
 10
-42.520699999999998
 20
42.121600000000001
 30
0.0
 10
-42.767699999999998
 20
42.298000000000002
 30
0.0
 10
-42.767699999999998
 20
42.298000000000002
 30
0.0
 10
-42.767699999999998
 20
42.298000000000002
 30
0.0
 10
-42.485399999999998
 20
44.626300000000001
 30
0.0
 10
-41.779800000000002
 20
46.919400000000003
 30
0.0
 10
-41.920999999999999
 20
49.318300000000001
 30
0.0
 10
-41.920999999999999
 20
49.318300000000001
 30
0.0
 10
-42.767699999999998
 20
53.410499999999999
 30
0.0
 10
-43.437899999999999
 20
57.537999999999997
 30
0.0
 10
-45.554600000000001
 20
61.101100000000002
 30
0.0
 10
-45.554600000000001
 20
61.101100000000002
 30
0.0
 10
-45.554600000000001
 20
61.101100000000002
 30
0.0
 10
-46.824599999999997
 20
61.171599999999998
 30
0.0
 10
-46.824599999999997
 20
61.171599999999998
 30
0.0
 10
-46.824599999999997
 20
61.171599999999998
 30
0.0
 10
-49.293999999999997
 20
67.133600000000001
 30
0.0
 10
-51.5518
 20
73.236599999999996
 30
0.0
 10
-52.751199999999997
 20
79.621899999999997
 30
0.0
 10
-52.751199999999997
 20
79.621899999999997
 30
0.0
 10
-52.751199999999997
 20
79.621899999999997
 30
0.0
 10
-57.055199999999999
 20
75.811899999999994
 30
0.0
 10
-57.055199999999999
 20
75.811899999999994
 30
0.0
 10
-57.055199999999999
 20
75.811899999999994
 30
0.0
 10
-61.888199999999998
 20
70.026300000000006
 30
0.0
 10
-64.9221
 20
63.464700000000001
 30
0.0
 10
-65.380700000000004
 20
55.844700000000003
 30
0.0
 10
-65.380700000000004
 20
55.844700000000003
 30
0.0
 10
-67.320999999999998
 20
54.186599999999999
 30
0.0
 10
-68.238200000000006
 20
52.07
 30
0.0
 10
-68.590999999999994
 20
49.741599999999998
 30
0.0
 10
-68.590999999999994
 20
49.741599999999998
 30
0.0
 10
-70.143199999999993
 20
52.916600000000003
 30
0.0
 10
-70.848699999999994
 20
56.444400000000002
 30
0.0
 10
-72.153999999999996
 20
59.725200000000001
 30
0.0
 10
-72.153999999999996
 20
59.725200000000001
 30
0.0
 10
-73.247600000000006
 20
58.102499999999999
 30
0.0
 10
-73.953199999999995
 20
56.3033
 30
0.0
 10
-74.835099999999997
 20
54.5747
 30
0.0
 10
-74.835099999999997
 20
54.5747
 30
0.0
 10
-75.858199999999997
 20
50.694099999999999
 30
0.0
 10
-77.798500000000004
 20
47.095799999999997
 30
0.0
 10
-77.375100000000003
 20
42.721299999999999
 30
0.0
 10
-77.375100000000003
 20
42.721299999999999
 30
0.0
 10
-77.375100000000003
 20
42.721299999999999
 30
0.0
 10
-75.011499999999998
 20
39.087699999999998
 30
0.0
 10
-75.011499999999998
 20
39.087699999999998
 30
0.0
 10
-75.011499999999998
 20
39.087699999999998
 30
0.0
 10
-74.235399999999998
 20
36.406599999999997
 30
0.0
 10
-73.741500000000002
 20
33.337499999999999
 30
0.0
 10
-71.801199999999994
 20
31.361899999999999
 30
0.0
 10
-71.801199999999994
 20
31.361899999999999
 30
0.0
 10
-72.365700000000004
 20
30.585799999999999
 30
0.0
 10
-72.683199999999999
 20
29.703800000000001
 30
0.0
 10
-72.894800000000004
 20
28.751300000000001
 30
0.0
 10
-72.894800000000004
 20
28.751300000000001
 30
0.0
 10
-72.824299999999994
 20
26.634699999999999
 30
0.0
 10
-72.084199999999996
 20
23.988800000000001
 30
0.0
 10
-70.085099999999997
 20
23.577300000000001
 30
0.0
 10
-70.085099999999997
 20
23.577300000000001
 30
0.0
 10
-68.321299999999994
 20
23.5185
 30
0.0
 10
-67.285700000000006
 20
25.682200000000002
 30
0.0
 10
-65.627600000000001
 20
25.717500000000001
 30
0.0
 10
-65.627600000000001
 20
25.717500000000001
 30
0.0
 10
-65.627600000000001
 20
25.717500000000001
 30
0.0
 10
-65.627600000000001
 20
24.941299999999998
 30
0.0
 10
-65.627600000000001
 20
24.941299999999998
 30
0.0
 10
-65.627600000000001
 20
24.941299999999998
 30
0.0
 10
-67.439300000000003
 20
21.166599999999999
 30
0.0
 10
-72.730999999999995
 20
24.988399999999999
 30
0.0
 10
-74.164900000000003
 20
21.201899999999998
 30
0.0
 10
-74.164900000000003
 20
21.201899999999998
 30
0.0
 10
-74.729299999999995
 20
19.050000000000001
 30
0.0
 10
-72.789000000000001
 20
17.568300000000001
 30
0.0
 10
-71.307299999999998
 20
16.298300000000001
 30
0.0
 10
-71.307299999999998
 20
16.298300000000001
 30
0.0
 10
-71.448499999999996
 20
14.993
 30
0.0
 10
-71.766000000000005
 20
13.5113
 30
0.0
 10
-71.025099999999995
 20
12.3119
 30
0.0
 10
-71.025099999999995
 20
12.3119
 30
0.0
 10
-70.531199999999998
 20
11.2888
 30
0.0
 10
-69.472899999999996
 20
10.583299999999999
 30
0.0
 10
-68.414599999999993
 20
10.371600000000001
 30
0.0
 10
-68.414599999999993
 20
10.371600000000001
 30
0.0
 10
-67.709000000000003
 20
10.2658
 30
0.0
 10
-67.003500000000003
 20
10.618600000000001
 30
0.0
 10
-66.474299999999999
 20
10.371600000000001
 30
0.0
 10
-66.474299999999999
 20
10.371600000000001
 30
0.0
 10
-66.791799999999995
 20
8.1844000000000001
 30
0.0
 10
-67.885400000000004
 20
6.2088000000000001
 30
0.0
 10
-67.814899999999994
 20
3.9510999999999998
 30
0.0
 10
-67.814899999999994
 20
3.9510999999999998
 30
0.0
 10
-68.343999999999994
 20
-0.1763
 30
0.0
 10
-65.662899999999993
 20
-2.9632999999999998
 30
0.0
 10
-64.6751
 20
-6.4558
 30
0.0
 10
-64.6751
 20
-6.4558
 30
0.0
 10
-62.523200000000003
 20
-10.548
 30
0.0
 10
-64.040099999999995
 20
-15.557499999999999
 30
0.0
 10
-64.6751
 20
-19.8613
 30
0.0
 10
-64.6751
 20
-19.8613
 30
0.0
 10
-61.817700000000002
 20
-17.074400000000001
 30
0.0
 10
-58.642699999999998
 20
-14.2522
 30
0.0
 10
-57.231499999999997
 20
-10.795
 30
0.0
 10
-57.231499999999997
 20
-10.795
 30
0.0
 10
-56.067300000000003
 20
-11.3947
 30
0.0
 10
-55.361800000000002
 20
-12.3119
 30
0.0
 10
-54.515099999999997
 20
-13.335000000000001
 30
0.0
 10
-54.515099999999997
 20
-13.335000000000001
 30
0.0
 10
-53.174599999999998
 20
-16.6511
 30
0.0
 10
-51.057899999999997
 20
-20.390499999999999
 30
0.0
 10
-47.177399999999999
 20
-21.1313
 30
0.0
 10
-47.177399999999999
 20
-21.1313
 30
0.0
 10
-44.637300000000003
 20
-22.366099999999999
 30
0.0
 10
-43.437899999999999
 20
-25.0825
 30
0.0
 10
-41.568199999999997
 20
-27.058
 30
0.0
 10
-41.568199999999997
 20
-27.058
 30
0.0
 10
-40.580399999999997
 20
-28.5044
 30
0.0
 10
-38.816499999999998
 20
-28.927700000000002
 30
0.0
 10
-38.110999999999997
 20
-30.338799999999999
 30
0.0
 10
-38.110999999999997
 20
-30.338799999999999
 30
0.0
 10
-40.404000000000003
 20
-31.5383
 30
0.0
 10
-42.6265
 20
-33.125799999999998
 30
0.0
 10
-44.460999999999999
 20
-35.242400000000004
 30
0.0
 10
-44.460999999999999
 20
-35.242400000000004
 30
0.0
 10
-44.355200000000004
 20
-36.124400000000001
 30
0.0
 10
-43.191000000000003
 20
-36.653599999999997
 30
0.0
 10
-43.6143
 20
-37.641300000000001
 30
0.0
 10
-43.6143
 20
-37.641300000000001
 30
0.0
 10
-43.6143
 20
-37.641300000000001
 30
0.0
 10
-47.247900000000001
 20
-42.368600000000001
 30
0.0
 10
-47.247900000000001
 20
-42.368600000000001
 30
0.0
 10
-47.247900000000001
 20
-42.368600000000001
 30
0.0
 10
-48.412100000000002
 20
-44.203000000000003
 30
0.0
 10
-50.599299999999999
 20
-45.8611
 30
0.0
 10
-49.611499999999999
 20
-48.3658
 30
0.0
 10
-49.611499999999999
 20
-48.3658
 30
0.0
 10
-50.599299999999999
 20
-53.022500000000001
 30
0.0
 10
-52.469000000000001
 20
-57.502699999999997
 30
0.0
 10
-52.927599999999998
 20
-62.194699999999997
 30
0.0
 10
-52.927599999999998
 20
-62.194699999999997
 30
0.0
 10
-50.317100000000003
 20
-59.442999999999998
 30
0.0
 10
-47.424300000000002
 20
-56.761899999999997
 30
0.0
 10
-44.284599999999998
 20
-54.997999999999998
 30
0.0
 10
-44.284599999999998
 20
-54.997999999999998
 30
0.0
 10
-40.580399999999997
 20
-52.175800000000002
 30
0.0
 10
-35.959000000000003
 20
-51.646599999999999
 30
0.0
 10
-31.831499999999998
 20
-49.812199999999997
 30
0.0
 10
-31.831499999999998
 20
-49.812199999999997
 30
0.0
 10
-30.032299999999999
 20
-48.259999999999998
 30
0.0
 10
-28.7623
 20
-46.143300000000004
 30
0.0
 10
-26.681000000000001
 20
-45.085000000000001
 30
0.0
 10
-26.681000000000001
 20
-45.085000000000001
 30
0.0
 10
-25.058199999999999
 20
-44.344099999999997
 30
0.0
 10
-23.7529
 20
-45.931600000000003
 30
0.0
 10
-22.2712
 20
-46.354900000000001
 30
0.0
 10
-22.2712
 20
-46.354900000000001
 30
0.0
 10
-21.3187
 20
-43.497500000000002
 30
0.0
 10
-21.847899999999999
 20
-39.581600000000002
 30
0.0
 10
-18.214300000000001
 20
-38.311599999999999
 30
0.0
 10
-18.214300000000001
 20
-38.311599999999999
 30
0.0
 10
-15.5685
 20
-36.653599999999997
 30
0.0
 10
-12.2524
 20
-35.877499999999998
 30
0.0
 10
-9.0774000000000008
 20
-36.371299999999998
 30
0.0
 10
-9.0774000000000008
 20
-36.371299999999998
 30
0.0
 10
-7.4546000000000001
 20
-35.136600000000001
 30
0.0
 10
-6.1147999999999998
 20
-34.2194
 30
0.0
 10
-3.8915000000000002
 20
-33.4786
 30
0.0
 10
-3.8915000000000002
 20
-33.4786
 30
0.0
 10
-3.2338
 20
-33.690199999999997
 30
0.0
 10
-3.3976000000000002
 20
-33.690199999999997
 30
0.0
 10
-3.2917999999999998
 20
-33.901899999999998
 30
0.0
 10
-3.2917999999999998
 20
-33.901899999999998
 30
0.0
 10
-10.1004
 20
-37.9236
 30
0.0
 10
-17.261800000000001
 20
-44.6616
 30
0.0
 10
-19.5548
 20
-52.175800000000002
 30
0.0
 10
-19.5548
 20
-52.175800000000002
 30
0.0
 10
-19.5548
 20
-52.175800000000002
 30
0.0
 10
-15.8507
 20
-53.128300000000003
 30
0.0
 10
-15.8507
 20
-53.128300000000003
 30
0.0
 10
-15.8507
 20
-53.128300000000003
 30
0.0
 10
-16.756900000000002
 20
-57.914299999999997
 30
0.0
 10
-16.639299999999999
 20
-61.3245
 30
0.0
 10
-15.581
 20
-63.264800000000001
 30
0.0
 10
-15.581
 20
-63.264800000000001
 30
0.0
 10
-14.052300000000001
 20
-65.734200000000001
 30
0.0
 10
-14.8276
 20
-69.426599999999993
 30
0.0
 10
-15.9918
 20
-72.001900000000006
 30
0.0
 10
-15.9918
 20
-72.001900000000006
 30
0.0
 10
-20.154599999999999
 20
-80.644999999999996
 30
0.0
 10
-15.674300000000001
 20
-89.923000000000002
 30
0.0
 10
-13.981
 20
-98.248599999999996
 30
0.0
 10
-13.981
 20
-98.248599999999996
 30
0.0
 10
-11.2293
 20
-96.096599999999995
 30
0.0
 10
-8.9009999999999998
 20
-93.768299999999996
 30
0.0
 10
-6.3609999999999998
 20
-91.2988
 30
0.0
 10
-6.3609999999999998
 20
-91.2988
 30
0.0
 10
-3.3271000000000002
 20
-91.616299999999995
 30
0.0
 10
-3.2565
 20
-88.018000000000001
 30
0.0
 10
-1.7042999999999999
 20
-86.395200000000003
 30
0.0
 10
-1.7042999999999999
 20
-86.395200000000003
 30
0.0
 10
-0.4696
 20
-86.536299999999997
 30
0.0
 10
0.8356
 20
-86.818600000000004
 30
0.0
 10
2.0350000000000001
 20
-86.818600000000004
 30
0.0
 10
2.0350000000000001
 20
-86.818600000000004
 30
0.0
 10
2.2113999999999998
 20
-86.218800000000002
 30
0.0
 10
2.6701000000000001
 20
-85.619100000000003
 30
0.0
 10
2.6347999999999998
 20
-85.054699999999997
 30
0.0
 10
2.6347999999999998
 20
-85.054699999999997
 30
0.0
 10
3.6225000000000001
 20
-83.290800000000004
 30
0.0
 10
4.0106000000000002
 20
-81.280000000000001
 30
0.0
 10
4.8925999999999998
 20
-79.445499999999996
 30
0.0
 10
4.8925999999999998
 20
-79.445499999999996
 30
0.0
 10
6.5858999999999996
 20
-79.692499999999995
 30
0.0
 10
8.1734000000000009
 20
-80.1511
 30
0.0
 10
9.9019999999999992
 20
-80.221599999999995
 30
0.0
 10
9.9019999999999992
 20
-80.221599999999995
 30
0.0
 10
12.018700000000001
 20
-73.377700000000004
 30
0.0
 10
13.394500000000001
 20
-66.251599999999996
 30
0.0
 10
13.641400000000001
 20
-58.631599999999999
 30
0.0
 10
13.641400000000001
 20
-58.631599999999999
 30
0.0
 10
13.641400000000001
 20
-58.631599999999999
 30
0.0
 10
13.888400000000001
 20
-58.384700000000002
 30
0.0
 10
13.888400000000001
 20
-58.384700000000002
 30
0.0
 10
13.888400000000001
 20
-58.384700000000002
 30
0.0
 10
13.888400000000001
 20
-58.384700000000002
 30
0.0
 10
20.238399999999999
 20
-61.489100000000001
 30
0.0
 10
20.238399999999999
 20
-61.489100000000001
 30
0.0
 10
20.238399999999999
 20
-61.489100000000001
 30
0.0
 10
18.6509
 20
-54.609999999999999
 30
0.0
 10
15.7934
 20
-48.224699999999999
 30
0.0
 10
12.3714
 20
-42.121600000000001
 30
0.0
 10
12.3714
 20
-42.121600000000001
 30
0.0
 10
8.3849999999999998
 20
-40.675199999999997
 30
0.0
 10
4.4691999999999998
 20
-39.087699999999998
 30
0.0
 10
0.7651
 20
-37.041600000000003
 30
0.0
 10
0.7651
 20
-37.041600000000003
 30
0.0
 10
1.1177999999999999
 20
-34.148800000000001
 30
0.0
 10
2.3877999999999999
 20
-31.503
 30
0.0
 10
2.6347999999999998
 20
-28.645499999999998
 30
0.0
 10
2.6347999999999998
 20
-28.645499999999998
 30
0.0
 10
1.4705999999999999
 20
-28.186900000000001
 30
0.0
 10
0.2006
 20
-27.940000000000001
 30
0.0
 10
-0.8576
 20
-27.199100000000001
 30
0.0
 10
-0.8576
 20
-27.199100000000001
 30
0.0
 10
-0.8576
 20
-25.858599999999999
 30
0.0
 10
-0.7518
 20
-24.376899999999999
 30
0.0
 10
-1.2809999999999999
 20
-23.3186
 30
0.0
 10
-1.2809999999999999
 20
-23.3186
 30
0.0
 10
-1.2809999999999999
 20
-23.3186
 30
0.0
 10
-7.5251000000000001
 20
-21.6252
 30
0.0
 10
-7.5251000000000001
 20
-21.6252
 30
0.0
 10
-7.5251000000000001
 20
-21.6252
 30
0.0
 10
-7.3135000000000003
 20
-19.508600000000001
 30
0.0
 10
-6.1493000000000002
 20
-17.709399999999999
 30
0.0
 10
-5.2672999999999996
 20
-15.945499999999999
 30
0.0
 10
-5.2672999999999996
 20
-15.945499999999999
 30
0.0
 10
-5.2672999999999996
 20
-15.945499999999999
 30
0.0
 10
-4.6677
 20
-16.298300000000001
 30
0.0
 10
-4.6677
 20
-16.298300000000001
 30
0.0
 10
-4.6677
 20
-16.298300000000001
 30
0.0
 10
-4.8792999999999997
 20
-17.744700000000002
 30
0.0
 10
-5.8670999999999998
 20
-19.296900000000001
 30
0.0
 10
-6.1139999999999999
 20
-20.707999999999998
 30
0.0
 10
-6.1139999999999999
 20
-20.707999999999998
 30
0.0
 10
-6.1139999999999999
 20
-20.707999999999998
 30
0.0
 10
0.4123
 20
-23.3186
 30
0.0
 10
0.4123
 20
-23.3186
 30
0.0
 10
0.4123
 20
-23.3186
 30
0.0
 10
0.4123
 20
-23.3186
 30
0.0
 10
0.2359
 20
-26.634699999999999
 30
0.0
 10
0.2359
 20
-26.634699999999999
 30
0.0
 10
0.2359
 20
-26.634699999999999
 30
0.0
 10
1.1531
 20
-27.340199999999999
 30
0.0
 10
2.5642
 20
-27.2697
 30
0.0
 10
3.4813999999999998
 20
-27.975200000000001
 30
0.0
 10
3.4813999999999998
 20
-27.975200000000001
 30
0.0
 10
3.3050999999999999
 20
-30.832699999999999
 30
0.0
 10
3.1286999999999998
 20
-34.078299999999999
 30
0.0
 10
2.9523000000000001
 20
-36.865200000000002
 30
0.0
 10
2.9523000000000001
 20
-36.865200000000002
 30
0.0
 10
6.5152999999999999
 20
-38.6997
 30
0.0
 10
10.4664
 20
-39.758000000000003
 30
0.0
 10
13.9589
 20
-41.521900000000002
 30
0.0
 10
13.9589
 20
-41.521900000000002
 30
0.0
 10
13.9589
 20
-41.521900000000002
 30
0.0
 10
14.734999999999999
 20
-43.991300000000003
 30
0.0
 10
14.734999999999999
 20
-43.991300000000003
 30
0.0
 10
14.734999999999999
 20
-43.991300000000003
 30
0.0
 10
14.734999999999999
 20
-43.991300000000003
 30
0.0
 10
19.462299999999999
 20
-46.178600000000003
 30
0.0
 10
19.462299999999999
 20
-46.178600000000003
 30
0.0
 10
19.462299999999999
 20
-46.178600000000003
 30
0.0
 10
19.462299999999999
 20
-46.178600000000003
 30
0.0
 10
19.215299999999999
 20
-48.895000000000003
 30
0.0
 10
19.215299999999999
 20
-48.895000000000003
 30
0.0
 10
19.215299999999999
 20
-48.895000000000003
 30
0.0
 10
19.215299999999999
 20
-48.895000000000003
 30
0.0
 10
21.684799999999999
 20
-49.741599999999998
 30
0.0
 10
21.684799999999999
 20
-49.741599999999998
 30
0.0
 10
21.684799999999999
 20
-49.741599999999998
 30
0.0
 10
23.448699999999999
 20
-50.694099999999999
 30
0.0
 10
23.766200000000001
 20
-52.8461
 30
0.0
 10
24.895099999999999
 20
-54.398299999999999
 30
0.0
 10
24.895099999999999
 20
-54.398299999999999
 30
0.0
 10
27.964200000000002
 20
-55.280200000000001
 30
0.0
 10
30.468900000000001
 20
-57.573300000000003
 30
0.0
 10
33.008899999999997
 20
-59.725200000000001
 30
0.0
 10
33.008899999999997
 20
-59.725200000000001
 30
0.0
 10
33.008899999999997
 20
-59.725200000000001
 30
0.0
 10
34.808100000000003
 20
-52.034700000000001
 30
0.0
 10
34.808100000000003
 20
-52.034700000000001
 30
0.0
 10
34.808100000000003
 20
-52.034700000000001
 30
0.0
 10
34.808100000000003
 20
-52.034700000000001
 30
0.0
 10
35.055100000000003
 20
-42.298000000000002
 30
0.0
 10
35.055100000000003
 20
-42.298000000000002
 30
0.0
 10
35.055100000000003
 20
-42.298000000000002
 30
0.0
 10
35.795900000000003
 20
-41.4161
 30
0.0
 10
37.2776
 20
-41.027999999999999
 30
0.0
 10
37.595100000000002
 20
-39.828600000000002
 30
0.0
 10
37.595100000000002
 20
-39.828600000000002
 30
0.0
 10
37.595100000000002
 20
-39.828600000000002
 30
0.0
 10
35.901699999999998
 20
-31.432500000000001
 30
0.0
 10
35.901699999999998
 20
-31.432500000000001
 30
0.0
 10
35.901699999999998
 20
-31.432500000000001
 30
0.0
 10
36.607199999999999
 20
-30.585799999999999
 30
0.0
 10
37.665599999999998
 20
-29.950800000000001
 30
0.0
 10
38.194699999999997
 20
-29.174700000000001
 30
0.0
 10
38.194699999999997
 20
-29.174700000000001
 30
0.0
 10
35.865699999999997
 20
-24.047599999999999
 30
0.0
 10
29.728100000000001
 20
-16.968599999999999
 30
0.0
 10
29.728100000000001
 20
-16.968599999999999
 30
0.0
 10
29.728100000000001
 20
-16.968599999999999
 30
0.0
 10
30.257200000000001
 20
-16.3688
 30
0.0
 10
31.0334
 20
-16.3688
 30
0.0
 10
31.668399999999998
 20
-15.945499999999999
 30
0.0
 10
31.668399999999998
 20
-15.945499999999999
 30
0.0
 10
30.010300000000001
 20
-13.5113
 30
0.0
 10
27.8584
 20
-11.218299999999999
 30
0.0
 10
25.635899999999999
 20
-9.1015999999999995
 30
0.0
 10
25.635899999999999
 20
-9.1015999999999995
 30
0.0
 10
20.485299999999999
 20
-4.0922000000000001
 30
0.0
 10
12.3714
 20
-3.3866000000000001
 30
0.0
 10
5.5980999999999996
 20
-5.1151999999999997
 30
0.0
 10
5.5980999999999996
 20
-5.1151999999999997
 30
0.0
 10
4.9387999999999996
 20
-5.2328000000000001
 30
0.0
 10
4.4097
 20
-5.5267999999999997
 30
0.0
 10
4.0458999999999996
 20
-5.0446999999999997
 30
0.0
 10
4.0458999999999996
 20
-5.0446999999999997
 30
0.0
 10
3.8694999999999999
 20
0.635
 30
0.0
 10
5.0335999999999999
 20
6.3147000000000002
 30
0.0
 10
7.2914000000000003
 20
11.3947
 30
0.0
 10
7.2914000000000003
 20
11.3947
 30
0.0
 10
7.2914000000000003
 20
11.3947
 30
0.0
 10
8.0321999999999996
 20
10.1952
 30
0.0
 10
8.0321999999999996
 20
10.1952
 30
0.0
 10
8.0321999999999996
 20
10.1952
 30
0.0
 10
9.3727999999999998
 20
7.0907999999999998
 30
0.0
 10
11.807
 20
4.2686000000000002
 30
0.0
 10
14.488099999999999
 20
1.8344
 30
0.0
 10
14.488099999999999
 20
1.8344
 30
0.0
 10
14.488099999999999
 20
1.8344
 30
0.0
 10
19.215299999999999
 20
2.5047000000000001
 30
0.0
 10
19.215299999999999
 20
2.5047000000000001
 30
0.0
 10
19.215299999999999
 20
2.5047000000000001
 30
0.0
 10
20.273700000000002
 20
0.8466
 30
0.0
 10
21.190899999999999
 20
-0.8819
 30
0.0
 10
22.002300000000002
 20
-2.6457999999999999
 30
0.0
 10
22.002300000000002
 20
-2.6457999999999999
 30
0.0
 10
25.3537
 20
-3.4218999999999999
 30
0.0
 10
28.387599999999999
 20
-4.9741
 30
0.0
 10
31.245100000000001
 20
-6.8791000000000002
 30
0.0
 10
31.245100000000001
 20
-6.8791000000000002
 30
0.0
 10
36.889499999999998
 20
-6.9497
 30
0.0
 10
42.145899999999997
 20
-8.3961000000000006
 30
0.0
 10
46.9084
 20
-10.865500000000001
 30
0.0
 10
46.9084
 20
-10.865500000000001
 30
0.0
 10
46.731999999999999
 20
-10.4422
 30
0.0
 10
46.9084
 20
-9.8777000000000008
 30
0.0
 10
46.731999999999999
 20
-9.4191000000000003
 30
0.0
 10
46.731999999999999
 20
-9.4191000000000003
 30
0.0
 10
46.273400000000002
 20
-4.4097
 30
0.0
 10
47.084800000000001
 20
1.4462999999999999
 30
0.0
 10
45.391399999999997
 20
5.9619
 30
0.0
 10
45.391399999999997
 20
5.9619
 30
0.0
 10
45.391399999999997
 20
5.9619
 30
0.0
 10
47.402299999999997
 20
8.0785999999999998
 30
0.0
 10
47.402299999999997
 20
8.0785999999999998
 30
0.0
 10
47.402299999999997
 20
8.0785999999999998
 30
0.0
 10
47.719700000000003
 20
11.183
 30
0.0
 10
46.484999999999999
 20
13.6525
 30
0.0
 10
45.885300000000001
 20
16.4041
 30
0.0
 10
45.885300000000001
 20
16.4041
 30
0.0
 10
46.449800000000003
 20
17.3919
 30
0.0
 10
47.261200000000002
 20
18.520800000000001
 30
0.0
 10
46.9084
 20
19.684999999999999
 30
0.0
 10
46.9084
 20
19.684999999999999
 30
0.0
 10
46.273400000000002
 20
21.1313
 30
0.0
 10
44.9681
 20
22.366099999999999
 30
0.0
 10
44.544699999999999
 20
23.741900000000001
 30
0.0
 10
44.544699999999999
 20
23.741900000000001
 30
0.0
 10
48.072499999999998
 20
23.0716
 30
0.0
 10
51.706200000000003
 20
22.648299999999999
 30
0.0
 10
55.445599999999999
 20
22.471900000000002
 30
0.0
 10
55.445599999999999
 20
22.471900000000002
 30
0.0
 10
56.292299999999997
 20
23.142199999999999
 30
0.0
 10
56.715600000000002
 20
24.0947
 30
0.0
 10
57.491700000000002
 20
24.870799999999999
 30
0.0
 10
57.491700000000002
 20
24.870799999999999
 30
0.0
 10
63.700600000000001
 20
23.036300000000001
 30
0.0
 10
71.920299999999997
 20
22.5777
 30
0.0
 10
77.388400000000004
 20
26.211300000000001
 30
0.0
 10
77.388400000000004
 20
26.211300000000001
 30
0.0
 10
77.247299999999996
 20
26.3172
 30
0.0
 10
77.141400000000004
 20
26.5288
 30
0.0
 10
76.965100000000007
 20
26.5641
 30
0.0
  0
SPLINE
  5
26
100
AcDbEntity
  8
RÚteg 1
100
AcDbSpline
210
0.0
220
0.0
230
1.0
 70
     1
 71
     3
 72
   140
 73
   136
 74
     0
 42
0.0000000001
 43
0.0000000001
 40
0.0
 40
0.0
 40
0.0
 40
0.0
 40
0.0294117647058824
 40
0.0294117647058824
 40
0.0294117647058824
 40
0.0294117647058824
 40
0.0588235294117647
 40
0.0588235294117647
 40
0.0588235294117647
 40
0.0588235294117647
 40
0.0882352941176471
 40
0.0882352941176471
 40
0.0882352941176471
 40
0.0882352941176471
 40
0.1176470588235294
 40
0.1176470588235294
 40
0.1176470588235294
 40
0.1176470588235294
 40
0.1470588235294118
 40
0.1470588235294118
 40
0.1470588235294118
 40
0.1470588235294118
 40
0.1764705882352941
 40
0.1764705882352941
 40
0.1764705882352941
 40
0.1764705882352941
 40
0.2058823529411765
 40
0.2058823529411765
 40
0.2058823529411765
 40
0.2058823529411765
 40
0.2352941176470589
 40
0.2352941176470589
 40
0.2352941176470589
 40
0.2352941176470589
 40
0.2647058823529412
 40
0.2647058823529412
 40
0.2647058823529412
 40
0.2647058823529412
 40
0.2941176470588235
 40
0.2941176470588235
 40
0.2941176470588235
 40
0.2941176470588235
 40
0.3235294117647059
 40
0.3235294117647059
 40
0.3235294117647059
 40
0.3235294117647059
 40
0.3529411764705883
 40
0.3529411764705883
 40
0.3529411764705883
 40
0.3529411764705883
 40
0.3823529411764706
 40
0.3823529411764706
 40
0.3823529411764706
 40
0.3823529411764706
 40
0.411764705882353
 40
0.411764705882353
 40
0.411764705882353
 40
0.411764705882353
 40
0.4411764705882353
 40
0.4411764705882353
 40
0.4411764705882353
 40
0.4411764705882353
 40
0.4705882352941177
 40
0.4705882352941177
 40
0.4705882352941177
 40
0.4705882352941177
 40
0.5
 40
0.5
 40
0.5
 40
0.5
 40
0.5294117647058824
 40
0.5294117647058824
 40
0.5294117647058824
 40
0.5294117647058824
 40
0.5588235294117647
 40
0.5588235294117647
 40
0.5588235294117647
 40
0.5588235294117647
 40
0.5882352941176471
 40
0.5882352941176471
 40
0.5882352941176471
 40
0.5882352941176471
 40
0.6176470588235294
 40
0.6176470588235294
 40
0.6176470588235294
 40
0.6176470588235294
 40
0.6470588235294118
 40
0.6470588235294118
 40
0.6470588235294118
 40
0.6470588235294118
 40
0.6764705882352942
 40
0.6764705882352942
 40
0.6764705882352942
 40
0.6764705882352942
 40
0.7058823529411765
 40
0.7058823529411765
 40
0.7058823529411765
 40
0.7058823529411765
 40
0.7352941176470589
 40
0.7352941176470589
 40
0.7352941176470589
 40
0.7352941176470589
 40
0.7647058823529412
 40
0.7647058823529412
 40
0.7647058823529412
 40
0.7647058823529412
 40
0.7941176470588236
 40
0.7941176470588236
 40
0.7941176470588236
 40
0.7941176470588236
 40
0.823529411764706
 40
0.823529411764706
 40
0.823529411764706
 40
0.823529411764706
 40
0.8529411764705883
 40
0.8529411764705883
 40
0.8529411764705883
 40
0.8529411764705883
 40
0.8823529411764707
 40
0.8823529411764707
 40
0.8823529411764707
 40
0.8823529411764707
 40
0.911764705882353
 40
0.911764705882353
 40
0.911764705882353
 40
0.911764705882353
 40
0.9411764705882354
 40
0.9411764705882354
 40
0.9411764705882354
 40
0.9411764705882354
 40
0.9705882352941178
 40
0.9705882352941178
 40
0.9705882352941178
 40
0.9705882352941178
 40
1.0
 40
1.0
 40
1.0
 40
1.0
 10
9.0553000000000008
 20
-57.608600000000003
 30
0.0
 10
5.3512000000000004
 20
-53.481099999999998
 30
0.0
 10
1.647
 20
-48.083599999999997
 30
0.0
 10
-3.1507000000000001
 20
-44.9086
 30
0.0
 10
-3.1507000000000001
 20
-44.9086
 30
0.0
 10
-3.5739999999999998
 20
-46.4255
 30
0.0
 10
-3.6446000000000001
 20
-48.083599999999997
 30
0.0
 10
-3.7151000000000001
 20
-49.741599999999998
 30
0.0
 10
-3.7151000000000001
 20
-49.741599999999998
 30
0.0
 10
1.4353
 20
-55.668300000000002
 30
0.0
 10
5.1395
 20
-62.194699999999997
 30
0.0
 10
7.7148000000000003
 20
-69.215000000000003
 30
0.0
 10
7.7148000000000003
 20
-69.215000000000003
 30
0.0
 10
4.8925999999999998
 20
-63.147199999999998
 30
0.0
 10
1.4705999999999999
 20
-57.2911
 30
0.0
 10
-3.6446000000000001
 20
-52.281599999999997
 30
0.0
 10
-3.6446000000000001
 20
-52.281599999999997
 30
0.0
 10
-3.6446000000000001
 20
-54.680500000000002
 30
0.0
 10
-3.6798000000000002
 20
-57.608600000000003
 30
0.0
 10
-3.2917999999999998
 20
-59.972200000000001
 30
0.0
 10
-3.2917999999999998
 20
-59.972200000000001
 30
0.0
 10
0.4123
 20
-64.769999999999996
 30
0.0
 10
2.7759
 20
-70.132199999999997
 30
0.0
 10
4.3281000000000001
 20
-75.811899999999994
 30
0.0
 10
4.3281000000000001
 20
-75.811899999999994
 30
0.0
 10
2.0350000000000001
 20
-71.543300000000002
 30
0.0
 10
-0.1168
 20
-67.204099999999997
 30
0.0
 10
-3.2917999999999998
 20
-63.2883
 30
0.0
 10
-3.2917999999999998
 20
-63.2883
 30
0.0
 10
-3.2917999999999998
 20
-63.2883
 30
0.0
 10
-3.6446000000000001
 20
-68.368300000000005
 30
0.0
 10
-3.6446000000000001
 20
-68.368300000000005
 30
0.0
 10
-3.6446000000000001
 20
-68.368300000000005
 30
0.0
 10
-1.9512
 20
-71.825500000000005
 30
0.0
 10
0.1301
 20
-75.141599999999997
 30
0.0
 10
0.8356
 20
-79.022199999999998
 30
0.0
 10
0.8356
 20
-79.022199999999998
 30
0.0
 10
-0.5048
 20
-76.376300000000001
 30
0.0
 10
-2.1629
 20
-73.377700000000004
 30
0.0
 10
-3.8915000000000002
 20
-70.661299999999997
 30
0.0
 10
-3.8915000000000002
 20
-70.661299999999997
 30
0.0
 10
-3.8915000000000002
 20
-70.661299999999997
 30
0.0
 10
-4.7382
 20
-74.965199999999996
 30
0.0
 10
-4.7382
 20
-74.965199999999996
 30
0.0
 10
-4.7382
 20
-74.965199999999996
 30
0.0
 10
-3.7856999999999998
 20
-78.281300000000002
 30
0.0
 10
-4.0678999999999998
 20
-81.915000000000006
 30
0.0
 10
-4.4912999999999998
 20
-85.372200000000007
 30
0.0
 10
-4.4912999999999998
 20
-85.372200000000007
 30
0.0
 10
-4.9146000000000001
 20
-82.867500000000007
 30
0.0
 10
-4.9851000000000001
 20
-80.186300000000003
 30
0.0
 10
-5.5848000000000004
 20
-77.752200000000002
 30
0.0
 10
-5.5848000000000004
 20
-77.752200000000002
 30
0.0
 10
-7.2076000000000002
 20
-81.844399999999993
 30
0.0
 10
-7.4898999999999996
 20
-86.430499999999995
 30
0.0
 10
-10.417899999999999
 20
-89.958299999999994
 30
0.0
 10
-10.417899999999999
 20
-89.958299999999994
 30
0.0
 10
-9.7600999999999996
 20
-88.370800000000003
 30
0.0
 10
-8.0549999999999997
 20
-84.019900000000007
 30
0.0
 10
-7.7610999999999999
 20
-81.903199999999998
 30
0.0
 10
-7.7610999999999999
 20
-81.903199999999998
 30
0.0
 10
-7.7610999999999999
 20
-81.903199999999998
 30
0.0
 10
-10.1717
 20
-84.549000000000007
 30
0.0
 10
-12.534599999999999
 20
-86.818600000000004
 30
0.0
 10
-12.534599999999999
 20
-86.818600000000004
 30
0.0
 10
-11.2888
 20
-84.254999999999995
 30
0.0
 10
-9.2616999999999994
 20
-82.240099999999998
 30
0.0
 10
-7.4546000000000001
 20
-80.221599999999995
 30
0.0
 10
-7.4546000000000001
 20
-80.221599999999995
 30
0.0
 10
-7.1730999999999998
 20
-79.022199999999998
 30
0.0
 10
-6.6432000000000002
 20
-77.058400000000006
 30
0.0
 10
-6.6078999999999999
 20
-75.823599999999999
 30
0.0
 10
-6.6078999999999999
 20
-75.823599999999999
 30
0.0
 10
-6.6078999999999999
 20
-75.823599999999999
 30
0.0
 10
-12.1112
 20
-81.315200000000004
 30
0.0
 10
-12.1112
 20
-81.315200000000004
 30
0.0
 10
-12.1112
 20
-81.315200000000004
 30
0.0
 10
-10.417899999999999
 20
-78.387200000000007
 30
0.0
 10
-7.8426999999999998
 20
-75.459100000000007
 30
0.0
 10
-5.7611999999999997
 20
-72.495800000000003
 30
0.0
 10
-5.7611999999999997
 20
-72.495800000000003
 30
0.0
 10
-5.1615000000000002
 20
-70.873000000000005
 30
0.0
 10
-5.1967999999999996
 20
-68.932699999999997
 30
0.0
 10
-5.0910000000000002
 20
-67.098299999999995
 30
0.0
 10
-5.0910000000000002
 20
-67.098299999999995
 30
0.0
 10
-7.3135000000000003
 20
-69.497200000000007
 30
0.0
 10
-9.4654000000000007
 20
-72.425200000000004
 30
0.0
 10
-11.7585
 20
-75.035799999999995
 30
0.0
 10
-11.7585
 20
-75.035799999999995
 30
0.0
 10
-9.7476000000000003
 20
-71.684399999999997
 30
0.0
 10
-7.8426999999999998
 20
-67.944999999999993
 30
0.0
 10
-5.0910000000000002
 20
-64.734700000000004
 30
0.0
 10
-5.0910000000000002
 20
-64.734700000000004
 30
0.0
 10
-5.0204000000000004
 20
-62.476900000000001
 30
0.0
 10
-5.1967999999999996
 20
-60.325000000000003
 30
0.0
 10
-5.5143000000000004
 20
-58.208300000000001
 30
0.0
 10
-5.5143000000000004
 20
-58.208300000000001
 30
0.0
 10
-7.2907000000000002
 20
-60.618899999999996
 30
0.0
 10
-11.053599999999999
 20
-65.675399999999996
 30
0.0
 10
-12.181800000000001
 20
-67.098299999999995
 30
0.0
 10
-12.181800000000001
 20
-67.098299999999995
 30
0.0
 10
-10.8765
 20
-63.182499999999997
 30
0.0
 10
-8.2307000000000006
 20
-59.866300000000003
 30
0.0
 10
-5.5848000000000004
 20
-56.515000000000001
 30
0.0
 10
-5.5848000000000004
 20
-56.515000000000001
 30
0.0
 10
-5.9383999999999997
 20
-52.916600000000003
 30
0.0
 10
-5.5267999999999997
 20
-49.6828
 30
0.0
 10
-4.9851000000000001
 20
-47.095799999999997
 30
0.0
 10
-4.9851000000000001
 20
-47.095799999999997
 30
0.0
 10
-8.3718000000000004
 20
-49.988599999999998
 30
0.0
 10
-9.7828999999999997
 20
-53.833799999999997
 30
0.0
 10
-12.040699999999999
 20
-57.255800000000001
 30
0.0
 10
-12.040699999999999
 20
-57.255800000000001
 30
0.0
 10
-12.534599999999999
 20
-56.550199999999997
 30
0.0
 10
-9.7600999999999996
 20
-49.6828
 30
0.0
 10
-4.6677
 20
-44.9086
 30
0.0
 10
-4.6677
 20
-44.9086
 30
0.0
 10
-4.5971000000000002
 20
-43.462200000000003
 30
0.0
 10
-4.1737000000000002
 20
-42.1922
 30
0.0
 10
-3.7151000000000001
 20
-40.922199999999997
 30
0.0
 10
-3.7151000000000001
 20
-40.922199999999997
 30
0.0
 10
-6.9607000000000001
 20
-42.1569
 30
0.0
 10
-9.6065000000000005
 20
-45.367199999999997
 30
0.0
 10
-12.711
 20
-47.272199999999998
 30
0.0
 10
-12.711
 20
-47.272199999999998
 30
0.0
 10
-10.700100000000001
 20
-44.167700000000004
 30
0.0
 10
-7.1730999999999998
 20
-40.510599999999997
 30
0.0
 10
-1.9512
 20
-38.734999999999999
 30
0.0
 10
-1.9512
 20
-38.734999999999999
 30
0.0
 10
-2.0922999999999998
 20
-40.287199999999999
 30
0.0
 10
-2.2686999999999999
 20
-41.874699999999997
 30
0.0
 10
-2.7978999999999998
 20
-43.285800000000002
 30
0.0
 10
-2.7978999999999998
 20
-43.285800000000002
 30
0.0
 10
2.2467000000000001
 20
-47.236899999999999
 30
0.0
 10
6.3037000000000001
 20
-52.281599999999997
 30
0.0
 10
9.0553000000000008
 20
-57.608600000000003
 30
0.0
  0
SPLINE
  5
27
100
AcDbEntity
  8
RÚteg 1
100
AcDbSpline
210
0.0
220
0.0
230
1.0
 70
     1
 71
     3
 72
    16
 73
    12
 74
     0
 42
0.0000000001
 43
0.0000000001
 40
0.0
 40
0.0
 40
0.0
 40
0.0
 40
0.3333333333333333
 40
0.3333333333333333
 40
0.3333333333333333
 40
0.3333333333333333
 40
0.6666666666666666
 40
0.6666666666666666
 40
0.6666666666666666
 40
0.6666666666666666
 40
1.0
 40
1.0
 40
1.0
 40
1.0
 10
22.249199999999998
 20
39.6875
 30
0.0
 10
22.319700000000001
 20
39.722700000000003
 30
0.0
 10
12.347200000000001
 20
39.452300000000001
 30
0.0
 10
10.5723
 20
48.471600000000002
 30
0.0
 10
10.5723
 20
48.471600000000002
 30
0.0
 10
11.4064
 20
47.977699999999999
 30
0.0
 10
11.523999999999999
 20
48.036499999999997
 30
0.0
 10
11.8423
 20
47.977699999999999
 30
0.0
 10
11.8423
 20
47.977699999999999
 30
0.0
 10
16.251999999999999
 20
47.307499999999997
 30
0.0
 10
21.049800000000001
 20
44.273600000000002
 30
0.0
 10
22.249199999999998
 20
39.6875
 30
0.0
  0
SPLINE
  5
28
100
AcDbEntity
  8
RÚteg 1
100
AcDbSpline
210
0.0
220
0.0
230
1.0
 70
     1
 71
     3
 72
    24
 73
    20
 74
     0
 42
0.0000000001
 43
0.0000000001
 40
0.0
 40
0.0
 40
0.0
 40
0.0
 40
0.2
 40
0.2
 40
0.2
 40
0.2
 40
0.4
 40
0.4
 40
0.4
 40
0.4
 40
0.6000000000000001
 40
0.6000000000000001
 40
0.6000000000000001
 40
0.6000000000000001
 40
0.8
 40
0.8
 40
0.8
 40
0.8
 40
1.0
 40
1.0
 40
1.0
 40
1.0
 10
12.442
 20
34.677999999999997
 30
0.0
 10
12.442
 20
34.677999999999997
 30
0.0
 10
11.9481
 20
34.924999999999997
 30
0.0
 10
11.9481
 20
34.924999999999997
 30
0.0
 10
11.9481
 20
34.924999999999997
 30
0.0
 10
10.043100000000001
 20
37.076900000000002
 30
0.0
 10
6.8327999999999998
 20
38.6997
 30
0.0
 10
7.2914000000000003
 20
42.051099999999998
 30
0.0
 10
7.2914000000000003
 20
42.051099999999998
 30
0.0
 10
7.6441999999999997
 20
44.097200000000001
 30
0.0
 10
8.1734000000000009
 20
46.107999999999997
 30
0.0
 10
8.8084000000000007
 20
48.048299999999998
 30
0.0
 10
8.8084000000000007
 20
48.048299999999998
 30
0.0
 10
9.5845000000000002
 20
45.755200000000002
 30
0.0
 10
11.3484
 20
43.8855
 30
0.0
 10
12.794700000000001
 20
41.874699999999997
 30
0.0
 10
12.794700000000001
 20
41.874699999999997
 30
0.0
 10
13.4298
 20
39.369999999999997
 30
0.0
 10
12.3009
 20
37.076900000000002
 30
0.0
 10
12.442
 20
34.677999999999997
 30
0.0
  0
SPLINE
  5
29
100
AcDbEntity
  8
RÚteg 1
100
AcDbSpline
210
0.0
220
0.0
230
1.0
 70
     1
 71
     3
 72
    28
 73
    24
 74
     0
 42
0.0000000001
 43
0.0000000001
 40
0.0
 40
0.0
 40
0.0
 40
0.0
 40
0.1666666666666667
 40
0.1666666666666667
 40
0.1666666666666667
 40
0.1666666666666667
 40
0.3333333333333333
 40
0.3333333333333333
 40
0.3333333333333333
 40
0.3333333333333333
 40
0.5
 40
0.5
 40
0.5
 40
0.5
 40
0.6666666666666666
 40
0.6666666666666666
 40
0.6666666666666666
 40
0.6666666666666666
 40
0.8333333333333333
 40
0.8333333333333333
 40
0.8333333333333333
 40
0.8333333333333333
 40
1.0
 40
1.0
 40
1.0
 40
1.0
 10
17.028099999999998
 20
54.221899999999998
 30
0.0
 10
15.9697
 20
54.116100000000003
 30
0.0
 10
14.9114
 20
53.869100000000003
 30
0.0
 10
14.2059
 20
53.128300000000003
 30
0.0
 10
14.2059
 20
53.128300000000003
 30
0.0
 10
14.1706
 20
53.763300000000001
 30
0.0
 10
14.876200000000001
 20
54.292499999999997
 30
0.0
 10
15.4053
 20
54.645200000000003
 30
0.0
 10
15.4053
 20
54.645200000000003
 30
0.0
 10
17.133900000000001
 20
55.491900000000001
 30
0.0
 10
19.1447
 20
54.433599999999998
 30
0.0
 10
20.062000000000001
 20
52.8108
 30
0.0
 10
20.062000000000001
 20
52.8108
 30
0.0
 10
20.1326
 20
52.246299999999998
 30
0.0
 10
21.049800000000001
 20
51.540799999999997
 30
0.0
 10
20.238399999999999
 20
51.1175
 30
0.0
 10
20.238399999999999
 20
51.1175
 30
0.0
 10
20.238399999999999
 20
51.1175
 30
0.0
 10
20.062000000000001
 20
51.1175
 30
0.0
 10
20.062000000000001
 20
51.1175
 30
0.0
 10
20.062000000000001
 20
51.1175
 30
0.0
 10
19.568100000000001
 20
52.457999999999998
 30
0.0
 10
18.509799999999998
 20
53.904400000000003
 30
0.0
 10
17.028099999999998
 20
54.221899999999998
 30
0.0
  0
SPLINE
  5
2A
100
AcDbEntity
  8
RÚteg 1
100
AcDbSpline
210
0.0
220
0.0
230
1.0
 70
     1
 71
     3
 72
    24
 73
    20
 74
     0
 42
0.0000000001
 43
0.0000000001
 40
0.0
 40
0.0
 40
0.0
 40
0.0
 40
0.2
 40
0.2
 40
0.2
 40
0.2
 40
0.4
 40
0.4
 40
0.4
 40
0.4
 40
0.6000000000000001
 40
0.6000000000000001
 40
0.6000000000000001
 40
0.6000000000000001
 40
0.8
 40
0.8
 40
0.8
 40
0.8
 40
1.0
 40
1.0
 40
1.0
 40
1.0
 10
18.015899999999998
 20
48.577500000000001
 30
0.0
 10
17.592600000000001
 20
48.506900000000002
 30
0.0
 10
16.851700000000001
 20
48.718600000000002
 30
0.0
 10
16.4284
 20
48.4011
 30
0.0
 10
16.4284
 20
48.4011
 30
0.0
 10
15.617000000000001
 20
49.494700000000002
 30
0.0
 10
15.1584
 20
50.941099999999999
 30
0.0
 10
15.475899999999999
 20
52.281599999999997
 30
0.0
 10
15.475899999999999
 20
52.281599999999997
 30
0.0
 10
16.110900000000001
 20
52.916600000000003
 30
0.0
 10
17.028099999999998
 20
53.3752
 30
0.0
 10
17.8748
 20
53.057699999999997
 30
0.0
 10
17.8748
 20
53.057699999999997
 30
0.0
 10
17.8748
 20
53.057699999999997
 30
0.0
 10
19.1447
 20
51.1175
 30
0.0
 10
19.1447
 20
51.1175
 30
0.0
 10
19.1447
 20
51.1175
 30
0.0
 10
19.215299999999999
 20
50.059100000000001
 30
0.0
 10
18.4039
 20
49.424100000000003
 30
0.0
 10
18.015899999999998
 20
48.577500000000001
 30
0.0
  0
SPLINE
  5
2B
100
AcDbEntity
  8
RÚteg 1
100
AcDbSpline
210
0.0
220
0.0
230
1.0
 70
     1
 71
     3
 72
    32
 73
    28
 74
     0
 42
0.0000000001
 43
0.0000000001
 40
0.0
 40
0.0
 40
0.0
 40
0.0
 40
0.1428571428571429
 40
0.1428571428571429
 40
0.1428571428571429
 40
0.1428571428571429
 40
0.2857142857142857
 40
0.2857142857142857
 40
0.2857142857142857
 40
0.2857142857142857
 40
0.4285714285714286
 40
0.4285714285714286
 40
0.4285714285714286
 40
0.4285714285714286
 40
0.5714285714285714
 40
0.5714285714285714
 40
0.5714285714285714
 40
0.5714285714285714
 40
0.7142857142857142
 40
0.7142857142857142
 40
0.7142857142857142
 40
0.7142857142857142
 40
0.857142857142857
 40
0.857142857142857
 40
0.857142857142857
 40
0.857142857142857
 40
1.0
 40
1.0
 40
1.0
 40
1.0
 10
16.604800000000001
 20
59.654699999999998
 30
0.0
 10
16.604800000000001
 20
59.654699999999998
 30
0.0
 10
14.993
 20
61.8536
 30
0.0
 10
14.993
 20
61.8536
 30
0.0
 10
14.993
 20
61.8536
 30
0.0
 10
14.7813
 20
61.994799999999998
 30
0.0
 10
13.934699999999999
 20
61.7361
 30
0.0
 10
13.934699999999999
 20
61.7361
 30
0.0
 10
13.934699999999999
 20
61.7361
 30
0.0
 10
14.5344
 20
59.936900000000001
 30
0.0
 10
15.9697
 20
58.913800000000002
 30
0.0
 10
17.275099999999998
 20
57.608600000000003
 30
0.0
 10
17.275099999999998
 20
57.608600000000003
 30
0.0
 10
16.534199999999998
 20
56.797199999999997
 30
0.0
 10
12.876300000000001
 20
56.209200000000003
 30
0.0
 10
12.442
 20
59.160800000000002
 30
0.0
 10
12.442
 20
59.160800000000002
 30
0.0
 10
12.3009
 20
60.924700000000001
 30
0.0
 10
13.535600000000001
 20
62.124099999999999
 30
0.0
 10
14.2059
 20
63.535200000000003
 30
0.0
 10
14.2059
 20
63.535200000000003
 30
0.0
 10
16.498899999999999
 20
63.0413
 30
0.0
 10
17.275099999999998
 20
60.571899999999999
 30
0.0
 10
18.121700000000001
 20
58.808
 30
0.0
 10
18.121700000000001
 20
58.808
 30
0.0
 10
17.486699999999999
 20
58.561100000000003
 30
0.0
 10
17.063400000000001
 20
59.407699999999998
 30
0.0
 10
16.604800000000001
 20
59.654699999999998
 30
0.0
  0
SPLINE
  5
2C
100
AcDbEntity
  8
RÚteg 1
100
AcDbSpline
210
0.0
220
0.0
230
1.0
 70
     1
 71
     3
 72
    20
 73
    16
 74
     0
 42
0.0000000001
 43
0.0000000001
 40
0.0
 40
0.0
 40
0.0
 40
0.0
 40
0.25
 40
0.25
 40
0.25
 40
0.25
 40
0.5
 40
0.5
 40
0.5
 40
0.5
 40
0.75
 40
0.75
 40
0.75
 40
0.75
 40
1.0
 40
1.0
 40
1.0
 40
1.0
 10
13.888400000000001
 20
51.787700000000001
 30
0.0
 10
14.522600000000001
 20
51.740699999999997
 30
0.0
 10
13.888400000000001
 20
51.223300000000002
 30
0.0
 10
14.0648
 20
51.011600000000001
 30
0.0
 10
14.0648
 20
51.011600000000001
 30
0.0
 10
13.3592
 20
50.341299999999997
 30
0.0
 10
12.3362
 20
50.0944
 30
0.0
 10
11.3484
 20
49.917999999999999
 30
0.0
 10
11.3484
 20
49.917999999999999
 30
0.0
 10
11.3484
 20
49.917999999999999
 30
0.0
 10
10.9956
 20
50.341299999999997
 30
0.0
 10
10.9956
 20
50.341299999999997
 30
0.0
 10
10.9956
 20
50.341299999999997
 30
0.0
 10
10.9956
 20
50.341299999999997
 30
0.0
 10
13.888400000000001
 20
51.787700000000001
 30
0.0
 10
13.888400000000001
 20
51.787700000000001
 30
0.0
  0
SPLINE
  5
2D
100
AcDbEntity
  8
RÚteg 1
100
AcDbSpline
210
0.0
220
0.0
230
1.0
 70
     1
 71
     3
 72
    20
 73
    16
 74
     0
 42
0.0000000001
 43
0.0000000001
 40
0.0
 40
0.0
 40
0.0
 40
0.0
 40
0.25
 40
0.25
 40
0.25
 40
0.25
 40
0.5
 40
0.5
 40
0.5
 40
0.5
 40
0.75
 40
0.75
 40
0.75
 40
0.75
 40
1.0
 40
1.0
 40
1.0
 40
1.0
 10
9.8314000000000004
 20
54.080800000000004
 30
0.0
 10
9.6196999999999999
 20
54.751100000000001
 30
0.0
 10
10.4312
 20
55.033299999999997
 30
0.0
 10
10.5723
 20
55.668300000000002
 30
0.0
 10
10.5723
 20
55.668300000000002
 30
0.0
 10
10.5723
 20
55.668300000000002
 30
0.0
 10
12.0892
 20
57.467500000000001
 30
0.0
 10
12.0892
 20
57.467500000000001
 30
0.0
 10
12.0892
 20
57.467500000000001
 30
0.0
 10
12.0892
 20
57.467500000000001
 30
0.0
 10
12.265599999999999
 20
56.938299999999998
 30
0.0
 10
12.265599999999999
 20
56.938299999999998
 30
0.0
 10
12.265599999999999
 20
56.938299999999998
 30
0.0
 10
11.4542
 20
55.985799999999998
 30
0.0
 10
11.0662
 20
54.539400000000001
 30
0.0
 10
9.8314000000000004
 20
54.080800000000004
 30
0.0
  0
SPLINE
  5
2E
100
AcDbEntity
  8
RÚteg 1
100
AcDbSpline
210
0.0
220
0.0
230
1.0
 70
     1
 71
     3
 72
    20
 73
    16
 74
     0
 42
0.0000000001
 43
0.0000000001
 40
0.0
 40
0.0
 40
0.0
 40
0.0
 40
0.25
 40
0.25
 40
0.25
 40
0.25
 40
0.5
 40
0.5
 40
0.5
 40
0.5
 40
0.75
 40
0.75
 40
0.75
 40
0.75
 40
1.0
 40
1.0
 40
1.0
 40
1.0
 10
8.4556000000000004
 20
54.645200000000003
 30
0.0
 10
7.8912000000000004
 20
54.504100000000001
 30
0.0
 10
6.9739000000000004
 20
54.151299999999999
 30
0.0
 10
6.7622999999999998
 20
55.068600000000004
 30
0.0
 10
6.7622999999999998
 20
55.068600000000004
 30
0.0
 10
6.3742000000000001
 20
55.950499999999998
 30
0.0
 10
6.4801000000000002
 20
57.0441
 30
0.0
 10
6.3388999999999998
 20
58.0319
 30
0.0
 10
6.3388999999999998
 20
58.0319
 30
0.0
 10
8.0321999999999996
 20
58.278799999999997
 30
0.0
 10
10.0078
 20
58.984400000000001
 30
0.0
 10
10.5723
 20
60.854100000000003
 30
0.0
 10
10.5723
 20
60.854100000000003
 30
0.0
 10
11.807
 20
58.420000000000002
 30
0.0
 10
9.6550999999999991
 20
56.444400000000002
 30
0.0
 10
8.4556000000000004
 20
54.645200000000003
 30
0.0
  0
SPLINE
  5
2F
100
AcDbEntity
  8
RÚteg 1
100
AcDbSpline
210
0.0
220
0.0
230
1.0
 70
     1
 71
     3
 72
    24
 73
    20
 74
     0
 42
0.0000000001
 43
0.0000000001
 40
0.0
 40
0.0
 40
0.0
 40
0.0
 40
0.2
 40
0.2
 40
0.2
 40
0.2
 40
0.4
 40
0.4
 40
0.4
 40
0.4
 40
0.6000000000000001
 40
0.6000000000000001
 40
0.6000000000000001
 40
0.6000000000000001
 40
0.8
 40
0.8
 40
0.8
 40
0.8
 40
1.0
 40
1.0
 40
1.0
 40
1.0
 10
6.4447000000000001
 20
52.881300000000003
 30
0.0
 10
7.1502999999999997
 20
52.8108
 30
0.0
 10
8.0676000000000005
 20
52.8108
 30
0.0
 10
8.0321999999999996
 20
51.8583
 30
0.0
 10
8.0321999999999996
 20
51.8583
 30
0.0
 10
8.2439
 20
51.152700000000003
 30
0.0
 10
7.7500999999999998
 20
50.729399999999998
 30
0.0
 10
7.5384000000000002
 20
50.164999999999999
 30
0.0
 10
7.5384000000000002
 20
50.164999999999999
 30
0.0
 10
6.8327999999999998
 20
49.776899999999998
 30
0.0
 10
5.9508999999999999
 20
49.776899999999998
 30
0.0
 10
5.2453000000000003
 20
50.164999999999999
 30
0.0
 10
5.2453000000000003
 20
50.164999999999999
 30
0.0
 10
4.8571999999999997
 20
50.623600000000003
 30
0.0
 10
4.6456
 20
51.223300000000002
 30
0.0
 10
4.7514000000000003
 20
51.787700000000001
 30
0.0
 10
4.7514000000000003
 20
51.787700000000001
 30
0.0
 10
5.3159000000000001
 20
52.140500000000003
 30
0.0
 10
5.7039
 20
52.881300000000003
 30
0.0
 10
6.4447000000000001
 20
52.881300000000003
 30
0.0
  0
SPLINE
  5
30
100
AcDbEntity
  8
RÚteg 1
100
AcDbSpline
210
0.0
220
0.0
230
1.0
 70
     1
 71
     3
 72
    20
 73
    16
 74
     0
 42
0.0000000001
 43
0.0000000001
 40
0.0
 40
0.0
 40
0.0
 40
0.0
 40
0.25
 40
0.25
 40
0.25
 40
0.25
 40
0.5
 40
0.5
 40
0.5
 40
0.5
 40
0.75
 40
0.75
 40
0.75
 40
0.75
 40
1.0
 40
1.0
 40
1.0
 40
1.0
 10
4.9984000000000002
 20
54.645200000000003
 30
0.0
 10
4.6456
 20
55.597700000000003
 30
0.0
 10
4.5397999999999996
 20
56.832500000000003
 30
0.0
 10
4.8220000000000001
 20
57.7849
 30
0.0
 10
4.8220000000000001
 20
57.7849
 30
0.0
 10
4.8220000000000001
 20
57.7849
 30
0.0
 10
5.2453000000000003
 20
57.961300000000001
 30
0.0
 10
5.2453000000000003
 20
57.961300000000001
 30
0.0
 10
5.2453000000000003
 20
57.961300000000001
 30
0.0
 10
5.8098000000000001
 20
57.0794
 30
0.0
 10
5.5980999999999996
 20
55.774099999999997
 30
0.0
 10
5.7392000000000003
 20
54.645200000000003
 30
0.0
 10
5.7392000000000003
 20
54.645200000000003
 30
0.0
 10
5.4092000000000002
 20
54.445300000000003
 30
0.0
 10
5.2453000000000003
 20
54.433599999999998
 30
0.0
 10
4.9984000000000002
 20
54.645200000000003
 30
0.0
  0
SPLINE
  5
31
100
AcDbEntity
  8
RÚteg 1
100
AcDbSpline
210
0.0
220
0.0
230
1.0
 70
     1
 71
     3
 72
    24
 73
    20
 74
     0
 42
0.0000000001
 43
0.0000000001
 40
0.0
 40
0.0
 40
0.0
 40
0.0
 40
0.2
 40
0.2
 40
0.2
 40
0.2
 40
0.4
 40
0.4
 40
0.4
 40
0.4
 40
0.6000000000000001
 40
0.6000000000000001
 40
0.6000000000000001
 40
0.6000000000000001
 40
0.8
 40
0.8
 40
0.8
 40
0.8
 40
1.0
 40
1.0
 40
1.0
 40
1.0
 10
4.7514000000000003
 20
47.977699999999999
 30
0.0
 10
5.4923000000000002
 20
48.012999999999998
 30
0.0
 10
6.2683999999999997
 20
47.554400000000001
 30
0.0
 10
7.1856
 20
47.730800000000002
 30
0.0
 10
7.1856
 20
47.730800000000002
 30
0.0
 10
7.0797999999999996
 20
43.321100000000001
 30
0.0
 10
4.1516999999999999
 20
39.828600000000002
 30
0.0
 10
1.8586
 20
36.300800000000002
 30
0.0
 10
1.8586
 20
36.300800000000002
 30
0.0
 10
1.3294999999999999
 20
36.336100000000002
 30
0.0
 10
1.0826
 20
36.9358
 30
0.0
 10
0.8356
 20
37.288600000000002
 30
0.0
 10
0.8356
 20
37.288600000000002
 30
0.0
 10
0.1653
 20
38.382199999999997
 30
0.0
 10
0.4123
 20
39.934399999999997
 30
0.0
 10
-0.011
 20
41.027999999999999
 30
0.0
 10
-0.011
 20
41.027999999999999
 30
0.0
 10
1.9998
 20
43.038800000000002
 30
0.0
 10
3.6577999999999999
 20
45.4377
 30
0.0
 10
4.7514000000000003
 20
47.977699999999999
 30
0.0
  0
SPLINE
  5
32
100
AcDbEntity
  8
RÚteg 1
100
AcDbSpline
210
0.0
220
0.0
230
1.0
 70
     1
 71
     3
 72
    16
 73
    12
 74
     0
 42
0.0000000001
 43
0.0000000001
 40
0.0
 40
0.0
 40
0.0
 40
0.0
 40
0.3333333333333333
 40
0.3333333333333333
 40
0.3333333333333333
 40
0.3333333333333333
 40
0.6666666666666666
 40
0.6666666666666666
 40
0.6666666666666666
 40
0.6666666666666666
 40
1.0
 40
1.0
 40
1.0
 40
1.0
 10
5.7274000000000003
 20
37.994100000000003
 30
0.0
 10
5.7031999999999998
 20
34.924999999999997
 30
0.0
 10
5.5628000000000002
 20
31.608799999999999
 30
0.0
 10
6.1626000000000003
 20
28.398599999999998
 30
0.0
 10
6.1626000000000003
 20
28.398599999999998
 30
0.0
 10
7.0091999999999999
 20
24.5533
 30
0.0
 10
7.5384000000000002
 20
20.5669
 30
0.0
 10
8.3849999999999998
 20
16.721599999999999
 30
0.0
 10
8.3849999999999998
 20
16.721599999999999
 30
0.0
 10
2.1753999999999998
 20
30.280000000000001
 30
0.0
 10
5.7274000000000003
 20
37.994100000000003
 30
0.0
 10
5.7274000000000003
 20
37.994100000000003
 30
0.0
  0
SPLINE
  5
33
100
AcDbEntity
  8
RÚteg 1
100
AcDbSpline
210
0.0
220
0.0
230
1.0
 70
     1
 71
     3
 72
    36
 73
    32
 74
     0
 42
0.0000000001
 43
0.0000000001
 40
0.0
 40
0.0
 40
0.0
 40
0.0
 40
0.125
 40
0.125
 40
0.125
 40
0.125
 40
0.25
 40
0.25
 40
0.25
 40
0.25
 40
0.375
 40
0.375
 40
0.375
 40
0.375
 40
0.5
 40
0.5
 40
0.5
 40
0.5
 40
0.625
 40
0.625
 40
0.625
 40
0.625
 40
0.75
 40
0.75
 40
0.75
 40
0.75
 40
0.875
 40
0.875
 40
0.875
 40
0.875
 40
1.0
 40
1.0
 40
1.0
 40
1.0
 10
22.8489
 20
64.911100000000005
 30
0.0
 10
26.3767
 20
67.697999999999993
 30
0.0
 10
30.2926
 20
69.602999999999994
 30
0.0
 10
34.878700000000002
 20
69.814700000000002
 30
0.0
 10
34.878700000000002
 20
69.814700000000002
 30
0.0
 10
41.793100000000003
 20
70.379099999999994
 30
0.0
 10
47.543399999999998
 20
74.330200000000005
 30
0.0
 10
53.082000000000001
 20
78.457700000000003
 30
0.0
 10
53.082000000000001
 20
78.457700000000003
 30
0.0
 10
54.5989
 20
79.092699999999994
 30
0.0
 10
56.151200000000003
 20
79.657200000000003
 30
0.0
 10
57.809199999999997
 20
79.9041
 30
0.0
 10
57.809199999999997
 20
79.9041
 30
0.0
 10
57.809199999999997
 20
79.9041
 30
0.0
 10
52.9056
 20
77.187700000000007
 30
0.0
 10
52.9056
 20
77.187700000000007
 30
0.0
 10
52.9056
 20
77.187700000000007
 30
0.0
 10
48.848700000000001
 20
72.9191
 30
0.0
 10
43.839199999999998
 20
70.343800000000002
 30
0.0
 10
38.441699999999997
 20
70.061599999999999
 30
0.0
 10
38.441699999999997
 20
70.061599999999999
 30
0.0
 10
31.386199999999999
 20
68.932699999999997
 30
0.0
 10
25.424199999999999
 20
65.158000000000001
 30
0.0
 10
19.815100000000001
 20
60.571899999999999
 30
0.0
 10
19.815100000000001
 20
60.571899999999999
 30
0.0
 10
19.815100000000001
 20
60.571899999999999
 30
0.0
 10
19.215299999999999
 20
60.677700000000002
 30
0.0
 10
19.215299999999999
 20
60.677700000000002
 30
0.0
 10
19.215299999999999
 20
60.677700000000002
 30
0.0
 10
19.850300000000001
 20
62.335799999999999
 30
0.0
 10
21.6495
 20
63.535200000000003
 30
0.0
 10
22.8489
 20
64.911100000000005
 30
0.0
  0
SPLINE
  5
34
100
AcDbEntity
  8
RÚteg 1
100
AcDbSpline
210
0.0
220
0.0
230
1.0
 70
     1
 71
     3
 72
    20
 73
    16
 74
     0
 42
0.0000000001
 43
0.0000000001
 40
0.0
 40
0.0
 40
0.0
 40
0.0
 40
0.25
 40
0.25
 40
0.25
 40
0.25
 40
0.5
 40
0.5
 40
0.5
 40
0.5
 40
0.75
 40
0.75
 40
0.75
 40
0.75
 40
1.0
 40
1.0
 40
1.0
 40
1.0
 10
10.678100000000001
 20
75.141599999999997
 30
0.0
 10
11.172000000000001
 20
78.105000000000004
 30
0.0
 10
12.7242
 20
80.891900000000007
 30
0.0
 10
14.9114
 20
83.290800000000004
 30
0.0
 10
14.9114
 20
83.290800000000004
 30
0.0
 10
14.9114
 20
83.290800000000004
 30
0.0
 10
20.062000000000001
 20
87.100800000000007
 30
0.0
 10
20.062000000000001
 20
87.100800000000007
 30
0.0
 10
20.062000000000001
 20
87.100800000000007
 30
0.0
 10
16.851700000000001
 20
83.008600000000001
 30
0.0
 10
13.2181
 20
79.128
 30
0.0
 10
10.9956
 20
74.6477
 30
0.0
 10
10.9956
 20
74.6477
 30
0.0
 10
10.7134
 20
74.577200000000005
 30
0.0
 10
10.6076
 20
74.8947
 30
0.0
 10
10.678100000000001
 20
75.141599999999997
 30
0.0
  0
SPLINE
  5
35
100
AcDbEntity
  8
RÚteg 1
100
AcDbSpline
210
0.0
220
0.0
230
1.0
 70
     1
 71
     3
 72
    32
 73
    28
 74
     0
 42
0.0000000001
 43
0.0000000001
 40
0.0
 40
0.0
 40
0.0
 40
0.0
 40
0.1428571428571429
 40
0.1428571428571429
 40
0.1428571428571429
 40
0.1428571428571429
 40
0.2857142857142857
 40
0.2857142857142857
 40
0.2857142857142857
 40
0.2857142857142857
 40
0.4285714285714286
 40
0.4285714285714286
 40
0.4285714285714286
 40
0.4285714285714286
 40
0.5714285714285714
 40
0.5714285714285714
 40
0.5714285714285714
 40
0.5714285714285714
 40
0.7142857142857142
 40
0.7142857142857142
 40
0.7142857142857142
 40
0.7142857142857142
 40
0.857142857142857
 40
0.857142857142857
 40
0.857142857142857
 40
0.857142857142857
 40
1.0
 40
1.0
 40
1.0
 40
1.0
 10
9.9725000000000001
 20
71.931299999999993
 30
0.0
 10
10.3253
 20
72.037199999999999
 30
0.0
 10
10.678100000000001
 20
72.672200000000004
 30
0.0
 10
10.9956
 20
73.025000000000006
 30
0.0
 10
10.9956
 20
73.025000000000006
 30
0.0
 10
12.6889
 20
74.295000000000002
 30
0.0
 10
14.488099999999999
 20
75.212199999999996
 30
0.0
 10
16.604800000000001
 20
75.388599999999997
 30
0.0
 10
16.604800000000001
 20
75.388599999999997
 30
0.0
 10
14.4176
 20
73.9422
 30
0.0
 10
12.265599999999999
 20
72.390000000000001
 30
0.0
 10
10.148899999999999
 20
70.731899999999996
 30
0.0
 10
10.148899999999999
 20
70.731899999999996
 30
0.0
 10
10.1137
 20
69.708799999999997
 30
0.0
 10
10.5723
 20
68.650499999999994
 30
0.0
 10
10.395899999999999
 20
67.451099999999997
 30
0.0
 10
10.395899999999999
 20
67.451099999999997
 30
0.0
 10
10.395899999999999
 20
67.451099999999997
 30
0.0
 10
9.9019999999999992
 20
63.0413
 30
0.0
 10
9.9019999999999992
 20
63.0413
 30
0.0
 10
9.9019999999999992
 20
63.0413
 30
0.0
 10
9.5845000000000002
 20
68.086100000000002
 30
0.0
 10
9.1258999999999997
 20
73.060199999999995
 30
0.0
 10
6.8681000000000001
 20
77.258300000000006
 30
0.0
 10
6.8681000000000001
 20
77.258300000000006
 30
0.0
 10
9.0553000000000008
 20
76.094099999999997
 30
0.0
 10
9.1964000000000006
 20
73.801100000000005
 30
0.0
 10
9.9725000000000001
 20
71.931299999999993
 30
0.0
  0
SPLINE
  5
36
100
AcDbEntity
  8
RÚteg 1
100
AcDbSpline
210
0.0
220
0.0
230
1.0
 70
     1
 71
     3
 72
    20
 73
    16
 74
     0
 42
0.0000000001
 43
0.0000000001
 40
0.0
 40
0.0
 40
0.0
 40
0.0
 40
0.25
 40
0.25
 40
0.25
 40
0.25
 40
0.5
 40
0.5
 40
0.5
 40
0.5
 40
0.75
 40
0.75
 40
0.75
 40
0.75
 40
1.0
 40
1.0
 40
1.0
 40
1.0
 10
6.9386999999999999
 20
63.817500000000003
 30
0.0
 10
6.9386999999999999
 20
63.817500000000003
 30
0.0
 10
8.2791999999999994
 20
62.865000000000002
 30
0.0
 10
8.2791999999999994
 20
62.865000000000002
 30
0.0
 10
8.2791999999999994
 20
62.865000000000002
 30
0.0
 10
8.1380999999999997
 20
62.194699999999997
 30
0.0
 10
7.3973000000000004
 20
61.771299999999997
 30
0.0
 10
6.7622999999999998
 20
62.194699999999997
 30
0.0
 10
6.7622999999999998
 20
62.194699999999997
 30
0.0
 10
6.0567000000000002
 20
62.547400000000003
 30
0.0
 10
5.1748000000000003
 20
62.688600000000001
 30
0.0
 10
4.7514000000000003
 20
63.535200000000003
 30
0.0
 10
4.7514000000000003
 20
63.535200000000003
 30
0.0
 10
5.2453000000000003
 20
64.381900000000002
 30
0.0
 10
6.1978
 20
63.711599999999997
 30
0.0
 10
6.9386999999999999
 20
63.817500000000003
 30
0.0
  0
SPLINE
  5
37
100
AcDbEntity
  8
RÚteg 1
100
AcDbSpline
210
0.0
220
0.0
230
1.0
 70
     1
 71
     3
 72
    24
 73
    20
 74
     0
 42
0.0000000001
 43
0.0000000001
 40
0.0
 40
0.0
 40
0.0
 40
0.0
 40
0.2
 40
0.2
 40
0.2
 40
0.2
 40
0.4
 40
0.4
 40
0.4
 40
0.4
 40
0.6000000000000001
 40
0.6000000000000001
 40
0.6000000000000001
 40
0.6000000000000001
 40
0.8
 40
0.8
 40
0.8
 40
0.8
 40
1.0
 40
1.0
 40
1.0
 40
1.0
 10
4.4691999999999998
 20
61.841900000000003
 30
0.0
 10
5.8451000000000004
 20
61.347999999999999
 30
0.0
 10
7.5384000000000002
 20
61.5244
 30
0.0
 10
8.8084000000000007
 20
60.7483
 30
0.0
 10
8.8084000000000007
 20
60.7483
 30
0.0
 10
9.2317
 20
60.0075
 30
0.0
 10
8.0676000000000005
 20
59.7605
 30
0.0
 10
7.6089000000000002
 20
59.407699999999998
 30
0.0
 10
7.6089000000000002
 20
59.407699999999998
 30
0.0
 10
6.7622999999999998
 20
59.196100000000001
 30
0.0
 10
5.9862000000000002
 20
58.7727
 30
0.0
 10
4.9984000000000002
 20
58.808
 30
0.0
 10
4.9984000000000002
 20
58.808
 30
0.0
 10
4.3281000000000001
 20
59.231299999999997
 30
0.0
 10
4.2927999999999997
 20
60.078000000000003
 30
0.0
 10
4.2222999999999997
 20
60.854100000000003
 30
0.0
 10
4.2222999999999997
 20
60.854100000000003
 30
0.0
 10
4.2222999999999997
 20
60.854100000000003
 30
0.0
 10
4.4691999999999998
 20
61.841900000000003
 30
0.0
 10
4.4691999999999998
 20
61.841900000000003
 30
0.0
  0
SPLINE
  5
38
100
AcDbEntity
  8
RÚteg 1
100
AcDbSpline
210
0.0
220
0.0
230
1.0
 70
     1
 71
     3
 72
    28
 73
    24
 74
     0
 42
0.0000000001
 43
0.0000000001
 40
0.0
 40
0.0
 40
0.0
 40
0.0
 40
0.1666666666666667
 40
0.1666666666666667
 40
0.1666666666666667
 40
0.1666666666666667
 40
0.3333333333333333
 40
0.3333333333333333
 40
0.3333333333333333
 40
0.3333333333333333
 40
0.5
 40
0.5
 40
0.5
 40
0.5
 40
0.6666666666666666
 40
0.6666666666666666
 40
0.6666666666666666
 40
0.6666666666666666
 40
0.8333333333333333
 40
0.8333333333333333
 40
0.8333333333333333
 40
0.8333333333333333
 40
1.0
 40
1.0
 40
1.0
 40
1.0
 10
-3.7151000000000001
 20
41.874699999999997
 30
0.0
 10
-6.1139999999999999
 20
42.262700000000002
 30
0.0
 10
-8.6187000000000005
 20
41.9099
 30
0.0
 10
-10.911799999999999
 20
41.521900000000002
 30
0.0
 10
-10.911799999999999
 20
41.521900000000002
 30
0.0
 10
-9.8181999999999992
 20
44.308799999999998
 30
0.0
 10
-7.7015000000000002
 20
47.589700000000001
 30
0.0
 10
-4.5617999999999999
 20
48.4011
 30
0.0
 10
-4.5617999999999999
 20
48.4011
 30
0.0
 10
-3.3976000000000002
 20
47.589700000000001
 30
0.0
 10
-2.0922999999999998
 20
47.1663
 30
0.0
 10
-0.6107
 20
47.131100000000004
 30
0.0
 10
-0.6107
 20
47.131100000000004
 30
0.0
 10
0.2359
 20
47.625
 30
0.0
 10
1.2588999999999999
 20
47.766100000000002
 30
0.0
 10
1.9292
 20
48.648000000000003
 30
0.0
 10
1.9292
 20
48.648000000000003
 30
0.0
 10
1.9292
 20
48.648000000000003
 30
0.0
 10
3.7284000000000002
 20
48.1541
 30
0.0
 10
3.7284000000000002
 20
48.1541
 30
0.0
 10
3.7284000000000002
 20
48.1541
 30
0.0
 10
1.5411999999999999
 20
45.8611
 30
0.0
 10
0.1653
 20
41.1691
 30
0.0
 10
-3.7151000000000001
 20
41.874699999999997
 30
0.0
  0
SPLINE
  5
39
100
AcDbEntity
  8
RÚteg 1
100
AcDbSpline
210
0.0
220
0.0
230
1.0
 70
     1
 71
     3
 72
    16
 73
    12
 74
     0
 42
0.0000000001
 43
0.0000000001
 40
0.0
 40
0.0
 40
0.0
 40
0.0
 40
0.3333333333333333
 40
0.3333333333333333
 40
0.3333333333333333
 40
0.3333333333333333
 40
0.6666666666666666
 40
0.6666666666666666
 40
0.6666666666666666
 40
0.6666666666666666
 40
1.0
 40
1.0
 40
1.0
 40
1.0
 10
-27.5276
 20
-2.5752000000000002
 30
0.0
 10
-25.834299999999999
 20
-2.1518999999999999
 30
0.0
 10
-23.647099999999998
 20
-2.0813000000000001
 30
0.0
 10
-21.7774
 20
-1.6579999999999999
 30
0.0
 10
-21.7774
 20
-1.6579999999999999
 30
0.0
 10
-18.5671
 20
-4.1980000000000004
 30
0.0
 10
-17.367699999999999
 20
-7.9021999999999997
 30
0.0
 10
-17.014900000000001
 20
-11.818
 30
0.0
 10
-17.014900000000001
 20
-11.818
 30
0.0
 10
-20.366299999999999
 20
-8.7487999999999992
 30
0.0
 10
-23.470700000000001
 20
-4.5507999999999997
 30
0.0
 10
-27.5276
 20
-2.5752000000000002
 30
0.0
  0
SPLINE
  5
3A
100
AcDbEntity
  8
RÚteg 1
100
AcDbSpline
210
0.0
220
0.0
230
1.0
 70
     1
 71
     3
 72
    24
 73
    20
 74
     0
 42
0.0000000001
 43
0.0000000001
 40
0.0
 40
0.0
 40
0.0
 40
0.0
 40
0.2
 40
0.2
 40
0.2
 40
0.2
 40
0.4
 40
0.4
 40
0.4
 40
0.4
 40
0.6000000000000001
 40
0.6000000000000001
 40
0.6000000000000001
 40
0.6000000000000001
 40
0.8
 40
0.8
 40
0.8
 40
0.8
 40
1.0
 40
1.0
 40
1.0
 40
1.0
 10
-20.507300000000001
 20
-10.018800000000001
 30
0.0
 10
-24.670100000000001
 20
-8.9957999999999991
 30
0.0
 10
-29.785399999999999
 20
-10.477499999999999
 30
0.0
 10
-33.630699999999997
 20
-8.4313000000000002
 30
0.0
 10
-33.630699999999997
 20
-8.4313000000000002
 30
0.0
 10
-33.630699999999997
 20
-8.4313000000000002
 30
0.0
 10
-34.371499999999997
 20
-8.0079999999999991
 30
0.0
 10
-34.371499999999997
 20
-8.0079999999999991
 30
0.0
 10
-34.371499999999997
 20
-8.0079999999999991
 30
0.0
 10
-34.371499999999997
 20
-8.0079999999999991
 30
0.0
 10
-35.041800000000002
 20
-2.7515999999999998
 30
0.0
 10
-35.041800000000002
 20
-2.7515999999999998
 30
0.0
 10
-35.041800000000002
 20
-2.7515999999999998
 30
0.0
 10
-30.173500000000001
 20
-0.9525
 30
0.0
 10
-26.434000000000001
 20
-4.4802
 30
0.0
 10
-22.870999999999999
 20
-7.1612999999999998
 30
0.0
 10
-22.870999999999999
 20
-7.1612999999999998
 30
0.0
 10
-22.0596
 20
-8.0433000000000003
 30
0.0
 10
-21.0365
 20
-8.9604999999999997
 30
0.0
 10
-20.507300000000001
 20
-10.018800000000001
 30
0.0
  0
SPLINE
  5
3B
100
AcDbEntity
  8
RÚteg 1
100
AcDbSpline
210
0.0
220
0.0
230
1.0
 70
     1
 71
     3
 72
    36
 73
    32
 74
     0
 42
0.0000000001
 43
0.0000000001
 40
0.0
 40
0.0
 40
0.0
 40
0.0
 40
0.125
 40
0.125
 40
0.125
 40
0.125
 40
0.25
 40
0.25
 40
0.25
 40
0.25
 40
0.375
 40
0.375
 40
0.375
 40
0.375
 40
0.5
 40
0.5
 40
0.5
 40
0.5
 40
0.625
 40
0.625
 40
0.625
 40
0.625
 40
0.75
 40
0.75
 40
0.75
 40
0.75
 40
0.875
 40
0.875
 40
0.875
 40
0.875
 40
1.0
 40
1.0
 40
1.0
 40
1.0
 10
-25.587299999999999
 20
17.3919
 30
0.0
 10
-28.2685
 20
12.488300000000001
 30
0.0
 10
-30.7026
 20
7.4436
 30
0.0
 10
-33.9482
 20
2.7515999999999998
 30
0.0
 10
-33.9482
 20
2.7515999999999998
 30
0.0
 10
-34.653799999999997
 20
2.0461
 30
0.0
 10
-35.218200000000003
 20
1.1288
 30
0.0
 10
-36.064900000000002
 20
0.635
 30
0.0
 10
-36.064900000000002
 20
0.635
 30
0.0
 10
-32.161499999999997
 20
5.1740000000000004
 30
0.0
 10
-30.338799999999999
 20
13.111499999999999
 30
0.0
 10
-27.5276
 20
17.074400000000001
 30
0.0
 10
-27.5276
 20
17.074400000000001
 30
0.0
 10
-25.164000000000001
 20
20.249400000000001
 30
0.0
 10
-23.153199999999998
 20
23.495000000000001
 30
0.0
 10
-20.084
 20
26.211300000000001
 30
0.0
 10
-20.084
 20
26.211300000000001
 30
0.0
 10
-15.004
 20
30.444700000000001
 30
0.0
 10
-9.2889999999999997
 20
33.302199999999999
 30
0.0
 10
-4.3148999999999997
 20
37.570799999999998
 30
0.0
 10
-4.3148999999999997
 20
37.570799999999998
 30
0.0
 10
-4.3148999999999997
 20
37.570799999999998
 30
0.0
 10
-4.0678999999999998
 20
37.288600000000002
 30
0.0
 10
-4.0678999999999998
 20
37.288600000000002
 30
0.0
 10
-4.0678999999999998
 20
37.288600000000002
 30
0.0
 10
-6.3962000000000003
 20
33.125799999999998
 30
0.0
 10
-10.947100000000001
 20
31.503
 30
0.0
 10
-14.4748
 20
28.821899999999999
 30
0.0
 10
-14.4748
 20
28.821899999999999
 30
0.0
 10
-18.672899999999998
 20
25.8233
 30
0.0
 10
-23.259
 20
22.013300000000001
 30
0.0
 10
-25.587299999999999
 20
17.3919
 30
0.0
  0
SPLINE
  5
3C
100
AcDbEntity
  8
RÚteg 1
100
AcDbSpline
210
0.0
220
0.0
230
1.0
 70
     1
 71
     3
 72
    28
 73
    24
 74
     0
 42
0.0000000001
 43
0.0000000001
 40
0.0
 40
0.0
 40
0.0
 40
0.0
 40
0.1666666666666667
 40
0.1666666666666667
 40
0.1666666666666667
 40
0.1666666666666667
 40
0.3333333333333333
 40
0.3333333333333333
 40
0.3333333333333333
 40
0.3333333333333333
 40
0.5
 40
0.5
 40
0.5
 40
0.5
 40
0.6666666666666666
 40
0.6666666666666666
 40
0.6666666666666666
 40
0.6666666666666666
 40
0.8333333333333333
 40
0.8333333333333333
 40
0.8333333333333333
 40
0.8333333333333333
 40
1.0
 40
1.0
 40
1.0
 40
1.0
 10
-38.4285
 20
9.5250000000000004
 30
0.0
 10
-38.4285
 20
9.5250000000000004
 30
0.0
 10
-36.170699999999997
 20
7.9375
 30
0.0
 10
-36.170699999999997
 20
7.9375
 30
0.0
 10
-36.170699999999997
 20
7.9375
 30
0.0
 10
-36.488199999999999
 20
6.8086000000000002
 30
0.0
 10
-36.805700000000002
 20
5.6444000000000001
 30
0.0
 10
-37.334800000000001
 20
4.6212999999999997
 30
0.0
 10
-37.334800000000001
 20
4.6212999999999997
 30
0.0
 10
-39.592700000000001
 20
5.6090999999999998
 30
0.0
 10
-41.180199999999999
 20
8.2550000000000008
 30
0.0
 10
-43.508499999999998
 20
9.0311000000000003
 30
0.0
 10
-43.508499999999998
 20
9.0311000000000003
 30
0.0
 10
-46.648200000000003
 20
9.3485999999999994
 30
0.0
 10
-49.999600000000001
 20
9.2074999999999996
 30
0.0
 10
-52.574800000000003
 20
10.795
 30
0.0
 10
-52.574800000000003
 20
10.795
 30
0.0
 10
-54.0565
 20
13.440799999999999
 30
0.0
 10
-54.621000000000002
 20
16.580500000000001
 30
0.0
 10
-54.691499999999998
 20
19.684999999999999
 30
0.0
 10
-54.691499999999998
 20
19.684999999999999
 30
0.0
 10
-49.435099999999998
 20
15.945499999999999
 30
0.0
 10
-44.108199999999997
 20
12.2766
 30
0.0
 10
-38.4285
 20
9.5250000000000004
 30
0.0
  0
SPLINE
  5
3D
100
AcDbEntity
  8
RÚteg 1
100
AcDbSpline
210
0.0
220
0.0
230
1.0
 70
     1
 71
     3
 72
    20
 73
    16
 74
     0
 42
0.0000000001
 43
0.0000000001
 40
0.0
 40
0.0
 40
0.0
 40
0.0
 40
0.25
 40
0.25
 40
0.25
 40
0.25
 40
0.5
 40
0.5
 40
0.5
 40
0.5
 40
0.75
 40
0.75
 40
0.75
 40
0.75
 40
1.0
 40
1.0
 40
1.0
 40
1.0
 10
-53.774299999999997
 20
21.907499999999999
 30
0.0
 10
-52.504300000000001
 20
22.507200000000001
 30
0.0
 10
-50.987299999999998
 20
22.471900000000002
 30
0.0
 10
-49.540999999999997
 20
22.5777
 30
0.0
 10
-49.540999999999997
 20
22.5777
 30
0.0
 10
-49.540999999999997
 20
22.5777
 30
0.0
 10
-47.8476
 20
20.461099999999998
 30
0.0
 10
-47.8476
 20
20.461099999999998
 30
0.0
 10
-47.8476
 20
20.461099999999998
 30
0.0
 10
-47.8476
 20
20.461099999999998
 30
0.0
 10
-44.637300000000003
 20
15.204700000000001
 30
0.0
 10
-44.637300000000003
 20
15.204700000000001
 30
0.0
 10
-44.637300000000003
 20
15.204700000000001
 30
0.0
 10
-47.882899999999999
 20
16.510000000000002
 30
0.0
 10
-51.022599999999997
 20
19.0852
 30
0.0
 10
-53.774299999999997
 20
21.907499999999999
 30
0.0
  0
SPLINE
  5
3E
100
AcDbEntity
  8
RÚteg 1
100
AcDbSpline
210
0.0
220
0.0
230
1.0
 70
     1
 71
     3
 72
    36
 73
    32
 74
     0
 42
0.0000000001
 43
0.0000000001
 40
0.0
 40
0.0
 40
0.0
 40
0.0
 40
0.125
 40
0.125
 40
0.125
 40
0.125
 40
0.25
 40
0.25
 40
0.25
 40
0.25
 40
0.375
 40
0.375
 40
0.375
 40
0.375
 40
0.5
 40
0.5
 40
0.5
 40
0.5
 40
0.625
 40
0.625
 40
0.625
 40
0.625
 40
0.75
 40
0.75
 40
0.75
 40
0.75
 40
0.875
 40
0.875
 40
0.875
 40
0.875
 40
1.0
 40
1.0
 40
1.0
 40
1.0
 10
-36.417700000000004
 20
11.0419
 30
0.0
 10
-40.8979
 20
11.606299999999999
 30
0.0
 10
-44.319800000000001
 20
15.804399999999999
 30
0.0
 10
-45.554600000000001
 20
19.8613
 30
0.0
 10
-45.554600000000001
 20
19.8613
 30
0.0
 10
-46.366
 20
23.001100000000001
 30
0.0
 10
-48.764899999999997
 20
25.682200000000002
 30
0.0
 10
-51.481200000000001
 20
27.834099999999999
 30
0.0
 10
-51.481200000000001
 20
27.834099999999999
 30
0.0
 10
-51.481200000000001
 20
27.834099999999999
 30
0.0
 10
-54.0212
 20
28.5044
 30
0.0
 10
-54.0212
 20
28.5044
 30
0.0
 10
-54.0212
 20
28.5044
 30
0.0
 10
-52.292700000000004
 20
29.5275
 30
0.0
 10
-49.929000000000002
 20
29.5627
 30
0.0
 10
-47.8476
 20
29.245200000000001
 30
0.0
 10
-47.8476
 20
29.245200000000001
 30
0.0
 10
-47.8476
 20
29.245200000000001
 30
0.0
 10
-35.888500000000001
 20
26.8111
 30
0.0
 10
-35.888500000000001
 20
26.8111
 30
0.0
 10
-35.888500000000001
 20
26.8111
 30
0.0
 10
-33.348500000000001
 20
25.999700000000001
 30
0.0
 10
-30.526199999999999
 20
25.717500000000001
 30
0.0
 10
-28.2685
 20
24.447500000000002
 30
0.0
 10
-28.2685
 20
24.447500000000002
 30
0.0
 10
-31.6904
 20
20.637499999999999
 30
0.0
 10
-34.336199999999998
 20
16.051300000000001
 30
0.0
 10
-35.817900000000002
 20
11.218299999999999
 30
0.0
 10
-35.817900000000002
 20
11.218299999999999
 30
0.0
 10
-35.817900000000002
 20
11.218299999999999
 30
0.0
 10
-36.417700000000004
 20
11.0419
 30
0.0
 10
-36.417700000000004
 20
11.0419
 30
0.0
  0
SPLINE
  5
3F
100
AcDbEntity
  8
RÚteg 1
100
AcDbSpline
210
0.0
220
0.0
230
1.0
 70
     1
 71
     3
 72
    20
 73
    16
 74
     0
 42
0.0000000001
 43
0.0000000001
 40
0.0
 40
0.0
 40
0.0
 40
0.0
 40
0.25
 40
0.25
 40
0.25
 40
0.25
 40
0.5
 40
0.5
 40
0.5
 40
0.5
 40
0.75
 40
0.75
 40
0.75
 40
0.75
 40
1.0
 40
1.0
 40
1.0
 40
1.0
 10
-11.0177
 20
47.554400000000001
 30
0.0
 10
-14.157299999999999
 20
47.448599999999999
 30
0.0
 10
-16.767900000000001
 20
49.318300000000001
 30
0.0
 10
-18.5318
 20
51.787700000000001
 30
0.0
 10
-18.5318
 20
51.787700000000001
 30
0.0
 10
-20.013500000000001
 20
54.010199999999998
 30
0.0
 10
-20.860099999999999
 20
56.479700000000001
 30
0.0
 10
-21.671500000000002
 20
58.984400000000001
 30
0.0
 10
-21.671500000000002
 20
58.984400000000001
 30
0.0
 10
-19.907599999999999
 20
54.363
 30
0.0
 10
-15.8154
 20
48.895000000000003
 30
0.0
 10
-10.4885
 20
47.977699999999999
 30
0.0
 10
-10.4885
 20
47.977699999999999
 30
0.0
 10
-10.3826
 20
47.660200000000003
 30
0.0
 10
-10.7707
 20
47.483800000000002
 30
0.0
 10
-11.0177
 20
47.554400000000001
 30
0.0
  0
SPLINE
  5
40
100
AcDbEntity
  8
RÚteg 1
100
AcDbSpline
210
0.0
220
0.0
230
1.0
 70
     1
 71
     3
 72
    16
 73
    12
 74
     0
 42
0.0000000001
 43
0.0000000001
 40
0.0
 40
0.0
 40
0.0
 40
0.0
 40
0.3333333333333333
 40
0.3333333333333333
 40
0.3333333333333333
 40
0.3333333333333333
 40
0.6666666666666666
 40
0.6666666666666666
 40
0.6666666666666666
 40
0.6666666666666666
 40
1.0
 40
1.0
 40
1.0
 40
1.0
 10
3.4813999999999998
 20
53.057699999999997
 30
0.0
 10
1.9644999999999999
 20
53.128300000000003
 30
0.0
 10
0.377
 20
54.363
 30
0.0
 10
-0.9282
 20
55.597700000000003
 30
0.0
 10
-0.9282
 20
55.597700000000003
 30
0.0
 10
-0.9282
 20
55.597700000000003
 30
0.0
 10
-0.6812
 20
56.0916
 30
0.0
 10
-0.6812
 20
56.0916
 30
0.0
 10
-0.6812
 20
56.0916
 30
0.0
 10
1.4699
 20
55.1509
 30
0.0
 10
3.4813999999999998
 20
53.057699999999997
 30
0.0
 10
3.4813999999999998
 20
53.057699999999997
 30
0.0
  0
SPLINE
  5
41
100
AcDbEntity
  8
RÚteg 1
100
AcDbSpline
210
0.0
220
0.0
230
1.0
 70
     1
 71
     3
 72
    16
 73
    12
 74
     0
 42
0.0000000001
 43
0.0000000001
 40
0.0
 40
0.0
 40
0.0
 40
0.0
 40
0.3333333333333333
 40
0.3333333333333333
 40
0.3333333333333333
 40
0.3333333333333333
 40
0.6666666666666666
 40
0.6666666666666666
 40
0.6666666666666666
 40
0.6666666666666666
 40
1.0
 40
1.0
 40
1.0
 40
1.0
 10
1.6116999999999999
 20
59.055
 30
0.0
 10
2.9169999999999998
 20
58.878599999999999
 30
0.0
 10
3.0581
 20
57.432200000000002
 30
0.0
 10
3.3050999999999999
 20
56.444400000000002
 30
0.0
 10
3.3050999999999999
 20
56.444400000000002
 30
0.0
 10
3.3050999999999999
 20
56.444400000000002
 30
0.0
 10
2.5289000000000001
 20
56.444400000000002
 30
0.0
 10
2.5289000000000001
 20
56.444400000000002
 30
0.0
 10
2.5289000000000001
 20
56.444400000000002
 30
0.0
 10
2.0703
 20
57.255800000000001
 30
0.0
 10
1.7527999999999999
 20
58.208300000000001
 30
0.0
 10
1.6116999999999999
 20
59.055
 30
0.0
  0
SPLINE
  5
42
100
AcDbEntity
  8
RÚteg 1
100
AcDbSpline
210
0.0
220
0.0
230
1.0
 70
     1
 71
     3
 72
    16
 73
    12
 74
     0
 42
0.0000000001
 43
0.0000000001
 40
0.0
 40
0.0
 40
0.0
 40
0.0
 40
0.3333333333333333
 40
0.3333333333333333
 40
0.3333333333333333
 40
0.3333333333333333
 40
0.6666666666666666
 40
0.6666666666666666
 40
0.6666666666666666
 40
0.6666666666666666
 40
1.0
 40
1.0
 40
1.0
 40
1.0
 10
3.552
 20
49.988599999999998
 30
0.0
 10
3.552
 20
49.988599999999998
 30
0.0
 10
3.552
 20
49.8474
 30
0.0
 10
3.552
 20
49.8474
 30
0.0
 10
3.552
 20
49.8474
 30
0.0
 10
3.0228000000000002
 20
50.200200000000002
 30
0.0
 10
1.5764
 20
50.200200000000002
 30
0.0
 10
2.1055999999999999
 20
51.258600000000001
 30
0.0
 10
2.1055999999999999
 20
51.258600000000001
 30
0.0
 10
2.7759
 20
51.0822
 30
0.0
 10
3.4813999999999998
 20
50.8352
 30
0.0
 10
3.552
 20
49.988599999999998
 30
0.0
  0
SPLINE
  5
43
100
AcDbEntity
  8
RÚteg 1
100
AcDbSpline
210
0.0
220
0.0
230
1.0
 70
     1
 71
     3
 72
    24
 73
    20
 74
     0
 42
0.0000000001
 43
0.0000000001
 40
0.0
 40
0.0
 40
0.0
 40
0.0
 40
0.2
 40
0.2
 40
0.2
 40
0.2
 40
0.4
 40
0.4
 40
0.4
 40
0.4
 40
0.6000000000000001
 40
0.6000000000000001
 40
0.6000000000000001
 40
0.6000000000000001
 40
0.8
 40
0.8
 40
0.8
 40
0.8
 40
1.0
 40
1.0
 40
1.0
 40
1.0
 10
-0.3285
 20
52.704999999999998
 30
0.0
 10
0.2006
 20
51.823
 30
0.0
 10
0.3064
 20
50.8705
 30
0.0
 10
-0.011
 20
49.8474
 30
0.0
 10
-0.011
 20
49.8474
 30
0.0
 10
-0.3285
 20
49.318300000000001
 30
0.0
 10
-0.8576
 20
49.247700000000002
 30
0.0
 10
-1.3514999999999999
 20
49.071300000000001
 30
0.0
 10
-1.3514999999999999
 20
49.071300000000001
 30
0.0
 10
-2.2686999999999999
 20
48.965499999999999
 30
0.0
 10
-2.8685
 20
49.812199999999997
 30
0.0
 10
-3.3976000000000002
 20
50.411900000000003
 30
0.0
 10
-3.3976000000000002
 20
50.411900000000003
 30
0.0
 10
-3.6093000000000002
 20
51.329099999999997
 30
0.0
 10
-3.4329000000000001
 20
52.281599999999997
 30
0.0
 10
-2.8685
 20
52.951900000000002
 30
0.0
 10
-2.8685
 20
52.951900000000002
 30
0.0
 10
-2.1276000000000002
 20
53.3752
 30
0.0
 10
-1.1398999999999999
 20
52.916600000000003
 30
0.0
 10
-0.3285
 20
52.704999999999998
 30
0.0
  0
SPLINE
  5
44
100
AcDbEntity
  8
RÚteg 1
100
AcDbSpline
210
0.0
220
0.0
230
1.0
 70
     1
 71
     3
 72
    12
 73
     8
 74
     0
 42
0.0000000001
 43
0.0000000001
 40
0.0
 40
0.0
 40
0.0
 40
0.0
 40
0.5
 40
0.5
 40
0.5
 40
0.5
 40
1.0
 40
1.0
 40
1.0
 40
1.0
 10
-5.4085000000000001
 20
50.517699999999998
 30
0.0
 10
-5.6906999999999996
 20
51.823
 30
0.0
 10
-4.5861000000000001
 20
54.210099999999997
 30
0.0
 10
-2.3746
 20
54.221899999999998
 30
0.0
 10
-2.3746
 20
54.221899999999998
 30
0.0
 10
-4.1157000000000004
 20
53.387
 30
0.0
 10
-5.4085000000000001
 20
50.517699999999998
 30
0.0
 10
-5.4085000000000001
 20
50.517699999999998
 30
0.0
  0
SPLINE
  5
45
100
AcDbEntity
  8
RÚteg 1
100
AcDbSpline
210
0.0
220
0.0
230
1.0
 70
     1
 71
     3
 72
    16
 73
    12
 74
     0
 42
0.0000000001
 43
0.0000000001
 40
0.0
 40
0.0
 40
0.0
 40
0.0
 40
0.3333333333333333
 40
0.3333333333333333
 40
0.3333333333333333
 40
0.3333333333333333
 40
0.6666666666666666
 40
0.6666666666666666
 40
0.6666666666666666
 40
0.6666666666666666
 40
1.0
 40
1.0
 40
1.0
 40
1.0
 10
1.1883999999999999
 20
60.325000000000003
 30
0.0
 10
1.1883999999999999
 20
60.325000000000003
 30
0.0
 10
-0.2351
 20
60.442500000000003
 30
0.0
 10
-0.6812
 20
62.2652
 30
0.0
 10
-0.6812
 20
62.2652
 30
0.0
 10
0.7298
 20
62.547400000000003
 30
0.0
 10
2.2467000000000001
 20
63.323599999999999
 30
0.0
 10
3.552
 20
64.240799999999993
 30
0.0
 10
3.552
 20
64.240799999999993
 30
0.0
 10
2.6347999999999998
 20
62.970799999999997
 30
0.0
 10
3.4813999999999998
 20
60.183799999999998
 30
0.0
 10
1.1883999999999999
 20
60.325000000000003
 30
0.0
  0
SPLINE
  5
46
100
AcDbEntity
  8
RÚteg 1
100
AcDbSpline
210
0.0
220
0.0
230
1.0
 70
     1
 71
     3
 72
    16
 73
    12
 74
     0
 42
0.0000000001
 43
0.0000000001
 40
0.0
 40
0.0
 40
0.0
 40
0.0
 40
0.3333333333333333
 40
0.3333333333333333
 40
0.3333333333333333
 40
0.3333333333333333
 40
0.6666666666666666
 40
0.6666666666666666
 40
0.6666666666666666
 40
0.6666666666666666
 40
1.0
 40
1.0
 40
1.0
 40
1.0
 10
3.1286999999999998
 20
65.510800000000003
 30
0.0
 10
2.8809999999999998
 20
64.969899999999996
 30
0.0
 10
2.3172999999999999
 20
64.734700000000004
 30
0.0
 10
1.8586
 20
64.487700000000004
 30
0.0
 10
1.8586
 20
64.487700000000004
 30
0.0
 10
0.9414
 20
63.9938
 30
0.0
 10
-0.1873
 20
64.0291
 30
0.0
 10
-1.1751
 20
63.817500000000003
 30
0.0
 10
-1.1751
 20
63.817500000000003
 30
0.0
 10
-0.9995000000000001
 20
65.204999999999998
 30
0.0
 10
2.1753999999999998
 20
65.440200000000004
 30
0.0
 10
3.1286999999999998
 20
65.510800000000003
 30
0.0
  0
SPLINE
  5
47
100
AcDbEntity
  8
RÚteg 1
100
AcDbSpline
210
0.0
220
0.0
230
1.0
 70
     1
 71
     3
 72
    20
 73
    16
 74
     0
 42
0.0000000001
 43
0.0000000001
 40
0.0
 40
0.0
 40
0.0
 40
0.0
 40
0.25
 40
0.25
 40
0.25
 40
0.25
 40
0.5
 40
0.5
 40
0.5
 40
0.5
 40
0.75
 40
0.75
 40
0.75
 40
0.75
 40
1.0
 40
1.0
 40
1.0
 40
1.0
 10
-1.9512
 20
61.101100000000002
 30
0.0
 10
-1.0692999999999999
 20
60.395499999999998
 30
0.0
 10
-1.1758999999999999
 20
59.3842
 30
0.0
 10
-1.1046
 20
58.208300000000001
 30
0.0
 10
-1.1046
 20
58.208300000000001
 30
0.0
 10
-1.1171
 20
57.385100000000001
 30
0.0
 10
-1.9864999999999999
 20
56.867699999999999
 30
0.0
 10
-1.7042999999999999
 20
56.197400000000002
 30
0.0
 10
-1.7042999999999999
 20
56.197400000000002
 30
0.0
 10
-2.5510000000000002
 20
56.3033
 30
0.0
 10
-3.8561999999999999
 20
57.008800000000001
 30
0.0
 10
-4.8440000000000003
 20
57.714399999999998
 30
0.0
 10
-4.8440000000000003
 20
57.714399999999998
 30
0.0
 10
-3.3513000000000002
 20
58.561100000000003
 30
0.0
 10
-2.7046000000000001
 20
61.030500000000004
 30
0.0
 10
-1.9512
 20
61.101100000000002
 30
0.0
  0
SPLINE
  5
48
100
AcDbEntity
  8
RÚteg 1
100
AcDbSpline
210
0.0
220
0.0
230
1.0
 70
     1
 71
     3
 72
    16
 73
    12
 74
     0
 42
0.0000000001
 43
0.0000000001
 40
0.0
 40
0.0
 40
0.0
 40
0.0
 40
0.3333333333333333
 40
0.3333333333333333
 40
0.3333333333333333
 40
0.3333333333333333
 40
0.6666666666666666
 40
0.6666666666666666
 40
0.6666666666666666
 40
0.6666666666666666
 40
1.0
 40
1.0
 40
1.0
 40
1.0
 10
-7.1017999999999999
 20
58.455199999999998
 30
0.0
 10
-7.4192999999999998
 20
59.125500000000002
 30
0.0
 10
-6.9960000000000004
 20
59.866300000000003
 30
0.0
 10
-6.7843
 20
60.501300000000001
 30
0.0
 10
-6.7843
 20
60.501300000000001
 30
0.0
 10
-5.9383999999999997
 20
61.971299999999999
 30
0.0
 10
-4.7035999999999998
 20
62.794400000000003
 30
0.0
 10
-2.8809999999999998
 20
63.264800000000001
 30
0.0
 10
-2.8809999999999998
 20
63.264800000000001
 30
0.0
 10
-2.3517999999999999
 20
62.206400000000002
 30
0.0
 10
-4.9387999999999996
 20
58.325899999999997
 30
0.0
 10
-7.1017999999999999
 20
58.455199999999998
 30
0.0
  0
SPLINE
  5
49
100
AcDbEntity
  8
RÚteg 1
100
AcDbSpline
210
0.0
220
0.0
230
1.0
 70
     1
 71
     3
 72
    24
 73
    20
 74
     0
 42
0.0000000001
 43
0.0000000001
 40
0.0
 40
0.0
 40
0.0
 40
0.0
 40
0.2
 40
0.2
 40
0.2
 40
0.2
 40
0.4
 40
0.4
 40
0.4
 40
0.4
 40
0.6000000000000001
 40
0.6000000000000001
 40
0.6000000000000001
 40
0.6000000000000001
 40
0.8
 40
0.8
 40
0.8
 40
0.8
 40
1.0
 40
1.0
 40
1.0
 40
1.0
 10
-14.651199999999999
 20
84.278599999999997
 30
0.0
 10
-3.4100999999999999
 20
75.200400000000002
 30
0.0
 10
-4.4912999999999998
 20
64.311300000000003
 30
0.0
 10
-4.4912999999999998
 20
64.311300000000003
 30
0.0
 10
-4.4912999999999998
 20
64.311300000000003
 30
0.0
 10
-4.6322999999999999
 20
64.0291
 30
0.0
 10
-4.9497999999999998
 20
64.099699999999999
 30
0.0
 10
-5.1615000000000002
 20
63.958599999999997
 30
0.0
 10
-5.1615000000000002
 20
63.958599999999997
 30
0.0
 10
-5.9024000000000001
 20
70.802499999999995
 30
0.0
 10
-8.6892999999999994
 20
76.764399999999995
 30
0.0
 10
-13.8751
 20
81.738600000000005
 30
0.0
 10
-13.8751
 20
81.738600000000005
 30
0.0
 10
-17.155999999999999
 20
85.301599999999993
 30
0.0
 10
-20.436800000000002
 20
89.005799999999994
 30
0.0
 10
-21.918500000000002
 20
93.344999999999999
 30
0.0
 10
-21.918500000000002
 20
93.344999999999999
 30
0.0
 10
-19.378499999999999
 20
90.452200000000005
 30
0.0
 10
-17.5793
 20
87.030199999999994
 30
0.0
 10
-14.651199999999999
 20
84.278599999999997
 30
0.0
  0
SPLINE
  5
4A
100
AcDbEntity
  8
RÚteg 1
100
AcDbSpline
210
0.0
220
0.0
230
1.0
 70
     1
 71
     3
 72
    28
 73
    24
 74
     0
 42
0.0000000001
 43
0.0000000001
 40
0.0
 40
0.0
 40
0.0
 40
0.0
 40
0.1666666666666667
 40
0.1666666666666667
 40
0.1666666666666667
 40
0.1666666666666667
 40
0.3333333333333333
 40
0.3333333333333333
 40
0.3333333333333333
 40
0.3333333333333333
 40
0.5
 40
0.5
 40
0.5
 40
0.5
 40
0.6666666666666666
 40
0.6666666666666666
 40
0.6666666666666666
 40
0.6666666666666666
 40
0.8333333333333333
 40
0.8333333333333333
 40
0.8333333333333333
 40
0.8333333333333333
 40
1.0
 40
1.0
 40
1.0
 40
1.0
 10
-34.124600000000001
 20
59.301900000000003
 30
0.0
 10
-36.064900000000002
 20
60.713000000000001
 30
0.0
 10
-38.1462
 20
61.700800000000001
 30
0.0
 10
-40.227600000000002
 20
62.688600000000001
 30
0.0
 10
-40.227600000000002
 20
62.688600000000001
 30
0.0
 10
-36.488199999999999
 20
62.053600000000003
 30
0.0
 10
-33.242699999999999
 20
60.219099999999997
 30
0.0
 10
-30.138200000000001
 20
58.0319
 30
0.0
 10
-30.138200000000001
 20
58.0319
 30
0.0
 10
-25.904800000000002
 20
53.939700000000002
 30
0.0
 10
-21.989000000000001
 20
49.000799999999998
 30
0.0
 10
-16.944299999999998
 20
46.354999999999997
 30
0.0
 10
-16.944299999999998
 20
46.354999999999997
 30
0.0
 10
-16.944299999999998
 20
46.354999999999997
 30
0.0
 10
-14.8276
 20
44.9086
 30
0.0
 10
-14.8276
 20
44.9086
 30
0.0
 10
-14.8276
 20
44.9086
 30
0.0
 10
-14.7578
 20
44.391100000000002
 30
0.0
 10
-14.816599999999999
 20
44.861499999999999
 30
0.0
 10
-15.0158
 20
44.543999999999997
 30
0.0
 10
-15.0158
 20
44.543999999999997
 30
0.0
 10
-22.283799999999999
 20
46.8018
 30
0.0
 10
-26.9985
 20
55.633000000000003
 30
0.0
 10
-34.124600000000001
 20
59.301900000000003
 30
0.0
  0
SPLINE
  5
4B
100
AcDbEntity
  8
RÚteg 1
100
AcDbSpline
210
0.0
220
0.0
230
1.0
 70
     1
 71
     3
 72
    40
 73
    36
 74
     0
 42
0.0000000001
 43
0.0000000001
 40
0.0
 40
0.0
 40
0.0
 40
0.0
 40
0.1111111111111111
 40
0.1111111111111111
 40
0.1111111111111111
 40
0.1111111111111111
 40
0.2222222222222222
 40
0.2222222222222222
 40
0.2222222222222222
 40
0.2222222222222222
 40
0.3333333333333333
 40
0.3333333333333333
 40
0.3333333333333333
 40
0.3333333333333333
 40
0.4444444444444444
 40
0.4444444444444444
 40
0.4444444444444444
 40
0.4444444444444444
 40
0.5555555555555556
 40
0.5555555555555556
 40
0.5555555555555556
 40
0.5555555555555556
 40
0.6666666666666667
 40
0.6666666666666667
 40
0.6666666666666667
 40
0.6666666666666667
 40
0.7777777777777779
 40
0.7777777777777779
 40
0.7777777777777779
 40
0.7777777777777779
 40
0.8888888888888891
 40
0.8888888888888891
 40
0.8888888888888891
 40
0.8888888888888891
 40
1.0
 40
1.0
 40
1.0
 40
1.0
 10
-22.0243
 20
35.277700000000003
 30
0.0
 10
-25.058199999999999
 20
32.843600000000002
 30
0.0
 10
-27.880400000000002
 20
29.739100000000001
 30
0.0
 10
-30.385100000000001
 20
26.8111
 30
0.0
 10
-30.385100000000001
 20
26.8111
 30
0.0
 10
-33.418999999999997
 20
26.987500000000001
 30
0.0
 10
-35.923699999999997
 20
28.327999999999999
 30
0.0
 10
-38.781199999999998
 20
28.927700000000002
 30
0.0
 10
-38.781199999999998
 20
28.927700000000002
 30
0.0
 10
-43.3673
 20
29.597999999999999
 30
0.0
 10
-47.600700000000003
 20
31.079699999999999
 30
0.0
 10
-52.680700000000002
 20
30.621099999999998
 30
0.0
 10
-52.680700000000002
 20
30.621099999999998
 30
0.0
 10
-54.585700000000003
 20
29.668600000000001
 30
0.0
 10
-56.808199999999999
 20
29.315799999999999
 30
0.0
 10
-58.5015
 20
28.081099999999999
 30
0.0
 10
-58.5015
 20
28.081099999999999
 30
0.0
 10
-59.912599999999998
 20
28.116299999999999
 30
0.0
 10
-61.112099999999998
 20
28.645499999999998
 30
0.0
 10
-62.417299999999997
 20
28.927700000000002
 30
0.0
 10
-62.417299999999997
 20
28.927700000000002
 30
0.0
 10
-62.417299999999997
 20
28.927700000000002
 30
0.0
 10
-62.558500000000002
 20
29.245200000000001
 30
0.0
 10
-62.558500000000002
 20
29.245200000000001
 30
0.0
 10
-62.558500000000002
 20
29.245200000000001
 30
0.0
 10
-61.359000000000002
 20
29.4922
 30
0.0
 10
-59.983199999999997
 20
29.174700000000001
 30
0.0
 10
-58.854300000000002
 20
28.680800000000001
 30
0.0
 10
-58.854300000000002
 20
28.680800000000001
 30
0.0
 10
-49.329999999999998
 20
32.573099999999997
 30
0.0
 10
-47.272199999999998
 20
36.923999999999999
 30
0.0
 10
-45.307600000000001
 20
38.911299999999997
 30
0.0
 10
-45.307600000000001
 20
38.911299999999997
 30
0.0
 10
-37.899299999999997
 20
42.403799999999997
 30
0.0
 10
-27.880400000000002
 20
41.310200000000002
 30
0.0
 10
-22.0243
 20
35.277700000000003
 30
0.0
  0
SPLINE
  5
4C
100
AcDbEntity
  8
RÚteg 1
100
AcDbSpline
210
0.0
220
0.0
230
1.0
 70
     1
 71
     3
 72
    24
 73
    20
 74
     0
 42
0.0000000001
 43
0.0000000001
 40
0.0
 40
0.0
 40
0.0
 40
0.0
 40
0.2
 40
0.2
 40
0.2
 40
0.2
 40
0.4
 40
0.4
 40
0.4
 40
0.4
 40
0.6000000000000001
 40
0.6000000000000001
 40
0.6000000000000001
 40
0.6000000000000001
 40
0.8
 40
0.8
 40
0.8
 40
0.8
 40
1.0
 40
1.0
 40
1.0
 40
1.0
 10
-60.970999999999997
 20
24.447500000000002
 30
0.0
 10
-61.288499999999999
 20
24.0594
 30
0.0
 10
-61.782299999999999
 20
23.5655
 30
0.0
 10
-62.241
 20
24.024100000000001
 30
0.0
 10
-62.241
 20
24.024100000000001
 30
0.0
 10
-62.875999999999998
 20
24.3416
 30
0.0
 10
-63.581499999999998
 20
24.870799999999999
 30
0.0
 10
-63.9343
 20
25.5411
 30
0.0
 10
-63.9343
 20
25.5411
 30
0.0
 10
-63.9343
 20
25.999700000000001
 30
0.0
 10
-64.181200000000004
 20
26.5641
 30
0.0
 10
-63.757899999999999
 20
26.881599999999999
 30
0.0
 10
-63.757899999999999
 20
26.881599999999999
 30
0.0
 10
-62.770099999999999
 20
27.7636
 30
0.0
 10
-61.570700000000002
 20
26.7758
 30
0.0
 10
-60.723999999999997
 20
26.211300000000001
 30
0.0
 10
-60.723999999999997
 20
26.211300000000001
 30
0.0
 10
-60.300699999999999
 20
25.611599999999999
 30
0.0
 10
-60.759300000000003
 20
24.976600000000001
 30
0.0
 10
-60.970999999999997
 20
24.447500000000002
 30
0.0
  0
SPLINE
  5
4D
100
AcDbEntity
  8
RÚteg 1
100
AcDbSpline
210
0.0
220
0.0
230
1.0
 70
     1
 71
     3
 72
    36
 73
    32
 74
     0
 42
0.0000000001
 43
0.0000000001
 40
0.0
 40
0.0
 40
0.0
 40
0.0
 40
0.125
 40
0.125
 40
0.125
 40
0.125
 40
0.25
 40
0.25
 40
0.25
 40
0.25
 40
0.375
 40
0.375
 40
0.375
 40
0.375
 40
0.5
 40
0.5
 40
0.5
 40
0.5
 40
0.625
 40
0.625
 40
0.625
 40
0.625
 40
0.75
 40
0.75
 40
0.75
 40
0.75
 40
0.875
 40
0.875
 40
0.875
 40
0.875
 40
1.0
 40
1.0
 40
1.0
 40
1.0
 10
-48.271000000000001
 20
59.831099999999999
 30
0.0
 10
-47.918900000000001
 20
57.326300000000003
 30
0.0
 10
-46.743000000000002
 20
59.031399999999998
 30
0.0
 10
-45.977899999999998
 20
59.301900000000003
 30
0.0
 10
-45.977899999999998
 20
59.301900000000003
 30
0.0
 10
-44.531500000000001
 20
54.962699999999998
 30
0.0
 10
-41.991500000000002
 20
49.671100000000003
 30
0.0
 10
-43.931800000000003
 20
44.485199999999999
 30
0.0
 10
-43.931800000000003
 20
44.485199999999999
 30
0.0
 10
-45.025399999999998
 20
41.698300000000003
 30
0.0
 10
-47.000999999999998
 20
38.770200000000003
 30
0.0
 10
-49.364600000000003
 20
36.9711
 30
0.0
 10
-49.364600000000003
 20
36.9711
 30
0.0
 10
-52.998199999999997
 20
34.783799999999999
 30
0.0
 10
-56.949300000000001
 20
33.372700000000002
 30
0.0
 10
-60.865099999999998
 20
31.961600000000001
 30
0.0
 10
-60.865099999999998
 20
31.961600000000001
 30
0.0
 10
-59.665700000000001
 20
37.817700000000002
 30
0.0
 10
-61.0062
 20
43.8855
 30
0.0
 10
-60.723999999999997
 20
49.988599999999998
 30
0.0
 10
-60.723999999999997
 20
49.988599999999998
 30
0.0
 10
-59.842100000000002
 20
54.786299999999997
 30
0.0
 10
-57.972299999999997
 20
59.125500000000002
 30
0.0
 10
-55.467700000000001
 20
63.217700000000001
 30
0.0
 10
-55.467700000000001
 20
63.217700000000001
 30
0.0
 10
-54.338700000000003
 20
66.992500000000007
 30
0.0
 10
-54.585700000000003
 20
71.331599999999995
 30
0.0
 10
-53.597900000000003
 20
75.141599999999997
 30
0.0
 10
-53.597900000000003
 20
75.141599999999997
 30
0.0
 10
-52.186799999999998
 20
69.955799999999996
 30
0.0
 10
-48.905999999999999
 20
65.405000000000001
 30
0.0
 10
-48.271000000000001
 20
59.831099999999999
 30
0.0
  0
SPLINE
  5
4E
100
AcDbEntity
  8
RÚteg 1
100
AcDbSpline
210
0.0
220
0.0
230
1.0
 70
     1
 71
     3
 72
    36
 73
    32
 74
     0
 42
0.0000000001
 43
0.0000000001
 40
0.0
 40
0.0
 40
0.0
 40
0.0
 40
0.125
 40
0.125
 40
0.125
 40
0.125
 40
0.25
 40
0.25
 40
0.25
 40
0.25
 40
0.375
 40
0.375
 40
0.375
 40
0.375
 40
0.5
 40
0.5
 40
0.5
 40
0.5
 40
0.625
 40
0.625
 40
0.625
 40
0.625
 40
0.75
 40
0.75
 40
0.75
 40
0.75
 40
0.875
 40
0.875
 40
0.875
 40
0.875
 40
1.0
 40
1.0
 40
1.0
 40
1.0
 10
-65.804000000000002
 20
52.881300000000003
 30
0.0
 10
-65.804000000000002
 20
52.881300000000003
 30
0.0
 10
-64.004800000000003
 20
54.927500000000002
 30
0.0
 10
-64.004800000000003
 20
54.927500000000002
 30
0.0
 10
-64.004800000000003
 20
54.927500000000002
 30
0.0
 10
-63.441099999999999
 20
61.500900000000001
 30
0.0
 10
-59.442999999999998
 20
69.732399999999998
 30
0.0
 10
-55.220700000000001
 20
74.118600000000001
 30
0.0
 10
-55.220700000000001
 20
74.118600000000001
 30
0.0
 10
-55.2913
 20
67.7333
 30
0.0
 10
-57.619599999999998
 20
62.2652
 30
0.0
 10
-60.371200000000002
 20
56.938299999999998
 30
0.0
 10
-60.371200000000002
 20
56.938299999999998
 30
0.0
 10
-63.652099999999997
 20
50.235500000000002
 30
0.0
 10
-60.829799999999999
 20
42.1569
 30
0.0
 10
-61.817700000000002
 20
34.924999999999997
 30
0.0
 10
-61.817700000000002
 20
34.924999999999997
 30
0.0
 10
-61.817700000000002
 20
34.924999999999997
 30
0.0
 10
-62.911200000000001
 20
32.137999999999998
 30
0.0
 10
-62.911200000000001
 20
32.137999999999998
 30
0.0
 10
-62.911200000000001
 20
32.137999999999998
 30
0.0
 10
-63.9343
 20
33.655000000000001
 30
0.0
 10
-64.322299999999998
 20
35.948
 30
0.0
 10
-64.957300000000004
 20
37.888300000000001
 30
0.0
 10
-64.957300000000004
 20
37.888300000000001
 30
0.0
 10
-65.310100000000006
 20
39.969700000000003
 30
0.0
 10
-65.027900000000002
 20
42.1569
 30
0.0
 10
-64.534000000000006
 20
44.061900000000001
 30
0.0
 10
-64.534000000000006
 20
44.061900000000001
 30
0.0
 10
-65.945099999999996
 20
46.601900000000001
 30
0.0
 10
-67.144599999999997
 20
49.953299999999999
 30
0.0
 10
-65.804000000000002
 20
52.881300000000003
 30
0.0
  0
SPLINE
  5
4F
100
AcDbEntity
  8
RÚteg 1
100
AcDbSpline
210
0.0
220
0.0
230
1.0
 70
     1
 71
     3
 72
    24
 73
    20
 74
     0
 42
0.0000000001
 43
0.0000000001
 40
0.0
 40
0.0
 40
0.0
 40
0.0
 40
0.2
 40
0.2
 40
0.2
 40
0.2
 40
0.4
 40
0.4
 40
0.4
 40
0.4
 40
0.6000000000000001
 40
0.6000000000000001
 40
0.6000000000000001
 40
0.6000000000000001
 40
0.8
 40
0.8
 40
0.8
 40
0.8
 40
1.0
 40
1.0
 40
1.0
 40
1.0
 10
-67.391499999999994
 20
44.485199999999999
 30
0.0
 10
-66.544799999999995
 20
42.615499999999997
 30
0.0
 10
-67.003500000000003
 20
40.2166
 30
0.0
 10
-66.650700000000001
 20
37.994100000000003
 30
0.0
 10
-66.650700000000001
 20
37.994100000000003
 30
0.0
 10
-66.297899999999998
 20
35.630499999999998
 30
0.0
 10
-65.310100000000006
 20
33.549100000000003
 30
0.0
 10
-65.204300000000003
 20
31.114999999999998
 30
0.0
 10
-65.204300000000003
 20
31.114999999999998
 30
0.0
 10
-66.686000000000007
 20
33.760800000000003
 30
0.0
 10
-68.485100000000003
 20
36.477200000000003
 30
0.0
 10
-69.755200000000002
 20
39.158299999999997
 30
0.0
 10
-69.755200000000002
 20
39.158299999999997
 30
0.0
 10
-71.272099999999995
 20
43.532699999999998
 30
0.0
 10
-71.871799999999993
 20
48.4011
 30
0.0
 10
-72.048199999999994
 20
53.234099999999998
 30
0.0
 10
-72.048199999999994
 20
53.234099999999998
 30
0.0
 10
-70.460700000000003
 20
50.411900000000003
 30
0.0
 10
-69.9315
 20
46.990000000000002
 30
0.0
 10
-67.391499999999994
 20
44.485199999999999
 30
0.0
  0
SPLINE
  5
50
100
AcDbEntity
  8
RÚteg 1
100
AcDbSpline
210
0.0
220
0.0
230
1.0
 70
     1
 71
     3
 72
    20
 73
    16
 74
     0
 42
0.0000000001
 43
0.0000000001
 40
0.0
 40
0.0
 40
0.0
 40
0.0
 40
0.25
 40
0.25
 40
0.25
 40
0.25
 40
0.5
 40
0.5
 40
0.5
 40
0.5
 40
0.75
 40
0.75
 40
0.75
 40
0.75
 40
1.0
 40
1.0
 40
1.0
 40
1.0
 10
-69.190700000000007
 20
25.611599999999999
 30
0.0
 10
-69.437600000000003
 20
25.364699999999999
 30
0.0
 10
-69.508200000000002
 20
24.906099999999999
 30
0.0
 10
-69.9315
 20
24.870799999999999
 30
0.0
 10
-69.9315
 20
24.870799999999999
 30
0.0
 10
-71.060400000000001
 20
25.011900000000001
 30
0.0
 10
-71.201499999999996
 20
26.0702
 30
0.0
 10
-71.448499999999996
 20
26.987500000000001
 30
0.0
 10
-71.448499999999996
 20
26.987500000000001
 30
0.0
 10
-71.519000000000005
 20
27.587199999999999
 30
0.0
 10
-71.801199999999994
 20
28.680800000000001
 30
0.0
 10
-71.201499999999996
 20
28.9983
 30
0.0
 10
-71.201499999999996
 20
28.9983
 30
0.0
 10
-71.201499999999996
 20
28.9983
 30
0.0
 10
-68.615200000000002
 20
30.162500000000001
 30
0.0
 10
-69.190700000000007
 20
25.611599999999999
 30
0.0
  0
SPLINE
  5
51
100
AcDbEntity
  8
RÚteg 1
100
AcDbSpline
210
0.0
220
0.0
230
1.0
 70
     1
 71
     3
 72
    20
 73
    16
 74
     0
 42
0.0000000001
 43
0.0000000001
 40
0.0
 40
0.0
 40
0.0
 40
0.0
 40
0.25
 40
0.25
 40
0.25
 40
0.25
 40
0.5
 40
0.5
 40
0.5
 40
0.5
 40
0.75
 40
0.75
 40
0.75
 40
0.75
 40
1.0
 40
1.0
 40
1.0
 40
1.0
 10
-66.474299999999999
 20
26.5641
 30
0.0
 10
-67.003500000000003
 20
26.846299999999999
 30
0.0
 10
-67.596100000000007
 20
27.4053
 30
0.0
 10
-67.814899999999994
 20
27.975200000000001
 30
0.0
 10
-67.814899999999994
 20
27.975200000000001
 30
0.0
 10
-67.909700000000001
 20
28.222200000000001
 30
0.0
 10
-67.968500000000006
 20
28.163399999999999
 30
0.0
 10
-67.744299999999996
 20
28.574999999999999
 30
0.0
 10
-67.744299999999996
 20
28.574999999999999
 30
0.0
 10
-67.109300000000005
 20
28.327999999999999
 30
0.0
 10
-66.403800000000004
 20
27.869399999999999
 30
0.0
 10
-65.804000000000002
 20
27.410799999999998
 30
0.0
 10
-65.804000000000002
 20
27.410799999999998
 30
0.0
 10
-65.909800000000004
 20
27.093299999999999
 30
0.0
 10
-66.121499999999997
 20
26.705200000000001
 30
0.0
 10
-66.474299999999999
 20
26.5641
 30
0.0
  0
SPLINE
  5
52
100
AcDbEntity
  8
RÚteg 1
100
AcDbSpline
210
0.0
220
0.0
230
1.0
 70
     1
 71
     3
 72
    24
 73
    20
 74
     0
 42
0.0000000001
 43
0.0000000001
 40
0.0
 40
0.0
 40
0.0
 40
0.0
 40
0.2
 40
0.2
 40
0.2
 40
0.2
 40
0.4
 40
0.4
 40
0.4
 40
0.4
 40
0.6000000000000001
 40
0.6000000000000001
 40
0.6000000000000001
 40
0.6000000000000001
 40
0.8
 40
0.8
 40
0.8
 40
0.8
 40
1.0
 40
1.0
 40
1.0
 40
1.0
 10
-72.894800000000004
 20
36.9711
 30
0.0
 10
-73.424000000000007
 20
40.110799999999998
 30
0.0
 10
-77.3399
 20
42.121600000000001
 30
0.0
 10
-76.105199999999996
 20
45.684699999999999
 30
0.0
 10
-76.105199999999996
 20
45.684699999999999
 30
0.0
 10
-75.3643
 20
48.859699999999997
 30
0.0
 10
-74.683000000000007
 20
52.669699999999999
 30
0.0
 10
-72.848600000000005
 20
55.386099999999999
 30
0.0
 10
-72.848600000000005
 20
55.386099999999999
 30
0.0
 10
-72.848600000000005
 20
55.386099999999999
 30
0.0
 10
-73.142499999999998
 20
43.744399999999999
 30
0.0
 10
-70.707599999999999
 20
38.241100000000003
 30
0.0
 10
-70.707599999999999
 20
38.241100000000003
 30
0.0
 10
-69.1554
 20
35.066099999999999
 30
0.0
 10
-67.073999999999998
 20
32.137999999999998
 30
0.0
 10
-65.4512
 20
28.9983
 30
0.0
 10
-65.4512
 20
28.9983
 30
0.0
 10
-68.238200000000006
 20
31.150200000000002
 30
0.0
 10
-72.647900000000007
 20
32.914099999999998
 30
0.0
 10
-72.894800000000004
 20
36.9711
 30
0.0
  0
SPLINE
  5
53
100
AcDbEntity
  8
RÚteg 1
100
AcDbSpline
210
0.0
220
0.0
230
1.0
 70
     1
 71
     3
 72
    40
 73
    36
 74
     0
 42
0.0000000001
 43
0.0000000001
 40
0.0
 40
0.0
 40
0.0
 40
0.0
 40
0.1111111111111111
 40
0.1111111111111111
 40
0.1111111111111111
 40
0.1111111111111111
 40
0.2222222222222222
 40
0.2222222222222222
 40
0.2222222222222222
 40
0.2222222222222222
 40
0.3333333333333333
 40
0.3333333333333333
 40
0.3333333333333333
 40
0.3333333333333333
 40
0.4444444444444444
 40
0.4444444444444444
 40
0.4444444444444444
 40
0.4444444444444444
 40
0.5555555555555556
 40
0.5555555555555556
 40
0.5555555555555556
 40
0.5555555555555556
 40
0.6666666666666667
 40
0.6666666666666667
 40
0.6666666666666667
 40
0.6666666666666667
 40
0.7777777777777779
 40
0.7777777777777779
 40
0.7777777777777779
 40
0.7777777777777779
 40
0.8888888888888891
 40
0.8888888888888891
 40
0.8888888888888891
 40
0.8888888888888891
 40
1.0
 40
1.0
 40
1.0
 40
1.0
 10
-65.027900000000002
 20
22.8247
 30
0.0
 10
-63.652099999999997
 20
21.6252
 30
0.0
 10
-61.852899999999998
 20
22.930499999999999
 30
0.0
 10
-60.300699999999999
 20
23.001100000000001
 30
0.0
 10
-60.300699999999999
 20
23.001100000000001
 30
0.0
 10
-59.2776
 20
23.495000000000001
 30
0.0
 10
-59.2776
 20
24.906099999999999
 30
0.0
 10
-58.5015
 20
25.5411
 30
0.0
 10
-58.5015
 20
25.5411
 30
0.0
 10
-58.5015
 20
25.5411
 30
0.0
 10
-58.078200000000002
 20
24.870799999999999
 30
0.0
 10
-58.078200000000002
 20
24.870799999999999
 30
0.0
 10
-58.078200000000002
 20
24.870799999999999
 30
0.0
 10
-58.607300000000002
 20
23.8125
 30
0.0
 10
-58.995399999999997
 20
22.5425
 30
0.0
 10
-60.124299999999998
 20
21.907499999999999
 30
0.0
 10
-60.124299999999998
 20
21.907499999999999
 30
0.0
 10
-58.960099999999997
 20
20.884399999999999
 30
0.0
 10
-56.490699999999997
 20
20.6022
 30
0.0
 10
-56.7376
 20
18.5913
 30
0.0
 10
-56.7376
 20
18.5913
 30
0.0
 10
-58.219299999999997
 20
21.1313
 30
0.0
 10
-61.500900000000001
 20
19.873100000000001
 30
0.0
 10
-63.0884
 20
21.7546
 30
0.0
 10
-63.0884
 20
21.7546
 30
0.0
 10
-63.0884
 20
21.7546
 30
0.0
 10
-64.323099999999997
 20
20.990200000000002
 30
0.0
 10
-65.027900000000002
 20
19.8613
 30
0.0
 10
-65.027900000000002
 20
19.8613
 30
0.0
 10
-65.027900000000002
 20
19.8613
 30
0.0
 10
-67.215100000000007
 20
19.3675
 30
0.0
 10
-67.215100000000007
 20
19.3675
 30
0.0
 10
-67.215100000000007
 20
19.3675
 30
0.0
 10
-67.038700000000006
 20
20.813800000000001
 30
0.0
 10
-66.438999999999993
 20
22.0838
 30
0.0
 10
-65.027900000000002
 20
22.8247
 30
0.0
  0
SPLINE
  5
54
100
AcDbEntity
  8
RÚteg 1
100
AcDbSpline
210
0.0
220
0.0
230
1.0
 70
     1
 71
     3
 72
    20
 73
    16
 74
     0
 42
0.0000000001
 43
0.0000000001
 40
0.0
 40
0.0
 40
0.0
 40
0.0
 40
0.25
 40
0.25
 40
0.25
 40
0.25
 40
0.5
 40
0.5
 40
0.5
 40
0.5
 40
0.75
 40
0.75
 40
0.75
 40
0.75
 40
1.0
 40
1.0
 40
1.0
 40
1.0
 10
-57.055199999999999
 20
17.497699999999998
 30
0.0
 10
-57.090400000000002
 20
16.756900000000002
 30
0.0
 10
-57.654800000000002
 20
15.7691
 30
0.0
 10
-58.325099999999999
 20
15.2752
 30
0.0
 10
-58.325099999999999
 20
15.2752
 30
0.0
 10
-58.7485
 20
15.24
 30
0.0
 10
-59.136499999999998
 20
15.063599999999999
 30
0.0
 10
-59.595100000000002
 20
15.1341
 30
0.0
 10
-59.595100000000002
 20
15.1341
 30
0.0
 10
-60.2654
 20
15.592700000000001
 30
0.0
 10
-59.806800000000003
 20
16.4041
 30
0.0
 10
-59.701000000000001
 20
16.968599999999999
 30
0.0
 10
-59.701000000000001
 20
16.968599999999999
 30
0.0
 10
-59.2776
 20
17.6036
 30
0.0
 10
-57.6203
 20
18.403199999999998
 30
0.0
 10
-57.055199999999999
 20
17.497699999999998
 30
0.0
  0
SPLINE
  5
55
100
AcDbEntity
  8
RÚteg 1
100
AcDbSpline
210
0.0
220
0.0
230
1.0
 70
     1
 71
     3
 72
    20
 73
    16
 74
     0
 42
0.0000000001
 43
0.0000000001
 40
0.0
 40
0.0
 40
0.0
 40
0.0
 40
0.25
 40
0.25
 40
0.25
 40
0.25
 40
0.5
 40
0.5
 40
0.5
 40
0.5
 40
0.75
 40
0.75
 40
0.75
 40
0.75
 40
1.0
 40
1.0
 40
1.0
 40
1.0
 10
-62.664299999999997
 20
14.0052
 30
0.0
 10
-61.852899999999998
 20
13.476100000000001
 30
0.0
 10
-59.983199999999997
 20
14.0405
 30
0.0
 10
-60.124299999999998
 20
12.6647
 30
0.0
 10
-60.124299999999998
 20
12.6647
 30
0.0
 10
-60.371200000000002
 20
11.7827
 30
0.0
 10
-60.759300000000003
 20
11.3947
 30
0.0
 10
-61.641300000000001
 20
11.1477
 30
0.0
 10
-61.641300000000001
 20
11.1477
 30
0.0
 10
-62.628999999999998
 20
10.795
 30
0.0
 10
-63.440399999999997
 20
11.359400000000001
 30
0.0
 10
-64.251800000000003
 20
11.6416
 30
0.0
 10
-64.251800000000003
 20
11.6416
 30
0.0
 10
-64.146000000000001
 20
12.594099999999999
 30
0.0
 10
-63.511000000000003
 20
13.370200000000001
 30
0.0
 10
-62.664299999999997
 20
14.0052
 30
0.0
  0
SPLINE
  5
56
100
AcDbEntity
  8
RÚteg 1
100
AcDbSpline
210
0.0
220
0.0
230
1.0
 70
     1
 71
     3
 72
    16
 73
    12
 74
     0
 42
0.0000000001
 43
0.0000000001
 40
0.0
 40
0.0
 40
0.0
 40
0.0
 40
0.3333333333333333
 40
0.3333333333333333
 40
0.3333333333333333
 40
0.3333333333333333
 40
0.6666666666666666
 40
0.6666666666666666
 40
0.6666666666666666
 40
0.6666666666666666
 40
1.0
 40
1.0
 40
1.0
 40
1.0
 10
-62.9818
 20
20.037700000000001
 30
0.0
 10
-62.664299999999997
 20
20.884399999999999
 30
0.0
 10
-61.912500000000001
 20
19.814299999999999
 30
0.0
 10
-61.888199999999998
 20
19.437999999999999
 30
0.0
 10
-61.888199999999998
 20
19.437999999999999
 30
0.0
 10
-61.676499999999997
 20
18.8383
 30
0.0
 10
-62.382100000000001
 20
18.732500000000002
 30
0.0
 10
-62.664299999999997
 20
18.520800000000001
 30
0.0
 10
-62.664299999999997
 20
18.520800000000001
 30
0.0
 10
-63.581499999999998
 20
18.661899999999999
 30
0.0
 10
-63.122900000000001
 20
19.508600000000001
 30
0.0
 10
-62.9818
 20
20.037700000000001
 30
0.0
  0
SPLINE
  5
57
100
AcDbEntity
  8
RÚteg 1
100
AcDbSpline
210
0.0
220
0.0
230
1.0
 70
     1
 71
     3
 72
    20
 73
    16
 74
     0
 42
0.0000000001
 43
0.0000000001
 40
0.0
 40
0.0
 40
0.0
 40
0.0
 40
0.25
 40
0.25
 40
0.25
 40
0.25
 40
0.5
 40
0.5
 40
0.5
 40
0.5
 40
0.75
 40
0.75
 40
0.75
 40
0.75
 40
1.0
 40
1.0
 40
1.0
 40
1.0
 10
-70.707599999999999
 20
17.674099999999999
 30
0.0
 10
-71.519000000000005
 20
18.238600000000002
 30
0.0
 10
-72.118700000000004
 20
19.1205
 30
0.0
 10
-72.824299999999994
 20
19.931899999999999
 30
0.0
 10
-72.824299999999994
 20
19.931899999999999
 30
0.0
 10
-72.647900000000007
 20
20.425799999999999
 30
0.0
 10
-72.930199999999999
 20
21.307700000000001
 30
0.0
 10
-72.153999999999996
 20
21.6252
 30
0.0
 10
-72.153999999999996
 20
21.6252
 30
0.0
 10
-71.131
 20
21.413599999999999
 30
0.0
 10
-70.707599999999999
 20
20.461099999999998
 30
0.0
 10
-70.1785
 20
19.684999999999999
 30
0.0
 10
-70.1785
 20
19.684999999999999
 30
0.0
 10
-70.248999999999995
 20
18.979399999999998
 30
0.0
 10
-70.037300000000002
 20
17.921099999999999
 30
0.0
 10
-70.707599999999999
 20
17.674099999999999
 30
0.0
  0
SPLINE
  5
58
100
AcDbEntity
  8
RÚteg 1
100
AcDbSpline
210
0.0
220
0.0
230
1.0
 70
     1
 71
     3
 72
    24
 73
    20
 74
     0
 42
0.0000000001
 43
0.0000000001
 40
0.0
 40
0.0
 40
0.0
 40
0.0
 40
0.2
 40
0.2
 40
0.2
 40
0.2
 40
0.4
 40
0.4
 40
0.4
 40
0.4
 40
0.6000000000000001
 40
0.6000000000000001
 40
0.6000000000000001
 40
0.6000000000000001
 40
0.8
 40
0.8
 40
0.8
 40
0.8
 40
1.0
 40
1.0
 40
1.0
 40
1.0
 10
-67.567899999999995
 20
12.241300000000001
 30
0.0
 10
-68.343999999999994
 20
12.1708
 30
0.0
 10
-69.014300000000006
 20
12.3119
 30
0.0
 10
-69.614000000000004
 20
12.735200000000001
 30
0.0
 10
-69.614000000000004
 20
12.735200000000001
 30
0.0
 10
-70.1785
 20
13.2644
 30
0.0
 10
-70.037300000000002
 20
14.1816
 30
0.0
 10
-69.9315
 20
14.851900000000001
 30
0.0
 10
-69.9315
 20
14.851900000000001
 30
0.0
 10
-69.9315
 20
14.851900000000001
 30
0.0
 10
-69.190700000000007
 20
15.557499999999999
 30
0.0
 10
-69.190700000000007
 20
15.557499999999999
 30
0.0
 10
-69.190700000000007
 20
15.557499999999999
 30
0.0
 10
-68.449799999999996
 20
14.816599999999999
 30
0.0
 10
-68.097099999999998
 20
13.7936
 30
0.0
 10
-67.144599999999997
 20
13.087999999999999
 30
0.0
 10
-67.144599999999997
 20
13.087999999999999
 30
0.0
 10
-67.109300000000005
 20
12.841100000000001
 30
0.0
 10
-67.250399999999999
 20
12.452999999999999
 30
0.0
 10
-67.567899999999995
 20
12.241300000000001
 30
0.0
  0
SPLINE
  5
59
100
AcDbEntity
  8
RÚteg 1
100
AcDbSpline
210
0.0
220
0.0
230
1.0
 70
     1
 71
     3
 72
    24
 73
    20
 74
     0
 42
0.0000000001
 43
0.0000000001
 40
0.0
 40
0.0
 40
0.0
 40
0.0
 40
0.2
 40
0.2
 40
0.2
 40
0.2
 40
0.4
 40
0.4
 40
0.4
 40
0.4
 40
0.6000000000000001
 40
0.6000000000000001
 40
0.6000000000000001
 40
0.6000000000000001
 40
0.8
 40
0.8
 40
0.8
 40
0.8
 40
1.0
 40
1.0
 40
1.0
 40
1.0
 10
-67.497299999999996
 20
15.9808
 30
0.0
 10
-67.462100000000007
 20
16.8627
 30
0.0
 10
-66.968199999999996
 20
17.286100000000001
 30
0.0
 10
-66.227400000000003
 20
17.674099999999999
 30
0.0
 10
-66.227400000000003
 20
17.674099999999999
 30
0.0
 10
-65.592299999999994
 20
17.709399999999999
 30
0.0
 10
-65.415999999999997
 20
17.003799999999998
 30
0.0
 10
-65.027900000000002
 20
16.6511
 30
0.0
 10
-65.027900000000002
 20
16.6511
 30
0.0
 10
-64.886799999999994
 20
16.016100000000002
 30
0.0
 10
-64.992699999999999
 20
15.310499999999999
 30
0.0
 10
-64.604600000000005
 20
14.7813
 30
0.0
 10
-64.604600000000005
 20
14.7813
 30
0.0
 10
-64.604600000000005
 20
14.7813
 30
0.0
 10
-64.781000000000006
 20
14.5344
 30
0.0
 10
-64.781000000000006
 20
14.5344
 30
0.0
 10
-64.781000000000006
 20
14.5344
 30
0.0
 10
-65.839299999999994
 20
14.5344
 30
0.0
 10
-66.932900000000004
 20
14.816599999999999
 30
0.0
 10
-67.497299999999996
 20
15.9808
 30
0.0
  0
SPLINE
  5
5A
100
AcDbEntity
  8
RÚteg 1
100
AcDbSpline
210
0.0
220
0.0
230
1.0
 70
     1
 71
     3
 72
    40
 73
    36
 74
     0
 42
0.0000000001
 43
0.0000000001
 40
0.0
 40
0.0
 40
0.0
 40
0.0
 40
0.1111111111111111
 40
0.1111111111111111
 40
0.1111111111111111
 40
0.1111111111111111
 40
0.2222222222222222
 40
0.2222222222222222
 40
0.2222222222222222
 40
0.2222222222222222
 40
0.3333333333333333
 40
0.3333333333333333
 40
0.3333333333333333
 40
0.3333333333333333
 40
0.4444444444444444
 40
0.4444444444444444
 40
0.4444444444444444
 40
0.4444444444444444
 40
0.5555555555555556
 40
0.5555555555555556
 40
0.5555555555555556
 40
0.5555555555555556
 40
0.6666666666666667
 40
0.6666666666666667
 40
0.6666666666666667
 40
0.6666666666666667
 40
0.7777777777777779
 40
0.7777777777777779
 40
0.7777777777777779
 40
0.7777777777777779
 40
0.8888888888888891
 40
0.8888888888888891
 40
0.8888888888888891
 40
0.8888888888888891
 40
1.0
 40
1.0
 40
1.0
 40
1.0
 10
-61.570700000000002
 20
-14.6755
 30
0.0
 10
-61.570700000000002
 20
-14.6755
 30
0.0
 10
-61.711799999999997
 20
-9.5250000000000004
 30
0.0
 10
-61.711799999999997
 20
-9.5250000000000004
 30
0.0
 10
-61.711799999999997
 20
-9.5250000000000004
 30
0.0
 10
-63.299300000000002
 20
-4.7976999999999999
 30
0.0
 10
-66.897599999999997
 20
-0.8466
 30
0.0
 10
-66.227400000000003
 20
4.6919000000000004
 30
0.0
 10
-66.227400000000003
 20
4.6919000000000004
 30
0.0
 10
-66.262600000000006
 20
6.4204999999999997
 30
0.0
 10
-65.380700000000004
 20
7.9375
 30
0.0
 10
-64.851500000000001
 20
9.5250000000000004
 30
0.0
 10
-64.851500000000001
 20
9.5250000000000004
 30
0.0
 10
-63.546199999999999
 20
8.8900000000000006
 30
0.0
 10
-61.817700000000002
 20
9.2426999999999992
 30
0.0
 10
-60.618200000000002
 20
9.8777000000000008
 30
0.0
 10
-60.618200000000002
 20
9.8777000000000008
 30
0.0
 10
-60.618200000000002
 20
9.8777000000000008
 30
0.0
 10
-59.877400000000002
 20
10.618600000000001
 30
0.0
 10
-59.877400000000002
 20
10.618600000000001
 30
0.0
 10
-59.877400000000002
 20
10.618600000000001
 30
0.0
 10
-60.371200000000002
 20
7.3376999999999999
 30
0.0
 10
-63.652099999999997
 20
5.2210999999999999
 30
0.0
 10
-63.264000000000003
 20
1.5874999999999999
 30
0.0
 10
-63.264000000000003
 20
1.5874999999999999
 30
0.0
 10
-63.7226
 20
-1.0583
 30
0.0
 10
-62.241
 20
-3.4923999999999999
 30
0.0
 10
-61.394300000000001
 20
-5.8913000000000002
 30
0.0
 10
-61.394300000000001
 20
-5.8913000000000002
 30
0.0
 10
-61.394300000000001
 20
-5.8913000000000002
 30
0.0
 10
-59.454000000000001
 20
-10.4422
 30
0.0
 10
-59.454000000000001
 20
-10.4422
 30
0.0
 10
-59.454000000000001
 20
-10.4422
 30
0.0
 10
-60.124299999999998
 20
-11.8886
 30
0.0
 10
-60.723999999999997
 20
-13.2997
 30
0.0
 10
-61.570700000000002
 20
-14.6755
 30
0.0
  0
SPLINE
  5
5B
100
AcDbEntity
  8
RÚteg 1
100
AcDbSpline
210
0.0
220
0.0
230
1.0
 70
     1
 71
     3
 72
    36
 73
    32
 74
     0
 42
0.0000000001
 43
0.0000000001
 40
0.0
 40
0.0
 40
0.0
 40
0.0
 40
0.125
 40
0.125
 40
0.125
 40
0.125
 40
0.25
 40
0.25
 40
0.25
 40
0.25
 40
0.375
 40
0.375
 40
0.375
 40
0.375
 40
0.5
 40
0.5
 40
0.5
 40
0.5
 40
0.625
 40
0.625
 40
0.625
 40
0.625
 40
0.75
 40
0.75
 40
0.75
 40
0.75
 40
0.875
 40
0.875
 40
0.875
 40
0.875
 40
1.0
 40
1.0
 40
1.0
 40
1.0
 10
-45.060699999999997
 20
-20.8491
 30
0.0
 10
-46.895099999999999
 20
-19.437999999999999
 30
0.0
 10
-49.329300000000003
 20
-19.050000000000001
 30
0.0
 10
-50.705199999999998
 20
-16.898
 30
0.0
 10
-50.705199999999998
 20
-16.898
 30
0.0
 10
-52.257300000000001
 20
-11.712199999999999
 30
0.0
 10
-57.584299999999999
 20
-9.4191000000000003
 30
0.0
 10
-60.018500000000003
 20
-4.6212999999999997
 30
0.0
 10
-60.018500000000003
 20
-4.6212999999999997
 30
0.0
 10
-61.641300000000001
 20
-1.4816
 30
0.0
 10
-62.875999999999998
 20
2.9632999999999998
 30
0.0
 10
-60.300699999999999
 20
6.0677000000000003
 30
0.0
 10
-60.300699999999999
 20
6.0677000000000003
 30
0.0
 10
-59.4893
 20
7.2319000000000004
 30
0.0
 10
-58.430999999999997
 20
8.3254999999999999
 30
0.0
 10
-57.231499999999997
 20
9.1015999999999995
 30
0.0
 10
-57.231499999999997
 20
9.1015999999999995
 30
0.0
 10
-57.831200000000003
 20
4.1275000000000004
 30
0.0
 10
-55.220700000000001
 20
-0.0705
 30
0.0
 10
-52.998199999999997
 20
-4.1980000000000004
 30
0.0
 10
-52.998199999999997
 20
-4.1980000000000004
 30
0.0
 10
-49.329300000000003
 20
-9.5954999999999995
 30
0.0
 10
-45.3782
 20
-14.922499999999999
 30
0.0
 10
-42.767699999999998
 20
-20.778600000000001
 30
0.0
 10
-42.767699999999998
 20
-20.778600000000001
 30
0.0
 10
-41.462299999999999
 20
-23.001100000000001
 30
0.0
 10
-39.1693
 20
-24.8002
 30
0.0
 10
-38.534300000000002
 20
-27.3049
 30
0.0
 10
-38.534300000000002
 20
-27.3049
 30
0.0
 10
-41.074300000000001
 20
-25.5411
 30
0.0
 10
-42.767699999999998
 20
-22.965800000000002
 30
0.0
 10
-45.060699999999997
 20
-20.8491
 30
0.0
  0
SPLINE
  5
5C
100
AcDbEntity
  8
RÚteg 1
100
AcDbSpline
210
0.0
220
0.0
230
1.0
 70
     1
 71
     3
 72
    48
 73
    44
 74
     0
 42
0.0000000001
 43
0.0000000001
 40
0.0
 40
0.0
 40
0.0
 40
0.0
 40
0.0909090909090909
 40
0.0909090909090909
 40
0.0909090909090909
 40
0.0909090909090909
 40
0.1818181818181818
 40
0.1818181818181818
 40
0.1818181818181818
 40
0.1818181818181818
 40
0.2727272727272727
 40
0.2727272727272727
 40
0.2727272727272727
 40
0.2727272727272727
 40
0.3636363636363637
 40
0.3636363636363637
 40
0.3636363636363637
 40
0.3636363636363637
 40
0.4545454545454546
 40
0.4545454545454546
 40
0.4545454545454546
 40
0.4545454545454546
 40
0.5454545454545455
 40
0.5454545454545455
 40
0.5454545454545455
 40
0.5454545454545455
 40
0.6363636363636365
 40
0.6363636363636365
 40
0.6363636363636365
 40
0.6363636363636365
 40
0.7272727272727274
 40
0.7272727272727274
 40
0.7272727272727274
 40
0.7272727272727274
 40
0.8181818181818183
 40
0.8181818181818183
 40
0.8181818181818183
 40
0.8181818181818183
 40
0.9090909090909093
 40
0.9090909090909093
 40
0.9090909090909093
 40
0.9090909090909093
 40
1.0
 40
1.0
 40
1.0
 40
1.0
 10
-43.790700000000001
 20
-15.451599999999999
 30
0.0
 10
-47.247900000000001
 20
-10.124700000000001
 30
0.0
 10
-50.987299999999998
 20
-4.9036
 30
0.0
 10
-54.197600000000001
 20
0.5644
 30
0.0
 10
-54.197600000000001
 20
0.5644
 30
0.0
 10
-55.2913
 20
3.7040999999999999
 30
0.0
 10
-55.926200000000001
 20
6.8437999999999999
 30
0.0
 10
-55.643999999999998
 20
10.477499999999999
 30
0.0
 10
-55.643999999999998
 20
10.477499999999999
 30
0.0
 10
-52.610100000000003
 20
7.6905000000000001
 30
0.0
 10
-48.447299999999998
 20
7.7257999999999996
 30
0.0
 10
-44.355200000000004
 20
7.5141
 30
0.0
 10
-44.355200000000004
 20
7.5141
 30
0.0
 10
-42.167900000000003
 20
6.7380000000000004
 30
0.0
 10
-40.298200000000001
 20
5.1151999999999997
 30
0.0
 10
-38.287300000000002
 20
3.9510999999999998
 30
0.0
 10
-38.287300000000002
 20
3.9510999999999998
 30
0.0
 10
-38.322600000000001
 20
1.1640999999999999
 30
0.0
 10
-39.522100000000002
 20
-1.3405
 30
0.0
 10
-39.451500000000003
 20
-4.2686000000000002
 30
0.0
 10
-39.451500000000003
 20
-4.2686000000000002
 30
0.0
 10
-38.534300000000002
 20
-4.3037999999999998
 30
0.0
 10
-37.6524
 20
-3.6688000000000001
 30
0.0
 10
-36.735100000000003
 20
-3.4218999999999999
 30
0.0
 10
-36.735100000000003
 20
-3.4218999999999999
 30
0.0
 10
-35.077100000000002
 20
-7.5141
 30
0.0
 10
-37.017299999999999
 20
-11.465199999999999
 30
0.0
 10
-37.017299999999999
 20
-15.698600000000001
 30
0.0
 10
-37.017299999999999
 20
-15.698600000000001
 30
0.0
 10
-37.017299999999999
 20
-15.698600000000001
 30
0.0
 10
-33.9482
 20
-19.437999999999999
 30
0.0
 10
-33.9482
 20
-19.437999999999999
 30
0.0
 10
-33.9482
 20
-19.437999999999999
 30
0.0
 10
-33.9482
 20
-19.437999999999999
 30
0.0
 10
-35.394599999999997
 20
-22.1191
 30
0.0
 10
-35.394599999999997
 20
-22.1191
 30
0.0
 10
-35.394599999999997
 20
-22.1191
 30
0.0
 10
-34.265700000000002
 20
-25.011900000000001
 30
0.0
 10
-32.431199999999997
 20
-27.587199999999999
 30
0.0
 10
-32.007899999999999
 20
-30.7622
 30
0.0
 10
-32.007899999999999
 20
-30.7622
 30
0.0
 10
-37.511200000000002
 20
-26.916899999999998
 30
0.0
 10
-41.215400000000002
 20
-21.1313
 30
0.0
 10
-43.790700000000001
 20
-15.451599999999999
 30
0.0
  0
SPLINE
  5
5D
100
AcDbEntity
  8
RÚteg 1
100
AcDbSpline
210
0.0
220
0.0
230
1.0
 70
     1
 71
     3
 72
    16
 73
    12
 74
     0
 42
0.0000000001
 43
0.0000000001
 40
0.0
 40
0.0
 40
0.0
 40
0.0
 40
0.3333333333333333
 40
0.3333333333333333
 40
0.3333333333333333
 40
0.3333333333333333
 40
0.6666666666666666
 40
0.6666666666666666
 40
0.6666666666666666
 40
0.6666666666666666
 40
1.0
 40
1.0
 40
1.0
 40
1.0
 10
-47.494799999999998
 20
-53.304699999999997
 30
0.0
 10
-48.0946
 20
-50.482500000000002
 30
0.0
 10
-46.260100000000001
 20
-48.506900000000002
 30
0.0
 10
-45.484000000000002
 20
-46.178600000000003
 30
0.0
 10
-45.484000000000002
 20
-46.178600000000003
 30
0.0
 10
-45.272300000000001
 20
-46.107999999999997
 30
0.0
 10
-45.095999999999997
 20
-45.931600000000003
 30
0.0
 10
-44.884300000000003
 20
-45.931600000000003
 30
0.0
 10
-44.884300000000003
 20
-45.931600000000003
 30
0.0
 10
-44.813699999999997
 20
-48.683300000000003
 30
0.0
 10
-46.401200000000003
 20
-50.941099999999999
 30
0.0
 10
-47.494799999999998
 20
-53.304699999999997
 30
0.0
  0
SPLINE
  5
5E
100
AcDbEntity
  8
RÚteg 1
100
AcDbSpline
210
0.0
220
0.0
230
1.0
 70
     1
 71
     3
 72
    12
 73
     8
 74
     0
 42
0.0000000001
 43
0.0000000001
 40
0.0
 40
0.0
 40
0.0
 40
0.0
 40
0.5
 40
0.5
 40
0.5
 40
0.5
 40
1.0
 40
1.0
 40
1.0
 40
1.0
 10
-43.437899999999999
 20
-51.0822
 30
0.0
 10
-41.8504
 20
-47.766100000000002
 30
0.0
 10
-40.745800000000003
 20
-44.450000000000003
 30
0.0
 10
-38.687899999999999
 20
-41.333799999999997
 30
0.0
 10
-38.687899999999999
 20
-41.333799999999997
 30
0.0
 10
-39.040700000000001
 20
-44.920299999999997
 30
0.0
 10
-41.356499999999997
 20
-48.4011
 30
0.0
 10
-43.437899999999999
 20
-51.0822
 30
0.0
  0
SPLINE
  5
5F
100
AcDbEntity
  8
RÚteg 1
100
AcDbSpline
210
0.0
220
0.0
230
1.0
 70
     1
 71
     3
 72
    12
 73
     8
 74
     0
 42
0.0000000001
 43
0.0000000001
 40
0.0
 40
0.0
 40
0.0
 40
0.0
 40
0.5
 40
0.5
 40
0.5
 40
0.5
 40
1.0
 40
1.0
 40
1.0
 40
1.0
 10
-34.900700000000001
 20
-48.048299999999998
 30
0.0
 10
-34.406799999999997
 20
-44.485199999999999
 30
0.0
 10
-32.995699999999999
 20
-40.992699999999999
 30
0.0
 10
-31.584599999999998
 20
-37.641300000000001
 30
0.0
 10
-31.584599999999998
 20
-37.641300000000001
 30
0.0
 10
-31.655200000000001
 20
-41.345500000000001
 30
0.0
 10
-32.783999999999999
 20
-44.979100000000003
 30
0.0
 10
-34.900700000000001
 20
-48.048299999999998
 30
0.0
  0
SPLINE
  5
60
100
AcDbEntity
  8
RÚteg 1
100
AcDbSpline
210
0.0
220
0.0
230
1.0
 70
     1
 71
     3
 72
    20
 73
    16
 74
     0
 42
0.0000000001
 43
0.0000000001
 40
0.0
 40
0.0
 40
0.0
 40
0.0
 40
0.25
 40
0.25
 40
0.25
 40
0.25
 40
0.5
 40
0.5
 40
0.5
 40
0.5
 40
0.75
 40
0.75
 40
0.75
 40
0.75
 40
1.0
 40
1.0
 40
1.0
 40
1.0
 10
-28.974
 20
-44.838000000000001
 30
0.0
 10
-27.739899999999999
 20
-40.889000000000003
 30
0.0
 10
-26.294599999999999
 20
-37.0809
 30
0.0
 10
-25.306799999999999
 20
-33.061599999999999
 30
0.0
 10
-25.306799999999999
 20
-33.061599999999999
 30
0.0
 10
-25.3078
 20
-33.056399999999996
 30
0.0
 10
-25.307500000000001
 20
-33.054099999999998
 30
0.0
 10
-25.305199999999999
 20
-33.055199999999999
 30
0.0
 10
-25.305199999999999
 20
-33.055199999999999
 30
0.0
 10
-25.305700000000002
 20
-33.057400000000001
 30
0.0
 10
-25.3063
 20
-33.0595
 30
0.0
 10
-25.306799999999999
 20
-33.061599999999999
 30
0.0
 10
-25.306799999999999
 20
-33.061599999999999
 30
0.0
 10
-25.2773
 20
-33.215600000000002
 30
0.0
 10
-23.923400000000001
 20
-36.214399999999998
 30
0.0
 10
-28.974
 20
-44.838000000000001
 30
0.0
  0
SPLINE
  5
61
100
AcDbEntity
  8
RÚteg 1
100
AcDbSpline
210
0.0
220
0.0
230
1.0
 70
     1
 71
     3
 72
    36
 73
    32
 74
     0
 42
0.0000000001
 43
0.0000000001
 40
0.0
 40
0.0
 40
0.0
 40
0.0
 40
0.125
 40
0.125
 40
0.125
 40
0.125
 40
0.25
 40
0.25
 40
0.25
 40
0.25
 40
0.375
 40
0.375
 40
0.375
 40
0.375
 40
0.5
 40
0.5
 40
0.5
 40
0.5
 40
0.625
 40
0.625
 40
0.625
 40
0.625
 40
0.75
 40
0.75
 40
0.75
 40
0.75
 40
0.875
 40
0.875
 40
0.875
 40
0.875
 40
1.0
 40
1.0
 40
1.0
 40
1.0
 10
-23.0473
 20
-28.574999999999999
 30
0.0
 10
-27.068999999999999
 20
-34.536900000000003
 30
0.0
 10
-39.028199999999998
 20
-39.4758
 30
0.0
 10
-39.028199999999998
 20
-39.4758
 30
0.0
 10
-39.028199999999998
 20
-39.4758
 30
0.0
 10
-41.673999999999999
 20
-41.557200000000002
 30
0.0
 10
-44.108199999999997
 20
-43.567999999999998
 30
0.0
 10
-46.648200000000003
 20
-45.825800000000001
 30
0.0
 10
-46.648200000000003
 20
-45.825800000000001
 30
0.0
 10
-46.648200000000003
 20
-45.825800000000001
 30
0.0
 10
-46.824599999999997
 20
-45.402500000000003
 30
0.0
 10
-46.824599999999997
 20
-45.402500000000003
 30
0.0
 10
-46.824599999999997
 20
-45.402500000000003
 30
0.0
 10
-43.4026
 20
-40.569400000000002
 30
0.0
 10
-38.287300000000002
 20
-37.747199999999999
 30
0.0
 10
-33.630699999999997
 20
-34.819099999999999
 30
0.0
 10
-33.630699999999997
 20
-34.819099999999999
 30
0.0
 10
-34.971200000000003
 20
-34.677999999999997
 30
0.0
 10
-36.911499999999997
 20
-34.783799999999999
 30
0.0
 10
-38.110999999999997
 20
-34.572200000000002
 30
0.0
 10
-38.110999999999997
 20
-34.572200000000002
 30
0.0
 10
-34.830199999999998
 20
-32.808300000000003
 30
0.0
 10
-30.138200000000001
 20
-34.466299999999997
 30
0.0
 10
-27.351199999999999
 20
-31.5383
 30
0.0
 10
-27.351199999999999
 20
-31.5383
 30
0.0
 10
-27.351199999999999
 20
-31.5383
 30
0.0
 10
-22.7651
 20
-27.375499999999999
 30
0.0
 10
-22.7651
 20
-27.375499999999999
 30
0.0
 10
-22.7651
 20
-27.375499999999999
 30
0.0
 10
-22.412299999999998
 20
-27.7636
 30
0.0
 10
-22.729800000000001
 20
-28.2575
 30
0.0
 10
-23.0473
 20
-28.574999999999999
 30
0.0
  0
SPLINE
  5
62
100
AcDbEntity
  8
RÚteg 1
100
AcDbSpline
210
0.0
220
0.0
230
1.0
 70
     1
 71
     3
 72
    16
 73
    12
 74
     0
 42
0.0000000001
 43
0.0000000001
 40
0.0
 40
0.0
 40
0.0
 40
0.0
 40
0.3333333333333333
 40
0.3333333333333333
 40
0.3333333333333333
 40
0.3333333333333333
 40
0.6666666666666666
 40
0.6666666666666666
 40
0.6666666666666666
 40
0.6666666666666666
 40
1.0
 40
1.0
 40
1.0
 40
1.0
 10
-18.955200000000001
 20
-29.668600000000001
 30
0.0
 10
-19.237300000000001
 20
-32.208599999999997
 30
0.0
 10
-19.731200000000001
 20
-34.642699999999998
 30
0.0
 10
-20.507300000000001
 20
-36.9358
 30
0.0
 10
-20.507300000000001
 20
-36.9358
 30
0.0
 10
-20.719000000000001
 20
-33.161099999999998
 30
0.0
 10
-19.8371
 20
-29.351099999999999
 30
0.0
 10
-19.3079
 20
-25.611599999999999
 30
0.0
 10
-19.3079
 20
-25.611599999999999
 30
0.0
 10
-18.814
 20
-26.8111
 30
0.0
 10
-18.849299999999999
 20
-28.398599999999998
 30
0.0
 10
-18.955200000000001
 20
-29.668600000000001
 30
0.0
  0
SPLINE
  5
63
100
AcDbEntity
  8
RÚteg 1
100
AcDbSpline
210
0.0
220
0.0
230
1.0
 70
     1
 71
     3
 72
    12
 73
     8
 74
     0
 42
0.0000000001
 43
0.0000000001
 40
0.0
 40
0.0
 40
0.0
 40
0.0
 40
0.5
 40
0.5
 40
0.5
 40
0.5
 40
1.0
 40
1.0
 40
1.0
 40
1.0
 10
-14.7218
 20
-33.972499999999997
 30
0.0
 10
-14.404299999999999
 20
-29.668600000000001
 30
0.0
 10
-14.8276
 20
-25.752700000000001
 30
0.0
 10
-15.9918
 20
-21.978000000000002
 30
0.0
 10
-15.9918
 20
-21.978000000000002
 30
0.0
 10
-15.9918
 20
-21.978000000000002
 30
0.0
 10
-12.288399999999999
 20
-26.458300000000001
 30
0.0
 10
-14.7218
 20
-33.972499999999997
 30
0.0
  0
SPLINE
  5
64
100
AcDbEntity
  8
RÚteg 1
100
AcDbSpline
210
0.0
220
0.0
230
1.0
 70
     1
 71
     3
 72
    60
 73
    56
 74
     0
 42
0.0000000001
 43
0.0000000001
 40
0.0
 40
0.0
 40
0.0
 40
0.0
 40
0.0714285714285714
 40
0.0714285714285714
 40
0.0714285714285714
 40
0.0714285714285714
 40
0.1428571428571429
 40
0.1428571428571429
 40
0.1428571428571429
 40
0.1428571428571429
 40
0.2142857142857143
 40
0.2142857142857143
 40
0.2142857142857143
 40
0.2142857142857143
 40
0.2857142857142857
 40
0.2857142857142857
 40
0.2857142857142857
 40
0.2857142857142857
 40
0.3571428571428571
 40
0.3571428571428571
 40
0.3571428571428571
 40
0.3571428571428571
 40
0.4285714285714285
 40
0.4285714285714285
 40
0.4285714285714285
 40
0.4285714285714285
 40
0.4999999999999999
 40
0.4999999999999999
 40
0.4999999999999999
 40
0.4999999999999999
 40
0.5714285714285713
 40
0.5714285714285713
 40
0.5714285714285713
 40
0.5714285714285713
 40
0.6428571428571427
 40
0.6428571428571427
 40
0.6428571428571427
 40
0.6428571428571427
 40
0.7142857142857141
 40
0.7142857142857141
 40
0.7142857142857141
 40
0.7142857142857141
 40
0.7857142857142855
 40
0.7857142857142855
 40
0.7857142857142855
 40
0.7857142857142855
 40
0.8571428571428569
 40
0.8571428571428569
 40
0.8571428571428569
 40
0.8571428571428569
 40
0.9285714285714283
 40
0.9285714285714283
 40
0.9285714285714283
 40
0.9285714285714283
 40
1.0
 40
1.0
 40
1.0
 40
1.0
 10
-19.237300000000001
 20
-20.954899999999999
 30
0.0
 10
-21.953800000000001
 20
-23.882999999999999
 30
0.0
 10
-24.846499999999999
 20
-27.234400000000001
 30
0.0
 10
-28.444800000000001
 20
-28.469100000000001
 30
0.0
 10
-28.444800000000001
 20
-28.469100000000001
 30
0.0
 10
-28.974
 20
-28.892399999999999
 30
0.0
 10
-29.362100000000002
 20
-29.597999999999999
 30
0.0
 10
-29.9618
 20
-29.739100000000001
 30
0.0
 10
-29.9618
 20
-29.739100000000001
 30
0.0
 10
-31.513999999999999
 20
-27.5166
 30
0.0
 10
-32.537100000000002
 20
-25.0825
 30
0.0
 10
-33.030999999999999
 20
-22.401299999999999
 30
0.0
 10
-33.030999999999999
 20
-22.401299999999999
 30
0.0
 10
-33.030999999999999
 20
-22.401299999999999
 30
0.0
 10
-31.655200000000001
 20
-19.508600000000001
 30
0.0
 10
-31.655200000000001
 20
-19.508600000000001
 30
0.0
 10
-31.655200000000001
 20
-19.508600000000001
 30
0.0
 10
-32.713500000000003
 20
-18.026900000000001
 30
0.0
 10
-34.900700000000001
 20
-17.568300000000001
 30
0.0
 10
-35.041800000000002
 20
-15.7691
 30
0.0
 10
-35.041800000000002
 20
-15.7691
 30
0.0
 10
-35.359299999999998
 20
-13.864100000000001
 30
0.0
 10
-34.547899999999998
 20
-12.1355
 30
0.0
 10
-34.371499999999997
 20
-10.371600000000001
 30
0.0
 10
-34.371499999999997
 20
-10.371600000000001
 30
0.0
 10
-29.926500000000001
 20
-12.7705
 30
0.0
 10
-23.5413
 20
-10.089399999999999
 30
0.0
 10
-19.378499999999999
 20
-12.982200000000001
 30
0.0
 10
-19.378499999999999
 20
-12.982200000000001
 30
0.0
 10
-18.002600000000001
 20
-13.6877
 30
0.0
 10
-16.626799999999999
 20
-14.3933
 30
0.0
 10
-15.250999999999999
 20
-15.098800000000001
 30
0.0
 10
-15.250999999999999
 20
-15.098800000000001
 30
0.0
 10
-15.1098
 20
-11.606299999999999
 30
0.0
 10
-15.5685
 20
-8.1844000000000001
 30
0.0
 10
-17.261800000000001
 20
-5.3621999999999996
 30
0.0
 10
-17.261800000000001
 20
-5.3621999999999996
 30
0.0
 10
-18.214300000000001
 20
-3.7747000000000002
 30
0.0
 10
-19.413699999999999
 20
-2.2576999999999998
 30
0.0
 10
-20.084
 20
-0.5291
 30
0.0
 10
-20.084
 20
-0.5291
 30
0.0
 10
-18.849299999999999
 20
-0.1763
 30
0.0
 10
-17.344899999999999
 20
2.6457999999999999
 30
0.0
 10
-15.345800000000001
 20
-0.2939
 30
0.0
 10
-15.345800000000001
 20
-0.2939
 30
0.0
 10
-14.463800000000001
 20
-2.2930000000000001
 30
0.0
 10
-14.2286
 20
-2.3517999999999999
 30
0.0
 10
-13.3812
 20
-2.5047000000000001
 30
0.0
 10
-13.3812
 20
-2.5047000000000001
 30
0.0
 10
-11.299799999999999
 20
-6.3147000000000002
 30
0.0
 10
-10.2415
 20
-10.583299999999999
 30
0.0
 10
-9.0774000000000008
 20
-14.7813
 30
0.0
 10
-9.0774000000000008
 20
-14.7813
 30
0.0
 10
-13.6995
 20
-14.875400000000001
 30
0.0
 10
-16.521000000000001
 20
-18.3797
 30
0.0
 10
-19.237300000000001
 20
-20.954899999999999
 30
0.0
  0
SPLINE
  5
65
100
AcDbEntity
  8
RÚteg 1
100
AcDbSpline
210
0.0
220
0.0
230
1.0
 70
     1
 71
     3
 72
    12
 73
     8
 74
     0
 42
0.0000000001
 43
0.0000000001
 40
0.0
 40
0.0
 40
0.0
 40
0.0
 40
0.5
 40
0.5
 40
0.5
 40
0.5
 40
1.0
 40
1.0
 40
1.0
 40
1.0
 10
-9.0546000000000006
 20
-33.984200000000001
 30
0.0
 10
-9.2081999999999997
 20
-30.209499999999998
 30
0.0
 10
-9.8445
 20
-23.479900000000001
 30
0.0
 10
-10.347300000000001
 20
-18.414999999999999
 30
0.0
 10
-10.347300000000001
 20
-18.414999999999999
 30
0.0
 10
-8.9369999999999994
 20
-19.9907
 30
0.0
 10
-7.7023000000000001
 20
-29.868500000000001
 30
0.0
 10
-9.0546000000000006
 20
-33.984200000000001
 30
0.0
  0
SPLINE
  5
66
100
AcDbEntity
  8
RÚteg 1
100
AcDbSpline
210
0.0
220
0.0
230
1.0
 70
     1
 71
     3
 72
    36
 73
    32
 74
     0
 42
0.0000000001
 43
0.0000000001
 40
0.0
 40
0.0
 40
0.0
 40
0.0
 40
0.125
 40
0.125
 40
0.125
 40
0.125
 40
0.25
 40
0.25
 40
0.25
 40
0.25
 40
0.375
 40
0.375
 40
0.375
 40
0.375
 40
0.5
 40
0.5
 40
0.5
 40
0.5
 40
0.625
 40
0.625
 40
0.625
 40
0.625
 40
0.75
 40
0.75
 40
0.75
 40
0.75
 40
0.875
 40
0.875
 40
0.875
 40
0.875
 40
1.0
 40
1.0
 40
1.0
 40
1.0
 10
-3.4681999999999999
 20
-12.9116
 30
0.0
 10
-3.4681999999999999
 20
-12.9116
 30
0.0
 10
-3.8210000000000002
 20
-12.9116
 30
0.0
 10
-3.8210000000000002
 20
-12.9116
 30
0.0
 10
-3.8210000000000002
 20
-12.9116
 30
0.0
 10
-5.1967999999999996
 20
-8.4313000000000002
 30
0.0
 10
-6.7843
 20
-3.9510999999999998
 30
0.0
 10
-9.5007000000000001
 20
-0.1058
 30
0.0
 10
-9.5007000000000001
 20
-0.1058
 30
0.0
 10
-7.3487
 20
2.9632999999999998
 30
0.0
 10
-5.726
 20
6.5263
 30
0.0
 10
-3.2917999999999998
 20
9.6308000000000007
 30
0.0
 10
-3.2917999999999998
 20
9.6308000000000007
 30
0.0
 10
-3.2917999999999998
 20
9.6308000000000007
 30
0.0
 10
-2.9742999999999999
 20
9.6308000000000007
 30
0.0
 10
-2.9742999999999999
 20
9.6308000000000007
 30
0.0
 10
-2.9742999999999999
 20
9.6308000000000007
 30
0.0
 10
-2.9742999999999999
 20
9.6308000000000007
 30
0.0
 10
-0.5048
 20
7.5846999999999998
 30
0.0
 10
-0.5048
 20
7.5846999999999998
 30
0.0
 10
-0.5048
 20
7.5846999999999998
 30
0.0
 10
-0.5048
 20
7.5846999999999998
 30
0.0
 10
1.0826
 20
8.8546999999999993
 30
0.0
 10
1.0826
 20
8.8546999999999993
 30
0.0
 10
1.0826
 20
8.8546999999999993
 30
0.0
 10
-0.6812
 20
3.2454999999999998
 30
0.0
 10
-0.399
 20
-3.3866000000000001
 30
0.0
 10
-0.7518
 20
-9.3485999999999994
 30
0.0
 10
-0.7518
 20
-9.3485999999999994
 30
0.0
 10
-0.7518
 20
-9.3485999999999994
 30
0.0
 10
-3.4681999999999999
 20
-12.9116
 30
0.0
 10
-3.4681999999999999
 20
-12.9116
 30
0.0
  0
SPLINE
  5
67
100
AcDbEntity
  8
RÚteg 1
100
AcDbSpline
210
0.0
220
0.0
230
1.0
 70
     1
 71
     3
 72
   168
 73
   164
 74
     0
 42
0.0000000001
 43
0.0000000001
 40
0.0
 40
0.0
 40
0.0
 40
0.0
 40
0.024390243902439
 40
0.024390243902439
 40
0.024390243902439
 40
0.024390243902439
 40
0.0487804878048781
 40
0.0487804878048781
 40
0.0487804878048781
 40
0.0487804878048781
 40
0.0731707317073171
 40
0.0731707317073171
 40
0.0731707317073171
 40
0.0731707317073171
 40
0.0975609756097561
 40
0.0975609756097561
 40
0.0975609756097561
 40
0.0975609756097561
 40
0.1219512195121951
 40
0.1219512195121951
 40
0.1219512195121951
 40
0.1219512195121951
 40
0.1463414634146341
 40
0.1463414634146341
 40
0.1463414634146341
 40
0.1463414634146341
 40
0.1707317073170732
 40
0.1707317073170732
 40
0.1707317073170732
 40
0.1707317073170732
 40
0.1951219512195122
 40
0.1951219512195122
 40
0.1951219512195122
 40
0.1951219512195122
 40
0.2195121951219512
 40
0.2195121951219512
 40
0.2195121951219512
 40
0.2195121951219512
 40
0.2439024390243902
 40
0.2439024390243902
 40
0.2439024390243902
 40
0.2439024390243902
 40
0.2682926829268292
 40
0.2682926829268292
 40
0.2682926829268292
 40
0.2682926829268292
 40
0.2926829268292683
 40
0.2926829268292683
 40
0.2926829268292683
 40
0.2926829268292683
 40
0.3170731707317073
 40
0.3170731707317073
 40
0.3170731707317073
 40
0.3170731707317073
 40
0.3414634146341464
 40
0.3414634146341464
 40
0.3414634146341464
 40
0.3414634146341464
 40
0.3658536585365854
 40
0.3658536585365854
 40
0.3658536585365854
 40
0.3658536585365854
 40
0.3902439024390245
 40
0.3902439024390245
 40
0.3902439024390245
 40
0.3902439024390245
 40
0.4146341463414635
 40
0.4146341463414635
 40
0.4146341463414635
 40
0.4146341463414635
 40
0.4390243902439026
 40
0.4390243902439026
 40
0.4390243902439026
 40
0.4390243902439026
 40
0.4634146341463416
 40
0.4634146341463416
 40
0.4634146341463416
 40
0.4634146341463416
 40
0.4878048780487806
 40
0.4878048780487806
 40
0.4878048780487806
 40
0.4878048780487806
 40
0.5121951219512196
 40
0.5121951219512196
 40
0.5121951219512196
 40
0.5121951219512196
 40
0.5365853658536587
 40
0.5365853658536587
 40
0.5365853658536587
 40
0.5365853658536587
 40
0.5609756097560977
 40
0.5609756097560977
 40
0.5609756097560977
 40
0.5609756097560977
 40
0.5853658536585368
 40
0.5853658536585368
 40
0.5853658536585368
 40
0.5853658536585368
 40
0.6097560975609758
 40
0.6097560975609758
 40
0.6097560975609758
 40
0.6097560975609758
 40
0.6341463414634149
 40
0.6341463414634149
 40
0.6341463414634149
 40
0.6341463414634149
 40
0.6585365853658539
 40
0.6585365853658539
 40
0.6585365853658539
 40
0.6585365853658539
 40
0.682926829268293
 40
0.682926829268293
 40
0.682926829268293
 40
0.682926829268293
 40
0.707317073170732
 40
0.707317073170732
 40
0.707317073170732
 40
0.707317073170732
 40
0.7317073170731711
 40
0.7317073170731711
 40
0.7317073170731711
 40
0.7317073170731711
 40
0.7560975609756101
 40
0.7560975609756101
 40
0.7560975609756101
 40
0.7560975609756101
 40
0.7804878048780491
 40
0.7804878048780491
 40
0.7804878048780491
 40
0.7804878048780491
 40
0.8048780487804882
 40
0.8048780487804882
 40
0.8048780487804882
 40
0.8048780487804882
 40
0.8292682926829272
 40
0.8292682926829272
 40
0.8292682926829272
 40
0.8292682926829272
 40
0.8536585365853663
 40
0.8536585365853663
 40
0.8536585365853663
 40
0.8536585365853663
 40
0.8780487804878053
 40
0.8780487804878053
 40
0.8780487804878053
 40
0.8780487804878053
 40
0.9024390243902444
 40
0.9024390243902444
 40
0.9024390243902444
 40
0.9024390243902444
 40
0.9268292682926834
 40
0.9268292682926834
 40
0.9268292682926834
 40
0.9268292682926834
 40
0.9512195121951225
 40
0.9512195121951225
 40
0.9512195121951225
 40
0.9512195121951225
 40
0.9756097560975615
 40
0.9756097560975615
 40
0.9756097560975615
 40
0.9756097560975615
 40
1.0
 40
1.0
 40
1.0
 40
1.0
 10
5.7392000000000003
 20
-7.0555000000000003
 30
0.0
 10
7.3266999999999998
 20
-7.7257999999999996
 30
0.0
 10
8.5967000000000002
 20
-9.2426999999999992
 30
0.0
 10
9.9019999999999992
 20
-10.371600000000001
 30
0.0
 10
9.9019999999999992
 20
-10.371600000000001
 30
0.0
 10
13.9589
 20
-9.2426999999999992
 30
0.0
 10
19.180099999999999
 20
-8.8546999999999993
 30
0.0
 10
23.3781
 20
-10.018800000000001
 30
0.0
 10
23.3781
 20
-10.018800000000001
 30
0.0
 10
23.3781
 20
-10.018800000000001
 30
0.0
 10
23.3781
 20
-10.1952
 30
0.0
 10
23.3781
 20
-10.1952
 30
0.0
 10
23.3781
 20
-10.1952
 30
0.0
 10
19.109500000000001
 20
-9.7012999999999998
 30
0.0
 10
14.629200000000001
 20
-10.230499999999999
 30
0.0
 10
10.748699999999999
 20
-11.3947
 30
0.0
 10
10.748699999999999
 20
-11.3947
 30
0.0
 10
12.018700000000001
 20
-13.0174
 30
0.0
 10
13.3592
 20
-14.604900000000001
 30
0.0
 10
14.488099999999999
 20
-16.298300000000001
 30
0.0
 10
14.488099999999999
 20
-16.298300000000001
 30
0.0
 10
19.462299999999999
 20
-16.474699999999999
 30
0.0
 10
24.013100000000001
 20
-17.674099999999999
 30
0.0
 10
28.3523
 20
-19.437999999999999
 30
0.0
 10
28.3523
 20
-19.437999999999999
 30
0.0
 10
24.048400000000001
 20
-18.732500000000002
 30
0.0
 10
19.8856
 20
-17.674099999999999
 30
0.0
 10
15.3348
 20
-17.568300000000001
 30
0.0
 10
15.3348
 20
-17.568300000000001
 30
0.0
 10
15.758100000000001
 20
-18.8736
 30
0.0
 10
16.887
 20
-20.1083
 30
0.0
 10
17.521999999999998
 20
-21.448799999999999
 30
0.0
 10
17.521999999999998
 20
-21.448799999999999
 30
0.0
 10
28.280999999999999
 20
-24.694400000000002
 30
0.0
 10
33.855600000000003
 20
-27.728300000000001
 30
0.0
 10
33.855600000000003
 20
-27.728300000000001
 30
0.0
 10
33.855600000000003
 20
-27.728300000000001
 30
0.0
 10
29.1629
 20
-26.105499999999999
 30
0.0
 10
23.8367
 20
-23.882999999999999
 30
0.0
 10
18.4392
 20
-22.895199999999999
 30
0.0
 10
18.4392
 20
-22.895199999999999
 30
0.0
 10
19.215299999999999
 20
-24.5886
 30
0.0
 10
20.308900000000001
 20
-26.352499999999999
 30
0.0
 10
21.085000000000001
 20
-28.151599999999998
 30
0.0
 10
21.085000000000001
 20
-28.151599999999998
 30
0.0
 10
25.282399999999999
 20
-29.927299999999999
 30
0.0
 10
29.221699999999998
 20
-31.738199999999999
 30
0.0
 10
32.925899999999999
 20
-33.572600000000001
 30
0.0
 10
32.925899999999999
 20
-33.572600000000001
 30
0.0
 10
32.925899999999999
 20
-33.572600000000001
 30
0.0
 10
29.045300000000001
 20
-33.043500000000002
 30
0.0
 10
21.6965
 20
-29.6098
 30
0.0
 10
21.6965
 20
-29.6098
 30
0.0
 10
21.6965
 20
-29.6098
 30
0.0
 10
25.141999999999999
 20
-37.288600000000002
 30
0.0
 10
25.141999999999999
 20
-37.288600000000002
 30
0.0
 10
25.141999999999999
 20
-37.288600000000002
 30
0.0
 10
27.434999999999999
 20
-38.770200000000003
 30
0.0
 10
29.728100000000001
 20
-40.604700000000001
 30
0.0
 10
31.5626
 20
-42.791899999999998
 30
0.0
 10
31.5626
 20
-42.791899999999998
 30
0.0
 10
29.8339
 20
-41.521900000000002
 30
0.0
 10
27.8231
 20
-40.110799999999998
 30
0.0
 10
25.918099999999999
 20
-38.911299999999997
 30
0.0
 10
25.918099999999999
 20
-38.911299999999997
 30
0.0
 10
26.694199999999999
 20
-40.781100000000002
 30
0.0
 10
27.3645
 20
-42.968299999999999
 30
0.0
 10
28.281700000000001
 20
-44.9086
 30
0.0
 10
28.281700000000001
 20
-44.9086
 30
0.0
 10
29.410599999999999
 20
-45.790500000000002
 30
0.0
 10
30.609999999999999
 20
-46.707700000000003
 30
0.0
 10
31.5626
 20
-47.801299999999998
 30
0.0
 10
31.5626
 20
-47.801299999999998
 30
0.0
 10
30.645299999999999
 20
-47.378
 30
0.0
 10
29.7987
 20
-46.672499999999999
 30
0.0
 10
28.881399999999999
 20
-46.249099999999999
 30
0.0
 10
28.881399999999999
 20
-46.249099999999999
 30
0.0
 10
29.657599999999999
 20
-48.506900000000002
 30
0.0
 10
30.3278
 20
-51.011600000000001
 30
0.0
 10
30.892299999999999
 20
-53.445799999999998
 30
0.0
 10
30.892299999999999
 20
-53.445799999999998
 30
0.0
 10
29.198899999999998
 20
-49.1066
 30
0.0
 10
27.258600000000001
 20
-44.379399999999997
 30
0.0
 10
25.212599999999998
 20
-39.899099999999997
 30
0.0
 10
25.212599999999998
 20
-39.899099999999997
 30
0.0
 10
24.3306
 20
-41.557200000000002
 30
0.0
 10
23.942599999999999
 20
-43.567999999999998
 30
0.0
 10
23.0959
 20
-45.331899999999997
 30
0.0
 10
23.0959
 20
-45.331899999999997
 30
0.0
 10
22.954799999999999
 20
-42.862499999999997
 30
0.0
 10
23.942599999999999
 20
-40.886899999999997
 30
0.0
 10
24.542300000000001
 20
-38.734999999999999
 30
0.0
 10
24.542300000000001
 20
-38.734999999999999
 30
0.0
 10
24.542300000000001
 20
-38.734999999999999
 30
0.0
 10
22.002300000000002
 20
-33.725499999999997
 30
0.0
 10
22.002300000000002
 20
-33.725499999999997
 30
0.0
 10
22.002300000000002
 20
-33.725499999999997
 30
0.0
 10
20.802800000000001
 20
-35.560000000000002
 30
0.0
 10
20.344200000000001
 20
-37.853000000000002
 30
0.0
 10
19.1447
 20
-39.758000000000003
 30
0.0
 10
19.1447
 20
-39.758000000000003
 30
0.0
 10
19.603400000000001
 20
-37.147500000000001
 30
0.0
 10
20.450099999999999
 20
-34.642699999999998
 30
0.0
 10
21.332000000000001
 20
-32.208599999999997
 30
0.0
 10
21.332000000000001
 20
-32.208599999999997
 30
0.0
 10
20.732199999999999
 20
-31.0091
 30
0.0
 10
20.1326
 20
-29.7744
 30
0.0
 10
19.568100000000001
 20
-28.574999999999999
 30
0.0
 10
19.568100000000001
 20
-28.574999999999999
 30
0.0
 10
18.333400000000001
 20
-31.2561
 30
0.0
 10
17.239799999999999
 20
-33.972499999999997
 30
0.0
 10
15.8992
 20
-36.618299999999998
 30
0.0
 10
15.8992
 20
-36.618299999999998
 30
0.0
 10
16.534199999999998
 20
-33.831299999999999
 30
0.0
 10
17.592600000000001
 20
-30.374099999999999
 30
0.0
 10
18.968399999999999
 20
-27.481300000000001
 30
0.0
 10
18.968399999999999
 20
-27.481300000000001
 30
0.0
 10
18.4039
 20
-26.105499999999999
 30
0.0
 10
17.733599999999999
 20
-24.765000000000001
 30
0.0
 10
16.9223
 20
-23.495000000000001
 30
0.0
 10
16.9223
 20
-23.495000000000001
 30
0.0
 10
15.0526
 20
-26.493600000000001
 30
0.0
 10
13.535600000000001
 20
-29.7744
 30
0.0
 10
11.771699999999999
 20
-32.878799999999998
 30
0.0
 10
11.771699999999999
 20
-32.878799999999998
 30
0.0
 10
12.759499999999999
 20
-29.245200000000001
 30
0.0
 10
14.4176
 20
-25.5411
 30
0.0
 10
16.005099999999999
 20
-21.978000000000002
 30
0.0
 10
16.005099999999999
 20
-21.978000000000002
 30
0.0
 10
15.2995
 20
-20.214099999999998
 30
0.0
 10
12.9351
 20
-16.933299999999999
 30
0.0
 10
12.9351
 20
-16.933299999999999
 30
0.0
 10
12.9351
 20
-16.933299999999999
 30
0.0
 10
10.994899999999999
 20
-19.9907
 30
0.0
 10
8.9847999999999999
 20
-24.729700000000001
 30
0.0
 10
6.9386999999999999
 20
-28.469100000000001
 30
0.0
 10
6.9386999999999999
 20
-28.469100000000001
 30
0.0
 10
8.1380999999999997
 20
-24.0594
 30
0.0
 10
9.7608999999999995
 20
-19.8261
 30
0.0
 10
11.9481
 20
-15.7691
 30
0.0
 10
11.9481
 20
-15.7691
 30
0.0
 10
11.383599999999999
 20
-14.4991
 30
0.0
 10
10.3606
 20
-13.229100000000001
 30
0.0
 10
9.5492000000000008
 20
-11.959099999999999
 30
0.0
 10
9.5492000000000008
 20
-11.959099999999999
 30
0.0
 10
7.8912000000000004
 20
-15.24
 30
0.0
 10
6.6211000000000002
 20
-18.8383
 30
0.0
 10
4.6456
 20
-22.0486
 30
0.0
 10
4.6456
 20
-22.0486
 30
0.0
 10
5.2453000000000003
 20
-18.0975
 30
0.0
 10
7.3266999999999998
 20
-14.7461
 30
0.0
 10
8.9847999999999999
 20
-11.218299999999999
 30
0.0
 10
8.9847999999999999
 20
-11.218299999999999
 30
0.0
 10
8.5261999999999993
 20
-9.9835999999999991
 30
0.0
 10
7.1730999999999998
 20
-8.8781999999999996
 30
0.0
 10
6.4088000000000003
 20
-8.4665999999999997
 30
0.0
 10
6.4088000000000003
 20
-8.4665999999999997
 30
0.0
 10
2.9514999999999998
 20
-11.959099999999999
 30
0.0
 10
1.0472999999999999
 20
-15.557499999999999
 30
0.0
 10
-0.4343
 20
-19.8613
 30
0.0
 10
-0.4343
 20
-19.8613
 30
0.0
 10
-0.0462
 20
-15.24
 30
0.0
 10
2.8111999999999999
 20
-10.9361
 30
0.0
 10
5.7392000000000003
 20
-7.0555000000000003
 30
0.0
  0
SPLINE
  5
68
100
AcDbEntity
  8
RÚteg 1
100
AcDbSpline
210
0.0
220
0.0
230
1.0
 70
     1
 71
     3
 72
    40
 73
    36
 74
     0
 42
0.0000000001
 43
0.0000000001
 40
0.0
 40
0.0
 40
0.0
 40
0.0
 40
0.1111111111111111
 40
0.1111111111111111
 40
0.1111111111111111
 40
0.1111111111111111
 40
0.2222222222222222
 40
0.2222222222222222
 40
0.2222222222222222
 40
0.2222222222222222
 40
0.3333333333333333
 40
0.3333333333333333
 40
0.3333333333333333
 40
0.3333333333333333
 40
0.4444444444444444
 40
0.4444444444444444
 40
0.4444444444444444
 40
0.4444444444444444
 40
0.5555555555555556
 40
0.5555555555555556
 40
0.5555555555555556
 40
0.5555555555555556
 40
0.6666666666666667
 40
0.6666666666666667
 40
0.6666666666666667
 40
0.6666666666666667
 40
0.7777777777777779
 40
0.7777777777777779
 40
0.7777777777777779
 40
0.7777777777777779
 40
0.8888888888888891
 40
0.8888888888888891
 40
0.8888888888888891
 40
0.8888888888888891
 40
1.0
 40
1.0
 40
1.0
 40
1.0
 10
-0.0815
 20
20.461099999999998
 30
0.0
 10
-1.9159999999999999
 20
23.706600000000002
 30
0.0
 10
-2.3393000000000002
 20
28.0458
 30
0.0
 10
-0.7518
 20
31.5383
 30
0.0
 10
-0.7518
 20
31.5383
 30
0.0
 10
-3.2212000000000001
 20
22.3308
 30
0.0
 10
5.1395
 20
15.557499999999999
 30
0.0
 10
11.771699999999999
 20
10.618600000000001
 30
0.0
 10
11.771699999999999
 20
10.618600000000001
 30
0.0
 10
11.771699999999999
 20
10.618600000000001
 30
0.0
 10
13.3592
 20
9.7719000000000005
 30
0.0
 10
13.3592
 20
9.7719000000000005
 30
0.0
 10
13.3592
 20
9.7719000000000005
 30
0.0
 10
10.700900000000001
 20
17.873999999999999
 30
0.0
 10
11.5953
 20
23.6008
 30
0.0
 10
11.5953
 20
23.6008
 30
0.0
 10
11.5953
 20
23.6008
 30
0.0
 10
11.7004
 20
26.164300000000001
 30
0.0
 10
13.4643
 20
27.9282
 30
0.0
 10
13.2887
 20
31.7852
 30
0.0
 10
13.2887
 20
31.7852
 30
0.0
 10
13.962899999999999
 20
31.140499999999999
 30
0.0
 10
13.640700000000001
 20
31.456
 30
0.0
 10
13.7826
 20
30.444700000000001
 30
0.0
 10
13.7826
 20
30.444700000000001
 30
0.0
 10
11.8423
 20
23.248000000000001
 30
0.0
 10
12.2296
 20
14.875400000000001
 30
0.0
 10
14.8056
 20
7.5846999999999998
 30
0.0
 10
14.8056
 20
7.5846999999999998
 30
0.0
 10
14.875400000000001
 20
7.0555000000000003
 30
0.0
 10
14.876200000000001
 20
6.8086000000000002
 30
0.0
 10
14.9114
 20
6.3852000000000002
 30
0.0
 10
14.9114
 20
6.3852000000000002
 30
0.0
 10
14.9114
 20
6.3852000000000002
 30
0.0
 10
3.8694999999999999
 20
14.7461
 30
0.0
 10
-0.0815
 20
20.461099999999998
 30
0.0
  0
SPLINE
  5
69
100
AcDbEntity
  8
RÚteg 1
100
AcDbSpline
210
0.0
220
0.0
230
1.0
 70
     1
 71
     3
 72
    28
 73
    24
 74
     0
 42
0.0000000001
 43
0.0000000001
 40
0.0
 40
0.0
 40
0.0
 40
0.0
 40
0.1666666666666667
 40
0.1666666666666667
 40
0.1666666666666667
 40
0.1666666666666667
 40
0.3333333333333333
 40
0.3333333333333333
 40
0.3333333333333333
 40
0.3333333333333333
 40
0.5
 40
0.5
 40
0.5
 40
0.5
 40
0.6666666666666666
 40
0.6666666666666666
 40
0.6666666666666666
 40
0.6666666666666666
 40
0.8333333333333333
 40
0.8333333333333333
 40
0.8333333333333333
 40
0.8333333333333333
 40
1.0
 40
1.0
 40
1.0
 40
1.0
 10
34.031999999999996
 20
9.4543999999999997
 30
0.0
 10
29.269500000000001
 20
17.6036
 30
0.0
 10
24.3306
 20
25.788
 30
0.0
 10
16.851700000000001
 20
32.737699999999997
 30
0.0
 10
16.851700000000001
 20
32.737699999999997
 30
0.0
 10
15.4046
 20
34.631
 30
0.0
 10
16.075600000000001
 20
36.089100000000002
 30
0.0
 10
16.075600000000001
 20
36.300800000000002
 30
0.0
 10
16.075600000000001
 20
36.300800000000002
 30
0.0
 10
18.756
 20
31.0444
 30
0.0
 10
24.576799999999999
 20
26.987500000000001
 30
0.0
 10
28.528700000000001
 20
21.484100000000002
 30
0.0
 10
28.528700000000001
 20
21.484100000000002
 30
0.0
 10
32.220300000000002
 20
15.8161
 30
0.0
 10
33.631399999999999
 20
11.112500000000001
 30
0.0
 10
37.065899999999999
 20
5.8913000000000002
 30
0.0
 10
37.065899999999999
 20
5.8913000000000002
 30
0.0
 10
38.371099999999998
 20
2.8222
 30
0.0
 10
39.817599999999999
 20
-0.1763
 30
0.0
 10
40.134999999999998
 20
-3.6688000000000001
 30
0.0
 10
40.134999999999998
 20
-3.6688000000000001
 30
0.0
 10
38.335900000000002
 20
0.8113
 30
0.0
 10
36.325099999999999
 20
5.1858000000000004
 30
0.0
 10
34.031999999999996
 20
9.4543999999999997
 30
0.0
  0
SPLINE
  5
6A
100
AcDbEntity
  8
RÚteg 1
100
AcDbSpline
210
0.0
220
0.0
230
1.0
 70
     1
 71
     3
 72
    44
 73
    40
 74
     0
 42
0.0000000001
 43
0.0000000001
 40
0.0
 40
0.0
 40
0.0
 40
0.0
 40
0.1
 40
0.1
 40
0.1
 40
0.1
 40
0.2
 40
0.2
 40
0.2
 40
0.2
 40
0.3
 40
0.3
 40
0.3
 40
0.3
 40
0.4
 40
0.4
 40
0.4
 40
0.4
 40
0.5
 40
0.5
 40
0.5
 40
0.5
 40
0.6
 40
0.6
 40
0.6
 40
0.6
 40
0.7
 40
0.7
 40
0.7
 40
0.7
 40
0.7999999999999999
 40
0.7999999999999999
 40
0.7999999999999999
 40
0.7999999999999999
 40
0.8999999999999999
 40
0.8999999999999999
 40
0.8999999999999999
 40
0.8999999999999999
 40
1.0
 40
1.0
 40
1.0
 40
1.0
 10
41.627699999999997
 20
24.165199999999999
 30
0.0
 10
40.922199999999997
 20
25.9879
 30
0.0
 10
38.100000000000001
 20
25.341100000000001
 30
0.0
 10
37.065899999999999
 20
27.904699999999998
 30
0.0
 10
37.065899999999999
 20
27.904699999999998
 30
0.0
 10
37.171700000000001
 20
29.5627
 30
0.0
 10
36.148699999999998
 20
30.797499999999999
 30
0.0
 10
34.878700000000002
 20
31.891100000000002
 30
0.0
 10
34.878700000000002
 20
31.891100000000002
 30
0.0
 10
35.160899999999998
 20
33.302199999999999
 30
0.0
 10
35.548900000000003
 20
35.101300000000002
 30
0.0
 10
34.2789
 20
36.195
 30
0.0
 10
34.2789
 20
36.195
 30
0.0
 10
31.8095
 20
38.241100000000003
 30
0.0
 10
28.3523
 20
38.417499999999997
 30
0.0
 10
25.494700000000002
 20
39.511099999999999
 30
0.0
 10
25.494700000000002
 20
39.511099999999999
 30
0.0
 10
26.941199999999998
 20
40.2166
 30
0.0
 10
28.281700000000001
 20
39.616900000000001
 30
0.0
 10
29.869199999999999
 20
39.405200000000001
 30
0.0
 10
29.869199999999999
 20
39.405200000000001
 30
0.0
 10
32.268099999999997
 20
38.840800000000002
 30
0.0
 10
34.631700000000002
 20
38.135199999999998
 30
0.0
 10
36.501399999999997
 20
36.300800000000002
 30
0.0
 10
36.501399999999997
 20
36.300800000000002
 30
0.0
 10
37.524500000000003
 20
34.854399999999998
 30
0.0
 10
36.395600000000002
 20
33.2316
 30
0.0
 10
36.148699999999998
 20
31.7852
 30
0.0
 10
36.148699999999998
 20
31.7852
 30
0.0
 10
37.524500000000003
 20
30.973800000000001
 30
0.0
 10
38.088900000000002
 20
29.386299999999999
 30
0.0
 10
38.194699999999997
 20
27.975200000000001
 30
0.0
 10
38.194699999999997
 20
27.975200000000001
 30
0.0
 10
38.194699999999997
 20
27.975200000000001
 30
0.0
 10
39.981400000000001
 20
26.6935
 30
0.0
 10
41.0398
 20
25.9879
 30
0.0
 10
41.0398
 20
25.9879
 30
0.0
 10
41.7453
 20
25.282399999999999
 30
0.0
 10
41.627699999999997
 20
24.165199999999999
 30
0.0
 10
41.627699999999997
 20
24.165199999999999
 30
0.0
  0
SPLINE
  5
6B
100
AcDbEntity
  8
RÚteg 1
100
AcDbSpline
210
0.0
220
0.0
230
1.0
 70
     1
 71
     3
 72
    32
 73
    28
 74
     0
 42
0.0000000001
 43
0.0000000001
 40
0.0
 40
0.0
 40
0.0
 40
0.0
 40
0.1428571428571429
 40
0.1428571428571429
 40
0.1428571428571429
 40
0.1428571428571429
 40
0.2857142857142857
 40
0.2857142857142857
 40
0.2857142857142857
 40
0.2857142857142857
 40
0.4285714285714286
 40
0.4285714285714286
 40
0.4285714285714286
 40
0.4285714285714286
 40
0.5714285714285714
 40
0.5714285714285714
 40
0.5714285714285714
 40
0.5714285714285714
 40
0.7142857142857142
 40
0.7142857142857142
 40
0.7142857142857142
 40
0.7142857142857142
 40
0.857142857142857
 40
0.857142857142857
 40
0.857142857142857
 40
0.857142857142857
 40
1.0
 40
1.0
 40
1.0
 40
1.0
 10
62.465899999999998
 20
31.220800000000001
 30
0.0
 10
56.5745
 20
34.854399999999998
 30
0.0
 10
51.847299999999997
 20
41.239699999999999
 30
0.0
 10
44.368400000000001
 20
41.027999999999999
 30
0.0
 10
44.368400000000001
 20
41.027999999999999
 30
0.0
 10
39.288400000000003
 20
41.310200000000002
 30
0.0
 10
33.890900000000002
 20
39.652200000000001
 30
0.0
 10
29.022500000000001
 20
41.451300000000003
 30
0.0
 10
29.022500000000001
 20
41.451300000000003
 30
0.0
 10
29.022500000000001
 20
41.451300000000003
 30
0.0
 10
24.718699999999998
 20
43.1447
 30
0.0
 10
24.718699999999998
 20
43.1447
 30
0.0
 10
24.718699999999998
 20
43.1447
 30
0.0
 10
30.0809
 20
41.486600000000003
 30
0.0
 10
36.113399999999999
 20
42.721299999999999
 30
0.0
 10
41.722499999999997
 20
42.721299999999999
 30
0.0
 10
41.722499999999997
 20
42.721299999999999
 30
0.0
 10
43.592300000000002
 20
43.109400000000001
 30
0.0
 10
45.462000000000003
 20
42.474400000000003
 30
0.0
 10
47.155299999999997
 20
41.9452
 30
0.0
 10
47.155299999999997
 20
41.9452
 30
0.0
 10
55.445599999999999
 20
40.393000000000001
 30
0.0
 10
60.913699999999999
 20
32.102699999999999
 30
0.0
 10
68.392600000000002
 20
28.680800000000001
 30
0.0
 10
68.392600000000002
 20
28.680800000000001
 30
0.0
 10
66.0642
 20
28.645499999999998
 30
0.0
 10
64.406199999999998
 20
30.233000000000001
 30
0.0
 10
62.465899999999998
 20
31.220800000000001
 30
0.0
  0
ENDSEC
  0
SECTION
  2
OBJECTS
  0
DICTIONARY
  5
19
100
AcDbDictionary
280
     0
281
     1
  3
ACAD_GROUP
350
1A
  3
ACAD_MLINESTYLE
350
1B
  3
ACAD_LAYOUT
350
1E
  3
ACAD_PLOTSETTINGS
350
22
  3
ACAD_PLOTSTYLENAME
350
1F
  3
ACAD_WIPEOUT_VARS
350
23
  0
DICTIONARY
  5
1A
102
{ACAD_REACTORS
330
19
102
}
100
AcDbDictionary
280
     0
281
     1
  0
DICTIONARY
  5
1B
102
{ACAD_REACTORS
330
19
102
}
100
AcDbDictionary
280
     0
281
     1
  3
Standard
350
1C
  0
MLINESTYLE
  5
1C
102
{ACAD_REACTORS
330
1B
102
}
100
AcDbMlineStyle
  2
Standard
 70
     0
  3

 62
     0
 51
90.0
 52
90.0
 71
     2
 49
0.5
 62
   256
  6
BYLAYER
 49
-0.5
 62
   256
  6
BYLAYER
  0
ACDBDICTIONARYWDFLT
  5
1F
102
{ACAD_REACTORS
330
19
102
}
100
AcDbDictionary
281
     1
  3
Normal
350
1D
100
AcDbDictionaryWithDefault
340
1D
  0
ACDBPLACEHOLDER
  5
1D
102
{ACAD_REACTORS
330
1F
102
}
  0
LAYOUT
  5
20
102
{ACAD_REACTORS
330
1E
102
}
100
AcDbPlotSettings
  1

  2

  4

  6

 40
0.0
 41
0.0
 42
0.0
 43
0.0
 44
0.0
 45
0.0
 46
0.0
 47
0.0
 48
0.0
 49
0.0
140
0.0
141
0.0
142
1.0
143
1.0
 70
  1024
 72
     0
 73
     0
 74
     0
  7

 75
     0
147
1.0
148
0.0
149
0.0
100
AcDbLayout
  1
Model
 70
     0
 71
     0
 10
0.0
 20
0.0
 11
0.0
 21
0.0
 12
0.0
 22
0.0
 32
0.0
 14
0.0
 24
0.0
 34
0.0
 15
0.0
 25
0.0
 35
0.0
146
0.0
 13
0.0
 23
0.0
 33
0.0
 16
0.0
 26
0.0
 36
0.0
 17
0.0
 27
0.0
 37
0.0
 76
     0
330
A
331
0
345
0
346
0
  0
LAYOUT
  5
21
102
{ACAD_REACTORS
330
1E
102
}
100
AcDbPlotSettings
  1

  2

  4

  6

 40
0.0
 41
0.0
 42
0.0
 43
0.0
 44
0.0
 45
0.0
 46
0.0
 47
0.0
 48
0.0
 49
0.0
140
0.0
141
0.0
142
1.0
143
1.0
 70
     0
 72
     0
 73
     0
 74
     0
  7

 75
     0
147
1.0
148
0.0
149
0.0
100
AcDbLayout
  1
Layout1
 70
     0
 71
     0
 10
0.0
 20
0.0
 11
0.0
 21
0.0
 12
0.0
 22
0.0
 32
0.0
 14
0.0
 24
0.0
 34
0.0
 15
0.0
 25
0.0
 35
0.0
146
0.0
 13
0.0
 23
0.0
 33
0.0
 16
0.0
 26
0.0
 36
0.0
 17
0.0
 27
0.0
 37
0.0
 76
     0
330
B
331
0
345
0
346
0
  0
DICTIONARY
  5
1E
102
{ACAD_REACTORS
330
19
102
}
100
AcDbDictionary
280
     0
281
     1
  3
Layout1
350
21
  3
Model
350
20
  0
DICTIONARY
  5
22
102
{ACAD_REACTORS
330
19
102
}
100
AcDbDictionary
280
     0
281
     1
  0
WIPEOUTVARIABLES
  5
23
100
AcDbWipeoutVariables
 70
     1
  0
ENDSEC
  0
EOF
