  0
SECTION
  2
HEADER
  9
$ACADVER
  1
AC1015
  9
$ACADMAINTVER
 70
     6
  9
$DWGCODEPAGE
  3
DOS850
  9
$INSBASE
 10
0.0
 20
0.0
 30
0.0
  9
$EXTMIN
 10
-64.6849
 20
-100.9231
 30
1.000000E+20
  9
$EXTMAX
 10
64.9827
 20
101.0785
 30
-1.000000E+20
  9
$LIMMIN
 10
0.0
 20
0.0
  9
$LIMMAX
 10
0.0
 20
0.0
  9
$ORTHOMODE
 70
     0
  9
$REGENMODE
 70
     1
  9
$FILLMODE
 70
     1
  9
$QTEXTMODE
 70
     0
  9
$MIRRTEXT
 70
     1
  9
$LTSCALE
 40
1.0
  9
$ATTMODE
 70
     1
  9
$TEXTSIZE
 40
0.2
  9
$TRACEWID
 40
0.05
  9
$TEXTSTYLE
  7
Standard
  9
$CLAYER
  8
0
  9
$CELTYPE
  6
Continuous
  9
$CECOLOR
 62
   256
  9
$CELTSCALE
 40
1.0
  9
$DISPSILH
 70
     0
  9
$DIMSCALE
 40
1.0
  9
$DIMASZ
 40
0.18
  9
$DIMEXO
 40
0.0625
  9
$DIMDLI
 40
0.38
  9
$DIMRND
 40
0.0
  9
$DIMDLE
 40
0.0
  9
$DIMEXE
 40
0.18
  9
$DIMTP
 40
0.0
  9
$DIMTM
 40
0.0
  9
$DIMTXT
 40
0.18
  9
$DIMCEN
 40
0.09
  9
$DIMTSZ
 40
0.0
  9
$DIMTOL
 70
     0
  9
$DIMLIM
 70
     0
  9
$DIMTIH
 70
     1
  9
$DIMTOH
 70
     1
  9
$DIMSE1
 70
     0
  9
$DIMSE2
 70
     0
  9
$DIMTAD
 70
     0
  9
$DIMZIN
 70
     0
  9
$DIMBLK
  1

  9
$DIMASO
 70
     1
  9
$DIMSHO
 70
     1
  9
$DIMPOST
  1

  9
$DIMAPOST
  1

  9
$DIMALT
 70
     0
  9
$DIMALTD
 70
     2
  9
$DIMALTF
 40
25.4
  9
$DIMLFAC
 40
1.0
  9
$DIMTOFL
 70
     0
  9
$DIMTVP
 40
0.0
  9
$DIMTIX
 70
     0
  9
$DIMSOXD
 70
     0
  9
$DIMSAH
 70
     0
  9
$DIMBLK1
  1

  9
$DIMBLK2
  1

  9
$DIMSTYLE
  2
Standard
  9
$DIMCLRD
 70
     0
  9
$DIMCLRE
 70
     0
  9
$DIMCLRT
 70
     0
  9
$DIMTFAC
 40
1.0
  9
$DIMGAP
 40
0.09
  9
$DIMJUST
 70
     0
  9
$DIMSD1
 70
     0
  9
$DIMSD2
 70
     0
  9
$DIMTOLJ
 70
     1
  9
$DIMTZIN
 70
     0
  9
$DIMALTZ
 70
     0
  9
$DIMALTTZ
 70
     0
  9
$DIMUPT
 70
     0
  9
$DIMDEC
 70
     4
  9
$DIMTDEC
 70
     4
  9
$DIMALTU
 70
     2
  9
$DIMALTTD
 70
     2
  9
$DIMTXSTY
  7
Standard
  9
$DIMAUNIT
 70
     0
  9
$DIMADEC
 70
     0
  9
$DIMALTRND
 40
0.0
  9
$DIMAZIN
 70
     0
  9
$DIMDSEP
 70
     0
  9
$DIMATFIT
 70
     3
  9
$DIMFRAC
 70
     0
  9
$DIMLDRBLK
  1

  9
$DIMLUNIT
 70
     2
  9
$DIMLWD
 70
     0
  9
$DIMLWE
 70
     0
  9
$DIMTMOVE
 70
     0
  9
$LUNITS
 70
     2
  9
$LUPREC
 70
     4
  9
$SKETCHINC
 40
0.1
  9
$FILLETRAD
 40
0.0
  9
$AUNITS
 70
     0
  9
$AUPREC
 70
     0
  9
$MENU
  1
acad
  9
$ELEVATION
 40
0.0
  9
$PELEVATION
 40
0.0
  9
$THICKNESS
 40
0.0
  9
$LIMCHECK
 70
     0
  9
$CHAMFERA
 40
0.0
  9
$CHAMFERB
 40
0.0
  9
$CHAMFERC
 40
0.0
  9
$CHAMFERD
 40
0.0
  9
$SKPOLY
 70
     0
  9
$TDCREATE
 40
0.000000000
  9
$TDUCREATE
 40
0.000000000
  9
$TDUPDATE
 40
0.000000000
  9
$TDUUPDATE
 40
0.000000000
  9
$TDINDWG
 40
0.0000000000
  9
$TDUSRTIMER
 40
0.0000000000
  9
$USRTIMER
 70
     1
  9
$ANGBASE
 50
0.0
  9
$ANGDIR
 70
     0
  9
$PDMODE
 70
     0
  9
$PDSIZE
 40
0.0
  9
$PLINEWID
 40
0.0
  9
$SPLFRAME
 70
     0
  9
$SPLINETYPE
 70
     6
  9
$SPLINESEGS
 70
     8
  9
$HANDSEED
  5
4C
  9
$SURFTAB1
 70
     6
  9
$SURFTAB2
 70
     6
  9
$SURFTYPE
 70
     6
  9
$SURFU
 70
     6
  9
$SURFV
 70
     6
  9
$UCSBASE
  2

  9
$UCSNAME
  2

  9
$UCSORG
 10
0.0
 20
0.0
 30
0.0
  9
$UCSXDIR
 10
1.0
 20
0.0
 30
0.0
  9
$UCSYDIR
 10
0.0
 20
1.0
 30
0.0
  9
$UCSORTHOREF
  2

  9
$UCSORTHOVIEW
 70
     0
  9
$UCSORGTOP
 10
0.0
 20
0.0
 30
0.0
  9
$UCSORGBOTTOM
 10
0.0
 20
0.0
 30
0.0
  9
$UCSORGLEFT
 10
0.0
 20
0.0
 30
0.0
  9
$UCSORGRIGHT
 10
0.0
 20
0.0
 30
0.0
  9
$UCSORGFRONT
 10
0.0
 20
0.0
 30
0.0
  9
$UCSORGBACK
 10
0.0
 20
0.0
 30
0.0
  9
$PUCSBASE
  2

  9
$PUCSNAME
  2

  9
$PUCSORG
 10
0.0
 20
0.0
 30
0.0
  9
$PUCSXDIR
 10
1.0
 20
0.0
 30
0.0
  9
$PUCSYDIR
 10
0.0
 20
1.0
 30
0.0
  9
$PUCSORTHOREF
  2

  9
$PUCSORTHOVIEW
 70
     0
  9
$PUCSORGTOP
 10
0.0
 20
0.0
 30
0.0
  9
$PUCSORGBOTTOM
 10
0.0
 20
0.0
 30
0.0
  9
$PUCSORGLEFT
 10
0.0
 20
0.0
 30
0.0
  9
$PUCSORGRIGHT
 10
0.0
 20
0.0
 30
0.0
  9
$PUCSORGFRONT
 10
0.0
 20
0.0
 30
0.0
  9
$PUCSORGBACK
 10
0.0
 20
0.0
 30
0.0
  9
$USERI1
 70
     0
  9
$USERI2
 70
     0
  9
$USERI3
 70
     0
  9
$USERI4
 70
     0
  9
$USERI5
 70
     0
  9
$USERR1
 40
0.0
  9
$USERR2
 40
0.0
  9
$USERR3
 40
0.0
  9
$USERR4
 40
0.0
  9
$USERR5
 40
0.0
  9
$WORLDVIEW
 70
     1
  9
$SHADEDGE
 70
     3
  9
$SHADEDIF
 70
    70
  9
$TILEMODE
 70
     1
  9
$MAXACTVP
 70
    16
  9
$PINSBASE
 10
0.0
 20
0.0
 30
0.0
  9
$PLIMCHECK
 70
     0
  9
$PEXTMIN
 10
1.000000E+20
 20
1.000000E+20
 30
1.000000E+20
  9
$PEXTMAX
 10
-1.000000E+20
 20
-1.000000E+20
 30
-1.000000E+20
  9
$PLIMMIN
 10
0.0
 20
0.0
  9
$PLIMMAX
 10
12.0
 20
9.0
  9
$UNITMODE
 70
     0
  9
$VISRETAIN
 70
     0
  9
$PLINEGEN
 70
     1
  9
$PSLTSCALE
 70
     0
  9
$TREEDEPTH
 70
  3020
  9
$CMLSTYLE
  2
Standard
  9
$CMLJUST
 70
     0
  9
$CMLSCALE
 40
1.0
  9
$PROXYGRAPHICS
 70
     0
  9
$MEASUREMENT
 70
     0
  9
$CELWEIGHT
370
     0
  9
$ENDCAPS
280
     0
  9
$JOINSTYLE
280
     0
  9
$LWDISPLAY
290
     0
  9
$INSUNITS
 70
     4
  9
$HYPERLINKBASE
  1

  9
$XEDIT
290
     1
  9
$CEPSNTYPE
380
     0
  9
$PSTYLEMODE
290
     1
  9
$FINGERPRINTGUID
  2

  9
$VERSIONGUID
  2

  9
$EXTNAMES
290
     1
  9
$PSVPSCALE
 40
0.0
  0
ENDSEC
  0
SECTION
  2
CLASSES
  0
CLASS
  1
LWPOLYLINE
  2
AcDbPolyline
  3
AutoCAD 2000
 90
    32768
280
     0
281
     1
  0
CLASS
  1
IMAGE
  2
AcDbRasterImage
  3
ISM
 90
    32895
280
     0
281
     1
  0
CLASS
  1
OLE2FRAME
  2
AcDbOle2Frame
  3
AutoCAD 2000
 90
    32768
280
     0
281
     1
  0
CLASS
  1
HATCH
  2
AcDbHatch
  3
AutoCAD 2000
 90
    32768
280
     0
281
     1
  0
CLASS
  1
DICTIONARYVAR
  2
AcDbDictionaryVar
  3
AutoCAD 2000
 90
    32768
280
     0
281
     0
  0
CLASS
  1
RASTERVARIABLES
  2
AcDbRasterVariables
  3
ISM
 90
    32768
280
     0
281
     0
  0
CLASS
  1
IMAGEDEF
  2
AcDbRasterImageDef
  3
ISM
 90
    32768
280
     0
281
     0
  0
CLASS
  1
IMAGEDEF_REACTOR
  2
AcDbRasterImageDefReactor
  3
ISM
 90
    32769
280
     0
281
     0
  0
CLASS
  1
IDBUFFER
  2
AcDbIdBuffer
  3
AutoCAD 2000
 90
    32768
280
     0
281
     0
  0
CLASS
  1
SPATIAL_FILTER
  2
AcDbSpatialFilter
  3
AutoCAD 2000
 90
    32768
280
     0
281
     0
  0
CLASS
  1
XRECORD
  2
AcDbXrecord
  3
AutoCAD 2000
 90
    32768
280
     0
281
     0
  0
CLASS
  1
SORTENTSTABLE
  2
AcDbSortentsTable
  3
AutoCAD 2000
 90
    32768
280
     0
281
     0
  0
CLASS
  1
LAYER_INDEX
  2
AcDbLayerIndex
  3
AutoCAD 2000
 90
    32768
280
     0
281
     0
  0
CLASS
  1
SPATIAL_INDEX
  2
AcDbSpatialIndex
  3
AutoCAD 2000
 90
    32768
280
     0
281
     0
  0
CLASS
  1
OBJECT_PTR
  2
CAseDLPNTableRecord
  3
"ASE-LPNTableRecord"
 90
    32769
280
     0
281
     0
  0
CLASS
  1
LAYOUT
  2
AcDbLayout
  3
AutoCAD 2000
 90
        0
280
     0
281
     0
  0
CLASS
  1
PLOTSETTINGS
  2
AcDbPlotSettings
  3
AutoCAD 2000
 90
    32768
280
     0
281
     0
  0
CLASS
  1
ACDBDICTIONARYWDFLT
  2
AcDbDictionaryWithDefault
  3
AutoCAD 2000
 90
        0
280
     0
281
     0
  0
CLASS
  1
ACDBPLACEHOLDER
  2
AcDbPlaceHolder
  3
AutoCAD 2000
 90
        0
280
     0
281
     0
  0
CLASS
  1
VBA_PROJECT
  2
AcDbVbaProject
  3
acadvba
 90
    32768
280
     0
281
     0
  0
CLASS
  1
WIPEOUT
  2
AcDbWipeout
  3
WipeOut|AutoCAD Express Tool|expresstools@autodesk.com
 90
    32895
280
     0
281
     1
  0
CLASS
  1
WIPEOUTVARIABLES
  2
AcDbWipeoutVariables
  3
WipeOut|AutoCAD Express Tool|expresstools@autodesk.com
 90
        0
280
     0
281
     0
  0
CLASS
  1
RTEXT
  2
RText
  3
RText|AutoCAD Express Tool|expresstools@autodesk.com
 90
    32768
280
     0
281
     1
  0
CLASS
  1
ARCALIGNEDTEXT
  2
AcDbArcAlignedText
  3
ATEXT|AutoCAD Express Tool|expresstools@autodesk.com
 90
    32768
280
     0
281
     1
  0
ENDSEC
  0
SECTION
  2
TABLES
  0
TABLE
  2
VPORT
  5
7
100
AcDbSymbolTable
 70
     1
  0
VPORT
  5
15
100
AcDbSymbolTableRecord
100
AcDbViewportTableRecord
  2
*ACTIVE
 70
     0
 10
0.0
 20
0.0
 11
1.0
 21
1.0
 12
6.591288
 22
4.579184
 13
0.0
 23
0.0
 14
1.0
 24
1.0
 15
0.0
 25
0.0
 16
0.0
 26
0.0
 36
1.0
 17
0.0
 27
0.0
 37
0.0
 40
9.158369
 41
0.688564
 42
50.0
 43
0.0
 44
0.0
 50
0.0
 51
0.0
 71
     0
 72
   100
 73
     1
 74
     1
 75
     0
 76
     0
 77
     0
 78
     0
281
     0
 65
     0
110
0.0
120
0.0
130
0.0
111
1.0
121
0.0
131
0.0
112
0.0
122
1.0
132
0.0
345
0
346
0
 79
     0
146
0.0
  0
ENDTAB
  0
TABLE
  2
LTYPE
  5
4
100
AcDbSymbolTable
 70
     3
  0
LTYPE
  5
11
100
AcDbSymbolTableRecord
100
AcDbLinetypeTableRecord
  2
ByBlock
 70
    64
  3

 72
    65
 73
     0
 40
0.0
  0
LTYPE
  5
12
100
AcDbSymbolTableRecord
100
AcDbLinetypeTableRecord
  2
ByLayer
 70
    64
  3

 72
    65
 73
     0
 40
0.0
  0
LTYPE
  5
13
100
AcDbSymbolTableRecord
100
AcDbLinetypeTableRecord
  2
Continuous
 70
    64
  3
Solid line
 72
    65
 73
     0
 40
0.0
  0
ENDTAB
  0
TABLE
  2
LAYER
  5
2
100
AcDbSymbolTable
 70
     2
  0
LAYER
  5
14
100
AcDbSymbolTableRecord
100
AcDbLayerTableRecord
  2
0
 70
     0
 62
     7
  6
Continuous
290
     1
370
    -3
390
1D
  0
LAYER
  5
24
100
AcDbSymbolTableRecord
100
AcDbLayerTableRecord
  2
RÚteg 1
 70
     0
 62
     7
  6
Continuous
290
     1
370
    -3
390
1F
  0
ENDTAB
  0
TABLE
  2
STYLE
  5
3
100
AcDbSymbolTable
 70
     1
  0
STYLE
  5
17
100
AcDbSymbolTableRecord
100
AcDbTextStyleTableRecord
  2
Standard
 70
     0
 40
0.0
 41
1.0
 50
0.0
 71
     0
 42
0.0
  3
txt
  4

  0
ENDTAB
  0
TABLE
  2
VIEW
  5
5
100
AcDbSymbolTable
 70
     0
  0
ENDTAB
  0
TABLE
  2
UCS
  5
6
100
AcDbSymbolTable
 70
     0
  0
ENDTAB
  0
TABLE
  2
APPID
  5
8
100
AcDbSymbolTable
 70
     1
  0
APPID
  5
16
100
AcDbSymbolTableRecord
100
AcDbRegAppTableRecord
  2
ACAD
 70
     0
  0
ENDTAB
  0
TABLE
  2
DIMSTYLE
  5
9
100
AcDbSymbolTable
 70
     1
100
AcDbDimStyleTable
 71
     0
  0
DIMSTYLE
105
18
100
AcDbSymbolTableRecord
100
AcDbDimStyleTableRecord
  2
Standard
 70
     0
  3

  4

 40
1.0
 41
0.18
 42
0.0625
 43
0.38
 44
0.18
 45
0.0
 46
0.0
 47
0.0
 48
0.0
 71
     0
 72
     0
 73
     1
 74
     1
 75
     0
 76
     0
 77
     0
 78
     0
 79
     0
140
0.18
141
0.09
142
0.0
143
25.4
144
1.0
145
0.0
146
1.0
147
0.09
148
0.0
170
     0
171
     2
172
     0
173
     0
174
     0
175
     0
176
     0
177
     0
178
     0
179
     0
271
     4
272
     4
273
     2
274
     2
275
     0
276
     0
277
     2
278
    46
279
     0
280
     0
281
     0
282
     0
283
     1
284
     0
285
     0
286
     0
288
     0
340
17
341
0
342
0
343
0
344
0
371
    -2
372
    -2
  0
ENDTAB
  0
TABLE
  2
BLOCK_RECORD
  5
1
100
AcDbSymbolTable
 70
     0
  0
BLOCK_RECORD
  5
A
100
AcDbSymbolTableRecord
100
AcDbBlockTableRecord
  2
*MODEL_SPACE
340
20
  0
BLOCK_RECORD
  5
B
100
AcDbSymbolTableRecord
100
AcDbBlockTableRecord
  2
*PAPER_SPACE
340
21
  0
ENDTAB
  0
ENDSEC
  0
SECTION
  2
BLOCKS
  0
BLOCK
  5
D
100
AcDbEntity
  8
0
100
AcDbBlockBegin
  2
*MODEL_SPACE
 70
     0
 10
0.0
 20
0.0
 30
0.0
  3
*MODEL_SPACE
  1

  0
ENDBLK
  5
E
100
AcDbEntity
  8
0
100
AcDbBlockEnd
  0
BLOCK
  5
F
100
AcDbEntity
 67
     1
  8
0
100
AcDbBlockBegin
  2
*PAPER_SPACE
 70
     0
 10
0.0
 20
0.0
 30
0.0
  3
*PAPER_SPACE
  1

  0
ENDBLK
  5
10
100
AcDbEntity
 67
     1
  8
0
100
AcDbBlockEnd
  0
ENDSEC
  0
SECTION
  2
ENTITIES
  0
SPLINE
  5
25
100
AcDbEntity
  8
RÚteg 1
100
AcDbSpline
210
0.0
220
0.0
230
1.0
 70
     1
 71
     3
 72
   320
 73
   316
 74
     0
 42
0.0000000001
 43
0.0000000001
 40
0.0
 40
0.0
 40
0.0
 40
0.0
 40
0.0126582278481013
 40
0.0126582278481013
 40
0.0126582278481013
 40
0.0126582278481013
 40
0.0253164556962025
 40
0.0253164556962025
 40
0.0253164556962025
 40
0.0253164556962025
 40
0.0379746835443038
 40
0.0379746835443038
 40
0.0379746835443038
 40
0.0379746835443038
 40
0.0506329113924051
 40
0.0506329113924051
 40
0.0506329113924051
 40
0.0506329113924051
 40
0.0632911392405063
 40
0.0632911392405063
 40
0.0632911392405063
 40
0.0632911392405063
 40
0.0759493670886076
 40
0.0759493670886076
 40
0.0759493670886076
 40
0.0759493670886076
 40
0.0886075949367089
 40
0.0886075949367089
 40
0.0886075949367089
 40
0.0886075949367089
 40
0.1012658227848101
 40
0.1012658227848101
 40
0.1012658227848101
 40
0.1012658227848101
 40
0.1139240506329114
 40
0.1139240506329114
 40
0.1139240506329114
 40
0.1139240506329114
 40
0.1265822784810127
 40
0.1265822784810127
 40
0.1265822784810127
 40
0.1265822784810127
 40
0.1392405063291139
 40
0.1392405063291139
 40
0.1392405063291139
 40
0.1392405063291139
 40
0.1518987341772152
 40
0.1518987341772152
 40
0.1518987341772152
 40
0.1518987341772152
 40
0.1645569620253165
 40
0.1645569620253165
 40
0.1645569620253165
 40
0.1645569620253165
 40
0.1772151898734178
 40
0.1772151898734178
 40
0.1772151898734178
 40
0.1772151898734178
 40
0.1898734177215191
 40
0.1898734177215191
 40
0.1898734177215191
 40
0.1898734177215191
 40
0.2025316455696203
 40
0.2025316455696203
 40
0.2025316455696203
 40
0.2025316455696203
 40
0.2151898734177216
 40
0.2151898734177216
 40
0.2151898734177216
 40
0.2151898734177216
 40
0.2278481012658229
 40
0.2278481012658229
 40
0.2278481012658229
 40
0.2278481012658229
 40
0.2405063291139242
 40
0.2405063291139242
 40
0.2405063291139242
 40
0.2405063291139242
 40
0.2531645569620254
 40
0.2531645569620254
 40
0.2531645569620254
 40
0.2531645569620254
 40
0.2658227848101267
 40
0.2658227848101267
 40
0.2658227848101267
 40
0.2658227848101267
 40
0.278481012658228
 40
0.278481012658228
 40
0.278481012658228
 40
0.278481012658228
 40
0.2911392405063293
 40
0.2911392405063293
 40
0.2911392405063293
 40
0.2911392405063293
 40
0.3037974683544306
 40
0.3037974683544306
 40
0.3037974683544306
 40
0.3037974683544306
 40
0.3164556962025318
 40
0.3164556962025318
 40
0.3164556962025318
 40
0.3164556962025318
 40
0.3291139240506331
 40
0.3291139240506331
 40
0.3291139240506331
 40
0.3291139240506331
 40
0.3417721518987344
 40
0.3417721518987344
 40
0.3417721518987344
 40
0.3417721518987344
 40
0.3544303797468357
 40
0.3544303797468357
 40
0.3544303797468357
 40
0.3544303797468357
 40
0.3670886075949369
 40
0.3670886075949369
 40
0.3670886075949369
 40
0.3670886075949369
 40
0.3797468354430382
 40
0.3797468354430382
 40
0.3797468354430382
 40
0.3797468354430382
 40
0.3924050632911395
 40
0.3924050632911395
 40
0.3924050632911395
 40
0.3924050632911395
 40
0.4050632911392408
 40
0.4050632911392408
 40
0.4050632911392408
 40
0.4050632911392408
 40
0.4177215189873421
 40
0.4177215189873421
 40
0.4177215189873421
 40
0.4177215189873421
 40
0.4303797468354433
 40
0.4303797468354433
 40
0.4303797468354433
 40
0.4303797468354433
 40
0.4430379746835446
 40
0.4430379746835446
 40
0.4430379746835446
 40
0.4430379746835446
 40
0.4556962025316459
 40
0.4556962025316459
 40
0.4556962025316459
 40
0.4556962025316459
 40
0.4683544303797472
 40
0.4683544303797472
 40
0.4683544303797472
 40
0.4683544303797472
 40
0.4810126582278484
 40
0.4810126582278484
 40
0.4810126582278484
 40
0.4810126582278484
 40
0.4936708860759497
 40
0.4936708860759497
 40
0.4936708860759497
 40
0.4936708860759497
 40
0.506329113924051
 40
0.506329113924051
 40
0.506329113924051
 40
0.506329113924051
 40
0.5189873417721522
 40
0.5189873417721522
 40
0.5189873417721522
 40
0.5189873417721522
 40
0.5316455696202534
 40
0.5316455696202534
 40
0.5316455696202534
 40
0.5316455696202534
 40
0.5443037974683547
 40
0.5443037974683547
 40
0.5443037974683547
 40
0.5443037974683547
 40
0.5569620253164559
 40
0.5569620253164559
 40
0.5569620253164559
 40
0.5569620253164559
 40
0.5696202531645571
 40
0.5696202531645571
 40
0.5696202531645571
 40
0.5696202531645571
 40
0.5822784810126583
 40
0.5822784810126583
 40
0.5822784810126583
 40
0.5822784810126583
 40
0.5949367088607596
 40
0.5949367088607596
 40
0.5949367088607596
 40
0.5949367088607596
 40
0.6075949367088608
 40
0.6075949367088608
 40
0.6075949367088608
 40
0.6075949367088608
 40
0.620253164556962
 40
0.620253164556962
 40
0.620253164556962
 40
0.620253164556962
 40
0.6329113924050632
 40
0.6329113924050632
 40
0.6329113924050632
 40
0.6329113924050632
 40
0.6455696202531644
 40
0.6455696202531644
 40
0.6455696202531644
 40
0.6455696202531644
 40
0.6582278481012657
 40
0.6582278481012657
 40
0.6582278481012657
 40
0.6582278481012657
 40
0.6708860759493669
 40
0.6708860759493669
 40
0.6708860759493669
 40
0.6708860759493669
 40
0.6835443037974681
 40
0.6835443037974681
 40
0.6835443037974681
 40
0.6835443037974681
 40
0.6962025316455693
 40
0.6962025316455693
 40
0.6962025316455693
 40
0.6962025316455693
 40
0.7088607594936706
 40
0.7088607594936706
 40
0.7088607594936706
 40
0.7088607594936706
 40
0.7215189873417718
 40
0.7215189873417718
 40
0.7215189873417718
 40
0.7215189873417718
 40
0.734177215189873
 40
0.734177215189873
 40
0.734177215189873
 40
0.734177215189873
 40
0.7468354430379742
 40
0.7468354430379742
 40
0.7468354430379742
 40
0.7468354430379742
 40
0.7594936708860754
 40
0.7594936708860754
 40
0.7594936708860754
 40
0.7594936708860754
 40
0.7721518987341767
 40
0.7721518987341767
 40
0.7721518987341767
 40
0.7721518987341767
 40
0.7848101265822779
 40
0.7848101265822779
 40
0.7848101265822779
 40
0.7848101265822779
 40
0.7974683544303791
 40
0.7974683544303791
 40
0.7974683544303791
 40
0.7974683544303791
 40
0.8101265822784803
 40
0.8101265822784803
 40
0.8101265822784803
 40
0.8101265822784803
 40
0.8227848101265816
 40
0.8227848101265816
 40
0.8227848101265816
 40
0.8227848101265816
 40
0.8354430379746828
 40
0.8354430379746828
 40
0.8354430379746828
 40
0.8354430379746828
 40
0.848101265822784
 40
0.848101265822784
 40
0.848101265822784
 40
0.848101265822784
 40
0.8607594936708852
 40
0.8607594936708852
 40
0.8607594936708852
 40
0.8607594936708852
 40
0.8734177215189865
 40
0.8734177215189865
 40
0.8734177215189865
 40
0.8734177215189865
 40
0.8860759493670877
 40
0.8860759493670877
 40
0.8860759493670877
 40
0.8860759493670877
 40
0.8987341772151889
 40
0.8987341772151889
 40
0.8987341772151889
 40
0.8987341772151889
 40
0.9113924050632901
 40
0.9113924050632901
 40
0.9113924050632901
 40
0.9113924050632901
 40
0.9240506329113913
 40
0.9240506329113913
 40
0.9240506329113913
 40
0.9240506329113913
 40
0.9367088607594926
 40
0.9367088607594926
 40
0.9367088607594926
 40
0.9367088607594926
 40
0.9493670886075938
 40
0.9493670886075938
 40
0.9493670886075938
 40
0.9493670886075938
 40
0.962025316455695
 40
0.962025316455695
 40
0.962025316455695
 40
0.962025316455695
 40
0.9746835443037962
 40
0.9746835443037962
 40
0.9746835443037962
 40
0.9746835443037962
 40
0.9873417721518975
 40
0.9873417721518975
 40
0.9873417721518975
 40
0.9873417721518975
 40
1.0
 40
1.0
 40
1.0
 40
1.0
 10
64.887900000000002
 20
86.215299999999999
 30
0.0
 10
64.887900000000002
 20
86.215299999999999
 30
0.0
 10
44.507100000000001
 20
72.190899999999999
 30
0.0
 10
44.507100000000001
 20
72.190899999999999
 30
0.0
 10
44.507100000000001
 20
72.190899999999999
 30
0.0
 10
36.6877
 20
66.338999999999999
 30
0.0
 10
27.607099999999999
 20
63.564399999999999
 30
0.0
 10
19.485099999999999
 20
58.519599999999997
 30
0.0
 10
19.485099999999999
 20
58.519599999999997
 30
0.0
 10
19.485099999999999
 20
58.519599999999997
 30
0.0
 10
19.081499999999998
 20
58.872700000000002
 30
0.0
 10
19.081499999999998
 20
58.872700000000002
 30
0.0
 10
19.081499999999998
 20
58.872700000000002
 30
0.0
 10
18.526599999999998
 20
61.596899999999998
 30
0.0
 10
15.953799999999999
 20
64.220200000000006
 30
0.0
 10
13.279999999999999
 20
65.027299999999997
 30
0.0
 10
13.279999999999999
 20
65.027299999999997
 30
0.0
 10
11.7666
 20
65.582300000000004
 30
0.0
 10
9.6478000000000002
 20
64.876000000000005
 30
0.0
 10
8.5884
 20
66.137200000000007
 30
0.0
 10
8.5884
 20
66.137200000000007
 30
0.0
 10
9.3451000000000004
 20
67.600099999999998
 30
0.0
 10
10.101800000000001
 20
69.063100000000006
 30
0.0
 10
10.5054
 20
70.727900000000005
 30
0.0
 10
10.5054
 20
70.727900000000005
 30
0.0
 10
10.5054
 20
70.727900000000005
 30
0.0
 10
9.3956
 20
69.265000000000001
 30
0.0
 10
9.3956
 20
69.265000000000001
 30
0.0
 10
9.3956
 20
69.265000000000001
 30
0.0
 10
7.0244999999999997
 20
66.389399999999995
 30
0.0
 10
2.8374000000000001
 20
67.196600000000004
 30
0.0
 10
0.5673
 20
63.9679
 30
0.0
 10
0.5673
 20
63.9679
 30
0.0
 10
-0.1582
 20
65.683199999999999
 30
0.0
 10
-1.2513000000000001
 20
68.541899999999998
 30
0.0
 10
-1.2486999999999999
 20
70.021699999999996
 30
0.0
 10
-1.2486999999999999
 20
70.021699999999996
 30
0.0
 10
0.0123
 20
71.434200000000004
 30
0.0
 10
1.1726000000000001
 20
72.897199999999998
 30
0.0
 10
1.778
 20
74.612399999999994
 30
0.0
 10
1.778
 20
74.612399999999994
 30
0.0
 10
3.7454000000000001
 20
74.561999999999998
 30
0.0
 10
5.6624999999999996
 20
74.309700000000007
 30
0.0
 10
7.4786000000000001
 20
73.855699999999999
 30
0.0
 10
7.4786000000000001
 20
73.855699999999999
 30
0.0
 10
7.4786000000000001
 20
73.855699999999999
 30
0.0
 10
7.7308000000000003
 20
78.950900000000004
 30
0.0
 10
7.7308000000000003
 20
78.950900000000004
 30
0.0
 10
7.7308000000000003
 20
78.950900000000004
 30
0.0
 10
7.7308000000000003
 20
78.950900000000004
 30
0.0
 10
11.444599999999999
 20
80.481200000000001
 30
0.0
 10
12.4535
 20
81.153800000000004
 30
0.0
 10
12.4535
 20
81.153800000000004
 30
0.0
 10
9.8470999999999993
 20
81.994600000000005
 30
0.0
 10
6.0156000000000001
 20
85.004599999999996
 30
0.0
 10
6.0156000000000001
 20
85.004599999999996
 30
0.0
 10
6.0156000000000001
 20
85.004599999999996
 30
0.0
 10
4.4012000000000002
 20
87.526899999999998
 30
0.0
 10
2.4842
 20
90.654700000000005
 30
0.0
 10
-0.6434
 20
91.4114
 30
0.0
 10
-0.6434
 20
91.4114
 30
0.0
 10
-1.7028000000000001
 20
92.622100000000003
 30
0.0
 10
-0.5929
 20
94.236500000000007
 30
0.0
 10
-1.0973999999999999
 20
95.649000000000001
 30
0.0
 10
-1.0973999999999999
 20
95.649000000000001
 30
0.0
 10
-2.7622
 20
94.841899999999995
 30
0.0
 10
-2.2071999999999998
 20
91.915899999999993
 30
0.0
 10
-4.3765000000000001
 20
91.209699999999998
 30
0.0
 10
-4.3765000000000001
 20
91.209699999999998
 30
0.0
 10
-6.4448999999999996
 20
90.4529
 30
0.0
 10
-7.8574000000000002
 20
91.915899999999993
 30
0.0
 10
-9.5725999999999996
 20
92.269000000000005
 30
0.0
 10
-9.5725999999999996
 20
92.269000000000005
 30
0.0
 10
-11.237399999999999
 20
92.874399999999994
 30
0.0
 10
-12.4986
 20
91.562799999999996
 30
0.0
 10
-13.457100000000001
 20
90.352000000000004
 30
0.0
 10
-13.457100000000001
 20
90.352000000000004
 30
0.0
 10
-13.8102
 20
89.746700000000004
 30
0.0
 10
-13.7598
 20
88.788200000000003
 30
0.0
 10
-14.4156
 20
88.535899999999998
 30
0.0
 10
-14.4156
 20
88.535899999999998
 30
0.0
 10
-14.4156
 20
88.535899999999998
 30
0.0
 10
-21.68
 20
93.732100000000003
 30
0.0
 10
-21.68
 20
93.732100000000003
 30
0.0
 10
-21.68
 20
93.732100000000003
 30
0.0
 10
-22.890799999999999
 20
95.901300000000006
 30
0.0
 10
-23.849299999999999
 20
98.120999999999995
 30
0.0
 10
-24.101500000000001
 20
100.6434
 30
0.0
 10
-24.101500000000001
 20
100.6434
 30
0.0
 10
-24.706900000000001
 20
98.675899999999999
 30
0.0
 10
-25.4636
 20
96.658000000000001
 30
0.0
 10
-25.312200000000001
 20
94.589699999999993
 30
0.0
 10
-25.312200000000001
 20
94.589699999999993
 30
0.0
 10
-27.784199999999998
 20
94.993200000000002
 30
0.0
 10
-30.104800000000001
 20
95.749899999999997
 30
0.0
 10
-32.728000000000002
 20
95.800399999999996
 30
0.0
 10
-32.728000000000002
 20
95.800399999999996
 30
0.0
 10
-36.864800000000002
 20
95.194999999999993
 30
0.0
 10
-39.538499999999999
 20
98.827200000000005
 30
0.0
 10
-42.666200000000003
 20
100.9965
 30
0.0
 10
-42.666200000000003
 20
100.9965
 30
0.0
 10
-42.262700000000002
 20
98.827200000000005
 30
0.0
 10
-40.295200000000001
 20
97.162499999999994
 30
0.0
 10
-39.235799999999998
 20
95.447299999999998
 30
0.0
 10
-39.235799999999998
 20
95.447299999999998
 30
0.0
 10
-41.960000000000001
 20
95.245500000000007
 30
0.0
 10
-44.7346
 20
94.841899999999995
 30
0.0
 10
-47.357900000000001
 20
94.841899999999995
 30
0.0
 10
-47.357900000000001
 20
94.841899999999995
 30
0.0
 10
-49.476599999999998
 20
95.346400000000003
 30
0.0
 10
-50.838700000000003
 20
97.717399999999998
 30
0.0
 10
-52.200800000000001
 20
99.281199999999998
 30
0.0
 10
-52.200800000000001
 20
99.281199999999998
 30
0.0
 10
-52.4026
 20
99.281199999999998
 30
0.0
 10
-52.806199999999997
 20
99.382099999999994
 30
0.0
 10
-52.806199999999997
 20
99.180400000000006
 30
0.0
 10
-52.806199999999997
 20
99.180400000000006
 30
0.0
 10
-52.755800000000001
 20
97.465100000000007
 30
0.0
 10
-51.191899999999997
 20
96.607500000000002
 30
0.0
 10
-50.1325
 20
95.447299999999998
 30
0.0
 10
-50.1325
 20
95.447299999999998
 30
0.0
 10
-49.628
 20
94.892300000000006
 30
0.0
 10
-49.022599999999997
 20
94.236500000000007
 30
0.0
 10
-48.467700000000001
 20
94.236500000000007
 30
0.0
 10
-48.467700000000001
 20
94.236500000000007
 30
0.0
 10
-48.820799999999998
 20
93.530299999999997
 30
0.0
 10
-49.728900000000003
 20
93.0762
 30
0.0
 10
-49.930700000000002
 20
92.269000000000005
 30
0.0
 10
-49.930700000000002
 20
92.269000000000005
 30
0.0
 10
-49.930700000000002
 20
92.269000000000005
 30
0.0
 10
-47.256999999999998
 20
93.1267
 30
0.0
 10
-47.256999999999998
 20
93.1267
 30
0.0
 10
-47.256999999999998
 20
93.1267
 30
0.0
 10
-45.592199999999998
 20
93.328400000000002
 30
0.0
 10
-43.877000000000002
 20
94.690600000000003
 30
0.0
 10
-42.262700000000002
 20
93.479799999999997
 30
0.0
 10
-42.262700000000002
 20
93.479799999999997
 30
0.0
 10
-44.381500000000003
 20
92.117699999999999
 30
0.0
 10
-46.903799999999997
 20
91.4619
 30
0.0
 10
-48.568600000000004
 20
89.393500000000003
 30
0.0
 10
-48.568600000000004
 20
89.393500000000003
 30
0.0
 10
-49.022599999999997
 20
87.274699999999996
 30
0.0
 10
-51.847700000000003
 20
87.526899999999998
 30
0.0
 10
-53.159300000000002
 20
85.862200000000001
 30
0.0
 10
-53.159300000000002
 20
85.862200000000001
 30
0.0
 10
-53.966500000000003
 20
84.096500000000006
 30
0.0
 10
-53.310699999999997
 20
82.078599999999994
 30
0.0
 10
-52.806199999999997
 20
80.413799999999995
 30
0.0
 10
-52.806199999999997
 20
80.413799999999995
 30
0.0
 10
-51.999000000000002
 20
77.941900000000004
 30
0.0
 10
-49.375799999999998
 20
78.648200000000003
 30
0.0
 10
-47.610100000000003
 20
78.345500000000001
 30
0.0
 10
-47.610100000000003
 20
78.345500000000001
 30
0.0
 10
-46.197600000000001
 20
79.203100000000006
 30
0.0
 10
-45.188600000000001
 20
80.766999999999996
 30
0.0
 10
-44.482300000000002
 20
81.977699999999999
 30
0.0
 10
-44.482300000000002
 20
81.977699999999999
 30
0.0
 10
-43.7761
 20
80.313000000000002
 30
0.0
 10
-43.977899999999998
 20
78.244600000000005
 30
0.0
 10
-42.414000000000001
 20
76.882499999999993
 30
0.0
 10
-42.414000000000001
 20
76.882499999999993
 30
0.0
 10
-41.253700000000002
 20
76.024900000000002
 30
0.0
 10
-39.740299999999998
 20
76.075400000000002
 30
0.0
 10
-38.277299999999997
 20
75.924000000000007
 30
0.0
 10
-38.277299999999997
 20
75.924000000000007
 30
0.0
 10
-34.292000000000002
 20
76.4285
 30
0.0
 10
-35.502699999999997
 20
81.473299999999995
 30
0.0
 10
-33.182099999999998
 20
83.339799999999997
 30
0.0
 10
-33.182099999999998
 20
83.339799999999997
 30
0.0
 10
-32.929900000000004
 20
79.707599999999999
 30
0.0
 10
-34.090200000000003
 20
76.4285
 30
0.0
 10
-34.544199999999996
 20
73.401600000000002
 30
0.0
 10
-34.544199999999996
 20
73.401600000000002
 30
0.0
 10
-34.544199999999996
 20
73.401600000000002
 30
0.0
 10
-30.3066
 20
75.469999999999999
 30
0.0
 10
-30.3066
 20
75.469999999999999
 30
0.0
 10
-30.3066
 20
75.469999999999999
 30
0.0
 10
-30.3066
 20
75.469999999999999
 30
0.0
 10
-27.532
 20
71.837800000000001
 30
0.0
 10
-27.532
 20
71.837800000000001
 30
0.0
 10
-27.532
 20
71.837800000000001
 30
0.0
 10
-27.532
 20
71.837800000000001
 30
0.0
 10
-25.110499999999998
 20
75.570899999999995
 30
0.0
 10
-25.110499999999998
 20
75.570899999999995
 30
0.0
 10
-25.110499999999998
 20
75.570899999999995
 30
0.0
 10
-21.276499999999999
 20
74.511499999999998
 30
0.0
 10
-23.950199999999999
 20
70.828800000000001
 30
0.0
 10
-23.143000000000001
 20
68.306399999999996
 30
0.0
 10
-23.143000000000001
 20
68.306399999999996
 30
0.0
 10
-22.083600000000001
 20
65.077799999999996
 30
0.0
 10
-22.991700000000002
 20
61.798699999999997
 30
0.0
 10
-23.7484
 20
58.872700000000002
 30
0.0
 10
-23.7484
 20
58.872700000000002
 30
0.0
 10
-22.234999999999999
 20
59.478099999999998
 30
0.0
 10
-20.166599999999999
 20
59.7303
 30
0.0
 10
-19.258500000000002
 20
61.142899999999997
 30
0.0
 10
-19.258500000000002
 20
61.142899999999997
 30
0.0
 10
-19.258500000000002
 20
61.142899999999997
 30
0.0
 10
-15.525499999999999
 20
57.762900000000002
 30
0.0
 10
-15.525499999999999
 20
57.762900000000002
 30
0.0
 10
-15.525499999999999
 20
57.762900000000002
 30
0.0
 10
-14.768700000000001
 20
58.822299999999998
 30
0.0
 10
-14.163399999999999
 20
59.982599999999998
 30
0.0
 10
-13.356199999999999
 20
60.941099999999999
 30
0.0
 10
-13.356199999999999
 20
60.941099999999999
 30
0.0
 10
-13.356199999999999
 20
60.941099999999999
 30
0.0
 10
-10.934699999999999
 20
56.299900000000001
 30
0.0
 10
-10.934699999999999
 20
56.299900000000001
 30
0.0
 10
-10.934699999999999
 20
56.299900000000001
 30
0.0
 10
-10.934699999999999
 20
56.299900000000001
 30
0.0
 10
-13.204800000000001
 20
54.029800000000002
 30
0.0
 10
-13.204800000000001
 20
54.029800000000002
 30
0.0
 10
-13.204800000000001
 20
54.029800000000002
 30
0.0
 10
-13.204800000000001
 20
54.029800000000002
 30
0.0
 10
-17.3416
 20
52.0623
 30
0.0
 10
-17.3416
 20
52.0623
 30
0.0
 10
-17.3416
 20
52.0623
 30
0.0
 10
-22.588100000000001
 20
48.430100000000003
 30
0.0
 10
-18.098299999999998
 20
41.619599999999998
 30
0.0
 10
-22.083600000000001
 20
37.432499999999997
 30
0.0
 10
-22.083600000000001
 20
37.432499999999997
 30
0.0
 10
-22.083600000000001
 20
37.432499999999997
 30
0.0
 10
-15.777699999999999
 20
38.138800000000003
 30
0.0
 10
-15.777699999999999
 20
38.138800000000003
 30
0.0
 10
-15.777699999999999
 20
38.138800000000003
 30
0.0
 10
-15.777699999999999
 20
38.138800000000003
 30
0.0
 10
-11.9941
 20
34.657899999999998
 30
0.0
 10
-11.9941
 20
34.657899999999998
 30
0.0
 10
-11.9941
 20
34.657899999999998
 30
0.0
 10
-10.985200000000001
 20
35.767699999999998
 30
0.0
 10
-10.379799999999999
 20
37.0289
 30
0.0
 10
-9.4718
 20
38.138800000000003
 30
0.0
 10
-9.4718
 20
38.138800000000003
 30
0.0
 10
-6.7474999999999996
 20
38.340499999999999
 30
0.0
 10
-4.0233999999999996
 20
38.542400000000001
 30
0.0
 10
-1.7028000000000001
 20
39.853999999999999
 30
0.0
 10
-1.7028000000000001
 20
39.853999999999999
 30
0.0
 10
-1.5009999999999999
 20
37.432499999999997
 30
0.0
 10
-1.5009999999999999
 20
35.263300000000001
 30
0.0
 10
-2.2071999999999998
 20
33.094000000000001
 30
0.0
 10
-2.2071999999999998
 20
33.094000000000001
 30
0.0
 10
-4.7295999999999996
 20
35.263300000000001
 30
0.0
 10
-8.3619000000000003
 20
33.699399999999997
 30
0.0
 10
-10.934699999999999
 20
32.6905
 30
0.0
 10
-10.934699999999999
 20
32.6905
 30
0.0
 10
-12.095000000000001
 20
32.387799999999999
 30
0.0
 10
-12.3977
 20
30.823899999999998
 30
0.0
 10
-13.8102
 20
31.277899999999999
 30
0.0
 10
-13.8102
 20
31.277899999999999
 30
0.0
 10
-19.662099999999999
 20
31.479700000000001
 30
0.0
 10
-20.925799999999999
 20
24.988800000000001
 30
0.0
 10
-23.916499999999999
 20
21.524699999999999
 30
0.0
 10
-23.916499999999999
 20
21.524699999999999
 30
0.0
 10
-24.793500000000002
 20
20.700700000000001
 30
0.0
 10
-26.1387
 20
19.1873
 30
0.0
 10
-28.238199999999999
 20
20.229900000000001
 30
0.0
 10
-28.238199999999999
 20
20.229900000000001
 30
0.0
 10
-42.414000000000001
 20
34.153399999999998
 30
0.0
 10
-48.215499999999999
 20
51.860500000000002
 30
0.0
 10
-55.479900000000001
 20
68.659599999999998
 30
0.0
 10
-55.479900000000001
 20
68.659599999999998
 30
0.0
 10
-55.429499999999997
 20
63.715699999999998
 30
0.0
 10
-55.177199999999999
 20
58.771799999999999
 30
0.0
 10
-54.622300000000003
 20
54.029800000000002
 30
0.0
 10
-54.622300000000003
 20
54.029800000000002
 30
0.0
 10
-54.168300000000002
 20
51.053400000000003
 30
0.0
 10
-53.562899999999999
 20
48.076999999999998
 30
0.0
 10
-53.310699999999997
 20
45.2014
 30
0.0
 10
-53.310699999999997
 20
45.2014
 30
0.0
 10
-56.488799999999998
 20
36.5749
 30
0.0
 10
-60.020200000000003
 20
28.150200000000002
 30
0.0
 10
-62.845300000000002
 20
19.372199999999999
 30
0.0
 10
-62.845300000000002
 20
19.372199999999999
 30
0.0
 10
-64.156899999999993
 20
13.1168
 30
0.0
 10
-64.913600000000002
 20
6.4577
 30
0.0
 10
-64.560500000000005
 20
-0.3527
 30
0.0
 10
-64.560500000000005
 20
-0.3527
 30
0.0
 10
-63.7029
 20
-8.5251000000000001
 30
0.0
 10
-58.658099999999997
 20
-14.9824
 30
0.0
 10
-53.159300000000002
 20
-21.288399999999999
 30
0.0
 10
-53.159300000000002
 20
-21.288399999999999
 30
0.0
 10
-44.532800000000002
 20
-30.167200000000001
 30
0.0
 10
-30.407499999999999
 20
-31.882400000000001
 30
0.0
 10
-25.110499999999998
 20
-44.191600000000001
 30
0.0
 10
-25.110499999999998
 20
-44.191600000000001
 30
0.0
 10
-21.427800000000001
 20
-55.088200000000001
 30
0.0
 10
-18.4514
 20
-66.338099999999997
 30
0.0
 10
-14.0624
 20
-76.982500000000002
 30
0.0
 10
-14.0624
 20
-76.982500000000002
 30
0.0
 10
-10.0771
 20
-85.155000000000001
 30
0.0
 10
-6.4953000000000003
 20
-93.579800000000006
 30
0.0
 10
-0.492
 20
-100.8442
 30
0.0
 10
-0.492
 20
-100.8442
 30
0.0
 10
3.2410000000000001
 20
-88.333200000000005
 30
0.0
 10
6.6714000000000002
 20
-75.569999999999993
 30
0.0
 10
13.6332
 20
-64.522000000000006
 30
0.0
 10
13.6332
 20
-64.522000000000006
 30
0.0
 10
13.6332
 20
-64.522000000000006
 30
0.0
 10
27.9603
 20
-43.939399999999999
 30
0.0
 10
27.9603
 20
-43.939399999999999
 30
0.0
 10
27.9603
 20
-43.939399999999999
 30
0.0
 10
33.610399999999998
 20
-35.262300000000003
 30
0.0
 10
38.907400000000003
 20
-26.484500000000001
 30
0.0
 10
41.480200000000004
 20
-16.546299999999999
 30
0.0
 10
41.480200000000004
 20
-16.546299999999999
 30
0.0
 10
44.910699999999999
 20
-5.8513999999999999
 30
0.0
 10
41.833399999999997
 20
6.1045999999999996
 30
0.0
 10
40.8748
 20
16.950800000000001
 30
0.0
 10
40.8748
 20
16.950800000000001
 30
0.0
 10
38.100200000000001
 20
34.809199999999997
 30
0.0
 10
44.052999999999997
 20
51.154299999999999
 30
0.0
 10
52.528199999999998
 20
65.380499999999998
 30
0.0
 10
52.528199999999998
 20
65.380499999999998
 30
0.0
 10
56.311799999999998
 20
72.493600000000001
 30
0.0
 10
61.406999999999996
 20
79.253600000000006
 30
0.0
 10
64.887900000000002
 20
86.215299999999999
 30
0.0
  0
SPLINE
  5
26
100
AcDbEntity
  8
RÚteg 1
100
AcDbSpline
210
0.0
220
0.0
230
1.0
 70
     1
 71
     3
 72
    12
 73
     8
 74
     0
 42
0.0000000001
 43
0.0000000001
 40
0.0
 40
0.0
 40
0.0
 40
0.0
 40
0.5
 40
0.5
 40
0.5
 40
0.5
 40
1.0
 40
1.0
 40
1.0
 40
1.0
 10
6.3686999999999996
 20
64.321100000000001
 30
0.0
 10
3.7092999999999998
 20
62.067799999999998
 30
0.0
 10
2.3834
 20
58.116
 30
0.0
 10
2.3834
 20
58.116
 30
0.0
 10
2.3834
 20
58.116
 30
0.0
 10
1.6914
 20
61.479199999999999
 30
0.0
 10
2.5322
 20
66.439899999999994
 30
0.0
 10
6.3686999999999996
 20
64.321100000000001
 30
0.0
  0
SPLINE
  5
27
100
AcDbEntity
  8
RÚteg 1
100
AcDbSpline
210
0.0
220
0.0
230
1.0
 70
     1
 71
     3
 72
    36
 73
    32
 74
     0
 42
0.0000000001
 43
0.0000000001
 40
0.0
 40
0.0
 40
0.0
 40
0.0
 40
0.125
 40
0.125
 40
0.125
 40
0.125
 40
0.25
 40
0.25
 40
0.25
 40
0.25
 40
0.375
 40
0.375
 40
0.375
 40
0.375
 40
0.5
 40
0.5
 40
0.5
 40
0.5
 40
0.625
 40
0.625
 40
0.625
 40
0.625
 40
0.75
 40
0.75
 40
0.75
 40
0.75
 40
0.875
 40
0.875
 40
0.875
 40
0.875
 40
1.0
 40
1.0
 40
1.0
 40
1.0
 10
-2.3081
 20
89.242199999999997
 30
0.0
 10
3.5941000000000001
 20
89.7971
 30
0.0
 10
3.8462999999999998
 20
82.129099999999994
 30
0.0
 10
9.1937999999999995
 20
81.2714
 30
0.0
 10
9.1937999999999995
 20
81.2714
 30
0.0
 10
8.4370999999999992
 20
80.6661
 30
0.0
 10
7.0750000000000002
 20
80.968800000000002
 30
0.0
 10
6.1669
 20
80.514700000000005
 30
0.0
 10
6.1669
 20
80.514700000000005
 30
0.0
 10
6.3156999999999996
 20
79.135900000000007
 30
0.0
 10
6.7362000000000002
 20
77.370199999999997
 30
0.0
 10
6.6210000000000004
 20
75.570899999999995
 30
0.0
 10
6.6210000000000004
 20
75.570899999999995
 30
0.0
 10
6.6210000000000004
 20
75.570899999999995
 30
0.0
 10
3.2888999999999999
 20
75.688599999999994
 30
0.0
 10
1.1726000000000001
 20
76.781599999999997
 30
0.0
 10
1.1726000000000001
 20
76.781599999999997
 30
0.0
 10
0.5673
 20
75.873599999999996
 30
0.0
 10
0.4159
 20
74.612399999999994
 30
0.0
 10
-0.2903
 20
73.653899999999993
 30
0.0
 10
-0.2903
 20
73.653899999999993
 30
0.0
 10
-0.6938
 20
74.864699999999999
 30
0.0
 10
-1.3495999999999999
 20
76.176299999999998
 30
0.0
 10
-2.2071999999999998
 20
77.286100000000005
 30
0.0
 10
-2.2071999999999998
 20
77.286100000000005
 30
0.0
 10
-4.2755999999999998
 20
78.950900000000004
 30
0.0
 10
-7.2519999999999998
 20
80.615600000000001
 30
0.0
 10
-6.9493
 20
83.541600000000003
 30
0.0
 10
-6.9493
 20
83.541600000000003
 30
0.0
 10
-6.1421999999999999
 20
85.761300000000006
 30
0.0
 10
-4.8810000000000002
 20
88.535899999999998
 30
0.0
 10
-2.3081
 20
89.242199999999997
 30
0.0
  0
SPLINE
  5
28
100
AcDbEntity
  8
RÚteg 1
100
AcDbSpline
210
0.0
220
0.0
230
1.0
 70
     1
 71
     3
 72
    32
 73
    28
 74
     0
 42
0.0000000001
 43
0.0000000001
 40
0.0
 40
0.0
 40
0.0
 40
0.0
 40
0.1428571428571429
 40
0.1428571428571429
 40
0.1428571428571429
 40
0.1428571428571429
 40
0.2857142857142857
 40
0.2857142857142857
 40
0.2857142857142857
 40
0.2857142857142857
 40
0.4285714285714286
 40
0.4285714285714286
 40
0.4285714285714286
 40
0.4285714285714286
 40
0.5714285714285714
 40
0.5714285714285714
 40
0.5714285714285714
 40
0.5714285714285714
 40
0.7142857142857142
 40
0.7142857142857142
 40
0.7142857142857142
 40
0.7142857142857142
 40
0.857142857142857
 40
0.857142857142857
 40
0.857142857142857
 40
0.857142857142857
 40
1.0
 40
1.0
 40
1.0
 40
1.0
 10
-12.7508
 20
75.469999999999999
 30
0.0
 10
-11.4392
 20
75.419600000000003
 30
0.0
 10
-10.0771
 20
76.024900000000002
 30
0.0
 10
-8.8663000000000007
 20
75.469999999999999
 30
0.0
 10
-8.8663000000000007
 20
75.469999999999999
 30
0.0
 10
-8.8663000000000007
 20
75.469999999999999
 30
0.0
 10
-6.5457000000000001
 20
72.543999999999997
 30
0.0
 10
-6.5457000000000001
 20
72.543999999999997
 30
0.0
 10
-6.5457000000000001
 20
72.543999999999997
 30
0.0
 10
-4.0233999999999996
 20
66.641599999999997
 30
0.0
 10
-3.9729000000000001
 20
59.679900000000004
 30
0.0
 10
-2.9135
 20
53.172199999999997
 30
0.0
 10
-2.9135
 20
53.172199999999997
 30
0.0
 10
-6.2934999999999999
 20
53.828000000000003
 30
0.0
 10
-10.0771
 20
57.107100000000003
 30
0.0
 10
-10.934699999999999
 20
60.688800000000001
 30
0.0
 10
-10.934699999999999
 20
60.688800000000001
 30
0.0
 10
-10.934699999999999
 20
60.688800000000001
 30
0.0
 10
-7.6555999999999997
 20
61.8996
 30
0.0
 10
-7.6555999999999997
 20
61.8996
 30
0.0
 10
-7.6555999999999997
 20
61.8996
 30
0.0
 10
-8.7654999999999994
 20
63.867100000000001
 30
0.0
 10
-10.2285
 20
65.985799999999998
 30
0.0
 10
-10.5816
 20
68.407300000000006
 30
0.0
 10
-10.5816
 20
68.407300000000006
 30
0.0
 10
-10.379799999999999
 20
71.131500000000003
 30
0.0
 10
-11.641
 20
73.250299999999996
 30
0.0
 10
-12.7508
 20
75.469999999999999
 30
0.0
  0
SPLINE
  5
29
100
AcDbEntity
  8
RÚteg 1
100
AcDbSpline
210
0.0
220
0.0
230
1.0
 70
     1
 71
     3
 72
    12
 73
     8
 74
     0
 42
0.0000000001
 43
0.0000000001
 40
0.0
 40
0.0
 40
0.0
 40
0.0
 40
0.5
 40
0.5
 40
0.5
 40
0.5
 40
1.0
 40
1.0
 40
1.0
 40
1.0
 10
-1.8541000000000001
 20
70.458799999999997
 30
0.0
 10
-1.8541000000000001
 20
70.458799999999997
 30
0.0
 10
-6.4448999999999996
 20
78.849999999999994
 30
0.0
 10
-6.4448999999999996
 20
78.849999999999994
 30
0.0
 10
-6.4448999999999996
 20
78.849999999999994
 30
0.0
 10
-3.0144000000000002
 20
77.033900000000003
 30
0.0
 10
-1.5513999999999999
 20
73.889300000000006
 30
0.0
 10
-1.8541000000000001
 20
70.458799999999997
 30
0.0
  0
SPLINE
  5
2A
100
AcDbEntity
  8
RÚteg 1
100
AcDbSpline
210
0.0
220
0.0
230
1.0
 70
     1
 71
     3
 72
    16
 73
    12
 74
     0
 42
0.0000000001
 43
0.0000000001
 40
0.0
 40
0.0
 40
0.0
 40
0.0
 40
0.3333333333333333
 40
0.3333333333333333
 40
0.3333333333333333
 40
0.3333333333333333
 40
0.6666666666666666
 40
0.6666666666666666
 40
0.6666666666666666
 40
0.6666666666666666
 40
1.0
 40
1.0
 40
1.0
 40
1.0
 10
-11.035600000000001
 20
90.604299999999995
 30
0.0
 10
-9.1186000000000007
 20
91.260099999999994
 30
0.0
 10
-7.4034000000000004
 20
89.998900000000006
 30
0.0
 10
-5.8395000000000001
 20
88.989900000000006
 30
0.0
 10
-5.8395000000000001
 20
88.989900000000006
 30
0.0
 10
-7.3025000000000002
 20
87.022499999999994
 30
0.0
 10
-8.2105999999999995
 20
85.408199999999994
 30
0.0
 10
-8.9672999999999998
 20
83.188500000000005
 30
0.0
 10
-8.9672999999999998
 20
83.188500000000005
 30
0.0
 10
-10.2285
 20
83.541600000000003
 30
0.0
 10
-14.115399999999999
 20
86.955200000000005
 30
0.0
 10
-11.035600000000001
 20
90.604299999999995
 30
0.0
  0
SPLINE
  5
2B
100
AcDbEntity
  8
RÚteg 1
100
AcDbSpline
210
0.0
220
0.0
230
1.0
 70
     1
 71
     3
 72
    24
 73
    20
 74
     0
 42
0.0000000001
 43
0.0000000001
 40
0.0
 40
0.0
 40
0.0
 40
0.0
 40
0.2
 40
0.2
 40
0.2
 40
0.2
 40
0.4
 40
0.4
 40
0.4
 40
0.4
 40
0.6000000000000001
 40
0.6000000000000001
 40
0.6000000000000001
 40
0.6000000000000001
 40
0.8
 40
0.8
 40
0.8
 40
0.8
 40
1.0
 40
1.0
 40
1.0
 40
1.0
 10
-50.031599999999997
 20
79.556200000000004
 30
0.0
 10
-50.031599999999997
 20
79.556200000000004
 30
0.0
 10
-51.494599999999998
 20
81.120099999999994
 30
0.0
 10
-51.494599999999998
 20
81.120099999999994
 30
0.0
 10
-51.494599999999998
 20
81.120099999999994
 30
0.0
 10
-50.990099999999998
 20
82.028199999999998
 30
0.0
 10
-50.889200000000002
 20
83.238900000000001
 30
0.0
 10
-51.141399999999997
 20
84.298299999999998
 30
0.0
 10
-51.141399999999997
 20
84.298299999999998
 30
0.0
 10
-50.233400000000003
 20
83.8947
 30
0.0
 10
-49.1235
 20
82.835300000000004
 30
0.0
 10
-48.114600000000003
 20
82.129099999999994
 30
0.0
 10
-48.114600000000003
 20
82.129099999999994
 30
0.0
 10
-47.5092
 20
82.734499999999997
 30
0.0
 10
-47.307400000000001
 20
83.743399999999994
 30
0.0
 10
-46.903799999999997
 20
84.550600000000003
 30
0.0
 10
-46.903799999999997
 20
84.550600000000003
 30
0.0
 10
-46.298499999999997
 20
82.532700000000006
 30
0.0
 10
-46.822299999999998
 20
79.808499999999995
 30
0.0
 10
-50.031599999999997
 20
79.556200000000004
 30
0.0
  0
SPLINE
  5
2C
100
AcDbEntity
  8
RÚteg 1
100
AcDbSpline
210
0.0
220
0.0
230
1.0
 70
     1
 71
     3
 72
    20
 73
    16
 74
     0
 42
0.0000000001
 43
0.0000000001
 40
0.0
 40
0.0
 40
0.0
 40
0.0
 40
0.25
 40
0.25
 40
0.25
 40
0.25
 40
0.5
 40
0.5
 40
0.5
 40
0.5
 40
0.75
 40
0.75
 40
0.75
 40
0.75
 40
1.0
 40
1.0
 40
1.0
 40
1.0
 10
-47.242699999999999
 20
87.796000000000006
 30
0.0
 10
-44.299900000000001
 20
91.243300000000005
 30
0.0
 10
-40.850099999999998
 20
92.571700000000007
 30
0.0
 10
-37.2179
 20
93.479799999999997
 30
0.0
 10
-37.2179
 20
93.479799999999997
 30
0.0
 10
-38.479100000000003
 20
91.663600000000002
 30
0.0
 10
-40.396099999999997
 20
89.595299999999995
 30
0.0
 10
-41.203299999999999
 20
87.325199999999995
 30
0.0
 10
-41.203299999999999
 20
87.325199999999995
 30
0.0
 10
-42.281999999999996
 20
86.618899999999996
 30
0.0
 10
-43.170699999999997
 20
85.256799999999998
 30
0.0
 10
-44.482300000000002
 20
85.004599999999996
 30
0.0
 10
-44.482300000000002
 20
85.004599999999996
 30
0.0
 10
-45.3904
 20
86.063999999999993
 30
0.0
 10
-47.242699999999999
 20
87.796000000000006
 30
0.0
 10
-47.242699999999999
 20
87.796000000000006
 30
0.0
  0
SPLINE
  5
2D
100
AcDbEntity
  8
RÚteg 1
100
AcDbSpline
210
0.0
220
0.0
230
1.0
 70
     1
 71
     3
 72
    32
 73
    28
 74
     0
 42
0.0000000001
 43
0.0000000001
 40
0.0
 40
0.0
 40
0.0
 40
0.0
 40
0.1428571428571429
 40
0.1428571428571429
 40
0.1428571428571429
 40
0.1428571428571429
 40
0.2857142857142857
 40
0.2857142857142857
 40
0.2857142857142857
 40
0.2857142857142857
 40
0.4285714285714286
 40
0.4285714285714286
 40
0.4285714285714286
 40
0.4285714285714286
 40
0.5714285714285714
 40
0.5714285714285714
 40
0.5714285714285714
 40
0.5714285714285714
 40
0.7142857142857142
 40
0.7142857142857142
 40
0.7142857142857142
 40
0.7142857142857142
 40
0.857142857142857
 40
0.857142857142857
 40
0.857142857142857
 40
0.857142857142857
 40
1.0
 40
1.0
 40
1.0
 40
1.0
 10
-36.209000000000003
 20
79.909400000000005
 30
0.0
 10
-36.209000000000003
 20
79.909400000000005
 30
0.0
 10
-36.965699999999998
 20
77.639200000000002
 30
0.0
 10
-36.965699999999998
 20
77.639200000000002
 30
0.0
 10
-36.965699999999998
 20
77.639200000000002
 30
0.0
 10
-36.965699999999998
 20
77.639200000000002
 30
0.0
 10
-39.235799999999998
 20
76.680800000000005
 30
0.0
 10
-39.235799999999998
 20
76.680800000000005
 30
0.0
 10
-39.235799999999998
 20
76.680800000000005
 30
0.0
 10
-40.547499999999999
 20
77.134799999999998
 30
0.0
 10
-41.909500000000001
 20
78.0428
 30
0.0
 10
-42.666200000000003
 20
79.304000000000002
 30
0.0
 10
-42.666200000000003
 20
79.304000000000002
 30
0.0
 10
-42.968899999999998
 20
80.817400000000006
 30
0.0
 10
-43.877000000000002
 20
81.927300000000002
 30
0.0
 10
-42.666200000000003
 20
82.936199999999999
 30
0.0
 10
-42.666200000000003
 20
82.936199999999999
 30
0.0
 10
-41.657299999999999
 20
82.683999999999997
 30
0.0
 10
-41.253700000000002
 20
81.6751
 30
0.0
 10
-40.345700000000001
 20
81.120099999999994
 30
0.0
 10
-40.345700000000001
 20
81.120099999999994
 30
0.0
 10
-40.345700000000001
 20
81.120099999999994
 30
0.0
 10
-37.924199999999999
 20
83.339799999999997
 30
0.0
 10
-37.924199999999999
 20
83.339799999999997
 30
0.0
 10
-37.924199999999999
 20
83.339799999999997
 30
0.0
 10
-37.318800000000003
 20
82.3309
 30
0.0
 10
-35.553100000000001
 20
81.422799999999995
 30
0.0
 10
-36.209000000000003
 20
79.909400000000005
 30
0.0
  0
SPLINE
  5
2E
100
AcDbEntity
  8
RÚteg 1
100
AcDbSpline
210
0.0
220
0.0
230
1.0
 70
     1
 71
     3
 72
    24
 73
    20
 74
     0
 42
0.0000000001
 43
0.0000000001
 40
0.0
 40
0.0
 40
0.0
 40
0.0
 40
0.2
 40
0.2
 40
0.2
 40
0.2
 40
0.4
 40
0.4
 40
0.4
 40
0.4
 40
0.6000000000000001
 40
0.6000000000000001
 40
0.6000000000000001
 40
0.6000000000000001
 40
0.8
 40
0.8
 40
0.8
 40
0.8
 40
1.0
 40
1.0
 40
1.0
 40
1.0
 10
-34.796399999999998
 20
84.550600000000003
 30
0.0
 10
-36.007199999999997
 20
85.660399999999996
 30
0.0
 10
-37.2179
 20
86.871099999999998
 30
0.0
 10
-38.630400000000002
 20
87.577399999999997
 30
0.0
 10
-38.630400000000002
 20
87.577399999999997
 30
0.0
 10
-38.3782
 20
88.989900000000006
 30
0.0
 10
-36.915199999999999
 20
90.200699999999998
 30
0.0
 10
-35.855800000000002
 20
91.4114
 30
0.0
 10
-35.855800000000002
 20
91.4114
 30
0.0
 10
-32.223599999999998
 20
95.043700000000001
 30
0.0
 10
-27.632899999999999
 20
92.319500000000005
 30
0.0
 10
-23.647500000000001
 20
91.4114
 30
0.0
 10
-23.647500000000001
 20
91.4114
 30
0.0
 10
-25.160900000000002
 20
91.361000000000004
 30
0.0
 10
-26.775300000000001
 20
90.806100000000001
 30
0.0
 10
-27.885100000000001
 20
89.746700000000004
 30
0.0
 10
-27.885100000000001
 20
89.746700000000004
 30
0.0
 10
-27.885100000000001
 20
89.746700000000004
 30
0.0
 10
-34.796399999999998
 20
84.550600000000003
 30
0.0
 10
-34.796399999999998
 20
84.550600000000003
 30
0.0
  0
SPLINE
  5
2F
100
AcDbEntity
  8
RÚteg 1
100
AcDbSpline
210
0.0
220
0.0
230
1.0
 70
     1
 71
     3
 72
    32
 73
    28
 74
     0
 42
0.0000000001
 43
0.0000000001
 40
0.0
 40
0.0
 40
0.0
 40
0.0
 40
0.1428571428571429
 40
0.1428571428571429
 40
0.1428571428571429
 40
0.1428571428571429
 40
0.2857142857142857
 40
0.2857142857142857
 40
0.2857142857142857
 40
0.2857142857142857
 40
0.4285714285714286
 40
0.4285714285714286
 40
0.4285714285714286
 40
0.4285714285714286
 40
0.5714285714285714
 40
0.5714285714285714
 40
0.5714285714285714
 40
0.5714285714285714
 40
0.7142857142857142
 40
0.7142857142857142
 40
0.7142857142857142
 40
0.7142857142857142
 40
0.857142857142857
 40
0.857142857142857
 40
0.857142857142857
 40
0.857142857142857
 40
1.0
 40
1.0
 40
1.0
 40
1.0
 10
-26.068999999999999
 20
78.496899999999997
 30
0.0
 10
-26.825700000000001
 20
77.336600000000004
 30
0.0
 10
-26.977
 20
75.924000000000007
 30
0.0
 10
-27.632899999999999
 20
74.713300000000004
 30
0.0
 10
-27.632899999999999
 20
74.713300000000004
 30
0.0
 10
-28.5914
 20
75.167299999999997
 30
0.0
 10
-28.6922
 20
76.579899999999995
 30
0.0
 10
-29.449000000000002
 20
77.387
 30
0.0
 10
-29.449000000000002
 20
77.387
 30
0.0
 10
-29.449000000000002
 20
77.387
 30
0.0
 10
-32.4758
 20
76.075400000000002
 30
0.0
 10
-32.4758
 20
76.075400000000002
 30
0.0
 10
-32.4758
 20
76.075400000000002
 30
0.0
 10
-31.971299999999999
 20
78.648200000000003
 30
0.0
 10
-31.4358
 20
80.565200000000004
 30
0.0
 10
-32.122700000000002
 20
83.793800000000005
 30
0.0
 10
-32.122700000000002
 20
83.793800000000005
 30
0.0
 10
-31.267600000000002
 20
87.543800000000005
 30
0.0
 10
-26.306899999999999
 20
87.123400000000004
 30
0.0
 10
-25.211400000000001
 20
85.609899999999996
 30
0.0
 10
-25.211400000000001
 20
85.609899999999996
 30
0.0
 10
-22.487200000000001
 20
83.339799999999997
 30
0.0
 10
-24.454599999999999
 20
79.102199999999996
 30
0.0
 10
-22.689
 20
76.4285
 30
0.0
 10
-22.689
 20
76.4285
 30
0.0
 10
-24.036799999999999
 20
76.361199999999997
 30
0.0
 10
-24.9617
 20
77.706500000000005
 30
0.0
 10
-26.068999999999999
 20
78.496899999999997
 30
0.0
  0
SPLINE
  5
30
100
AcDbEntity
  8
RÚteg 1
100
AcDbSpline
210
0.0
220
0.0
230
1.0
 70
     1
 71
     3
 72
    36
 73
    32
 74
     0
 42
0.0000000001
 43
0.0000000001
 40
0.0
 40
0.0
 40
0.0
 40
0.0
 40
0.125
 40
0.125
 40
0.125
 40
0.125
 40
0.25
 40
0.25
 40
0.25
 40
0.25
 40
0.375
 40
0.375
 40
0.375
 40
0.375
 40
0.5
 40
0.5
 40
0.5
 40
0.5
 40
0.625
 40
0.625
 40
0.625
 40
0.625
 40
0.75
 40
0.75
 40
0.75
 40
0.75
 40
0.875
 40
0.875
 40
0.875
 40
0.875
 40
1.0
 40
1.0
 40
1.0
 40
1.0
 10
-26.775300000000001
 20
88.636799999999994
 30
0.0
 10
-27.229299999999999
 20
89.141300000000001
 30
0.0
 10
-26.573499999999999
 20
89.242199999999997
 30
0.0
 10
-26.321200000000001
 20
89.494399999999999
 30
0.0
 10
-26.321200000000001
 20
89.494399999999999
 30
0.0
 10
-17.997399999999999
 20
91.613200000000006
 30
0.0
 10
-12.347200000000001
 20
83.138000000000005
 30
0.0
 10
-8.1600999999999999
 20
77.487899999999996
 30
0.0
 10
-8.1600999999999999
 20
77.487899999999996
 30
0.0
 10
-8.1600999999999999
 20
77.487899999999996
 30
0.0
 10
-8.5132999999999992
 20
77.286100000000005
 30
0.0
 10
-8.5132999999999992
 20
77.286100000000005
 30
0.0
 10
-8.5132999999999992
 20
77.286100000000005
 30
0.0
 10
-11.8428
 20
77.941900000000004
 30
0.0
 10
-16.7362
 20
75.520499999999998
 30
0.0
 10
-17.946899999999999
 20
79.556200000000004
 30
0.0
 10
-17.946899999999999
 20
79.556200000000004
 30
0.0
 10
-18.098299999999998
 20
79.959800000000001
 30
0.0
 10
-17.8965
 20
80.464299999999994
 30
0.0
 10
-18.3001
 20
80.766999999999996
 30
0.0
 10
-18.3001
 20
80.766999999999996
 30
0.0
 10
-19.359400000000001
 20
80.010300000000001
 30
0.0
 10
-20.0657
 20
78.698599999999999
 30
0.0
 10
-20.0153
 20
77.286100000000005
 30
0.0
 10
-20.0153
 20
77.286100000000005
 30
0.0
 10
-22.285399999999999
 20
77.941900000000004
 30
0.0
 10
-21.1251
 20
81.624600000000001
 30
0.0
 10
-21.932300000000001
 20
83.692999999999998
 30
0.0
 10
-21.932300000000001
 20
83.692999999999998
 30
0.0
 10
-22.1845
 20
86.114400000000003
 30
0.0
 10
-24.9087
 20
87.627899999999997
 30
0.0
 10
-26.775300000000001
 20
88.636799999999994
 30
0.0
  0
SPLINE
  5
31
100
AcDbEntity
  8
RÚteg 1
100
AcDbSpline
210
0.0
220
0.0
230
1.0
 70
     1
 71
     3
 72
    40
 73
    36
 74
     0
 42
0.0000000001
 43
0.0000000001
 40
0.0
 40
0.0
 40
0.0
 40
0.0
 40
0.1111111111111111
 40
0.1111111111111111
 40
0.1111111111111111
 40
0.1111111111111111
 40
0.2222222222222222
 40
0.2222222222222222
 40
0.2222222222222222
 40
0.2222222222222222
 40
0.3333333333333333
 40
0.3333333333333333
 40
0.3333333333333333
 40
0.3333333333333333
 40
0.4444444444444444
 40
0.4444444444444444
 40
0.4444444444444444
 40
0.4444444444444444
 40
0.5555555555555556
 40
0.5555555555555556
 40
0.5555555555555556
 40
0.5555555555555556
 40
0.6666666666666667
 40
0.6666666666666667
 40
0.6666666666666667
 40
0.6666666666666667
 40
0.7777777777777779
 40
0.7777777777777779
 40
0.7777777777777779
 40
0.7777777777777779
 40
0.8888888888888891
 40
0.8888888888888891
 40
0.8888888888888891
 40
0.8888888888888891
 40
1.0
 40
1.0
 40
1.0
 40
1.0
 10
-14.8192
 20
63.3626
 30
0.0
 10
-15.525499999999999
 20
62.404000000000003
 30
0.0
 10
-15.777699999999999
 20
60.941099999999999
 30
0.0
 10
-16.383099999999999
 20
59.932099999999998
 30
0.0
 10
-16.383099999999999
 20
59.932099999999998
 30
0.0
 10
-17.5627
 20
60.638399999999997
 30
0.0
 10
-17.814900000000002
 20
62.067799999999998
 30
0.0
 10
-18.5716
 20
62.572299999999998
 30
0.0
 10
-18.5716
 20
62.572299999999998
 30
0.0
 10
-18.5716
 20
62.572299999999998
 30
0.0
 10
-22.018899999999999
 20
60.302100000000003
 30
0.0
 10
-22.018899999999999
 20
60.302100000000003
 30
0.0
 10
-22.018899999999999
 20
60.302100000000003
 30
0.0
 10
-20.303599999999999
 20
62.9758
 30
0.0
 10
-20.505400000000002
 20
66.1036
 30
0.0
 10
-21.5959
 20
69.433099999999996
 30
0.0
 10
-21.5959
 20
69.433099999999996
 30
0.0
 10
-22.439299999999999
 20
71.820999999999998
 30
0.0
 10
-21.0747
 20
74.259299999999996
 30
0.0
 10
-19.056799999999999
 20
75.318700000000007
 30
0.0
 10
-19.056799999999999
 20
75.318700000000007
 30
0.0
 10
-16.887499999999999
 20
75.974500000000006
 30
0.0
 10
-15.1219
 20
75.318700000000007
 30
0.0
 10
-13.457100000000001
 20
74.007000000000005
 30
0.0
 10
-13.457100000000001
 20
74.007000000000005
 30
0.0
 10
-11.186999999999999
 20
70.879300000000001
 30
0.0
 10
-13.103999999999999
 20
66.439899999999994
 30
0.0
 10
-9.9762000000000004
 20
63.715699999999998
 30
0.0
 10
-9.9762000000000004
 20
63.715699999999998
 30
0.0
 10
-9.9762000000000004
 20
63.715699999999998
 30
0.0
 10
-9.1186000000000007
 20
62.3536
 30
0.0
 10
-9.1186000000000007
 20
62.3536
 30
0.0
 10
-9.1186000000000007
 20
62.3536
 30
0.0
 10
-10.8843
 20
61.8996
 30
0.0
 10
-13.2553
 20
62.101399999999998
 30
0.0
 10
-14.8192
 20
63.3626
 30
0.0
  0
SPLINE
  5
32
100
AcDbEntity
  8
RÚteg 1
100
AcDbSpline
210
0.0
220
0.0
230
1.0
 70
     1
 71
     3
 72
    36
 73
    32
 74
     0
 42
0.0000000001
 43
0.0000000001
 40
0.0
 40
0.0
 40
0.0
 40
0.0
 40
0.125
 40
0.125
 40
0.125
 40
0.125
 40
0.25
 40
0.25
 40
0.25
 40
0.25
 40
0.375
 40
0.375
 40
0.375
 40
0.375
 40
0.5
 40
0.5
 40
0.5
 40
0.5
 40
0.625
 40
0.625
 40
0.625
 40
0.625
 40
0.75
 40
0.75
 40
0.75
 40
0.75
 40
0.875
 40
0.875
 40
0.875
 40
0.875
 40
1.0
 40
1.0
 40
1.0
 40
1.0
 10
-10.430199999999999
 20
40.358499999999999
 30
0.0
 10
-10.430199999999999
 20
40.358499999999999
 30
0.0
 10
-11.9941
 20
36.827100000000002
 30
0.0
 10
-11.9941
 20
36.827100000000002
 30
0.0
 10
-11.9941
 20
36.827100000000002
 30
0.0
 10
-13.154400000000001
 20
37.432499999999997
 30
0.0
 10
-13.658899999999999
 20
38.996400000000001
 30
0.0
 10
-14.667899999999999
 20
39.954900000000002
 30
0.0
 10
-14.667899999999999
 20
39.954900000000002
 30
0.0
 10
-16.484000000000002
 20
39.500900000000001
 30
0.0
 10
-18.131900000000002
 20
39.1646
 30
0.0
 10
-20.0489
 20
38.710500000000003
 30
0.0
 10
-20.0489
 20
38.710500000000003
 30
0.0
 10
-19.748699999999999
 20
41.216099999999997
 30
0.0
 10
-18.151199999999999
 20
40.963799999999999
 30
0.0
 10
-18.3001
 20
44.192500000000003
 30
0.0
 10
-18.3001
 20
44.192500000000003
 30
0.0
 10
-18.9559
 20
45.907699999999998
 30
0.0
 10
-19.0063
 20
48.278700000000001
 30
0.0
 10
-17.593800000000002
 20
49.539900000000003
 30
0.0
 10
-17.593800000000002
 20
49.539900000000003
 30
0.0
 10
-16.3856
 20
51.810099999999998
 30
0.0
 10
-9.2387999999999995
 20
53.323500000000003
 30
0.0
 10
-7.3049999999999997
 20
49.035499999999999
 30
0.0
 10
-7.3049999999999997
 20
49.035499999999999
 30
0.0
 10
-6.8005000000000004
 20
47.606099999999998
 30
0.0
 10
-7.9775999999999998
 20
43.318100000000001
 30
0.0
 10
-3.9224999999999999
 20
40.207099999999997
 30
0.0
 10
-3.9224999999999999
 20
40.207099999999997
 30
0.0
 10
-3.9224999999999999
 20
40.207099999999997
 30
0.0
 10
-6.3800999999999997
 20
38.6937
 30
0.0
 10
-10.430199999999999
 20
40.358499999999999
 30
0.0
  0
SPLINE
  5
33
100
AcDbEntity
  8
RÚteg 1
100
AcDbSpline
210
0.0
220
0.0
230
1.0
 70
     1
 71
     3
 72
    20
 73
    16
 74
     0
 42
0.0000000001
 43
0.0000000001
 40
0.0
 40
0.0
 40
0.0
 40
0.0
 40
0.25
 40
0.25
 40
0.25
 40
0.25
 40
0.5
 40
0.5
 40
0.5
 40
0.5
 40
0.75
 40
0.75
 40
0.75
 40
0.75
 40
1.0
 40
1.0
 40
1.0
 40
1.0
 10
-1.9238999999999999
 20
40.627499999999998
 30
0.0
 10
-5.5392999999999999
 20
41.972799999999999
 30
0.0
 10
-4.7801
 20
46.059100000000001
 30
0.0
 10
-5.8395000000000001
 20
49.287700000000001
 30
0.0
 10
-5.8395000000000001
 20
49.287700000000001
 30
0.0
 10
-6.7474999999999996
 20
50.851599999999998
 30
0.0
 10
-7.4032999999999998
 20
52.667700000000004
 30
0.0
 10
-8.3619000000000003
 20
54.029800000000002
 30
0.0
 10
-8.3619000000000003
 20
54.029800000000002
 30
0.0
 10
-8.3619000000000003
 20
54.029800000000002
 30
0.0
 10
-2.3081
 20
49.893000000000001
 30
0.0
 10
-2.3081
 20
49.893000000000001
 30
0.0
 10
-2.3081
 20
49.893000000000001
 30
0.0
 10
-1.8037000000000001
 20
46.916699999999999
 30
0.0
 10
-1.8734
 20
43.906599999999997
 30
0.0
 10
-1.9238999999999999
 20
40.627499999999998
 30
0.0
  0
SPLINE
  5
34
100
AcDbEntity
  8
RÚteg 1
100
AcDbSpline
210
0.0
220
0.0
230
1.0
 70
     1
 71
     3
 72
    28
 73
    24
 74
     0
 42
0.0000000001
 43
0.0000000001
 40
0.0
 40
0.0
 40
0.0
 40
0.0
 40
0.1666666666666667
 40
0.1666666666666667
 40
0.1666666666666667
 40
0.1666666666666667
 40
0.3333333333333333
 40
0.3333333333333333
 40
0.3333333333333333
 40
0.3333333333333333
 40
0.5
 40
0.5
 40
0.5
 40
0.5
 40
0.6666666666666666
 40
0.6666666666666666
 40
0.6666666666666666
 40
0.6666666666666666
 40
0.8333333333333333
 40
0.8333333333333333
 40
0.8333333333333333
 40
0.8333333333333333
 40
1.0
 40
1.0
 40
1.0
 40
1.0
 10
-4.8810000000000002
 20
32.085099999999997
 30
0.0
 10
-3.4685000000000001
 20
31.731999999999999
 30
0.0
 10
-2.1568000000000001
 20
30.5716
 30
0.0
 10
-1.3495999999999999
 20
29.310500000000001
 30
0.0
 10
-1.3495999999999999
 20
29.310500000000001
 30
0.0
 10
-1.8541000000000001
 20
23.963000000000001
 30
0.0
 10
-3.9224999999999999
 20
19.2209
 30
0.0
 10
-5.8395000000000001
 20
14.4284
 30
0.0
 10
-5.8395000000000001
 20
14.4284
 30
0.0
 10
-5.8395000000000001
 20
14.4284
 30
0.0
 10
-6.1925999999999997
 20
14.327500000000001
 30
0.0
 10
-6.1925999999999997
 20
14.327500000000001
 30
0.0
 10
-6.1925999999999997
 20
14.327500000000001
 30
0.0
 10
-8.3619000000000003
 20
17.404800000000002
 30
0.0
 10
-6.6970999999999998
 20
21.4407
 30
0.0
 10
-6.6970999999999998
 20
25.072900000000001
 30
0.0
 10
-6.6970999999999998
 20
25.072900000000001
 30
0.0
 10
-6.798
 20
27.343
 30
0.0
 10
-9.1186000000000007
 20
29.0078
 30
0.0
 10
-10.7834
 20
30.268999999999998
 30
0.0
 10
-10.7834
 20
30.268999999999998
 30
0.0
 10
-9.1691000000000003
 20
31.429200000000002
 30
0.0
 10
-6.9997999999999996
 20
32.589599999999997
 30
0.0
 10
-4.8810000000000002
 20
32.085099999999997
 30
0.0
  0
SPLINE
  5
35
100
AcDbEntity
  8
RÚteg 1
100
AcDbSpline
210
0.0
220
0.0
230
1.0
 70
     1
 71
     3
 72
    36
 73
    32
 74
     0
 42
0.0000000001
 43
0.0000000001
 40
0.0
 40
0.0
 40
0.0
 40
0.0
 40
0.125
 40
0.125
 40
0.125
 40
0.125
 40
0.25
 40
0.25
 40
0.25
 40
0.25
 40
0.375
 40
0.375
 40
0.375
 40
0.375
 40
0.5
 40
0.5
 40
0.5
 40
0.5
 40
0.625
 40
0.625
 40
0.625
 40
0.625
 40
0.75
 40
0.75
 40
0.75
 40
0.75
 40
0.875
 40
0.875
 40
0.875
 40
0.875
 40
1.0
 40
1.0
 40
1.0
 40
1.0
 10
-17.2407
 20
28.251100000000001
 30
0.0
 10
-14.3147
 20
29.764500000000002
 30
0.0
 10
-10.430199999999999
 20
28.806000000000001
 30
0.0
 10
-8.7654999999999994
 20
25.829599999999999
 30
0.0
 10
-8.7654999999999994
 20
25.829599999999999
 30
0.0
 10
-7.7565
 20
21.9955
 30
0.0
 10
-9.8248999999999995
 20
18.010200000000001
 30
0.0
 10
-7.9078999999999997
 20
14.4284
 30
0.0
 10
-7.9078999999999997
 20
14.4284
 30
0.0
 10
-7.9078999999999997
 20
14.4284
 30
0.0
 10
-7.3025000000000002
 20
12.713200000000001
 30
0.0
 10
-7.3025000000000002
 20
12.713200000000001
 30
0.0
 10
-7.3025000000000002
 20
12.713200000000001
 30
0.0
 10
-9.5725999999999996
 20
12.713200000000001
 30
0.0
 10
-11.741899999999999
 20
14.832000000000001
 30
0.0
 10
-13.103999999999999
 20
16.849900000000002
 30
0.0
 10
-13.103999999999999
 20
16.849900000000002
 30
0.0
 10
-14.718299999999999
 20
16.295000000000002
 30
0.0
 10
-16.2317
 20
15.033799999999999
 30
0.0
 10
-17.946899999999999
 20
14.529299999999999
 30
0.0
 10
-17.946899999999999
 20
14.529299999999999
 30
0.0
 10
-17.946899999999999
 20
14.529299999999999
 30
0.0
 10
-19.594899999999999
 20
18.6492
 30
0.0
 10
-19.594899999999999
 20
18.6492
 30
0.0
 10
-19.594899999999999
 20
18.6492
 30
0.0
 10
-22.9437
 20
17.926100000000002
 30
0.0
 10
-24.2529
 20
18.514600000000002
 30
0.0
 10
-25.211400000000001
 20
18.918199999999999
 30
0.0
 10
-25.211400000000001
 20
18.918199999999999
 30
0.0
 10
-20.923300000000001
 20
20.3812
 30
0.0
 10
-20.418800000000001
 20
25.577300000000001
 30
0.0
 10
-17.2407
 20
28.251100000000001
 30
0.0
  0
SPLINE
  5
36
100
AcDbEntity
  8
RÚteg 1
100
AcDbSpline
210
0.0
220
0.0
230
1.0
 70
     1
 71
     3
 72
    16
 73
    12
 74
     0
 42
0.0000000001
 43
0.0000000001
 40
0.0
 40
0.0
 40
0.0
 40
0.0
 40
0.3333333333333333
 40
0.3333333333333333
 40
0.3333333333333333
 40
0.3333333333333333
 40
0.6666666666666666
 40
0.6666666666666666
 40
0.6666666666666666
 40
0.6666666666666666
 40
1.0
 40
1.0
 40
1.0
 40
1.0
 10
-11.035600000000001
 20
11.5024
 30
0.0
 10
-12.3977
 20
11.6538
 30
0.0
 10
-13.406700000000001
 20
13.217700000000001
 30
0.0
 10
-14.567
 20
14.1762
 30
0.0
 10
-14.567
 20
14.1762
 30
0.0
 10
-14.3147
 20
14.6807
 30
0.0
 10
-13.7598
 20
15.084199999999999
 30
0.0
 10
-13.204800000000001
 20
15.1347
 30
0.0
 10
-13.204800000000001
 20
15.1347
 30
0.0
 10
-12.2463
 20
14.024800000000001
 30
0.0
 10
-11.6914
 20
12.7636
 30
0.0
 10
-11.035600000000001
 20
11.5024
 30
0.0
  0
SPLINE
  5
37
100
AcDbEntity
  8
RÚteg 1
100
AcDbSpline
210
0.0
220
0.0
230
1.0
 70
     1
 71
     3
 72
    32
 73
    28
 74
     0
 42
0.0000000001
 43
0.0000000001
 40
0.0
 40
0.0
 40
0.0
 40
0.0
 40
0.1428571428571429
 40
0.1428571428571429
 40
0.1428571428571429
 40
0.1428571428571429
 40
0.2857142857142857
 40
0.2857142857142857
 40
0.2857142857142857
 40
0.2857142857142857
 40
0.4285714285714286
 40
0.4285714285714286
 40
0.4285714285714286
 40
0.4285714285714286
 40
0.5714285714285714
 40
0.5714285714285714
 40
0.5714285714285714
 40
0.5714285714285714
 40
0.7142857142857142
 40
0.7142857142857142
 40
0.7142857142857142
 40
0.7142857142857142
 40
0.857142857142857
 40
0.857142857142857
 40
0.857142857142857
 40
0.857142857142857
 40
1.0
 40
1.0
 40
1.0
 40
1.0
 10
-20.872900000000001
 20
16.748999999999999
 30
0.0
 10
-20.872900000000001
 20
16.748999999999999
 30
0.0
 10
-17.846
 20
12.359999999999999
 30
0.0
 10
-17.846
 20
12.359999999999999
 30
0.0
 10
-17.846
 20
12.359999999999999
 30
0.0
 10
-15.797000000000001
 20
13.974399999999999
 30
0.0
 10
-14.8721
 20
11.367900000000001
 30
0.0
 10
-12.9383
 20
10.0227
 30
0.0
 10
-12.9383
 20
10.0227
 30
0.0
 10
-11.9293
 20
8.8454999999999995
 30
0.0
 10
-9.407
 20
7.7525000000000004
 30
0.0
 10
-11.035600000000001
 20
5.9531999999999998
 30
0.0
 10
-11.035600000000001
 20
5.9531999999999998
 30
0.0
 10
-11.540100000000001
 20
4.2380000000000004
 30
0.0
 10
-12.3977
 20
2.6236999999999999
 30
0.0
 10
-13.103999999999999
 20
1.0093000000000001
 30
0.0
 10
-13.103999999999999
 20
1.0093000000000001
 30
0.0
 10
-15.071400000000001
 20
2.9767999999999999
 30
0.0
 10
-15.929
 20
5.6001000000000003
 30
0.0
 10
-17.694700000000001
 20
7.7694000000000001
 30
0.0
 10
-17.694700000000001
 20
7.7694000000000001
 30
0.0
 10
-17.694700000000001
 20
7.7694000000000001
 30
0.0
 10
-25.564499999999999
 20
16.950800000000001
 30
0.0
 10
-25.564499999999999
 20
16.950800000000001
 30
0.0
 10
-25.564499999999999
 20
16.950800000000001
 30
0.0
 10
-25.564499999999999
 20
16.950800000000001
 30
0.0
 10
-20.872900000000001
 20
16.748999999999999
 30
0.0
 10
-20.872900000000001
 20
16.748999999999999
 30
0.0
  0
SPLINE
  5
38
100
AcDbEntity
  8
RÚteg 1
100
AcDbSpline
210
0.0
220
0.0
230
1.0
 70
     1
 71
     3
 72
    48
 73
    44
 74
     0
 42
0.0000000001
 43
0.0000000001
 40
0.0
 40
0.0
 40
0.0
 40
0.0
 40
0.0909090909090909
 40
0.0909090909090909
 40
0.0909090909090909
 40
0.0909090909090909
 40
0.1818181818181818
 40
0.1818181818181818
 40
0.1818181818181818
 40
0.1818181818181818
 40
0.2727272727272727
 40
0.2727272727272727
 40
0.2727272727272727
 40
0.2727272727272727
 40
0.3636363636363637
 40
0.3636363636363637
 40
0.3636363636363637
 40
0.3636363636363637
 40
0.4545454545454546
 40
0.4545454545454546
 40
0.4545454545454546
 40
0.4545454545454546
 40
0.5454545454545455
 40
0.5454545454545455
 40
0.5454545454545455
 40
0.5454545454545455
 40
0.6363636363636365
 40
0.6363636363636365
 40
0.6363636363636365
 40
0.6363636363636365
 40
0.7272727272727274
 40
0.7272727272727274
 40
0.7272727272727274
 40
0.7272727272727274
 40
0.8181818181818183
 40
0.8181818181818183
 40
0.8181818181818183
 40
0.8181818181818183
 40
0.9090909090909093
 40
0.9090909090909093
 40
0.9090909090909093
 40
0.9090909090909093
 40
1.0
 40
1.0
 40
1.0
 40
1.0
 10
-50.283799999999999
 20
41.569200000000002
 30
0.0
 10
-50.283799999999999
 20
41.569200000000002
 30
0.0
 10
-49.779299999999999
 20
41.417900000000003
 30
0.0
 10
-49.779299999999999
 20
41.417900000000003
 30
0.0
 10
-49.779299999999999
 20
41.417900000000003
 30
0.0
 10
-44.552100000000003
 20
30.706199999999999
 30
0.0
 10
-40.852600000000002
 20
25.072900000000001
 30
0.0
 10
-26.169899999999998
 20
11.6706
 30
0.0
 10
-26.169899999999998
 20
11.6706
 30
0.0
 10
-26.169899999999998
 20
11.6706
 30
0.0
 10
-12.6861
 20
-1.9165000000000001
 30
0.0
 10
-10.584099999999999
 20
-4.1025999999999998
 30
0.0
 10
-10.584099999999999
 20
-4.1025999999999998
 30
0.0
 10
-10.584099999999999
 20
-4.1025999999999998
 30
0.0
 10
-3.9224999999999999
 20
4.9946999999999999
 30
0.0
 10
-3.9224999999999999
 20
4.9946999999999999
 30
0.0
 10
-3.9224999999999999
 20
4.9946999999999999
 30
0.0
 10
-3.9224999999999999
 20
4.9946999999999999
 30
0.0
 10
-3.4180000000000001
 20
4.8433999999999999
 30
0.0
 10
-3.4180000000000001
 20
4.8433999999999999
 30
0.0
 10
-3.4180000000000001
 20
4.8433999999999999
 30
0.0
 10
-5.8898999999999999
 20
1.0598000000000001
 30
0.0
 10
-7.5548000000000002
 20
-3.0768
 30
0.0
 10
-8.8663000000000007
 20
-7.3648999999999996
 30
0.0
 10
-8.8663000000000007
 20
-7.3648999999999996
 30
0.0
 10
-7.0502000000000002
 20
-11.854699999999999
 30
0.0
 10
-5.5872000000000002
 20
-16.445399999999999
 30
0.0
 10
-4.3765000000000001
 20
-21.1875
 30
0.0
 10
-4.3765000000000001
 20
-21.1875
 30
0.0
 10
-6.5457000000000001
 20
-16.8994
 30
0.0
 10
-7.4032999999999998
 20
-12.1069
 30
0.0
 10
-10.0771
 20
-8.0710999999999995
 30
0.0
 10
-10.0771
 20
-8.0710999999999995
 30
0.0
 10
-18.5716
 20
2.7077
 30
0.0
 10
-27.652200000000001
 20
11.620200000000001
 30
0.0
 10
-37.671900000000001
 20
20.986599999999999
 30
0.0
 10
-37.671900000000001
 20
20.986599999999999
 30
0.0
 10
-43.290900000000001
 20
27.090800000000002
 30
0.0
 10
-47.357900000000001
 20
33.951599999999999
 30
0.0
 10
-50.384700000000002
 20
41.165599999999998
 30
0.0
 10
-50.384700000000002
 20
41.165599999999998
 30
0.0
 10
-50.384700000000002
 20
41.165599999999998
 30
0.0
 10
-50.283799999999999
 20
41.569200000000002
 30
0.0
 10
-50.283799999999999
 20
41.569200000000002
 30
0.0
  0
SPLINE
  5
39
100
AcDbEntity
  8
RÚteg 1
100
AcDbSpline
210
0.0
220
0.0
230
1.0
 70
     1
 71
     3
 72
    20
 73
    16
 74
     0
 42
0.0000000001
 43
0.0000000001
 40
0.0
 40
0.0
 40
0.0
 40
0.0
 40
0.25
 40
0.25
 40
0.25
 40
0.25
 40
0.5
 40
0.5
 40
0.5
 40
0.5
 40
0.75
 40
0.75
 40
0.75
 40
0.75
 40
1.0
 40
1.0
 40
1.0
 40
1.0
 10
-24.706900000000001
 20
-1.9165000000000001
 30
0.0
 10
-24.706900000000001
 20
-1.9165000000000001
 30
0.0
 10
-29.095800000000001
 20
5.0956000000000001
 30
0.0
 10
-29.095800000000001
 20
5.0956000000000001
 30
0.0
 10
-29.095800000000001
 20
5.0956000000000001
 30
0.0
 10
-20.4693
 20
-2.2696999999999998
 30
0.0
 10
-17.492899999999999
 20
-12.661899999999999
 30
0.0
 10
-12.4986
 20
-21.893799999999999
 30
0.0
 10
-12.4986
 20
-21.893799999999999
 30
0.0
 10
-8.2105999999999995
 20
-31.731000000000002
 30
0.0
 10
-5.7385999999999999
 20
-42.980800000000002
 30
0.0
 10
-6.1925999999999997
 20
-54.079300000000003
 30
0.0
 10
-6.1925999999999997
 20
-54.079300000000003
 30
0.0
 10
-9.0681999999999992
 20
-35.312800000000003
 30
0.0
 10
-14.3147
 20
-17.555199999999999
 30
0.0
 10
-24.706900000000001
 20
-1.9165000000000001
 30
0.0
  0
SPLINE
  5
3A
100
AcDbEntity
  8
RÚteg 1
100
AcDbSpline
210
0.0
220
0.0
230
1.0
 70
     1
 71
     3
 72
    24
 73
    20
 74
     0
 42
0.0000000001
 43
0.0000000001
 40
0.0
 40
0.0
 40
0.0
 40
0.0
 40
0.2
 40
0.2
 40
0.2
 40
0.2
 40
0.4
 40
0.4
 40
0.4
 40
0.4
 40
0.6000000000000001
 40
0.6000000000000001
 40
0.6000000000000001
 40
0.6000000000000001
 40
0.8
 40
0.8
 40
0.8
 40
0.8
 40
1.0
 40
1.0
 40
1.0
 40
1.0
 10
-16.484000000000002
 20
-43.081800000000001
 30
0.0
 10
-19.0063
 20
-37.986499999999999
 30
0.0
 10
-20.267499999999998
 20
-32.134599999999999
 30
0.0
 10
-22.436800000000002
 20
-26.736699999999999
 30
0.0
 10
-22.436800000000002
 20
-26.736699999999999
 30
0.0
 10
-26.775300000000001
 20
-8.9792000000000005
 30
0.0
 10
-35.805399999999999
 20
7.8701999999999996
 30
0.0
 10
-43.624699999999997
 20
24.7197
 30
0.0
 10
-43.624699999999997
 20
24.7197
 30
0.0
 10
-39.740299999999998
 20
21.844200000000001
 30
0.0
 10
-38.8827
 20
17.1021
 30
0.0
 10
-36.360300000000002
 20
13.3186
 30
0.0
 10
-36.360300000000002
 20
13.3186
 30
0.0
 10
-29.247199999999999
 20
-0.4536
 30
0.0
 10
-24.706900000000001
 20
-15.335599999999999
 30
0.0
 10
-19.662099999999999
 20
-30.015799999999999
 30
0.0
 10
-19.662099999999999
 20
-30.015799999999999
 30
0.0
 10
-18.249600000000001
 20
-34.203000000000003
 30
0.0
 10
-17.543299999999999
 20
-38.743200000000002
 30
0.0
 10
-16.484000000000002
 20
-43.081800000000001
 30
0.0
  0
SPLINE
  5
3B
100
AcDbEntity
  8
RÚteg 1
100
AcDbSpline
210
0.0
220
0.0
230
1.0
 70
     1
 71
     3
 72
    24
 73
    20
 74
     0
 42
0.0000000001
 43
0.0000000001
 40
0.0
 40
0.0
 40
0.0
 40
0.0
 40
0.2
 40
0.2
 40
0.2
 40
0.2
 40
0.4
 40
0.4
 40
0.4
 40
0.4
 40
0.6000000000000001
 40
0.6000000000000001
 40
0.6000000000000001
 40
0.6000000000000001
 40
0.8
 40
0.8
 40
0.8
 40
0.8
 40
1.0
 40
1.0
 40
1.0
 40
1.0
 10
-52.705300000000001
 20
-16.798500000000001
 30
0.0
 10
-58.103200000000001
 20
-5.3470000000000004
 30
0.0
 10
-58.557200000000002
 20
8.7278000000000002
 30
0.0
 10
-57.396999999999998
 20
22.298200000000001
 30
0.0
 10
-57.396999999999998
 20
22.298200000000001
 30
0.0
 10
-57.396999999999998
 20
22.298200000000001
 30
0.0
 10
-57.043799999999997
 20
22.802700000000002
 30
0.0
 10
-57.043799999999997
 20
22.802700000000002
 30
0.0
 10
-57.043799999999997
 20
22.802700000000002
 30
0.0
 10
-57.295999999999999
 20
10.543900000000001
 30
0.0
 10
-55.0259
 20
-0.7058
 30
0.0
 10
-52.957500000000003
 20
-11.9556
 30
0.0
 10
-52.957500000000003
 20
-11.9556
 30
0.0
 10
-52.957500000000003
 20
-11.9556
 30
0.0
 10
-51.494599999999998
 20
-17.151700000000002
 30
0.0
 10
-51.494599999999998
 20
-17.151700000000002
 30
0.0
 10
-51.494599999999998
 20
-17.151700000000002
 30
0.0
 10
-51.494599999999998
 20
-17.151700000000002
 30
0.0
 10
-52.705300000000001
 20
-16.798500000000001
 30
0.0
 10
-52.705300000000001
 20
-16.798500000000001
 30
0.0
  0
SPLINE
  5
3C
100
AcDbEntity
  8
RÚteg 1
100
AcDbSpline
210
0.0
220
0.0
230
1.0
 70
     1
 71
     3
 72
    24
 73
    20
 74
     0
 42
0.0000000001
 43
0.0000000001
 40
0.0
 40
0.0
 40
0.0
 40
0.0
 40
0.2
 40
0.2
 40
0.2
 40
0.2
 40
0.4
 40
0.4
 40
0.4
 40
0.4
 40
0.6000000000000001
 40
0.6000000000000001
 40
0.6000000000000001
 40
0.6000000000000001
 40
0.8
 40
0.8
 40
0.8
 40
0.8
 40
1.0
 40
1.0
 40
1.0
 40
1.0
 10
-51.343200000000003
 20
14.781599999999999
 30
0.0
 10
-51.645899999999997
 20
21.9955
 30
0.0
 10
-50.990099999999998
 20
28.856400000000001
 30
0.0
 10
-50.384700000000002
 20
35.717300000000002
 30
0.0
 10
-50.384700000000002
 20
35.717300000000002
 30
0.0
 10
-50.384700000000002
 20
35.717300000000002
 30
0.0
 10
-49.930700000000002
 20
35.969499999999996
 30
0.0
 10
-49.930700000000002
 20
35.969499999999996
 30
0.0
 10
-49.930700000000002
 20
35.969499999999996
 30
0.0
 10
-51.091000000000001
 20
22.954000000000001
 30
0.0
 10
-48.064100000000003
 20
11.048400000000001
 30
0.0
 10
-46.903799999999997
 20
-1.3111999999999999
 30
0.0
 10
-46.903799999999997
 20
-1.3111999999999999
 30
0.0
 10
-44.835500000000003
 20
-10.089
 30
0.0
 10
-42.464399999999998
 20
-18.715599999999998
 30
0.0
 10
-39.134900000000002
 20
-26.989000000000001
 30
0.0
 10
-39.134900000000002
 20
-26.989000000000001
 30
0.0
 10
-47.0047
 20
-14.629300000000001
 30
0.0
 10
-50.182899999999997
 20
-0.3527
 30
0.0
 10
-51.343200000000003
 20
14.781599999999999
 30
0.0
  0
SPLINE
  5
3D
100
AcDbEntity
  8
RÚteg 1
100
AcDbSpline
210
0.0
220
0.0
230
1.0
 70
     1
 71
     3
 72
    20
 73
    16
 74
     0
 42
0.0000000001
 43
0.0000000001
 40
0.0
 40
0.0
 40
0.0
 40
0.0
 40
0.25
 40
0.25
 40
0.25
 40
0.25
 40
0.5
 40
0.5
 40
0.5
 40
0.5
 40
0.75
 40
0.75
 40
0.75
 40
0.75
 40
1.0
 40
1.0
 40
1.0
 40
1.0
 10
-40.093400000000003
 20
-1.2102999999999999
 30
0.0
 10
-41.758200000000002
 20
2.9264000000000001
 30
0.0
 10
-42.212200000000003
 20
7.5171000000000001
 30
0.0
 10
-43.473399999999998
 20
11.7547
 30
0.0
 10
-43.473399999999998
 20
11.7547
 30
0.0
 10
-38.579999999999998
 20
3.2795000000000001
 30
0.0
 10
-37.318800000000003
 20
-6.9108000000000001
 30
0.0
 10
-32.728000000000002
 20
-15.5878
 30
0.0
 10
-32.728000000000002
 20
-15.5878
 30
0.0
 10
-30.003900000000002
 20
-21.843299999999999
 30
0.0
 10
-27.7363
 20
-28.1493
 30
0.0
 10
-24.793500000000002
 20
-35.7164
 30
0.0
 10
-24.793500000000002
 20
-35.7164
 30
0.0
 10
-32.276499999999999
 20
-26.467700000000001
 30
0.0
 10
-36.360300000000002
 20
-12.712300000000001
 30
0.0
 10
-40.093400000000003
 20
-1.2102999999999999
 30
0.0
  0
SPLINE
  5
3E
100
AcDbEntity
  8
RÚteg 1
100
AcDbSpline
210
0.0
220
0.0
230
1.0
 70
     1
 71
     3
 72
    32
 73
    28
 74
     0
 42
0.0000000001
 43
0.0000000001
 40
0.0
 40
0.0
 40
0.0
 40
0.0
 40
0.1428571428571429
 40
0.1428571428571429
 40
0.1428571428571429
 40
0.1428571428571429
 40
0.2857142857142857
 40
0.2857142857142857
 40
0.2857142857142857
 40
0.2857142857142857
 40
0.4285714285714286
 40
0.4285714285714286
 40
0.4285714285714286
 40
0.4285714285714286
 40
0.5714285714285714
 40
0.5714285714285714
 40
0.5714285714285714
 40
0.5714285714285714
 40
0.7142857142857142
 40
0.7142857142857142
 40
0.7142857142857142
 40
0.7142857142857142
 40
0.857142857142857
 40
0.857142857142857
 40
0.857142857142857
 40
0.857142857142857
 40
1.0
 40
1.0
 40
1.0
 40
1.0
 10
-4.5278999999999998
 20
-87.778300000000002
 30
0.0
 10
-4.5278999999999998
 20
-87.778300000000002
 30
0.0
 10
-4.9819000000000004
 20
-87.626999999999995
 30
0.0
 10
-4.9819000000000004
 20
-87.626999999999995
 30
0.0
 10
-4.9819000000000004
 20
-87.626999999999995
 30
0.0
 10
-6.0412999999999997
 20
-83.187600000000003
 30
0.0
 10
-4.1746999999999996
 20
-79.000399999999999
 30
0.0
 10
-3.4180000000000001
 20
-74.813299999999998
 30
0.0
 10
-3.4180000000000001
 20
-74.813299999999998
 30
0.0
 10
-8.6141000000000005
 20
-63.1599
 30
0.0
 10
-14.4156
 20
-51.809199999999997
 30
0.0
 10
-22.789899999999999
 20
-41.517800000000001
 30
0.0
 10
-22.789899999999999
 20
-41.517800000000001
 30
0.0
 10
-22.789899999999999
 20
-41.517800000000001
 30
0.0
 10
-22.689
 20
-40.912500000000001
 30
0.0
 10
-22.689
 20
-40.912500000000001
 30
0.0
 10
-22.689
 20
-40.912500000000001
 30
0.0
 10
-13.154400000000001
 20
-50.094000000000001
 30
0.0
 10
-6.8989000000000003
 20
-60.839300000000001
 30
0.0
 10
-2.8126000000000002
 20
-72.391800000000003
 30
0.0
 10
-2.8126000000000002
 20
-72.391800000000003
 30
0.0
 10
-1.7028000000000001
 20
-70.272999999999996
 30
0.0
 10
-2.2576999999999998
 20
-67.195700000000002
 30
0.0
 10
0.4664
 20
-66.085800000000006
 30
0.0
 10
0.4664
 20
-66.085800000000006
 30
0.0
 10
-1.5513999999999999
 20
-73.148499999999999
 30
0.0
 10
-2.8631000000000002
 20
-80.513900000000007
 30
0.0
 10
-4.5278999999999998
 20
-87.778300000000002
 30
0.0
  0
SPLINE
  5
3F
100
AcDbEntity
  8
RÚteg 1
100
AcDbSpline
210
0.0
220
0.0
230
1.0
 70
     1
 71
     3
 72
    48
 73
    44
 74
     0
 42
0.0000000001
 43
0.0000000001
 40
0.0
 40
0.0
 40
0.0
 40
0.0
 40
0.0909090909090909
 40
0.0909090909090909
 40
0.0909090909090909
 40
0.0909090909090909
 40
0.1818181818181818
 40
0.1818181818181818
 40
0.1818181818181818
 40
0.1818181818181818
 40
0.2727272727272727
 40
0.2727272727272727
 40
0.2727272727272727
 40
0.2727272727272727
 40
0.3636363636363637
 40
0.3636363636363637
 40
0.3636363636363637
 40
0.3636363636363637
 40
0.4545454545454546
 40
0.4545454545454546
 40
0.4545454545454546
 40
0.4545454545454546
 40
0.5454545454545455
 40
0.5454545454545455
 40
0.5454545454545455
 40
0.5454545454545455
 40
0.6363636363636365
 40
0.6363636363636365
 40
0.6363636363636365
 40
0.6363636363636365
 40
0.7272727272727274
 40
0.7272727272727274
 40
0.7272727272727274
 40
0.7272727272727274
 40
0.8181818181818183
 40
0.8181818181818183
 40
0.8181818181818183
 40
0.8181818181818183
 40
0.9090909090909093
 40
0.9090909090909093
 40
0.9090909090909093
 40
0.9090909090909093
 40
1.0
 40
1.0
 40
1.0
 40
1.0
 10
0.8195
 20
-4.5902000000000003
 30
0.0
 10
0.4159
 20
-15.991400000000001
 30
0.0
 10
1.1222000000000001
 20
-26.333200000000001
 30
0.0
 10
0.2141
 20
-37.633400000000002
 30
0.0
 10
0.2141
 20
-37.633400000000002
 30
0.0
 10
0.5168
 20
-46.058199999999999
 30
0.0
 10
0.7186
 20
-53.120800000000003
 30
0.0
 10
0.4664
 20
-62.2014
 30
0.0
 10
0.4664
 20
-62.2014
 30
0.0
 10
0.2646
 20
-62.1509
 30
0.0
 10
-0.1389
 20
-62.100499999999997
 30
0.0
 10
-0.1389
 20
-62.100499999999997
 30
0.0
 10
-0.1389
 20
-62.100499999999997
 30
0.0
 10
-0.5787
 20
-56.231699999999996
 30
0.0
 10
-0.6434
 20
-43.434899999999999
 30
0.0
 10
-0.6434
 20
-43.434899999999999
 30
0.0
 10
-0.6434
 20
-43.434899999999999
 30
0.0
 10
-0.7947
 20
-37.3812
 30
0.0
 10
-2.7646999999999999
 20
-26.131399999999999
 30
0.0
 10
-2.7646999999999999
 20
-26.131399999999999
 30
0.0
 10
-2.7646999999999999
 20
-26.131399999999999
 30
0.0
 10
-2.7646999999999999
 20
-26.131399999999999
 30
0.0
 10
-2.4594999999999998
 20
-23.609000000000002
 30
0.0
 10
-2.4594999999999998
 20
-23.609000000000002
 30
0.0
 10
-2.4594999999999998
 20
-23.609000000000002
 30
0.0
 10
-2.4594999999999998
 20
-23.609000000000002
 30
0.0
 10
0.1132
 20
5.7009999999999996
 30
0.0
 10
0.1132
 20
5.7009999999999996
 30
0.0
 10
0.1132
 20
5.7009999999999996
 30
0.0
 10
1.1222000000000001
 20
26.989899999999999
 30
0.0
 10
0.8195
 20
49.691299999999998
 30
0.0
 10
-3.4180000000000001
 20
70.021699999999996
 30
0.0
 10
-3.4180000000000001
 20
70.021699999999996
 30
0.0
 10
-0.8452
 20
63.412999999999997
 30
0.0
 10
2.7364999999999999
 20
56.148600000000002
 30
0.0
 10
0.9204
 20
48.8337
 30
0.0
 10
0.9204
 20
48.8337
 30
0.0
 10
2.3329
 20
45.857300000000002
 30
0.0
 10
2.2825000000000002
 20
42.275500000000001
 30
0.0
 10
2.3834
 20
38.744199999999999
 30
0.0
 10
2.3834
 20
38.744199999999999
 30
0.0
 10
2.9382999999999999
 20
24.1648
 30
0.0
 10
2.6356000000000002
 20
9.3331999999999997
 30
0.0
 10
0.8195
 20
-4.5902000000000003
 30
0.0
  0
SPLINE
  5
40
100
AcDbEntity
  8
RÚteg 1
100
AcDbSpline
210
0.0
220
0.0
230
1.0
 70
     1
 71
     3
 72
    40
 73
    36
 74
     0
 42
0.0000000001
 43
0.0000000001
 40
0.0
 40
0.0
 40
0.0
 40
0.0
 40
0.1111111111111111
 40
0.1111111111111111
 40
0.1111111111111111
 40
0.1111111111111111
 40
0.2222222222222222
 40
0.2222222222222222
 40
0.2222222222222222
 40
0.2222222222222222
 40
0.3333333333333333
 40
0.3333333333333333
 40
0.3333333333333333
 40
0.3333333333333333
 40
0.4444444444444444
 40
0.4444444444444444
 40
0.4444444444444444
 40
0.4444444444444444
 40
0.5555555555555556
 40
0.5555555555555556
 40
0.5555555555555556
 40
0.5555555555555556
 40
0.6666666666666667
 40
0.6666666666666667
 40
0.6666666666666667
 40
0.6666666666666667
 40
0.7777777777777779
 40
0.7777777777777779
 40
0.7777777777777779
 40
0.7777777777777779
 40
0.8888888888888891
 40
0.8888888888888891
 40
0.8888888888888891
 40
0.8888888888888891
 40
1.0
 40
1.0
 40
1.0
 40
1.0
 10
9.3956
 20
63.564399999999999
 30
0.0
 10
12.018800000000001
 20
63.867100000000001
 30
0.0
 10
14.4908
 20
63.009399999999999
 30
0.0
 10
15.701499999999999
 20
60.688800000000001
 30
0.0
 10
15.701499999999999
 20
60.688800000000001
 30
0.0
 10
16.458200000000001
 20
58.216900000000003
 30
0.0
 10
17.013100000000001
 20
55.694499999999998
 30
0.0
 10
18.476199999999999
 20
53.525300000000001
 30
0.0
 10
18.476199999999999
 20
53.525300000000001
 30
0.0
 10
18.476199999999999
 20
53.525300000000001
 30
0.0
 10
22.360600000000002
 20
52.314599999999999
 30
0.0
 10
22.360600000000002
 20
52.314599999999999
 30
0.0
 10
22.360600000000002
 20
52.314599999999999
 30
0.0
 10
21.452500000000001
 20
51.406500000000001
 30
0.0
 10
20.292200000000001
 20
50.448
 30
0.0
 10
18.8797
 20
50.4985
 30
0.0
 10
18.8797
 20
50.4985
 30
0.0
 10
17.2654
 20
50.851599999999998
 30
0.0
 10
15.8024
 20
51.6083
 30
0.0
 10
14.4908
 20
52.667700000000004
 30
0.0
 10
14.4908
 20
52.667700000000004
 30
0.0
 10
11.2621
 20
51.457000000000001
 30
0.0
 10
9.2441999999999993
 20
48.026499999999999
 30
0.0
 10
6.1669
 20
46.412199999999999
 30
0.0
 10
6.1669
 20
46.412199999999999
 30
0.0
 10
6.1669
 20
46.412199999999999
 30
0.0
 10
7.1254
 20
50.4985
 30
0.0
 10
7.1254
 20
50.4985
 30
0.0
 10
7.1254
 20
50.4985
 30
0.0
 10
5.8137999999999996
 20
50.397599999999997
 30
0.0
 10
4.0480999999999998
 20
49.842599999999997
 30
0.0
 10
2.6356000000000002
 20
50.397599999999997
 30
0.0
 10
2.6356000000000002
 20
50.397599999999997
 30
0.0
 10
5.9146999999999998
 20
54.382899999999999
 30
0.0
 10
2.7364999999999999
 20
62.202300000000001
 30
0.0
 10
9.3956
 20
63.564399999999999
 30
0.0
  0
SPLINE
  5
41
100
AcDbEntity
  8
RÚteg 1
100
AcDbSpline
210
0.0
220
0.0
230
1.0
 70
     1
 71
     3
 72
    20
 73
    16
 74
     0
 42
0.0000000001
 43
0.0000000001
 40
0.0
 40
0.0
 40
0.0
 40
0.0
 40
0.25
 40
0.25
 40
0.25
 40
0.25
 40
0.5
 40
0.5
 40
0.5
 40
0.5
 40
0.75
 40
0.75
 40
0.75
 40
0.75
 40
1.0
 40
1.0
 40
1.0
 40
1.0
 10
13.885400000000001
 20
46.513100000000001
 30
0.0
 10
12.8764
 20
47.118400000000001
 30
0.0
 10
12.4224
 20
48.228299999999997
 30
0.0
 10
11.716200000000001
 20
49.035499999999999
 30
0.0
 10
11.716200000000001
 20
49.035499999999999
 30
0.0
 10
12.4224
 20
50.296700000000001
 30
0.0
 10
13.834899999999999
 20
49.741700000000002
 30
0.0
 10
15.0961
 20
49.539900000000003
 30
0.0
 10
15.0961
 20
49.539900000000003
 30
0.0
 10
15.0961
 20
49.539900000000003
 30
0.0
 10
15.3484
 20
49.539900000000003
 30
0.0
 10
15.3484
 20
49.539900000000003
 30
0.0
 10
15.3484
 20
49.539900000000003
 30
0.0
 10
15.751899999999999
 20
48.3292
 30
0.0
 10
14.743
 20
47.269799999999996
 30
0.0
 10
13.885400000000001
 20
46.513100000000001
 30
0.0
  0
SPLINE
  5
42
100
AcDbEntity
  8
RÚteg 1
100
AcDbSpline
210
0.0
220
0.0
230
1.0
 70
     1
 71
     3
 72
    24
 73
    20
 74
     0
 42
0.0000000001
 43
0.0000000001
 40
0.0
 40
0.0
 40
0.0
 40
0.0
 40
0.2
 40
0.2
 40
0.2
 40
0.2
 40
0.4
 40
0.4
 40
0.4
 40
0.4
 40
0.6000000000000001
 40
0.6000000000000001
 40
0.6000000000000001
 40
0.6000000000000001
 40
0.8
 40
0.8
 40
0.8
 40
0.8
 40
1.0
 40
1.0
 40
1.0
 40
1.0
 10
27.9603
 20
37.432499999999997
 30
0.0
 10
24.479399999999998
 20
32.791400000000003
 30
0.0
 10
20.695799999999998
 20
28.150200000000002
 30
0.0
 10
17.1645
 20
23.6098
 30
0.0
 10
17.1645
 20
23.6098
 30
0.0
 10
17.1645
 20
23.6098
 30
0.0
 10
16.66
 20
23.6098
 30
0.0
 10
16.66
 20
23.6098
 30
0.0
 10
16.66
 20
23.6098
 30
0.0
 10
18.072600000000001
 20
27.343
 30
0.0
 10
20.645399999999999
 20
30.5716
 30
0.0
 10
23.2182
 20
33.8003
 30
0.0
 10
23.2182
 20
33.8003
 30
0.0
 10
27.859400000000001
 20
39.349499999999999
 30
0.0
 10
32.651899999999998
 20
44.949199999999998
 30
0.0
 10
37.847999999999999
 20
50.145299999999999
 30
0.0
 10
37.847999999999999
 20
50.145299999999999
 30
0.0
 10
35.073399999999999
 20
45.7059
 30
0.0
 10
31.138500000000001
 20
41.720500000000001
 30
0.0
 10
27.9603
 20
37.432499999999997
 30
0.0
  0
SPLINE
  5
43
100
AcDbEntity
  8
RÚteg 1
100
AcDbSpline
210
0.0
220
0.0
230
1.0
 70
     1
 71
     3
 72
    16
 73
    12
 74
     0
 42
0.0000000001
 43
0.0000000001
 40
0.0
 40
0.0
 40
0.0
 40
0.0
 40
0.3333333333333333
 40
0.3333333333333333
 40
0.3333333333333333
 40
0.3333333333333333
 40
0.6666666666666666
 40
0.6666666666666666
 40
0.6666666666666666
 40
0.6666666666666666
 40
1.0
 40
1.0
 40
1.0
 40
1.0
 10
35.426499999999997
 20
33.901200000000003
 30
0.0
 10
33.557400000000001
 20
29.865400000000001
 30
0.0
 10
29.942
 20
25.409199999999998
 30
0.0
 10
26.747
 20
20.8689
 30
0.0
 10
26.747
 20
20.8689
 30
0.0
 10
25.718800000000002
 20
19.2209
 30
0.0
 10
25.538799999999998
 20
16.5977
 30
0.0
 10
22.966000000000001
 20
17.202999999999999
 30
0.0
 10
22.966000000000001
 20
17.202999999999999
 30
0.0
 10
25.639700000000001
 20
23.408100000000001
 30
0.0
 10
30.835799999999999
 20
28.654599999999999
 30
0.0
 10
35.426499999999997
 20
33.901200000000003
 30
0.0
  0
SPLINE
  5
44
100
AcDbEntity
  8
RÚteg 1
100
AcDbSpline
210
0.0
220
0.0
230
1.0
 70
     1
 71
     3
 72
    20
 73
    16
 74
     0
 42
0.0000000001
 43
0.0000000001
 40
0.0
 40
0.0
 40
0.0
 40
0.0
 40
0.25
 40
0.25
 40
0.25
 40
0.25
 40
0.5
 40
0.5
 40
0.5
 40
0.5
 40
0.75
 40
0.75
 40
0.75
 40
0.75
 40
1.0
 40
1.0
 40
1.0
 40
1.0
 10
21.654299999999999
 20
7.8701999999999996
 30
0.0
 10
20.544499999999999
 20
6.9116999999999997
 30
0.0
 10
19.132000000000001
 20
6.8613
 30
0.0
 10
17.7698
 20
6.5586000000000002
 30
0.0
 10
17.7698
 20
6.5586000000000002
 30
0.0
 10
17.618600000000001
 20
7.0631000000000004
 30
0.0
 10
17.8203
 20
7.7188999999999997
 30
0.0
 10
18.022099999999998
 20
8.2737999999999996
 30
0.0
 10
18.022099999999998
 20
8.2737999999999996
 30
0.0
 10
18.8293
 20
9.9385999999999992
 30
0.0
 10
20.292200000000001
 20
8.6774000000000004
 30
0.0
 10
21.402100000000001
 20
8.3747000000000007
 30
0.0
 10
21.402100000000001
 20
8.3747000000000007
 30
0.0
 10
21.5534
 20
8.2233999999999998
 30
0.0
 10
21.704799999999999
 20
8.1225000000000005
 30
0.0
 10
21.654299999999999
 20
7.8701999999999996
 30
0.0
  0
SPLINE
  5
45
100
AcDbEntity
  8
RÚteg 1
100
AcDbSpline
210
0.0
220
0.0
230
1.0
 70
     1
 71
     3
 72
    40
 73
    36
 74
     0
 42
0.0000000001
 43
0.0000000001
 40
0.0
 40
0.0
 40
0.0
 40
0.0
 40
0.1111111111111111
 40
0.1111111111111111
 40
0.1111111111111111
 40
0.1111111111111111
 40
0.2222222222222222
 40
0.2222222222222222
 40
0.2222222222222222
 40
0.2222222222222222
 40
0.3333333333333333
 40
0.3333333333333333
 40
0.3333333333333333
 40
0.3333333333333333
 40
0.4444444444444444
 40
0.4444444444444444
 40
0.4444444444444444
 40
0.4444444444444444
 40
0.5555555555555556
 40
0.5555555555555556
 40
0.5555555555555556
 40
0.5555555555555556
 40
0.6666666666666667
 40
0.6666666666666667
 40
0.6666666666666667
 40
0.6666666666666667
 40
0.7777777777777779
 40
0.7777777777777779
 40
0.7777777777777779
 40
0.7777777777777779
 40
0.8888888888888891
 40
0.8888888888888891
 40
0.8888888888888891
 40
0.8888888888888891
 40
1.0
 40
1.0
 40
1.0
 40
1.0
 10
20.897600000000001
 20
12.5114
 30
0.0
 10
20.090499999999999
 20
11.1493
 30
0.0
 10
18.425699999999999
 20
10.796200000000001
 30
0.0
 10
17.063600000000001
 20
10.291700000000001
 30
0.0
 10
17.063600000000001
 20
10.291700000000001
 30
0.0
 10
16.508600000000001
 20
8.6270000000000007
 30
0.0
 10
15.8529
 20
6.9116999999999997
 30
0.0
 10
14.389900000000001
 20
5.7009999999999996
 30
0.0
 10
14.389900000000001
 20
5.7009999999999996
 30
0.0
 10
12.9773
 20
5.2469000000000001
 30
0.0
 10
11.413500000000001
 20
6.5586000000000002
 30
0.0
 10
10.2532
 20
5.6001000000000003
 30
0.0
 10
10.2532
 20
5.6001000000000003
 30
0.0
 10
8.8406000000000002
 20
4.6416000000000004
 30
0.0
 10
7.2767999999999997
 20
3.8344
 30
0.0
 10
5.5616000000000003
 20
4.0362
 30
0.0
 10
5.5616000000000003
 20
4.0362
 30
0.0
 10
6.5201000000000002
 20
4.9443000000000001
 30
0.0
 10
7.3272000000000004
 20
5.6505000000000001
 30
0.0
 10
7.4786000000000001
 20
6.9116999999999997
 30
0.0
 10
7.4786000000000001
 20
6.9116999999999997
 30
0.0
 10
6.9741
 20
8.6270000000000007
 30
0.0
 10
5.5616000000000003
 20
9.9385999999999992
 30
0.0
 10
5.0571000000000002
 20
11.6538
 30
0.0
 10
5.0571000000000002
 20
11.6538
 30
0.0
 10
4.7039
 20
14.7311
 30
0.0
 10
5.2588999999999997
 20
18.060600000000001
 30
0.0
 10
8.1847999999999992
 20
19.624500000000001
 30
0.0
 10
8.1847999999999992
 20
19.624500000000001
 30
0.0
 10
10.3515
 20
20.196300000000001
 30
0.0
 10
13.714700000000001
 20
20.532599999999999
 30
0.0
 10
16.054600000000001
 20
14.1762
 30
0.0
 10
16.054600000000001
 20
14.1762
 30
0.0
 10
17.315799999999999
 20
12.713200000000001
 30
0.0
 10
19.283300000000001
 20
13.0663
 30
0.0
 10
20.897600000000001
 20
12.5114
 30
0.0
  0
SPLINE
  5
46
100
AcDbEntity
  8
RÚteg 1
100
AcDbSpline
210
0.0
220
0.0
230
1.0
 70
     1
 71
     3
 72
    16
 73
    12
 74
     0
 42
0.0000000001
 43
0.0000000001
 40
0.0
 40
0.0
 40
0.0
 40
0.0
 40
0.3333333333333333
 40
0.3333333333333333
 40
0.3333333333333333
 40
0.3333333333333333
 40
0.6666666666666666
 40
0.6666666666666666
 40
0.6666666666666666
 40
0.6666666666666666
 40
1.0
 40
1.0
 40
1.0
 40
1.0
 10
13.279999999999999
 20
3.1785999999999999
 30
0.0
 10
11.968400000000001
 20
2.9264000000000001
 30
0.0
 10
10.7072
 20
1.8165
 30
0.0
 10
9.1937999999999995
 20
1.7156
 30
0.0
 10
9.1937999999999995
 20
1.7156
 30
0.0
 10
9.1937999999999995
 20
1.7156
 30
0.0
 10
10.2532
 20
4.0362
 30
0.0
 10
10.2532
 20
4.0362
 30
0.0
 10
10.2532
 20
4.0362
 30
0.0
 10
11.363
 20
4.0362
 30
0.0
 10
13.532299999999999
 20
4.6920000000000002
 30
0.0
 10
13.279999999999999
 20
3.1785999999999999
 30
0.0
  0
SPLINE
  5
47
100
AcDbEntity
  8
RÚteg 1
100
AcDbSpline
210
0.0
220
0.0
230
1.0
 70
     1
 71
     3
 72
    28
 73
    24
 74
     0
 42
0.0000000001
 43
0.0000000001
 40
0.0
 40
0.0
 40
0.0
 40
0.0
 40
0.1666666666666667
 40
0.1666666666666667
 40
0.1666666666666667
 40
0.1666666666666667
 40
0.3333333333333333
 40
0.3333333333333333
 40
0.3333333333333333
 40
0.3333333333333333
 40
0.5
 40
0.5
 40
0.5
 40
0.5
 40
0.6666666666666666
 40
0.6666666666666666
 40
0.6666666666666666
 40
0.6666666666666666
 40
0.8333333333333333
 40
0.8333333333333333
 40
0.8333333333333333
 40
0.8333333333333333
 40
1.0
 40
1.0
 40
1.0
 40
1.0
 10
5.3093000000000004
 20
40.963799999999999
 30
0.0
 10
3.9615
 20
40.375300000000003
 30
0.0
 10
4.0986000000000002
 20
42.376399999999997
 30
0.0
 10
4.0986000000000002
 20
42.376399999999997
 30
0.0
 10
4.0986000000000002
 20
42.376399999999997
 30
0.0
 10
4.0986000000000002
 20
42.376399999999997
 30
0.0
 10
4.0986000000000002
 20
48.228299999999997
 30
0.0
 10
4.0986000000000002
 20
48.228299999999997
 30
0.0
 10
4.0986000000000002
 20
48.228299999999997
 30
0.0
 10
4.0986000000000002
 20
48.228299999999997
 30
0.0
 10
4.9561999999999999
 20
48.430100000000003
 30
0.0
 10
4.9561999999999999
 20
48.430100000000003
 30
0.0
 10
4.9561999999999999
 20
48.430100000000003
 30
0.0
 10
5.1580000000000004
 20
47.320300000000003
 30
0.0
 10
5.0065999999999997
 20
46.008600000000001
 30
0.0
 10
5.0571000000000002
 20
44.797899999999998
 30
0.0
 10
5.0571000000000002
 20
44.797899999999998
 30
0.0
 10
6.6210000000000004
 20
45.151000000000003
 30
0.0
 10
8.2353000000000005
 20
46.059100000000001
 30
0.0
 10
9.9000000000000004
 20
46.513100000000001
 30
0.0
 10
9.9000000000000004
 20
46.513100000000001
 30
0.0
 10
9.9000000000000004
 20
46.513100000000001
 30
0.0
 10
5.3093000000000004
 20
40.963799999999999
 30
0.0
 10
5.3093000000000004
 20
40.963799999999999
 30
0.0
  0
SPLINE
  5
48
100
AcDbEntity
  8
RÚteg 1
100
AcDbSpline
210
0.0
220
0.0
230
1.0
 70
     1
 71
     3
 72
    16
 73
    12
 74
     0
 42
0.0000000001
 43
0.0000000001
 40
0.0
 40
0.0
 40
0.0
 40
0.0
 40
0.3333333333333333
 40
0.3333333333333333
 40
0.3333333333333333
 40
0.3333333333333333
 40
0.6666666666666666
 40
0.6666666666666666
 40
0.6666666666666666
 40
0.6666666666666666
 40
1.0
 40
1.0
 40
1.0
 40
1.0
 10
18.0869
 20
4.3052999999999999
 30
0.0
 10
18.0869
 20
4.3052999999999999
 30
0.0
 10
16.573399999999999
 20
-0.4871
 30
0.0
 10
11.1083
 20
-10.1563
 30
0.0
 10
11.1083
 20
-10.1563
 30
0.0
 10
7.9973999999999998
 20
-16.125900000000001
 30
0.0
 10
3.0728
 20
-30.722100000000001
 30
0.0
 10
3.0728
 20
-30.722100000000001
 30
0.0
 10
3.0728
 20
-30.722100000000001
 30
0.0
 10
5.8954000000000004
 20
-18.648299999999999
 30
0.0
 10
8.6699999999999999
 20
-5.7840999999999996
 30
0.0
 10
18.0869
 20
4.3052999999999999
 30
0.0
  0
SPLINE
  5
49
100
AcDbEntity
  8
RÚteg 1
100
AcDbSpline
210
0.0
220
0.0
230
1.0
 70
     1
 71
     3
 72
    20
 73
    16
 74
     0
 42
0.0000000001
 43
0.0000000001
 40
0.0
 40
0.0
 40
0.0
 40
0.0
 40
0.25
 40
0.25
 40
0.25
 40
0.25
 40
0.5
 40
0.5
 40
0.5
 40
0.5
 40
0.75
 40
0.75
 40
0.75
 40
0.75
 40
1.0
 40
1.0
 40
1.0
 40
1.0
 10
26.8504
 20
-34.7074
 30
0.0
 10
22.814699999999998
 20
-43.132199999999997
 30
0.0
 10
13.734
 20
-49.690399999999997
 30
0.0
 10
6.6210000000000004
 20
-56.652099999999997
 30
0.0
 10
6.6210000000000004
 20
-56.652099999999997
 30
0.0
 10
9.8496000000000006
 20
-50.346200000000003
 30
0.0
 10
15.9537
 20
-45.856400000000001
 30
0.0
 10
20.4436
 20
-40.054900000000004
 30
0.0
 10
20.4436
 20
-40.054900000000004
 30
0.0
 10
24.126300000000001
 20
-34.757899999999999
 30
0.0
 10
26.9009
 20
-29.107800000000001
 30
0.0
 10
30.381799999999998
 20
-23.709900000000001
 30
0.0
 10
30.381799999999998
 20
-23.709900000000001
 30
0.0
 10
30.432200000000002
 20
-27.745699999999999
 30
0.0
 10
28.5656
 20
-31.277000000000001
 30
0.0
 10
26.8504
 20
-34.7074
 30
0.0
  0
SPLINE
  5
4A
100
AcDbEntity
  8
RÚteg 1
100
AcDbSpline
210
0.0
220
0.0
230
1.0
 70
     1
 71
     3
 72
    44
 73
    40
 74
     0
 42
0.0000000001
 43
0.0000000001
 40
0.0
 40
0.0
 40
0.0
 40
0.0
 40
0.1
 40
0.1
 40
0.1
 40
0.1
 40
0.2
 40
0.2
 40
0.2
 40
0.2
 40
0.3
 40
0.3
 40
0.3
 40
0.3
 40
0.4
 40
0.4
 40
0.4
 40
0.4
 40
0.5
 40
0.5
 40
0.5
 40
0.5
 40
0.6
 40
0.6
 40
0.6
 40
0.6
 40
0.7
 40
0.7
 40
0.7
 40
0.7
 40
0.7999999999999999
 40
0.7999999999999999
 40
0.7999999999999999
 40
0.7999999999999999
 40
0.8999999999999999
 40
0.8999999999999999
 40
0.8999999999999999
 40
0.8999999999999999
 40
1.0
 40
1.0
 40
1.0
 40
1.0
 10
33.509500000000003
 20
-11.2493
 30
0.0
 10
26.245100000000001
 20
-22.8523
 30
0.0
 10
16.458200000000001
 20
-33.143599999999999
 30
0.0
 10
9.7990999999999993
 20
-44.998800000000003
 30
0.0
 10
9.7990999999999993
 20
-44.998800000000003
 30
0.0
 10
7.9829999999999997
 20
-47.924700000000001
 30
0.0
 10
6.5705
 20
-51.102899999999998
 30
0.0
 10
4.4516999999999998
 20
-53.726199999999999
 30
0.0
 10
4.4516999999999998
 20
-53.726199999999999
 30
0.0
 10
5.7129000000000003
 20
-48.227400000000003
 30
0.0
 10
9.5083000000000002
 20
-44.326099999999997
 30
0.0
 10
10.5197
 20
-38.322800000000001
 30
0.0
 10
10.5197
 20
-38.322800000000001
 30
0.0
 10
14.454599999999999
 20
-24.4497
 30
0.0
 10
21.048999999999999
 20
-10.1899
 30
0.0
 10
28.061199999999999
 20
2.4218999999999999
 30
0.0
 10
28.061199999999999
 20
2.4218999999999999
 30
0.0
 10
28.061199999999999
 20
2.4218999999999999
 30
0.0
 10
35.426499999999997
 20
13.3186
 30
0.0
 10
35.426499999999997
 20
13.3186
 30
0.0
 10
35.426499999999997
 20
13.3186
 30
0.0
 10
34.5184
 20
9.6358999999999995
 30
0.0
 10
31.6934
 20
6.7099000000000002
 30
0.0
 10
29.978200000000001
 20
3.2795000000000001
 30
0.0
 10
29.978200000000001
 20
3.2795000000000001
 30
0.0
 10
23.319099999999999
 20
-8.9792000000000005
 30
0.0
 10
16.909800000000001
 20
-21.7592
 30
0.0
 10
12.826000000000001
 20
-35.195099999999996
 30
0.0
 10
12.826000000000001
 20
-35.195099999999996
 30
0.0
 10
12.826000000000001
 20
-35.195099999999996
 30
0.0
 10
30.362400000000001
 20
-15.7896
 30
0.0
 10
36.435400000000001
 20
-3.6316999999999999
 30
0.0
 10
36.435400000000001
 20
-3.6316999999999999
 30
0.0
 10
36.9206
 20
-2.8414000000000001
 30
0.0
 10
37.4251
 20
-1.8324
 30
0.0
 10
38.0137
 20
-1.0757000000000001
 30
0.0
 10
38.0137
 20
-1.0757000000000001
 30
0.0
 10
37.0047
 20
-5.5319000000000003
 30
0.0
 10
34.650500000000001
 20
-8.8109999999999999
 30
0.0
 10
33.509500000000003
 20
-11.2493
 30
0.0
  0
SPLINE
  5
4B
100
AcDbEntity
  8
RÚteg 1
100
AcDbSpline
210
0.0
220
0.0
230
1.0
 70
     1
 71
     3
 72
    24
 73
    20
 74
     0
 42
0.0000000001
 43
0.0000000001
 40
0.0
 40
0.0
 40
0.0
 40
0.0
 40
0.2
 40
0.2
 40
0.2
 40
0.2
 40
0.4
 40
0.4
 40
0.4
 40
0.4
 40
0.6000000000000001
 40
0.6000000000000001
 40
0.6000000000000001
 40
0.6000000000000001
 40
0.8
 40
0.8
 40
0.8
 40
0.8
 40
1.0
 40
1.0
 40
1.0
 40
1.0
 10
32.197899999999997
 20
54.635100000000001
 30
0.0
 10
24.630800000000001
 20
45.0501
 30
0.0
 10
17.517600000000002
 20
35.364199999999997
 30
0.0
 10
10.858599999999999
 20
25.425899999999999
 30
0.0
 10
10.858599999999999
 20
25.425899999999999
 30
0.0
 10
10.455
 20
24.921500000000002
 30
0.0
 10
9.7990999999999993
 20
24.921500000000002
 30
0.0
 10
9.1937999999999995
 20
24.972000000000001
 30
0.0
 10
9.1937999999999995
 20
24.972000000000001
 30
0.0
 10
14.440300000000001
 20
35.969499999999996
 30
0.0
 10
23.2182
 20
45.251899999999999
 30
0.0
 10
31.340299999999999
 20
55.089199999999998
 30
0.0
 10
31.340299999999999
 20
55.089199999999998
 30
0.0
 10
36.082299999999996
 20
60.285299999999999
 30
0.0
 10
41.026200000000003
 20
65.229100000000003
 30
0.0
 10
46.3232
 20
69.618099999999998
 30
0.0
 10
46.3232
 20
69.618099999999998
 30
0.0
 10
42.186500000000002
 20
64.472399999999993
 30
0.0
 10
36.889499999999998
 20
59.629399999999997
 30
0.0
 10
32.197899999999997
 20
54.635100000000001
 30
0.0
  0
ENDSEC
  0
SECTION
  2
OBJECTS
  0
DICTIONARY
  5
19
100
AcDbDictionary
280
     0
281
     1
  3
ACAD_GROUP
350
1A
  3
ACAD_MLINESTYLE
350
1B
  3
ACAD_LAYOUT
350
1E
  3
ACAD_PLOTSETTINGS
350
22
  3
ACAD_PLOTSTYLENAME
350
1F
  3
ACAD_WIPEOUT_VARS
350
23
  0
DICTIONARY
  5
1A
102
{ACAD_REACTORS
330
19
102
}
100
AcDbDictionary
280
     0
281
     1
  0
DICTIONARY
  5
1B
102
{ACAD_REACTORS
330
19
102
}
100
AcDbDictionary
280
     0
281
     1
  3
Standard
350
1C
  0
MLINESTYLE
  5
1C
102
{ACAD_REACTORS
330
1B
102
}
100
AcDbMlineStyle
  2
Standard
 70
     0
  3

 62
     0
 51
90.0
 52
90.0
 71
     2
 49
0.5
 62
   256
  6
BYLAYER
 49
-0.5
 62
   256
  6
BYLAYER
  0
ACDBDICTIONARYWDFLT
  5
1F
102
{ACAD_REACTORS
330
19
102
}
100
AcDbDictionary
281
     1
  3
Normal
350
1D
100
AcDbDictionaryWithDefault
340
1D
  0
ACDBPLACEHOLDER
  5
1D
102
{ACAD_REACTORS
330
1F
102
}
  0
LAYOUT
  5
20
102
{ACAD_REACTORS
330
1E
102
}
100
AcDbPlotSettings
  1

  2

  4

  6

 40
0.0
 41
0.0
 42
0.0
 43
0.0
 44
0.0
 45
0.0
 46
0.0
 47
0.0
 48
0.0
 49
0.0
140
0.0
141
0.0
142
1.0
143
1.0
 70
  1024
 72
     0
 73
     0
 74
     0
  7

 75
     0
147
1.0
148
0.0
149
0.0
100
AcDbLayout
  1
Model
 70
     0
 71
     0
 10
0.0
 20
0.0
 11
0.0
 21
0.0
 12
0.0
 22
0.0
 32
0.0
 14
0.0
 24
0.0
 34
0.0
 15
0.0
 25
0.0
 35
0.0
146
0.0
 13
0.0
 23
0.0
 33
0.0
 16
0.0
 26
0.0
 36
0.0
 17
0.0
 27
0.0
 37
0.0
 76
     0
330
A
331
0
345
0
346
0
  0
LAYOUT
  5
21
102
{ACAD_REACTORS
330
1E
102
}
100
AcDbPlotSettings
  1

  2

  4

  6

 40
0.0
 41
0.0
 42
0.0
 43
0.0
 44
0.0
 45
0.0
 46
0.0
 47
0.0
 48
0.0
 49
0.0
140
0.0
141
0.0
142
1.0
143
1.0
 70
     0
 72
     0
 73
     0
 74
     0
  7

 75
     0
147
1.0
148
0.0
149
0.0
100
AcDbLayout
  1
Layout1
 70
     0
 71
     0
 10
0.0
 20
0.0
 11
0.0
 21
0.0
 12
0.0
 22
0.0
 32
0.0
 14
0.0
 24
0.0
 34
0.0
 15
0.0
 25
0.0
 35
0.0
146
0.0
 13
0.0
 23
0.0
 33
0.0
 16
0.0
 26
0.0
 36
0.0
 17
0.0
 27
0.0
 37
0.0
 76
     0
330
B
331
0
345
0
346
0
  0
DICTIONARY
  5
1E
102
{ACAD_REACTORS
330
19
102
}
100
AcDbDictionary
280
     0
281
     1
  3
Layout1
350
21
  3
Model
350
20
  0
DICTIONARY
  5
22
102
{ACAD_REACTORS
330
19
102
}
100
AcDbDictionary
280
     0
281
     1
  0
WIPEOUTVARIABLES
  5
23
100
AcDbWipeoutVariables
 70
     1
  0
ENDSEC
  0
EOF
