  0
SECTION
  2
HEADER
  9
$ACADVER
  1
AC1015
  9
$ACADMAINTVER
 70
     6
  9
$DWGCODEPAGE
  3
DOS850
  9
$INSBASE
 10
0.0
 20
0.0
 30
0.0
  9
$EXTMIN
 10
-79.0059
 20
-109.9182
 30
1.000000E+20
  9
$EXTMAX
 10
79.0207
 20
109.8374
 30
-1.000000E+20
  9
$LIMMIN
 10
0.0
 20
0.0
  9
$LIMMAX
 10
0.0
 20
0.0
  9
$ORTHOMODE
 70
     0
  9
$REGENMODE
 70
     1
  9
$FILLMODE
 70
     1
  9
$QTEXTMODE
 70
     0
  9
$MIRRTEXT
 70
     1
  9
$LTSCALE
 40
1.0
  9
$ATTMODE
 70
     1
  9
$TEXTSIZE
 40
0.2
  9
$TRACEWID
 40
0.05
  9
$TEXTSTYLE
  7
Standard
  9
$CLAYER
  8
0
  9
$CELTYPE
  6
Continuous
  9
$CECOLOR
 62
   256
  9
$CELTSCALE
 40
1.0
  9
$DISPSILH
 70
     0
  9
$DIMSCALE
 40
1.0
  9
$DIMASZ
 40
0.18
  9
$DIMEXO
 40
0.0625
  9
$DIMDLI
 40
0.38
  9
$DIMRND
 40
0.0
  9
$DIMDLE
 40
0.0
  9
$DIMEXE
 40
0.18
  9
$DIMTP
 40
0.0
  9
$DIMTM
 40
0.0
  9
$DIMTXT
 40
0.18
  9
$DIMCEN
 40
0.09
  9
$DIMTSZ
 40
0.0
  9
$DIMTOL
 70
     0
  9
$DIMLIM
 70
     0
  9
$DIMTIH
 70
     1
  9
$DIMTOH
 70
     1
  9
$DIMSE1
 70
     0
  9
$DIMSE2
 70
     0
  9
$DIMTAD
 70
     0
  9
$DIMZIN
 70
     0
  9
$DIMBLK
  1

  9
$DIMASO
 70
     1
  9
$DIMSHO
 70
     1
  9
$DIMPOST
  1

  9
$DIMAPOST
  1

  9
$DIMALT
 70
     0
  9
$DIMALTD
 70
     2
  9
$DIMALTF
 40
25.4
  9
$DIMLFAC
 40
1.0
  9
$DIMTOFL
 70
     0
  9
$DIMTVP
 40
0.0
  9
$DIMTIX
 70
     0
  9
$DIMSOXD
 70
     0
  9
$DIMSAH
 70
     0
  9
$DIMBLK1
  1

  9
$DIMBLK2
  1

  9
$DIMSTYLE
  2
Standard
  9
$DIMCLRD
 70
     0
  9
$DIMCLRE
 70
     0
  9
$DIMCLRT
 70
     0
  9
$DIMTFAC
 40
1.0
  9
$DIMGAP
 40
0.09
  9
$DIMJUST
 70
     0
  9
$DIMSD1
 70
     0
  9
$DIMSD2
 70
     0
  9
$DIMTOLJ
 70
     1
  9
$DIMTZIN
 70
     0
  9
$DIMALTZ
 70
     0
  9
$DIMALTTZ
 70
     0
  9
$DIMUPT
 70
     0
  9
$DIMDEC
 70
     4
  9
$DIMTDEC
 70
     4
  9
$DIMALTU
 70
     2
  9
$DIMALTTD
 70
     2
  9
$DIMTXSTY
  7
Standard
  9
$DIMAUNIT
 70
     0
  9
$DIMADEC
 70
     0
  9
$DIMALTRND
 40
0.0
  9
$DIMAZIN
 70
     0
  9
$DIMDSEP
 70
     0
  9
$DIMATFIT
 70
     3
  9
$DIMFRAC
 70
     0
  9
$DIMLDRBLK
  1

  9
$DIMLUNIT
 70
     2
  9
$DIMLWD
 70
     0
  9
$DIMLWE
 70
     0
  9
$DIMTMOVE
 70
     0
  9
$LUNITS
 70
     2
  9
$LUPREC
 70
     4
  9
$SKETCHINC
 40
0.1
  9
$FILLETRAD
 40
0.0
  9
$AUNITS
 70
     0
  9
$AUPREC
 70
     0
  9
$MENU
  1
acad
  9
$ELEVATION
 40
0.0
  9
$PELEVATION
 40
0.0
  9
$THICKNESS
 40
0.0
  9
$LIMCHECK
 70
     0
  9
$CHAMFERA
 40
0.0
  9
$CHAMFERB
 40
0.0
  9
$CHAMFERC
 40
0.0
  9
$CHAMFERD
 40
0.0
  9
$SKPOLY
 70
     0
  9
$TDCREATE
 40
0.000000000
  9
$TDUCREATE
 40
0.000000000
  9
$TDUPDATE
 40
0.000000000
  9
$TDUUPDATE
 40
0.000000000
  9
$TDINDWG
 40
0.0000000000
  9
$TDUSRTIMER
 40
0.0000000000
  9
$USRTIMER
 70
     1
  9
$ANGBASE
 50
0.0
  9
$ANGDIR
 70
     0
  9
$PDMODE
 70
     0
  9
$PDSIZE
 40
0.0
  9
$PLINEWID
 40
0.0
  9
$SPLFRAME
 70
     0
  9
$SPLINETYPE
 70
     6
  9
$SPLINESEGS
 70
     8
  9
$HANDSEED
  5
49
  9
$SURFTAB1
 70
     6
  9
$SURFTAB2
 70
     6
  9
$SURFTYPE
 70
     6
  9
$SURFU
 70
     6
  9
$SURFV
 70
     6
  9
$UCSBASE
  2

  9
$UCSNAME
  2

  9
$UCSORG
 10
0.0
 20
0.0
 30
0.0
  9
$UCSXDIR
 10
1.0
 20
0.0
 30
0.0
  9
$UCSYDIR
 10
0.0
 20
1.0
 30
0.0
  9
$UCSORTHOREF
  2

  9
$UCSORTHOVIEW
 70
     0
  9
$UCSORGTOP
 10
0.0
 20
0.0
 30
0.0
  9
$UCSORGBOTTOM
 10
0.0
 20
0.0
 30
0.0
  9
$UCSORGLEFT
 10
0.0
 20
0.0
 30
0.0
  9
$UCSORGRIGHT
 10
0.0
 20
0.0
 30
0.0
  9
$UCSORGFRONT
 10
0.0
 20
0.0
 30
0.0
  9
$UCSORGBACK
 10
0.0
 20
0.0
 30
0.0
  9
$PUCSBASE
  2

  9
$PUCSNAME
  2

  9
$PUCSORG
 10
0.0
 20
0.0
 30
0.0
  9
$PUCSXDIR
 10
1.0
 20
0.0
 30
0.0
  9
$PUCSYDIR
 10
0.0
 20
1.0
 30
0.0
  9
$PUCSORTHOREF
  2

  9
$PUCSORTHOVIEW
 70
     0
  9
$PUCSORGTOP
 10
0.0
 20
0.0
 30
0.0
  9
$PUCSORGBOTTOM
 10
0.0
 20
0.0
 30
0.0
  9
$PUCSORGLEFT
 10
0.0
 20
0.0
 30
0.0
  9
$PUCSORGRIGHT
 10
0.0
 20
0.0
 30
0.0
  9
$PUCSORGFRONT
 10
0.0
 20
0.0
 30
0.0
  9
$PUCSORGBACK
 10
0.0
 20
0.0
 30
0.0
  9
$USERI1
 70
     0
  9
$USERI2
 70
     0
  9
$USERI3
 70
     0
  9
$USERI4
 70
     0
  9
$USERI5
 70
     0
  9
$USERR1
 40
0.0
  9
$USERR2
 40
0.0
  9
$USERR3
 40
0.0
  9
$USERR4
 40
0.0
  9
$USERR5
 40
0.0
  9
$WORLDVIEW
 70
     1
  9
$SHADEDGE
 70
     3
  9
$SHADEDIF
 70
    70
  9
$TILEMODE
 70
     1
  9
$MAXACTVP
 70
    16
  9
$PINSBASE
 10
0.0
 20
0.0
 30
0.0
  9
$PLIMCHECK
 70
     0
  9
$PEXTMIN
 10
1.000000E+20
 20
1.000000E+20
 30
1.000000E+20
  9
$PEXTMAX
 10
-1.000000E+20
 20
-1.000000E+20
 30
-1.000000E+20
  9
$PLIMMIN
 10
0.0
 20
0.0
  9
$PLIMMAX
 10
12.0
 20
9.0
  9
$UNITMODE
 70
     0
  9
$VISRETAIN
 70
     0
  9
$PLINEGEN
 70
     1
  9
$PSLTSCALE
 70
     0
  9
$TREEDEPTH
 70
  3020
  9
$CMLSTYLE
  2
Standard
  9
$CMLJUST
 70
     0
  9
$CMLSCALE
 40
1.0
  9
$PROXYGRAPHICS
 70
     0
  9
$MEASUREMENT
 70
     0
  9
$CELWEIGHT
370
     0
  9
$ENDCAPS
280
     0
  9
$JOINSTYLE
280
     0
  9
$LWDISPLAY
290
     0
  9
$INSUNITS
 70
     4
  9
$HYPERLINKBASE
  1

  9
$XEDIT
290
     1
  9
$CEPSNTYPE
380
     0
  9
$PSTYLEMODE
290
     1
  9
$FINGERPRINTGUID
  2

  9
$VERSIONGUID
  2

  9
$EXTNAMES
290
     1
  9
$PSVPSCALE
 40
0.0
  0
ENDSEC
  0
SECTION
  2
CLASSES
  0
CLASS
  1
LWPOLYLINE
  2
AcDbPolyline
  3
AutoCAD 2000
 90
    32768
280
     0
281
     1
  0
CLASS
  1
IMAGE
  2
AcDbRasterImage
  3
ISM
 90
    32895
280
     0
281
     1
  0
CLASS
  1
OLE2FRAME
  2
AcDbOle2Frame
  3
AutoCAD 2000
 90
    32768
280
     0
281
     1
  0
CLASS
  1
HATCH
  2
AcDbHatch
  3
AutoCAD 2000
 90
    32768
280
     0
281
     1
  0
CLASS
  1
DICTIONARYVAR
  2
AcDbDictionaryVar
  3
AutoCAD 2000
 90
    32768
280
     0
281
     0
  0
CLASS
  1
RASTERVARIABLES
  2
AcDbRasterVariables
  3
ISM
 90
    32768
280
     0
281
     0
  0
CLASS
  1
IMAGEDEF
  2
AcDbRasterImageDef
  3
ISM
 90
    32768
280
     0
281
     0
  0
CLASS
  1
IMAGEDEF_REACTOR
  2
AcDbRasterImageDefReactor
  3
ISM
 90
    32769
280
     0
281
     0
  0
CLASS
  1
IDBUFFER
  2
AcDbIdBuffer
  3
AutoCAD 2000
 90
    32768
280
     0
281
     0
  0
CLASS
  1
SPATIAL_FILTER
  2
AcDbSpatialFilter
  3
AutoCAD 2000
 90
    32768
280
     0
281
     0
  0
CLASS
  1
XRECORD
  2
AcDbXrecord
  3
AutoCAD 2000
 90
    32768
280
     0
281
     0
  0
CLASS
  1
SORTENTSTABLE
  2
AcDbSortentsTable
  3
AutoCAD 2000
 90
    32768
280
     0
281
     0
  0
CLASS
  1
LAYER_INDEX
  2
AcDbLayerIndex
  3
AutoCAD 2000
 90
    32768
280
     0
281
     0
  0
CLASS
  1
SPATIAL_INDEX
  2
AcDbSpatialIndex
  3
AutoCAD 2000
 90
    32768
280
     0
281
     0
  0
CLASS
  1
OBJECT_PTR
  2
CAseDLPNTableRecord
  3
"ASE-LPNTableRecord"
 90
    32769
280
     0
281
     0
  0
CLASS
  1
LAYOUT
  2
AcDbLayout
  3
AutoCAD 2000
 90
        0
280
     0
281
     0
  0
CLASS
  1
PLOTSETTINGS
  2
AcDbPlotSettings
  3
AutoCAD 2000
 90
    32768
280
     0
281
     0
  0
CLASS
  1
ACDBDICTIONARYWDFLT
  2
AcDbDictionaryWithDefault
  3
AutoCAD 2000
 90
        0
280
     0
281
     0
  0
CLASS
  1
ACDBPLACEHOLDER
  2
AcDbPlaceHolder
  3
AutoCAD 2000
 90
        0
280
     0
281
     0
  0
CLASS
  1
VBA_PROJECT
  2
AcDbVbaProject
  3
acadvba
 90
    32768
280
     0
281
     0
  0
CLASS
  1
WIPEOUT
  2
AcDbWipeout
  3
WipeOut|AutoCAD Express Tool|expresstools@autodesk.com
 90
    32895
280
     0
281
     1
  0
CLASS
  1
WIPEOUTVARIABLES
  2
AcDbWipeoutVariables
  3
WipeOut|AutoCAD Express Tool|expresstools@autodesk.com
 90
        0
280
     0
281
     0
  0
CLASS
  1
RTEXT
  2
RText
  3
RText|AutoCAD Express Tool|expresstools@autodesk.com
 90
    32768
280
     0
281
     1
  0
CLASS
  1
ARCALIGNEDTEXT
  2
AcDbArcAlignedText
  3
ATEXT|AutoCAD Express Tool|expresstools@autodesk.com
 90
    32768
280
     0
281
     1
  0
ENDSEC
  0
SECTION
  2
TABLES
  0
TABLE
  2
VPORT
  5
7
100
AcDbSymbolTable
 70
     1
  0
VPORT
  5
15
100
AcDbSymbolTableRecord
100
AcDbViewportTableRecord
  2
*ACTIVE
 70
     0
 10
0.0
 20
0.0
 11
1.0
 21
1.0
 12
6.591288
 22
4.579184
 13
0.0
 23
0.0
 14
1.0
 24
1.0
 15
0.0
 25
0.0
 16
0.0
 26
0.0
 36
1.0
 17
0.0
 27
0.0
 37
0.0
 40
9.158369
 41
0.688564
 42
50.0
 43
0.0
 44
0.0
 50
0.0
 51
0.0
 71
     0
 72
   100
 73
     1
 74
     1
 75
     0
 76
     0
 77
     0
 78
     0
281
     0
 65
     0
110
0.0
120
0.0
130
0.0
111
1.0
121
0.0
131
0.0
112
0.0
122
1.0
132
0.0
345
0
346
0
 79
     0
146
0.0
  0
ENDTAB
  0
TABLE
  2
LTYPE
  5
4
100
AcDbSymbolTable
 70
     3
  0
LTYPE
  5
11
100
AcDbSymbolTableRecord
100
AcDbLinetypeTableRecord
  2
ByBlock
 70
    64
  3

 72
    65
 73
     0
 40
0.0
  0
LTYPE
  5
12
100
AcDbSymbolTableRecord
100
AcDbLinetypeTableRecord
  2
ByLayer
 70
    64
  3

 72
    65
 73
     0
 40
0.0
  0
LTYPE
  5
13
100
AcDbSymbolTableRecord
100
AcDbLinetypeTableRecord
  2
Continuous
 70
    64
  3
Solid line
 72
    65
 73
     0
 40
0.0
  0
ENDTAB
  0
TABLE
  2
LAYER
  5
2
100
AcDbSymbolTable
 70
     2
  0
LAYER
  5
14
100
AcDbSymbolTableRecord
100
AcDbLayerTableRecord
  2
0
 70
     0
 62
     7
  6
Continuous
290
     1
370
    -3
390
1D
  0
LAYER
  5
24
100
AcDbSymbolTableRecord
100
AcDbLayerTableRecord
  2
RÚteg 1
 70
     0
 62
     7
  6
Continuous
290
     1
370
    -3
390
1F
  0
ENDTAB
  0
TABLE
  2
STYLE
  5
3
100
AcDbSymbolTable
 70
     1
  0
STYLE
  5
17
100
AcDbSymbolTableRecord
100
AcDbTextStyleTableRecord
  2
Standard
 70
     0
 40
0.0
 41
1.0
 50
0.0
 71
     0
 42
0.0
  3
txt
  4

  0
ENDTAB
  0
TABLE
  2
VIEW
  5
5
100
AcDbSymbolTable
 70
     0
  0
ENDTAB
  0
TABLE
  2
UCS
  5
6
100
AcDbSymbolTable
 70
     0
  0
ENDTAB
  0
TABLE
  2
APPID
  5
8
100
AcDbSymbolTable
 70
     1
  0
APPID
  5
16
100
AcDbSymbolTableRecord
100
AcDbRegAppTableRecord
  2
ACAD
 70
     0
  0
ENDTAB
  0
TABLE
  2
DIMSTYLE
  5
9
100
AcDbSymbolTable
 70
     1
100
AcDbDimStyleTable
 71
     0
  0
DIMSTYLE
105
18
100
AcDbSymbolTableRecord
100
AcDbDimStyleTableRecord
  2
Standard
 70
     0
  3

  4

 40
1.0
 41
0.18
 42
0.0625
 43
0.38
 44
0.18
 45
0.0
 46
0.0
 47
0.0
 48
0.0
 71
     0
 72
     0
 73
     1
 74
     1
 75
     0
 76
     0
 77
     0
 78
     0
 79
     0
140
0.18
141
0.09
142
0.0
143
25.4
144
1.0
145
0.0
146
1.0
147
0.09
148
0.0
170
     0
171
     2
172
     0
173
     0
174
     0
175
     0
176
     0
177
     0
178
     0
179
     0
271
     4
272
     4
273
     2
274
     2
275
     0
276
     0
277
     2
278
    46
279
     0
280
     0
281
     0
282
     0
283
     1
284
     0
285
     0
286
     0
288
     0
340
17
341
0
342
0
343
0
344
0
371
    -2
372
    -2
  0
ENDTAB
  0
TABLE
  2
BLOCK_RECORD
  5
1
100
AcDbSymbolTable
 70
     0
  0
BLOCK_RECORD
  5
A
100
AcDbSymbolTableRecord
100
AcDbBlockTableRecord
  2
*MODEL_SPACE
340
20
  0
BLOCK_RECORD
  5
B
100
AcDbSymbolTableRecord
100
AcDbBlockTableRecord
  2
*PAPER_SPACE
340
21
  0
ENDTAB
  0
ENDSEC
  0
SECTION
  2
BLOCKS
  0
BLOCK
  5
D
100
AcDbEntity
  8
0
100
AcDbBlockBegin
  2
*MODEL_SPACE
 70
     0
 10
0.0
 20
0.0
 30
0.0
  3
*MODEL_SPACE
  1

  0
ENDBLK
  5
E
100
AcDbEntity
  8
0
100
AcDbBlockEnd
  0
BLOCK
  5
F
100
AcDbEntity
 67
     1
  8
0
100
AcDbBlockBegin
  2
*PAPER_SPACE
 70
     0
 10
0.0
 20
0.0
 30
0.0
  3
*PAPER_SPACE
  1

  0
ENDBLK
  5
10
100
AcDbEntity
 67
     1
  8
0
100
AcDbBlockEnd
  0
ENDSEC
  0
SECTION
  2
ENTITIES
  0
SPLINE
  5
25
100
AcDbEntity
  8
RÚteg 1
100
AcDbSpline
210
0.0
220
0.0
230
1.0
 70
     1
 71
     3
 72
   304
 73
   300
 74
     0
 42
0.0000000001
 43
0.0000000001
 40
0.0
 40
0.0
 40
0.0
 40
0.0
 40
0.0133333333333333
 40
0.0133333333333333
 40
0.0133333333333333
 40
0.0133333333333333
 40
0.0266666666666667
 40
0.0266666666666667
 40
0.0266666666666667
 40
0.0266666666666667
 40
0.04
 40
0.04
 40
0.04
 40
0.04
 40
0.0533333333333333
 40
0.0533333333333333
 40
0.0533333333333333
 40
0.0533333333333333
 40
0.0666666666666667
 40
0.0666666666666667
 40
0.0666666666666667
 40
0.0666666666666667
 40
0.08
 40
0.08
 40
0.08
 40
0.08
 40
0.0933333333333333
 40
0.0933333333333333
 40
0.0933333333333333
 40
0.0933333333333333
 40
0.1066666666666667
 40
0.1066666666666667
 40
0.1066666666666667
 40
0.1066666666666667
 40
0.12
 40
0.12
 40
0.12
 40
0.12
 40
0.1333333333333333
 40
0.1333333333333333
 40
0.1333333333333333
 40
0.1333333333333333
 40
0.1466666666666667
 40
0.1466666666666667
 40
0.1466666666666667
 40
0.1466666666666667
 40
0.16
 40
0.16
 40
0.16
 40
0.16
 40
0.1733333333333333
 40
0.1733333333333333
 40
0.1733333333333333
 40
0.1733333333333333
 40
0.1866666666666667
 40
0.1866666666666667
 40
0.1866666666666667
 40
0.1866666666666667
 40
0.2
 40
0.2
 40
0.2
 40
0.2
 40
0.2133333333333334
 40
0.2133333333333334
 40
0.2133333333333334
 40
0.2133333333333334
 40
0.2266666666666667
 40
0.2266666666666667
 40
0.2266666666666667
 40
0.2266666666666667
 40
0.24
 40
0.24
 40
0.24
 40
0.24
 40
0.2533333333333334
 40
0.2533333333333334
 40
0.2533333333333334
 40
0.2533333333333334
 40
0.2666666666666667
 40
0.2666666666666667
 40
0.2666666666666667
 40
0.2666666666666667
 40
0.28
 40
0.28
 40
0.28
 40
0.28
 40
0.2933333333333333
 40
0.2933333333333333
 40
0.2933333333333333
 40
0.2933333333333333
 40
0.3066666666666666
 40
0.3066666666666666
 40
0.3066666666666666
 40
0.3066666666666666
 40
0.3199999999999999
 40
0.3199999999999999
 40
0.3199999999999999
 40
0.3199999999999999
 40
0.3333333333333332
 40
0.3333333333333332
 40
0.3333333333333332
 40
0.3333333333333332
 40
0.3466666666666665
 40
0.3466666666666665
 40
0.3466666666666665
 40
0.3466666666666665
 40
0.3599999999999998
 40
0.3599999999999998
 40
0.3599999999999998
 40
0.3599999999999998
 40
0.3733333333333331
 40
0.3733333333333331
 40
0.3733333333333331
 40
0.3733333333333331
 40
0.3866666666666664
 40
0.3866666666666664
 40
0.3866666666666664
 40
0.3866666666666664
 40
0.3999999999999997
 40
0.3999999999999997
 40
0.3999999999999997
 40
0.3999999999999997
 40
0.4133333333333331
 40
0.4133333333333331
 40
0.4133333333333331
 40
0.4133333333333331
 40
0.4266666666666664
 40
0.4266666666666664
 40
0.4266666666666664
 40
0.4266666666666664
 40
0.4399999999999997
 40
0.4399999999999997
 40
0.4399999999999997
 40
0.4399999999999997
 40
0.453333333333333
 40
0.453333333333333
 40
0.453333333333333
 40
0.453333333333333
 40
0.4666666666666663
 40
0.4666666666666663
 40
0.4666666666666663
 40
0.4666666666666663
 40
0.4799999999999996
 40
0.4799999999999996
 40
0.4799999999999996
 40
0.4799999999999996
 40
0.4933333333333329
 40
0.4933333333333329
 40
0.4933333333333329
 40
0.4933333333333329
 40
0.5066666666666663
 40
0.5066666666666663
 40
0.5066666666666663
 40
0.5066666666666663
 40
0.5199999999999996
 40
0.5199999999999996
 40
0.5199999999999996
 40
0.5199999999999996
 40
0.5333333333333329
 40
0.5333333333333329
 40
0.5333333333333329
 40
0.5333333333333329
 40
0.5466666666666662
 40
0.5466666666666662
 40
0.5466666666666662
 40
0.5466666666666662
 40
0.5599999999999995
 40
0.5599999999999995
 40
0.5599999999999995
 40
0.5599999999999995
 40
0.5733333333333328
 40
0.5733333333333328
 40
0.5733333333333328
 40
0.5733333333333328
 40
0.5866666666666661
 40
0.5866666666666661
 40
0.5866666666666661
 40
0.5866666666666661
 40
0.5999999999999994
 40
0.5999999999999994
 40
0.5999999999999994
 40
0.5999999999999994
 40
0.6133333333333327
 40
0.6133333333333327
 40
0.6133333333333327
 40
0.6133333333333327
 40
0.626666666666666
 40
0.626666666666666
 40
0.626666666666666
 40
0.626666666666666
 40
0.6399999999999994
 40
0.6399999999999994
 40
0.6399999999999994
 40
0.6399999999999994
 40
0.6533333333333327
 40
0.6533333333333327
 40
0.6533333333333327
 40
0.6533333333333327
 40
0.666666666666666
 40
0.666666666666666
 40
0.666666666666666
 40
0.666666666666666
 40
0.6799999999999993
 40
0.6799999999999993
 40
0.6799999999999993
 40
0.6799999999999993
 40
0.6933333333333326
 40
0.6933333333333326
 40
0.6933333333333326
 40
0.6933333333333326
 40
0.7066666666666659
 40
0.7066666666666659
 40
0.7066666666666659
 40
0.7066666666666659
 40
0.7199999999999992
 40
0.7199999999999992
 40
0.7199999999999992
 40
0.7199999999999992
 40
0.7333333333333325
 40
0.7333333333333325
 40
0.7333333333333325
 40
0.7333333333333325
 40
0.7466666666666658
 40
0.7466666666666658
 40
0.7466666666666658
 40
0.7466666666666658
 40
0.7599999999999991
 40
0.7599999999999991
 40
0.7599999999999991
 40
0.7599999999999991
 40
0.7733333333333324
 40
0.7733333333333324
 40
0.7733333333333324
 40
0.7733333333333324
 40
0.7866666666666657
 40
0.7866666666666657
 40
0.7866666666666657
 40
0.7866666666666657
 40
0.7999999999999991
 40
0.7999999999999991
 40
0.7999999999999991
 40
0.7999999999999991
 40
0.8133333333333324
 40
0.8133333333333324
 40
0.8133333333333324
 40
0.8133333333333324
 40
0.8266666666666657
 40
0.8266666666666657
 40
0.8266666666666657
 40
0.8266666666666657
 40
0.839999999999999
 40
0.839999999999999
 40
0.839999999999999
 40
0.839999999999999
 40
0.8533333333333323
 40
0.8533333333333323
 40
0.8533333333333323
 40
0.8533333333333323
 40
0.8666666666666656
 40
0.8666666666666656
 40
0.8666666666666656
 40
0.8666666666666656
 40
0.8799999999999989
 40
0.8799999999999989
 40
0.8799999999999989
 40
0.8799999999999989
 40
0.8933333333333322
 40
0.8933333333333322
 40
0.8933333333333322
 40
0.8933333333333322
 40
0.9066666666666655
 40
0.9066666666666655
 40
0.9066666666666655
 40
0.9066666666666655
 40
0.9199999999999988
 40
0.9199999999999988
 40
0.9199999999999988
 40
0.9199999999999988
 40
0.9333333333333321
 40
0.9333333333333321
 40
0.9333333333333321
 40
0.9333333333333321
 40
0.9466666666666654
 40
0.9466666666666654
 40
0.9466666666666654
 40
0.9466666666666654
 40
0.9599999999999987
 40
0.9599999999999987
 40
0.9599999999999987
 40
0.9599999999999987
 40
0.9733333333333321
 40
0.9733333333333321
 40
0.9733333333333321
 40
0.9733333333333321
 40
0.9866666666666654
 40
0.9866666666666654
 40
0.9866666666666654
 40
0.9866666666666654
 40
1.0
 40
1.0
 40
1.0
 40
1.0
 10
65.039699999999996
 20
-82.091700000000003
 30
0.0
 10
61.7836
 20
-76.129800000000003
 30
0.0
 10
56.9223
 20
-69.892600000000002
 30
0.0
 10
50.364100000000001
 20
-67.4161
 30
0.0
 10
50.364100000000001
 20
-67.4161
 30
0.0
 10
46.420000000000002
 20
-65.352400000000003
 30
0.0
 10
41.7881
 20
-64.939599999999999
 30
0.0
 10
38.119199999999999
 20
-62.233800000000002
 30
0.0
 10
38.119199999999999
 20
-62.233800000000002
 30
0.0
 10
37.385399999999997
 20
-55.079500000000003
 30
0.0
 10
36.880899999999997
 20
-47.053800000000003
 30
0.0
 10
37.9816
 20
-39.8994
 30
0.0
 10
37.9816
 20
-39.8994
 30
0.0
 10
43.072200000000002
 20
-35.405000000000001
 30
0.0
 10
44.952500000000001
 20
-29.5806
 30
0.0
 10
46.374200000000002
 20
-23.572800000000001
 30
0.0
 10
46.374200000000002
 20
-23.572800000000001
 30
0.0
 10
47.658299999999997
 20
-12.7037
 30
0.0
 10
46.236600000000003
 20
-0.7339
 30
0.0
 10
52.336199999999998
 20
8.0713000000000008
 30
0.0
 10
52.336199999999998
 20
8.0713000000000008
 30
0.0
 10
56.096800000000002
 20
11.327500000000001
 30
0.0
 10
62.012900000000002
 20
11.6485
 30
0.0
 10
66.415499999999994
 20
9.6305999999999994
 30
0.0
 10
66.415499999999994
 20
9.6305999999999994
 30
0.0
 10
69.258899999999997
 20
8.4840999999999998
 30
0.0
 10
68.433400000000006
 20
5.3197000000000001
 30
0.0
 10
69.442400000000006
 20
3.2101000000000002
 30
0.0
 10
69.442400000000006
 20
3.2101000000000002
 30
0.0
 10
72.560900000000004
 20
-2.2932000000000001
 30
0.0
 10
67.699600000000004
 20
-7.7507000000000001
 30
0.0
 10
65.635900000000007
 20
-11.7865
 30
0.0
 10
65.635900000000007
 20
-11.7865
 30
0.0
 10
71.047499999999999
 20
-7.4297000000000004
 30
0.0
 10
75.633700000000005
 20
-1.6970000000000001
 30
0.0
 10
74.808099999999996
 20
5.7782999999999998
 30
0.0
 10
74.808099999999996
 20
5.7782999999999998
 30
0.0
 10
74.670599999999993
 20
7.9795999999999996
 30
0.0
 10
76.504999999999995
 20
10.0892
 30
0.0
 10
74.945700000000002
 20
12.061199999999999
 30
0.0
 10
74.945700000000002
 20
12.061199999999999
 30
0.0
 10
68.525199999999998
 20
18.711099999999998
 30
0.0
 10
61.2791
 20
23.2514
 30
0.0
 10
53.1158
 20
25.681999999999999
 30
0.0
 10
53.1158
 20
25.681999999999999
 30
0.0
 10
53.941299999999998
 20
28.296099999999999
 30
0.0
 10
54.996099999999998
 20
30.8185
 30
0.0
 10
56.4636
 20
33.157400000000003
 30
0.0
 10
56.4636
 20
33.157400000000003
 30
0.0
 10
56.4636
 20
33.157400000000003
 30
0.0
 10
57.9771
 20
38.523200000000003
 30
0.0
 10
57.9771
 20
38.523200000000003
 30
0.0
 10
57.9771
 20
38.523200000000003
 30
0.0
 10
59.031799999999997
 20
41.825200000000002
 30
0.0
 10
58.252200000000002
 20
45.906799999999997
 30
0.0
 10
60.453600000000002
 20
48.7502
 30
0.0
 10
60.453600000000002
 20
48.7502
 30
0.0
 10
65.681799999999996
 20
54.391199999999998
 30
0.0
 10
60.912199999999999
 20
64.618200000000002
 30
0.0
 10
69.167199999999994
 20
68.608099999999993
 30
0.0
 10
69.167199999999994
 20
68.608099999999993
 30
0.0
 10
66.920000000000002
 20
68.562299999999993
 30
0.0
 10
64.764600000000002
 20
68.241200000000006
 30
0.0
 10
62.746699999999997
 20
67.690899999999999
 30
0.0
 10
62.746699999999997
 20
67.690899999999999
 30
0.0
 10
58.389800000000001
 20
67.323999999999998
 30
0.0
 10
53.457500000000003
 20
65.354500000000002
 30
0.0
 10
50.6464
 20
61.940600000000003
 30
0.0
 10
50.6464
 20
61.940600000000003
 30
0.0
 10
43.932499999999997
 20
52.713200000000001
 30
0.0
 10
35.000599999999999
 20
50.401200000000003
 30
0.0
 10
28.8094
 20
42.192100000000003
 30
0.0
 10
28.8094
 20
42.192100000000003
 30
0.0
 10
29.864100000000001
 20
46.686500000000002
 30
0.0
 10
30.689699999999998
 20
51.639499999999998
 30
0.0
 10
33.854100000000003
 20
55.491799999999998
 30
0.0
 10
33.854100000000003
 20
55.491799999999998
 30
0.0
 10
37.018500000000003
 20
57.188699999999997
 30
0.0
 10
40.137099999999997
 20
59.069000000000003
 30
0.0
 10
43.026299999999999
 20
61.5914
 30
0.0
 10
43.026299999999999
 20
61.5914
 30
0.0
 10
47.841700000000003
 20
66.452699999999993
 30
0.0
 10
50.364100000000001
 20
73.056700000000006
 30
0.0
 10
48.529699999999998
 20
79.935900000000004
 30
0.0
 10
48.529699999999998
 20
79.935900000000004
 30
0.0
 10
47.795900000000003
 20
81.265799999999999
 30
0.0
 10
47.016300000000001
 20
82.549999999999997
 30
0.0
 10
46.6952
 20
84.063400000000001
 30
0.0
 10
46.6952
 20
84.063400000000001
 30
0.0
 10
48.346200000000003
 20
92.089100000000002
 30
0.0
 10
39.770200000000003
 20
95.482799999999997
 30
0.0
 10
35.505099999999999
 20
100.25239999999999
 30
0.0
 10
35.505099999999999
 20
100.25239999999999
 30
0.0
 10
33.945799999999998
 20
104.42570000000001
 30
0.0
 10
38.761200000000002
 20
107.17740000000001
 30
0.0
 10
40.870800000000003
 20
109.7457
 30
0.0
 10
40.870800000000003
 20
109.7457
 30
0.0
 10
40.870800000000003
 20
109.7457
 30
0.0
 10
37.660600000000002
 20
108.3698
 30
0.0
 10
37.660600000000002
 20
108.3698
 30
0.0
 10
37.660600000000002
 20
108.3698
 30
0.0
 10
32.340699999999998
 20
103.73779999999999
 30
0.0
 10
25.277999999999999
 20
103.32510000000001
 30
0.0
 10
19.453600000000002
 20
99.793800000000005
 30
0.0
 10
19.453600000000002
 20
99.793800000000005
 30
0.0
 10
14.179600000000001
 20
96.491799999999998
 30
0.0
 10
13.033099999999999
 20
90.621499999999997
 30
0.0
 10
9.0890000000000004
 20
86.356399999999994
 30
0.0
 10
9.0890000000000004
 20
86.356399999999994
 30
0.0
 10
7.9424999999999999
 20
85.209900000000005
 30
0.0
 10
6.5208000000000004
 20
83.7423
 30
0.0
 10
5.2366999999999999
 20
83.146100000000004
 30
0.0
 10
5.2366999999999999
 20
83.146100000000004
 30
0.0
 10
4.0442999999999998
 20
88.649500000000003
 30
0.0
 10
-1.9176
 20
90.392200000000003
 30
0.0
 10
-6.2285000000000004
 20
92.318399999999997
 30
0.0
 10
-6.2285000000000004
 20
92.318399999999997
 30
0.0
 10
-11.1357
 20
96.262500000000003
 30
0.0
 10
-12.007
 20
105.7557
 30
0.0
 10
-20.124500000000001
 20
105.2971
 30
0.0
 10
-20.124500000000001
 20
105.2971
 30
0.0
 10
-27.003599999999999
 20
104.01300000000001
 30
0.0
 10
-33.332500000000003
 20
108.6909
 30
0.0
 10
-39.386200000000002
 20
104.8385
 30
0.0
 10
-39.386200000000002
 20
104.8385
 30
0.0
 10
-43.330300000000001
 20
101.1696
 30
0.0
 10
-43.284399999999998
 20
94.336299999999994
 30
0.0
 10
-41.358199999999997
 20
89.704300000000003
 30
0.0
 10
-41.358199999999997
 20
89.704300000000003
 30
0.0
 10
-39.248600000000003
 20
93.373199999999997
 30
0.0
 10
-35.763100000000001
 20
98.096900000000005
 30
0.0
 10
-31.1311
 20
98.280299999999997
 30
0.0
 10
-31.1311
 20
98.280299999999997
 30
0.0
 10
-32.828000000000003
 20
100.3441
 30
0.0
 10
-34.983499999999999
 20
101.5365
 30
0.0
 10
-36.772100000000002
 20
103.004
 30
0.0
 10
-36.772100000000002
 20
103.004
 30
0.0
 10
-35.396299999999997
 20
103.1875
 30
0.0
 10
-34.020499999999998
 20
102.2244
 30
0.0
 10
-32.828000000000003
 20
101.4906
 30
0.0
 10
-32.828000000000003
 20
101.4906
 30
0.0
 10
-23.747499999999999
 20
96.904499999999999
 30
0.0
 10
-29.204999999999998
 20
87.044300000000007
 30
0.0
 10
-28.517099999999999
 20
79.614800000000002
 30
0.0
 10
-28.517099999999999
 20
79.614800000000002
 30
0.0
 10
-28.700500000000002
 20
74.891099999999994
 30
0.0
 10
-24.251999999999999
 20
72.047700000000006
 30
0.0
 10
-23.4724
 20
67.690899999999999
 30
0.0
 10
-23.4724
 20
67.690899999999999
 30
0.0
 10
-27.003599999999999
 20
66.269199999999998
 30
0.0
 10
-30.6267
 20
65.076800000000006
 30
0.0
 10
-34.020499999999998
 20
63.425800000000002
 30
0.0
 10
-34.020499999999998
 20
63.425800000000002
 30
0.0
 10
-34.020499999999998
 20
63.425800000000002
 30
0.0
 10
-40.762
 20
64.480599999999995
 30
0.0
 10
-40.762
 20
64.480599999999995
 30
0.0
 10
-40.762
 20
64.480599999999995
 30
0.0
 10
-46.357100000000003
 20
64.9392
 30
0.0
 10
-49.659100000000002
 20
59.5276
 30
0.0
 10
-52.548400000000001
 20
55.629399999999997
 30
0.0
 10
-52.548400000000001
 20
55.629399999999997
 30
0.0
 10
-52.548400000000001
 20
55.629399999999997
 30
0.0
 10
-56.354799999999997
 20
53.657400000000003
 30
0.0
 10
-56.354799999999997
 20
53.657400000000003
 30
0.0
 10
-56.354799999999997
 20
53.657400000000003
 30
0.0
 10
-59.932000000000002
 20
51.822899999999997
 30
0.0
 10
-60.023699999999998
 20
48.016399999999997
 30
0.0
 10
-60.023699999999998
 20
44.485100000000003
 30
0.0
 10
-60.023699999999998
 20
44.485100000000003
 30
0.0
 10
-59.335799999999999
 20
44.9437
 30
0.0
 10
-59.1524
 20
45.677500000000002
 30
0.0
 10
-58.510300000000001
 20
46.136099999999999
 30
0.0
 10
-58.510300000000001
 20
46.136099999999999
 30
0.0
 10
-56.217199999999998
 20
47.512
 30
0.0
 10
-53.190399999999997
 20
49.346400000000003
 30
0.0
 10
-50.530500000000004
 20
47.512
 30
0.0
 10
-50.530500000000004
 20
47.512
 30
0.0
 10
-51.172600000000003
 20
44.9437
 30
0.0
 10
-52.2273
 20
42.558999999999997
 30
0.0
 10
-52.2273
 20
39.715600000000002
 30
0.0
 10
-52.2273
 20
39.715600000000002
 30
0.0
 10
-52.410800000000002
 20
35.450499999999998
 30
0.0
 10
-50.392899999999997
 20
31.552299999999999
 30
0.0
 10
-51.768700000000003
 20
27.332999999999998
 30
0.0
 10
-51.768700000000003
 20
27.332999999999998
 30
0.0
 10
-54.933100000000003
 20
28.892299999999999
 30
0.0
 10
-58.097499999999997
 20
30.451599999999999
 30
0.0
 10
-61.720599999999997
 20
30.8643
 30
0.0
 10
-61.720599999999997
 20
30.8643
 30
0.0
 10
-68.737399999999994
 20
31.322900000000001
 30
0.0
 10
-73.873800000000003
 20
38.339700000000001
 30
0.0
 10
-78.230599999999995
 20
43.384500000000003
 30
0.0
 10
-78.230599999999995
 20
43.384500000000003
 30
0.0
 10
-79.147900000000007
 20
39.302799999999998
 30
0.0
 10
-79.272800000000004
 20
34.0398
 30
0.0
 10
-78.246099999999998
 20
29.7239
 30
0.0
 10
-78.246099999999998
 20
29.7239
 30
0.0
 10
-77.097300000000004
 20
25.867100000000001
 30
0.0
 10
-76.129400000000004
 20
24.961400000000001
 30
0.0
 10
-76.075100000000006
 20
9.9057999999999993
 30
0.0
 10
-76.075100000000006
 20
9.9057999999999993
 30
0.0
 10
-75.983500000000006
 20
-2.9352999999999998
 30
0.0
 10
-63.188200000000002
 20
-10.823399999999999
 30
0.0
 10
-54.061799999999998
 20
-18.069500000000001
 30
0.0
 10
-54.061799999999998
 20
-18.069500000000001
 30
0.0
 10
-50.851500000000001
 20
-23.435199999999998
 30
0.0
 10
-47.457799999999999
 20
-28.709299999999999
 30
0.0
 10
-42.4589
 20
-33.341299999999997
 30
0.0
 10
-42.4589
 20
-33.341299999999997
 30
0.0
 10
-43.100900000000003
 20
-34.120899999999999
 30
0.0
 10
-43.880600000000001
 20
-34.579500000000003
 30
0.0
 10
-44.5685
 20
-35.175699999999999
 30
0.0
 10
-44.5685
 20
-35.175699999999999
 30
0.0
 10
-49.613199999999999
 20
-36.734999999999999
 30
0.0
 10
-56.033799999999999
 20
-34.441899999999997
 30
0.0
 10
-60.803400000000003
 20
-37.1477
 30
0.0
 10
-60.803400000000003
 20
-37.1477
 30
0.0
 10
-63.692700000000002
 20
-38.8446
 30
0.0
 10
-64.747399999999999
 20
-41.825600000000001
 30
0.0
 10
-65.527100000000004
 20
-44.668999999999997
 30
0.0
 10
-65.527100000000004
 20
-44.668999999999997
 30
0.0
 10
-67.499099999999999
 20
-48.888199999999998
 30
0.0
 10
-66.077399999999997
 20
-53.9788
 30
0.0
 10
-63.234000000000002
 20
-57.326700000000002
 30
0.0
 10
-63.234000000000002
 20
-57.326700000000002
 30
0.0
 10
-63.234000000000002
 20
-57.326700000000002
 30
0.0
 10
-60.940899999999999
 20
-51.823300000000003
 30
0.0
 10
-60.940899999999999
 20
-51.823300000000003
 30
0.0
 10
-60.940899999999999
 20
-51.823300000000003
 30
0.0
 10
-59.427599999999998
 20
-49.0717
 30
0.0
 10
-56.630000000000003
 20
-47.558199999999999
 30
0.0
 10
-53.7408
 20
-47.099600000000002
 30
0.0
 10
-53.7408
 20
-47.099600000000002
 30
0.0
 10
-55.712800000000001
 20
-45.953099999999999
 30
0.0
 10
-57.730699999999999
 20
-44.990000000000002
 30
0.0
 10
-60.023699999999998
 20
-44.668999999999997
 30
0.0
 10
-60.023699999999998
 20
-44.668999999999997
 30
0.0
 10
-61.858199999999997
 20
-44.852400000000003
 30
0.0
 10
-63.555100000000003
 20
-45.861400000000003
 30
0.0
 10
-65.0685
 20
-46.32
 30
0.0
 10
-65.0685
 20
-46.32
 30
0.0
 10
-65.0685
 20
-46.32
 30
0.0
 10
-64.0137
 20
-44.347999999999999
 30
0.0
 10
-64.0137
 20
-44.347999999999999
 30
0.0
 10
-64.0137
 20
-44.347999999999999
 30
0.0
 10
-62.591999999999999
 20
-42.742800000000003
 30
0.0
 10
-60.115400000000001
 20
-42.742800000000003
 30
0.0
 10
-58.189300000000003
 20
-43.293199999999999
 30
0.0
 10
-58.189300000000003
 20
-43.293199999999999
 30
0.0
 10
-52.135599999999997
 20
-45.586199999999998
 30
0.0
 10
-46.402900000000002
 20
-49.942999999999998
 30
0.0
 10
-42.734000000000002
 20
-55.813200000000002
 30
0.0
 10
-42.734000000000002
 20
-55.813200000000002
 30
0.0
 10
-35.671399999999998
 20
-65.2607
 30
0.0
 10
-34.158000000000001
 20
-77.0929
 30
0.0
 10
-26.407399999999999
 20
-86.081599999999995
 30
0.0
 10
-26.407399999999999
 20
-86.081599999999995
 30
0.0
 10
-20.537199999999999
 20
-89.292000000000002
 30
0.0
 10
-17.969000000000001
 20
-95.620800000000003
 30
0.0
 10
-12.924300000000001
 20
-99.840000000000003
 30
0.0
 10
-12.924300000000001
 20
-99.840000000000003
 30
0.0
 10
-4.4398999999999997
 20
-105.11409999999999
 30
0.0
 10
4.7321999999999997
 20
-110.9384
 30
0.0
 10
15.784700000000001
 20
-107.63639999999999
 30
0.0
 10
15.784700000000001
 20
-107.63639999999999
 30
0.0
 10
21.2423
 20
-106.21469999999999
 30
0.0
 10
27.2959
 20
-102.1331
 30
0.0
 10
33.0745
 20
-105.6644
 30
0.0
 10
33.0745
 20
-105.6644
 30
0.0
 10
40.7333
 20
-109.4709
 30
0.0
 10
50.134799999999998
 20
-106.8109
 30
0.0
 10
58.619199999999999
 20
-106.58159999999999
 30
0.0
 10
58.619199999999999
 20
-106.58159999999999
 30
0.0
 10
60.866300000000003
 20
-107.22369999999999
 30
0.0
 10
62.8384
 20
-108.5078
 30
0.0
 10
65.177300000000002
 20
-109.0123
 30
0.0
 10
65.177300000000002
 20
-109.0123
 30
0.0
 10
63.847299999999997
 20
-100.98650000000001
 30
0.0
 10
55.133699999999997
 20
-96.262799999999999
 30
0.0
 10
49.446899999999999
 20
-90.988799999999998
 30
0.0
 10
49.446899999999999
 20
-90.988799999999998
 30
0.0
 10
47.75
 20
-89.704700000000003
 30
0.0
 10
46.374200000000002
 20
-88.053700000000006
 30
0.0
 10
46.053199999999997
 20
-86.081599999999995
 30
0.0
 10
46.053199999999997
 20
-86.081599999999995
 30
0.0
 10
46.374200000000002
 20
-85.164400000000001
 30
0.0
 10
47.062100000000001
 20
-84.155500000000004
 30
0.0
 10
48.2087
 20
-84.247200000000007
 30
0.0
 10
48.2087
 20
-84.247200000000007
 30
0.0
 10
56.509500000000003
 20
-88.237200000000001
 30
0.0
 10
63.8932
 20
-94.290800000000004
 30
0.0
 10
70.818200000000004
 20
-101.5369
 30
0.0
 10
70.818200000000004
 20
-101.5369
 30
0.0
 10
73.154300000000006
 20
-105.3899
 30
0.0
 10
78.387200000000007
 20
-109.8584
 30
0.0
 10
78.387200000000007
 20
-109.8584
 30
0.0
 10
78.387200000000007
 20
-109.8584
 30
0.0
 10
80.621399999999994
 20
-105.5663
 30
0.0
 10
76.682100000000005
 20
-88.045000000000002
 30
0.0
 10
65.039699999999996
 20
-82.091700000000003
 30
0.0
  0
SPLINE
  5
26
100
AcDbEntity
  8
RÚteg 1
100
AcDbSpline
210
0.0
220
0.0
230
1.0
 70
     1
 71
     3
 72
    68
 73
    64
 74
     0
 42
0.0000000001
 43
0.0000000001
 40
0.0
 40
0.0
 40
0.0
 40
0.0
 40
0.0625
 40
0.0625
 40
0.0625
 40
0.0625
 40
0.125
 40
0.125
 40
0.125
 40
0.125
 40
0.1875
 40
0.1875
 40
0.1875
 40
0.1875
 40
0.25
 40
0.25
 40
0.25
 40
0.25
 40
0.3125
 40
0.3125
 40
0.3125
 40
0.3125
 40
0.375
 40
0.375
 40
0.375
 40
0.375
 40
0.4375
 40
0.4375
 40
0.4375
 40
0.4375
 40
0.5
 40
0.5
 40
0.5
 40
0.5
 40
0.5625
 40
0.5625
 40
0.5625
 40
0.5625
 40
0.625
 40
0.625
 40
0.625
 40
0.625
 40
0.6875
 40
0.6875
 40
0.6875
 40
0.6875
 40
0.75
 40
0.75
 40
0.75
 40
0.75
 40
0.8125
 40
0.8125
 40
0.8125
 40
0.8125
 40
0.875
 40
0.875
 40
0.875
 40
0.875
 40
0.9375
 40
0.9375
 40
0.9375
 40
0.9375
 40
1.0
 40
1.0
 40
1.0
 40
1.0
 10
42.384300000000003
 20
-30.452000000000002
 30
0.0
 10
42.017400000000002
 20
-23.7104
 30
0.0
 10
41.879800000000003
 20
-16.510200000000001
 30
0.0
 10
41.925600000000003
 20
-9.952
 30
0.0
 10
41.925600000000003
 20
-9.952
 30
0.0
 10
38.073300000000003
 20
-17.977799999999998
 30
0.0
 10
43.576599999999999
 20
-28.800999999999998
 30
0.0
 10
37.201999999999998
 20
-35.771900000000002
 30
0.0
 10
37.201999999999998
 20
-35.771900000000002
 30
0.0
 10
37.935699999999997
 20
-29.443100000000001
 30
0.0
 10
38.111699999999999
 20
-21.6052
 30
0.0
 10
35.728499999999997
 20
-15.8634
 30
0.0
 10
35.728499999999997
 20
-15.8634
 30
0.0
 10
35.728499999999997
 20
-15.8634
 30
0.0
 10
35.871899999999997
 20
-30.589600000000001
 30
0.0
 10
34.908900000000003
 20
-37.010100000000001
 30
0.0
 10
34.908900000000003
 20
-37.010100000000001
 30
0.0
 10
34.542000000000002
 20
-37.514600000000002
 30
0.0
 10
33.854100000000003
 20
-37.973199999999999
 30
0.0
 10
33.0745
 20
-37.7898
 30
0.0
 10
33.0745
 20
-37.7898
 30
0.0
 10
31.652799999999999
 20
-35.129800000000003
 30
0.0
 10
31.561
 20
-31.7361
 30
0.0
 10
30.643799999999999
 20
-29.0762
 30
0.0
 10
30.643799999999999
 20
-29.0762
 30
0.0
 10
30.139299999999999
 20
-27.746200000000002
 30
0.0
 10
29.818300000000001
 20
-26.3245
 30
0.0
 10
29.084499999999998
 20
-25.086200000000002
 30
0.0
 10
29.084499999999998
 20
-25.086200000000002
 30
0.0
 10
27.525200000000002
 20
-29.259599999999999
 30
0.0
 10
28.671800000000001
 20
-34.212600000000002
 30
0.0
 10
29.864100000000001
 20
-38.248399999999997
 30
0.0
 10
29.864100000000001
 20
-38.248399999999997
 30
0.0
 10
24.223199999999999
 20
-31.139900000000001
 30
0.0
 10
24.957000000000001
 20
-20.179099999999998
 30
0.0
 10
23.902200000000001
 20
-10.5482
 30
0.0
 10
23.902200000000001
 20
-10.5482
 30
0.0
 10
23.856300000000001
 20
-8.8055000000000003
 30
0.0
 10
23.856300000000001
 20
-7.0168999999999997
 30
0.0
 10
24.4984
 20
-5.5034999999999998
 30
0.0
 10
24.4984
 20
-5.5034999999999998
 30
0.0
 10
25.5991
 20
-3.7149000000000001
 30
0.0
 10
28.763400000000001
 20
-2.2014999999999998
 30
0.0
 10
27.2501
 20
0.1373
 30
0.0
 10
27.2501
 20
0.1373
 30
0.0
 10
26.424600000000002
 20
1.1004
 30
0.0
 10
25.415600000000001
 20
2.4762
 30
0.0
 10
24.223199999999999
 20
2.8889999999999998
 30
0.0
 10
24.223199999999999
 20
2.8889999999999998
 30
0.0
 10
24.635899999999999
 20
5.1361999999999997
 30
0.0
 10
25.965900000000001
 20
8.3465000000000007
 30
0.0
 10
28.8094
 20
8.8510000000000009
 30
0.0
 10
28.8094
 20
8.8510000000000009
 30
0.0
 10
32.799300000000002
 20
8.7134
 30
0.0
 10
35.596800000000002
 20
5.6866000000000003
 30
0.0
 10
39.173900000000003
 20
4.5858999999999996
 30
0.0
 10
39.173900000000003
 20
4.5858999999999996
 30
0.0
 10
42.934600000000003
 20
2.7054999999999998
 30
0.0
 10
46.420000000000002
 20
5.2279
 30
0.0
 10
49.584499999999998
 20
6.5579000000000001
 30
0.0
 10
49.584499999999998
 20
6.5579000000000001
 30
0.0
 10
43.3932
 20
-4.2194000000000003
 30
0.0
 10
47.474899999999998
 20
-19.216000000000001
 30
0.0
 10
42.384300000000003
 20
-30.452000000000002
 30
0.0
  0
SPLINE
  5
27
100
AcDbEntity
  8
RÚteg 1
100
AcDbSpline
210
0.0
220
0.0
230
1.0
 70
     1
 71
     3
 72
    40
 73
    36
 74
     0
 42
0.0000000001
 43
0.0000000001
 40
0.0
 40
0.0
 40
0.0
 40
0.0
 40
0.1111111111111111
 40
0.1111111111111111
 40
0.1111111111111111
 40
0.1111111111111111
 40
0.2222222222222222
 40
0.2222222222222222
 40
0.2222222222222222
 40
0.2222222222222222
 40
0.3333333333333333
 40
0.3333333333333333
 40
0.3333333333333333
 40
0.3333333333333333
 40
0.4444444444444444
 40
0.4444444444444444
 40
0.4444444444444444
 40
0.4444444444444444
 40
0.5555555555555556
 40
0.5555555555555556
 40
0.5555555555555556
 40
0.5555555555555556
 40
0.6666666666666667
 40
0.6666666666666667
 40
0.6666666666666667
 40
0.6666666666666667
 40
0.7777777777777779
 40
0.7777777777777779
 40
0.7777777777777779
 40
0.7777777777777779
 40
0.8888888888888891
 40
0.8888888888888891
 40
0.8888888888888891
 40
0.8888888888888891
 40
1.0
 40
1.0
 40
1.0
 40
1.0
 10
15.188599999999999
 20
-42.6511
 30
0.0
 10
12.849600000000001
 20
-41.825600000000001
 30
0.0
 10
12.024100000000001
 20
-39.303199999999997
 30
0.0
 10
10.4649
 20
-37.606299999999997
 30
0.0
 10
10.4649
 20
-37.606299999999997
 30
0.0
 10
10.6942
 20
-40.128700000000002
 30
0.0
 10
11.6114
 20
-42.697000000000003
 30
0.0
 10
13.2166
 20
-44.806600000000003
 30
0.0
 10
13.2166
 20
-44.806600000000003
 30
0.0
 10
12.528600000000001
 20
-45.127600000000001
 30
0.0
 10
11.8866
 20
-45.127600000000001
 30
0.0
 10
11.198600000000001
 20
-44.806600000000003
 30
0.0
 10
11.198600000000001
 20
-44.806600000000003
 30
0.0
 10
8.5387000000000004
 20
-42.788699999999999
 30
0.0
 10
6.6124999999999998
 20
-39.945300000000003
 30
0.0
 10
5.5576999999999996
 20
-37.010100000000001
 30
0.0
 10
5.5576999999999996
 20
-37.010100000000001
 30
0.0
 10
6.0163000000000002
 20
-34.120899999999999
 30
0.0
 10
9.3183000000000007
 20
-32.103000000000002
 30
0.0
 10
11.382099999999999
 20
-30.131
 30
0.0
 10
11.382099999999999
 20
-30.131
 30
0.0
 10
13.629300000000001
 20
-27.746200000000002
 30
0.0
 10
16.381
 20
-25.8659
 30
0.0
 10
18.857500000000002
 20
-23.7104
 30
0.0
 10
18.857500000000002
 20
-23.7104
 30
0.0
 10
19.270199999999999
 20
-28.617599999999999
 30
0.0
 10
20.1416
 20
-34.212600000000002
 30
0.0
 10
19.453600000000002
 20
-39.165599999999998
 30
0.0
 10
19.453600000000002
 20
-39.165599999999998
 30
0.0
 10
18.5823
 20
-36.964300000000001
 30
0.0
 10
17.802700000000002
 20
-34.4878
 30
0.0
 10
16.4268
 20
-32.423999999999999
 30
0.0
 10
16.4268
 20
-32.423999999999999
 30
0.0
 10
16.4727
 20
-36.0471
 30
0.0
 10
17.894400000000001
 20
-39.761800000000001
 30
0.0
 10
15.188599999999999
 20
-42.6511
 30
0.0
  0
SPLINE
  5
28
100
AcDbEntity
  8
RÚteg 1
100
AcDbSpline
210
0.0
220
0.0
230
1.0
 70
     1
 71
     3
 72
    24
 73
    20
 74
     0
 42
0.0000000001
 43
0.0000000001
 40
0.0
 40
0.0
 40
0.0
 40
0.0
 40
0.2
 40
0.2
 40
0.2
 40
0.2
 40
0.4
 40
0.4
 40
0.4
 40
0.4
 40
0.6000000000000001
 40
0.6000000000000001
 40
0.6000000000000001
 40
0.6000000000000001
 40
0.8
 40
0.8
 40
0.8
 40
0.8
 40
1.0
 40
1.0
 40
1.0
 40
1.0
 10
15.509600000000001
 20
-55.216999999999999
 30
0.0
 10
9.1806999999999999
 20
-51.594000000000001
 30
0.0
 10
3.7233000000000001
 20
-57.739400000000003
 30
0.0
 10
-2.3761999999999999
 20
-57.785299999999999
 30
0.0
 10
-2.3761999999999999
 20
-57.785299999999999
 30
0.0
 10
-3.9355000000000002
 20
-56.868000000000002
 30
0.0
 10
-4.9903000000000004
 20
-55.492199999999997
 30
0.0
 10
-6.2285000000000004
 20
-54.116399999999999
 30
0.0
 10
-6.2285000000000004
 20
-54.116399999999999
 30
0.0
 10
-3.4769000000000001
 20
-49.163400000000003
 30
0.0
 10
3.0352999999999999
 20
-45.723799999999997
 30
0.0
 10
4.5029000000000003
 20
-40.220399999999998
 30
0.0
 10
4.5029000000000003
 20
-40.220399999999998
 30
0.0
 10
5.5576999999999996
 20
-44.2104
 30
0.0
 10
9.3642000000000003
 20
-46.136499999999998
 30
0.0
 10
12.5745
 20
-48.154400000000003
 30
0.0
 10
12.5745
 20
-48.154400000000003
 30
0.0
 10
13.721
 20
-50.447499999999998
 30
0.0
 10
14.684100000000001
 20
-52.7864
 30
0.0
 10
15.509600000000001
 20
-55.216999999999999
 30
0.0
  0
SPLINE
  5
29
100
AcDbEntity
  8
RÚteg 1
100
AcDbSpline
210
0.0
220
0.0
230
1.0
 70
     1
 71
     3
 72
    92
 73
    88
 74
     0
 42
0.0000000001
 43
0.0000000001
 40
0.0
 40
0.0
 40
0.0
 40
0.0
 40
0.0454545454545455
 40
0.0454545454545455
 40
0.0454545454545455
 40
0.0454545454545455
 40
0.0909090909090909
 40
0.0909090909090909
 40
0.0909090909090909
 40
0.0909090909090909
 40
0.1363636363636364
 40
0.1363636363636364
 40
0.1363636363636364
 40
0.1363636363636364
 40
0.1818181818181818
 40
0.1818181818181818
 40
0.1818181818181818
 40
0.1818181818181818
 40
0.2272727272727273
 40
0.2272727272727273
 40
0.2272727272727273
 40
0.2272727272727273
 40
0.2727272727272728
 40
0.2727272727272728
 40
0.2727272727272728
 40
0.2727272727272728
 40
0.3181818181818182
 40
0.3181818181818182
 40
0.3181818181818182
 40
0.3181818181818182
 40
0.3636363636363637
 40
0.3636363636363637
 40
0.3636363636363637
 40
0.3636363636363637
 40
0.4090909090909092
 40
0.4090909090909092
 40
0.4090909090909092
 40
0.4090909090909092
 40
0.4545454545454546
 40
0.4545454545454546
 40
0.4545454545454546
 40
0.4545454545454546
 40
0.5000000000000001
 40
0.5000000000000001
 40
0.5000000000000001
 40
0.5000000000000001
 40
0.5454545454545455
 40
0.5454545454545455
 40
0.5454545454545455
 40
0.5454545454545455
 40
0.5909090909090909
 40
0.5909090909090909
 40
0.5909090909090909
 40
0.5909090909090909
 40
0.6363636363636364
 40
0.6363636363636364
 40
0.6363636363636364
 40
0.6363636363636364
 40
0.6818181818181818
 40
0.6818181818181818
 40
0.6818181818181818
 40
0.6818181818181818
 40
0.7272727272727272
 40
0.7272727272727272
 40
0.7272727272727272
 40
0.7272727272727272
 40
0.7727272727272726
 40
0.7727272727272726
 40
0.7727272727272726
 40
0.7727272727272726
 40
0.818181818181818
 40
0.818181818181818
 40
0.818181818181818
 40
0.818181818181818
 40
0.8636363636363634
 40
0.8636363636363634
 40
0.8636363636363634
 40
0.8636363636363634
 40
0.9090909090909088
 40
0.9090909090909088
 40
0.9090909090909088
 40
0.9090909090909088
 40
0.9545454545454543
 40
0.9545454545454543
 40
0.9545454545454543
 40
0.9545454545454543
 40
1.0
 40
1.0
 40
1.0
 40
1.0
 10
18.261299999999999
 20
-22.334599999999998
 30
0.0
 10
13.078900000000001
 20
-26.3703
 30
0.0
 10
7.117
 20
-30.360299999999999
 30
0.0
 10
3.4022000000000001
 20
-35.955300000000001
 30
0.0
 10
3.4022000000000001
 20
-35.955300000000001
 30
0.0
 10
3.4022000000000001
 20
-35.955300000000001
 30
0.0
 10
1.5678000000000001
 20
-41.733800000000002
 30
0.0
 10
1.5678000000000001
 20
-41.733800000000002
 30
0.0
 10
1.5678000000000001
 20
-41.733800000000002
 30
0.0
 10
-3.5686
 20
-46.274099999999997
 30
0.0
 10
-7.1174999999999997
 20
-52.042000000000002
 30
0.0
 10
-9.5939999999999994
 20
-57.912300000000002
 30
0.0
 10
-9.5939999999999994
 20
-57.912300000000002
 30
0.0
 10
-9.7705000000000002
 20
-58.282400000000003
 30
0.0
 10
-9.8973999999999993
 20
-58.473199999999999
 30
0.0
 10
-10.172599999999999
 20
-58.702500000000001
 30
0.0
 10
-10.172599999999999
 20
-58.702500000000001
 30
0.0
 10
-10.8605
 20
-49.209200000000003
 30
0.0
 10
-5.1279000000000003
 20
-38.523600000000002
 30
0.0
 10
-11.548400000000001
 20
-30.452000000000002
 30
0.0
 10
-11.548400000000001
 20
-30.452000000000002
 30
0.0
 10
-14.3918
 20
-24.673500000000001
 30
0.0
 10
-5.3385999999999996
 20
-19.8413
 30
0.0
 10
-11.7319
 20
-14.8592
 30
0.0
 10
-11.7319
 20
-14.8592
 30
0.0
 10
-13.452500000000001
 20
-13.138500000000001
 30
0.0
 10
-16.730799999999999
 20
-12.1075
 30
0.0
 10
-15.079800000000001
 20
-9.1723999999999997
 30
0.0
 10
-15.079800000000001
 20
-9.1723999999999997
 30
0.0
 10
-11.4108
 20
-2.9811000000000001
 30
0.0
 10
-4.8068
 20
1.3297000000000001
 30
0.0
 10
2.4849999999999999
 20
1.3755999999999999
 30
0.0
 10
2.4849999999999999
 20
1.3755999999999999
 30
0.0
 10
7.6214000000000004
 20
0.5501
 30
0.0
 10
11.1242
 20
-5.6125999999999996
 30
0.0
 10
12.1159
 20
-9.0348000000000006
 30
0.0
 10
12.1159
 20
-9.0348000000000006
 30
0.0
 10
12.7117
 20
-11.6686
 30
0.0
 10
11.061
 20
-13.3916
 30
0.0
 10
9.3642000000000003
 20
-14.675800000000001
 30
0.0
 10
9.3642000000000003
 20
-14.675800000000001
 30
0.0
 10
8.5387000000000004
 20
-12.520300000000001
 30
0.0
 10
7.8507999999999996
 20
-9.9978999999999996
 30
0.0
 10
5.4200999999999997
 20
-8.7138000000000009
 30
0.0
 10
5.4200999999999997
 20
-8.7138000000000009
 30
0.0
 10
3.9984000000000002
 20
-8.2552000000000003
 30
0.0
 10
3.0352999999999999
 20
-9.4475999999999996
 30
0.0
 10
2.4849999999999999
 20
-10.410600000000001
 30
0.0
 10
2.4849999999999999
 20
-10.410600000000001
 30
0.0
 10
0.9716
 20
-12.3827
 30
0.0
 10
2.0722999999999998
 20
-15.134399999999999
 30
0.0
 10
1.7512000000000001
 20
-17.2898
 30
0.0
 10
1.7512000000000001
 20
-17.2898
 30
0.0
 10
-0.3583
 20
-16.601900000000001
 30
0.0
 10
-2.3304
 20
-15.684699999999999
 30
0.0
 10
-4.2107000000000001
 20
-14.5382
 30
0.0
 10
-4.2107000000000001
 20
-14.5382
 30
0.0
 10
-4.2107000000000001
 20
-14.5382
 30
0.0
 10
-0.8701
 20
-20.8996
 30
0.0
 10
4.9615
 20
-20.821100000000001
 30
0.0
 10
4.9615
 20
-20.821100000000001
 30
0.0
 10
14.1816
 20
-19.723700000000001
 30
0.0
 10
13.583399999999999
 20
-8.5762
 30
0.0
 10
21.150500000000001
 20
-4.5862999999999996
 30
0.0
 10
21.150500000000001
 20
-4.5862999999999996
 30
0.0
 10
18.490600000000001
 20
-4.5404
 30
0.0
 10
15.9223
 20
-5.6410999999999998
 30
0.0
 10
13.812799999999999
 20
-7.3379000000000003
 30
0.0
 10
13.812799999999999
 20
-7.3379000000000003
 30
0.0
 10
13.078900000000001
 20
-6.0537999999999998
 30
0.0
 10
12.849600000000001
 20
-4.5404
 30
0.0
 10
11.8407
 20
-3.3938999999999999
 30
0.0
 10
11.8407
 20
-3.3938999999999999
 30
0.0
 10
12.9413
 20
-1.2383999999999999
 30
0.0
 10
15.234400000000001
 20
-0.0002
 30
0.0
 10
17.4816
 20
0.2749
 30
0.0
 10
17.4816
 20
0.2749
 30
0.0
 10
20.1416
 20
0.5959
 30
0.0
 10
23.260100000000001
 20
0.6877
 30
0.0
 10
24.957000000000001
 20
-1.5593999999999999
 30
0.0
 10
24.957000000000001
 20
-1.5593999999999999
 30
0.0
 10
23.718800000000002
 20
-3.3938999999999999
 30
0.0
 10
21.975999999999999
 20
-4.9989999999999997
 30
0.0
 10
21.609100000000002
 20
-7.2004000000000001
 30
0.0
 10
21.609100000000002
 20
-7.2004000000000001
 30
0.0
 10
22.526399999999999
 20
-12.3368
 30
0.0
 10
23.030799999999999
 20
-18.940799999999999
 30
0.0
 10
18.261299999999999
 20
-22.334599999999998
 30
0.0
  0
SPLINE
  5
2A
100
AcDbEntity
  8
RÚteg 1
100
AcDbSpline
210
0.0
220
0.0
230
1.0
 70
     1
 71
     3
 72
    20
 73
    16
 74
     0
 42
0.0000000001
 43
0.0000000001
 40
0.0
 40
0.0
 40
0.0
 40
0.0
 40
0.25
 40
0.25
 40
0.25
 40
0.25
 40
0.5
 40
0.5
 40
0.5
 40
0.5
 40
0.75
 40
0.75
 40
0.75
 40
0.75
 40
1.0
 40
1.0
 40
1.0
 40
1.0
 10
-17.372800000000002
 20
-13.7585
 30
0.0
 10
-13.8873
 20
-16.372599999999998
 30
0.0
 10
-12.9701
 20
-20.179099999999998
 30
0.0
 10
-13.703900000000001
 20
-24.3066
 30
0.0
 10
-13.703900000000001
 20
-24.3066
 30
0.0
 10
-16.134499999999999
 20
-32.882599999999996
 30
0.0
 10
-7.8337000000000003
 20
-39.486600000000003
 30
0.0
 10
-11.4108
 20
-48.337899999999998
 30
0.0
 10
-11.4108
 20
-48.337899999999998
 30
0.0
 10
-12.7408
 20
-47.237200000000001
 30
0.0
 10
-13.749700000000001
 20
-45.081699999999998
 30
0.0
 10
-14.9422
 20
-43.430700000000002
 30
0.0
 10
-14.9422
 20
-43.430700000000002
 30
0.0
 10
-13.428699999999999
 20
-33.157800000000002
 30
0.0
 10
-18.840399999999999
 20
-24.398299999999999
 30
0.0
 10
-17.372800000000002
 20
-13.7585
 30
0.0
  0
SPLINE
  5
2B
100
AcDbEntity
  8
RÚteg 1
100
AcDbSpline
210
0.0
220
0.0
230
1.0
 70
     1
 71
     3
 72
    16
 73
    12
 74
     0
 42
0.0000000001
 43
0.0000000001
 40
0.0
 40
0.0
 40
0.0
 40
0.0
 40
0.3333333333333333
 40
0.3333333333333333
 40
0.3333333333333333
 40
0.3333333333333333
 40
0.6666666666666666
 40
0.6666666666666666
 40
0.6666666666666666
 40
0.6666666666666666
 40
1.0
 40
1.0
 40
1.0
 40
1.0
 10
-28.9757
 20
-16.6936
 30
0.0
 10
-27.187100000000001
 20
-12.245100000000001
 30
0.0
 10
-22.279900000000001
 20
-12.1534
 30
0.0
 10
-18.748699999999999
 20
-10.273099999999999
 30
0.0
 10
-18.748699999999999
 20
-10.273099999999999
 30
0.0
 10
-22.325800000000001
 20
-21.463200000000001
 30
0.0
 10
-13.7956
 20
-31.782
 30
0.0
 10
-17.831399999999999
 20
-42.972099999999998
 30
0.0
 10
-17.831399999999999
 20
-42.972099999999998
 30
0.0
 10
-17.0518
 20
-33.112000000000002
 30
0.0
 10
-22.4634
 20
-24.3066
 30
0.0
 10
-28.9757
 20
-16.6936
 30
0.0
  0
SPLINE
  5
2C
100
AcDbEntity
  8
RÚteg 1
100
AcDbSpline
210
0.0
220
0.0
230
1.0
 70
     1
 71
     3
 72
    44
 73
    40
 74
     0
 42
0.0000000001
 43
0.0000000001
 40
0.0
 40
0.0
 40
0.0
 40
0.0
 40
0.1
 40
0.1
 40
0.1
 40
0.1
 40
0.2
 40
0.2
 40
0.2
 40
0.2
 40
0.3
 40
0.3
 40
0.3
 40
0.3
 40
0.4
 40
0.4
 40
0.4
 40
0.4
 40
0.5
 40
0.5
 40
0.5
 40
0.5
 40
0.6
 40
0.6
 40
0.6
 40
0.6
 40
0.7
 40
0.7
 40
0.7
 40
0.7
 40
0.7999999999999999
 40
0.7999999999999999
 40
0.7999999999999999
 40
0.7999999999999999
 40
0.8999999999999999
 40
0.8999999999999999
 40
0.8999999999999999
 40
0.8999999999999999
 40
1.0
 40
1.0
 40
1.0
 40
1.0
 10
-23.0137
 20
-41.275199999999998
 30
0.0
 10
-26.545000000000002
 20
-38.798699999999997
 30
0.0
 10
-28.196100000000001
 20
-34.9923
 30
0.0
 10
-30.672499999999999
 20
-31.8278
 30
0.0
 10
-30.672499999999999
 20
-31.8278
 30
0.0
 10
-29.892900000000001
 20
-37.101900000000001
 30
0.0
 10
-25.994700000000002
 20
-41.825600000000001
 30
0.0
 10
-21.637899999999998
 20
-45.402799999999999
 30
0.0
 10
-21.637899999999998
 20
-45.402799999999999
 30
0.0
 10
-21.637899999999998
 20
-45.402799999999999
 30
0.0
 10
-21.179300000000001
 20
-45.861400000000003
 30
0.0
 10
-21.179300000000001
 20
-45.861400000000003
 30
0.0
 10
-21.179300000000001
 20
-45.861400000000003
 30
0.0
 10
-23.334800000000001
 20
-46.136499999999998
 30
0.0
 10
-25.627800000000001
 20
-44.577300000000001
 30
0.0
 10
-26.866099999999999
 20
-42.513500000000001
 30
0.0
 10
-26.866099999999999
 20
-42.513500000000001
 30
0.0
 10
-30.443200000000001
 20
-37.331200000000003
 30
0.0
 10
-33.103200000000001
 20
-31.7361
 30
0.0
 10
-35.717300000000002
 20
-26.140999999999998
 30
0.0
 10
-35.717300000000002
 20
-26.140999999999998
 30
0.0
 10
-38.423099999999998
 20
-21.692499999999999
 30
0.0
 10
-41.587499999999999
 20
-17.2898
 30
0.0
 10
-45.806699999999999
 20
-13.620900000000001
 30
0.0
 10
-45.806699999999999
 20
-13.620900000000001
 30
0.0
 10
-36.084200000000003
 20
-13.1623
 30
0.0
 10
-27.095400000000001
 20
-19.582899999999999
 30
0.0
 10
-23.334800000000001
 20
-28.296500000000002
 30
0.0
 10
-23.334800000000001
 20
-28.296500000000002
 30
0.0
 10
-20.7666
 20
-32.423999999999999
 30
0.0
 10
-19.390699999999999
 20
-37.010100000000001
 30
0.0
 10
-19.8034
 20
-42.375900000000001
 30
0.0
 10
-19.8034
 20
-42.375900000000001
 30
0.0
 10
-21.271000000000001
 20
-39.3949
 30
0.0
 10
-22.279900000000001
 20
-36.276400000000002
 30
0.0
 10
-24.848199999999999
 20
-33.799900000000001
 30
0.0
 10
-24.848199999999999
 20
-33.799900000000001
 30
0.0
 10
-24.481300000000001
 20
-36.184600000000003
 30
0.0
 10
-23.885100000000001
 20
-38.890500000000003
 30
0.0
 10
-23.0137
 20
-41.275199999999998
 30
0.0
  0
SPLINE
  5
2D
100
AcDbEntity
  8
RÚteg 1
100
AcDbSpline
210
0.0
220
0.0
230
1.0
 70
     1
 71
     3
 72
    16
 73
    12
 74
     0
 42
0.0000000001
 43
0.0000000001
 40
0.0
 40
0.0
 40
0.0
 40
0.0
 40
0.3333333333333333
 40
0.3333333333333333
 40
0.3333333333333333
 40
0.3333333333333333
 40
0.6666666666666666
 40
0.6666666666666666
 40
0.6666666666666666
 40
0.6666666666666666
 40
1.0
 40
1.0
 40
1.0
 40
1.0
 10
-32.369399999999999
 20
-37.7898
 30
0.0
 10
-34.2956
 20
-36.230499999999999
 30
0.0
 10
-39.162799999999997
 20
-33.779899999999998
 30
0.0
 10
-39.162799999999997
 20
-33.779899999999998
 30
0.0
 10
-39.162799999999997
 20
-33.779899999999998
 30
0.0
 10
-36.853499999999997
 20
-32.835299999999997
 30
0.0
 10
-34.570799999999998
 20
-34.4878
 30
0.0
 10
-32.828000000000003
 20
-35.955300000000001
 30
0.0
 10
-32.828000000000003
 20
-35.955300000000001
 30
0.0
 10
-32.552900000000001
 20
-36.505699999999997
 30
0.0
 10
-32.2318
 20
-37.055999999999997
 30
0.0
 10
-32.369399999999999
 20
-37.7898
 30
0.0
  0
SPLINE
  5
2E
100
AcDbEntity
  8
RÚteg 1
100
AcDbSpline
210
0.0
220
0.0
230
1.0
 70
     1
 71
     3
 72
    20
 73
    16
 74
     0
 42
0.0000000001
 43
0.0000000001
 40
0.0
 40
0.0
 40
0.0
 40
0.0
 40
0.25
 40
0.25
 40
0.25
 40
0.25
 40
0.5
 40
0.5
 40
0.5
 40
0.5
 40
0.75
 40
0.75
 40
0.75
 40
0.75
 40
1.0
 40
1.0
 40
1.0
 40
1.0
 10
-45.485700000000001
 20
46.457099999999997
 30
0.0
 10
-43.421999999999997
 20
46.182000000000002
 30
0.0
 10
-42.183700000000002
 20
43.980600000000003
 30
0.0
 10
-40.303400000000003
 20
43.246899999999997
 30
0.0
 10
-40.303400000000003
 20
43.246899999999997
 30
0.0
 10
-32.140099999999997
 20
41.320700000000002
 30
0.0
 10
-28.3795
 20
32.4236
 30
0.0
 10
-25.627800000000001
 20
25.681999999999999
 30
0.0
 10
-25.627800000000001
 20
25.681999999999999
 30
0.0
 10
-33.470100000000002
 20
27.287199999999999
 30
0.0
 10
-42.596499999999999
 20
30.635000000000002
 30
0.0
 10
-45.485700000000001
 20
39.256999999999998
 30
0.0
 10
-45.485700000000001
 20
39.256999999999998
 30
0.0
 10
-45.715000000000003
 20
41.549999999999997
 30
0.0
 10
-46.402900000000002
 20
44.255800000000001
 30
0.0
 10
-45.485700000000001
 20
46.457099999999997
 30
0.0
  0
SPLINE
  5
2F
100
AcDbEntity
  8
RÚteg 1
100
AcDbSpline
210
0.0
220
0.0
230
1.0
 70
     1
 71
     3
 72
    20
 73
    16
 74
     0
 42
0.0000000001
 43
0.0000000001
 40
0.0
 40
0.0
 40
0.0
 40
0.0
 40
0.25
 40
0.25
 40
0.25
 40
0.25
 40
0.5
 40
0.5
 40
0.5
 40
0.5
 40
0.75
 40
0.75
 40
0.75
 40
0.75
 40
1.0
 40
1.0
 40
1.0
 40
1.0
 10
-49.475700000000003
 20
50.447099999999999
 30
0.0
 10
-43.055100000000003
 20
50.676400000000001
 30
0.0
 10
-39.019300000000001
 20
45.173000000000002
 30
0.0
 10
-32.186
 20
46.319600000000001
 30
0.0
 10
-32.186
 20
46.319600000000001
 30
0.0
 10
-29.617799999999999
 20
46.548900000000003
 30
0.0
 10
-27.2788
 20
47.236800000000002
 30
0.0
 10
-24.848199999999999
 20
47.832999999999998
 30
0.0
 10
-24.848199999999999
 20
47.832999999999998
 30
0.0
 10
-27.462299999999999
 20
45.402299999999997
 30
0.0
 10
-30.718399999999999
 20
43.567900000000002
 30
0.0
 10
-34.341500000000003
 20
43.705500000000001
 30
0.0
 10
-34.341500000000003
 20
43.705500000000001
 30
0.0
 10
-40.2575
 20
44.210000000000001
 30
0.0
 10
-44.201599999999999
 20
48.429200000000002
 30
0.0
 10
-49.475700000000003
 20
50.447099999999999
 30
0.0
  0
SPLINE
  5
30
100
AcDbEntity
  8
RÚteg 1
100
AcDbSpline
210
0.0
220
0.0
230
1.0
 70
     1
 71
     3
 72
    80
 73
    76
 74
     0
 42
0.0000000001
 43
0.0000000001
 40
0.0
 40
0.0
 40
0.0
 40
0.0
 40
0.0526315789473684
 40
0.0526315789473684
 40
0.0526315789473684
 40
0.0526315789473684
 40
0.1052631578947368
 40
0.1052631578947368
 40
0.1052631578947368
 40
0.1052631578947368
 40
0.1578947368421053
 40
0.1578947368421053
 40
0.1578947368421053
 40
0.1578947368421053
 40
0.2105263157894737
 40
0.2105263157894737
 40
0.2105263157894737
 40
0.2105263157894737
 40
0.2631578947368421
 40
0.2631578947368421
 40
0.2631578947368421
 40
0.2631578947368421
 40
0.3157894736842105
 40
0.3157894736842105
 40
0.3157894736842105
 40
0.3157894736842105
 40
0.3684210526315789
 40
0.3684210526315789
 40
0.3684210526315789
 40
0.3684210526315789
 40
0.4210526315789474
 40
0.4210526315789474
 40
0.4210526315789474
 40
0.4210526315789474
 40
0.4736842105263158
 40
0.4736842105263158
 40
0.4736842105263158
 40
0.4736842105263158
 40
0.5263157894736842
 40
0.5263157894736842
 40
0.5263157894736842
 40
0.5263157894736842
 40
0.5789473684210527
 40
0.5789473684210527
 40
0.5789473684210527
 40
0.5789473684210527
 40
0.631578947368421
 40
0.631578947368421
 40
0.631578947368421
 40
0.631578947368421
 40
0.6842105263157894
 40
0.6842105263157894
 40
0.6842105263157894
 40
0.6842105263157894
 40
0.7368421052631577
 40
0.7368421052631577
 40
0.7368421052631577
 40
0.7368421052631577
 40
0.7894736842105261
 40
0.7894736842105261
 40
0.7894736842105261
 40
0.7894736842105261
 40
0.8421052631578945
 40
0.8421052631578945
 40
0.8421052631578945
 40
0.8421052631578945
 40
0.8947368421052628
 40
0.8947368421052628
 40
0.8947368421052628
 40
0.8947368421052628
 40
0.9473684210526312
 40
0.9473684210526312
 40
0.9473684210526312
 40
0.9473684210526312
 40
1.0
 40
1.0
 40
1.0
 40
1.0
 10
-31.7273
 20
41.274799999999999
 30
0.0
 10
-31.7273
 20
41.274799999999999
 30
0.0
 10
-28.241900000000001
 20
42.467199999999998
 30
0.0
 10
-28.241900000000001
 20
42.467199999999998
 30
0.0
 10
-28.241900000000001
 20
42.467199999999998
 30
0.0
 10
-24.251999999999999
 20
39.165199999999999
 30
0.0
 10
-23.976800000000001
 20
34.304000000000002
 30
0.0
 10
-21.041699999999999
 20
30.543299999999999
 30
0.0
 10
-21.041699999999999
 20
30.543299999999999
 30
0.0
 10
-20.949999999999999
 20
35.633899999999997
 30
0.0
 10
-23.839200000000002
 20
39.853099999999998
 30
0.0
 10
-25.627800000000001
 20
44.301699999999997
 30
0.0
 10
-25.627800000000001
 20
44.301699999999997
 30
0.0
 10
-24.251999999999999
 20
45.723399999999998
 30
0.0
 10
-22.4634
 20
47.236800000000002
 30
0.0
 10
-20.2621
 20
46.594700000000003
 30
0.0
 10
-20.2621
 20
46.594700000000003
 30
0.0
 10
-20.2621
 20
46.594700000000003
 30
0.0
 10
-15.6759
 20
43.384500000000003
 30
0.0
 10
-15.6759
 20
43.384500000000003
 30
0.0
 10
-15.6759
 20
43.384500000000003
 30
0.0
 10
-13.337
 20
41.045499999999997
 30
0.0
 10
-9.9433000000000007
 20
40.265900000000002
 30
0.0
 10
-6.6871
 20
41.0914
 30
0.0
 10
-6.6871
 20
41.0914
 30
0.0
 10
-7.8337000000000003
 20
36.597000000000001
 30
0.0
 10
-9.6681000000000008
 20
31.643999999999998
 30
0.0
 10
-8.0630000000000006
 20
26.736799999999999
 30
0.0
 10
-8.0630000000000006
 20
26.736799999999999
 30
0.0
 10
-6.1826999999999996
 20
32.148400000000002
 30
0.0
 10
-7.4208999999999996
 20
39.669699999999999
 30
0.0
 10
-1.4589000000000001
 20
42.650700000000001
 30
0.0
 10
-1.4589000000000001
 20
42.650700000000001
 30
0.0
 10
-1.4589000000000001
 20
42.650700000000001
 30
0.0
 10
-0.7252
 20
42.7883
 30
0.0
 10
-0.7252
 20
42.7883
 30
0.0
 10
-0.7252
 20
42.7883
 30
0.0
 10
-3.6145
 20
38.247999999999998
 30
0.0
 10
-4.4398999999999997
 20
32.882199999999997
 30
0.0
 10
-5.3113000000000001
 20
27.516500000000001
 30
0.0
 10
-5.3113000000000001
 20
27.516500000000001
 30
0.0
 10
-5.0819999999999999
 20
26.232399999999998
 30
0.0
 10
-5.1737000000000002
 20
24.810700000000001
 30
0.0
 10
-4.5316999999999998
 20
23.664100000000001
 30
0.0
 10
-4.5316999999999998
 20
23.664100000000001
 30
0.0
 10
-2.9264999999999999
 20
30.497399999999999
 30
0.0
 10
-2.5137999999999998
 20
38.064599999999999
 30
0.0
 10
3.1271
 20
42.925800000000002
 30
0.0
 10
3.1271
 20
42.925800000000002
 30
0.0
 10
4.9615
 20
43.8889
 30
0.0
 10
6.5667
 20
42.513100000000001
 30
0.0
 10
8.3094000000000001
 20
42.329599999999999
 30
0.0
 10
8.3094000000000001
 20
42.329599999999999
 30
0.0
 10
-1.7341
 20
34.991900000000001
 30
0.0
 10
-1.4589000000000001
 20
22.425899999999999
 30
0.0
 10
-1.78
 20
10.823
 30
0.0
 10
-1.78
 20
10.823
 30
0.0
 10
-1.78
 20
10.823
 30
0.0
 10
-0.8627
 20
4.1273
 30
0.0
 10
-0.8627
 20
4.1273
 30
0.0
 10
-0.8627
 20
4.1273
 30
0.0
 10
-3.7521
 20
2.4762
 30
0.0
 10
-6.9622999999999999
 20
0.917
 30
0.0
 10
-10.172599999999999
 20
-0.1836
 30
0.0
 10
-10.172599999999999
 20
-0.1836
 30
0.0
 10
-9.8056999999999999
 20
7.4751000000000003
 30
0.0
 10
-9.8973999999999993
 20
15.821899999999999
 30
0.0
 10
-16.318000000000001
 20
20.912500000000001
 30
0.0
 10
-16.318000000000001
 20
20.912500000000001
 30
0.0
 10
-18.1983
 20
23.113800000000001
 30
0.0
 10
-20.720700000000001
 20
23.7559
 30
0.0
 10
-22.876100000000001
 20
25.361000000000001
 30
0.0
 10
-22.876100000000001
 20
25.361000000000001
 30
0.0
 10
-25.811299999999999
 20
30.680900000000001
 30
0.0
 10
-27.966699999999999
 20
36.276000000000003
 30
0.0
 10
-31.7273
 20
41.274799999999999
 30
0.0
  0
SPLINE
  5
31
100
AcDbEntity
  8
RÚteg 1
100
AcDbSpline
210
0.0
220
0.0
230
1.0
 70
     1
 71
     3
 72
    28
 73
    24
 74
     0
 42
0.0000000001
 43
0.0000000001
 40
0.0
 40
0.0
 40
0.0
 40
0.0
 40
0.1666666666666667
 40
0.1666666666666667
 40
0.1666666666666667
 40
0.1666666666666667
 40
0.3333333333333333
 40
0.3333333333333333
 40
0.3333333333333333
 40
0.3333333333333333
 40
0.5
 40
0.5
 40
0.5
 40
0.5
 40
0.6666666666666666
 40
0.6666666666666666
 40
0.6666666666666666
 40
0.6666666666666666
 40
0.8333333333333333
 40
0.8333333333333333
 40
0.8333333333333333
 40
0.8333333333333333
 40
1.0
 40
1.0
 40
1.0
 40
1.0
 10
14.729900000000001
 20
39.119399999999999
 30
0.0
 10
16.381
 20
30.956099999999999
 30
0.0
 10
18.123699999999999
 20
22.609300000000001
 30
0.0
 10
18.719899999999999
 20
14.216699999999999
 30
0.0
 10
18.719899999999999
 20
14.216699999999999
 30
0.0
 10
15.372
 20
16.739100000000001
 30
0.0
 10
13.9962
 20
20.316299999999998
 30
0.0
 10
13.812799999999999
 20
24.3062
 30
0.0
 10
13.812799999999999
 20
24.3062
 30
0.0
 10
13.4
 20
30.314
 30
0.0
 10
11.2445
 20
36.276000000000003
 30
0.0
 10
12.299300000000001
 20
42.329599999999999
 30
0.0
 10
12.299300000000001
 20
42.329599999999999
 30
0.0
 10
12.482699999999999
 20
45.494100000000003
 30
0.0
 10
10.648300000000001
 20
47.970599999999997
 30
0.0
 10
11.519600000000001
 20
51.180900000000001
 30
0.0
 10
11.519600000000001
 20
51.180900000000001
 30
0.0
 10
12.849600000000001
 20
49.713299999999997
 30
0.0
 10
14.8872
 20
48.7151
 30
0.0
 10
14.632300000000001
 20
45.9985
 30
0.0
 10
14.632300000000001
 20
45.9985
 30
0.0
 10
14.299200000000001
 20
44.011400000000002
 30
0.0
 10
14.4756
 20
42.071100000000001
 30
0.0
 10
14.729900000000001
 20
39.119399999999999
 30
0.0
  0
SPLINE
  5
32
100
AcDbEntity
  8
RÚteg 1
100
AcDbSpline
210
0.0
220
0.0
230
1.0
 70
     1
 71
     3
 72
    16
 73
    12
 74
     0
 42
0.0000000001
 43
0.0000000001
 40
0.0
 40
0.0
 40
0.0
 40
0.0
 40
0.3333333333333333
 40
0.3333333333333333
 40
0.3333333333333333
 40
0.3333333333333333
 40
0.6666666666666666
 40
0.6666666666666666
 40
0.6666666666666666
 40
0.6666666666666666
 40
1.0
 40
1.0
 40
1.0
 40
1.0
 10
19.453600000000002
 20
3.9438
 30
0.0
 10
18.215399999999999
 20
5.9158999999999997
 30
0.0
 10
17.802700000000002
 20
8.7134
 30
0.0
 10
18.261299999999999
 20
11.281599999999999
 30
0.0
 10
18.261299999999999
 20
11.281599999999999
 30
0.0
 10
18.261299999999999
 20
11.281599999999999
 30
0.0
 10
18.719899999999999
 20
11.281599999999999
 30
0.0
 10
18.719899999999999
 20
11.281599999999999
 30
0.0
 10
18.719899999999999
 20
11.281599999999999
 30
0.0
 10
18.719899999999999
 20
11.281599999999999
 30
0.0
 10
19.453600000000002
 20
3.9438
 30
0.0
 10
19.453600000000002
 20
3.9438
 30
0.0
  0
SPLINE
  5
33
100
AcDbEntity
  8
RÚteg 1
100
AcDbSpline
210
0.0
220
0.0
230
1.0
 70
     1
 71
     3
 72
    16
 73
    12
 74
     0
 42
0.0000000001
 43
0.0000000001
 40
0.0
 40
0.0
 40
0.0
 40
0.0
 40
0.3333333333333333
 40
0.3333333333333333
 40
0.3333333333333333
 40
0.3333333333333333
 40
0.6666666666666666
 40
0.6666666666666666
 40
0.6666666666666666
 40
0.6666666666666666
 40
1.0
 40
1.0
 40
1.0
 40
1.0
 10
7.9884000000000004
 20
17.106000000000002
 30
0.0
 10
10.4649
 20
14.6753
 30
0.0
 10
13.537599999999999
 20
13.666399999999999
 30
0.0
 10
16.4268
 20
12.1988
 30
0.0
 10
16.4268
 20
12.1988
 30
0.0
 10
16.4268
 20
12.1988
 30
0.0
 10
16.4268
 20
11.9237
 30
0.0
 10
16.4268
 20
11.9237
 30
0.0
 10
16.4268
 20
11.9237
 30
0.0
 10
12.9872
 20
12.1988
 30
0.0
 10
10.327299999999999
 20
14.491899999999999
 30
0.0
 10
7.9884000000000004
 20
17.106000000000002
 30
0.0
  0
SPLINE
  5
34
100
AcDbEntity
  8
RÚteg 1
100
AcDbSpline
210
0.0
220
0.0
230
1.0
 70
     1
 71
     3
 72
    24
 73
    20
 74
     0
 42
0.0000000001
 43
0.0000000001
 40
0.0
 40
0.0
 40
0.0
 40
0.0
 40
0.2
 40
0.2
 40
0.2
 40
0.2
 40
0.4
 40
0.4
 40
0.4
 40
0.4
 40
0.6000000000000001
 40
0.6000000000000001
 40
0.6000000000000001
 40
0.6000000000000001
 40
0.8
 40
0.8
 40
0.8
 40
0.8
 40
1.0
 40
1.0
 40
1.0
 40
1.0
 10
12.5745
 20
1.3755999999999999
 30
0.0
 10
11.932399999999999
 20
0.5959
 30
0.0
 10
11.427899999999999
 20
-0.2295
 30
0.0
 10
10.602399999999999
 20
-0.9174
 30
0.0
 10
10.602399999999999
 20
-0.9174
 30
0.0
 10
7.7131999999999996
 20
1.2838000000000001
 30
0.0
 10
5.0073999999999996
 20
3.8062
 30
0.0
 10
1.5678000000000001
 20
4.7234999999999996
 30
0.0
 10
1.5678000000000001
 20
4.7234999999999996
 30
0.0
 10
-0.8169
 20
12.2447
 30
0.0
 10
0.8799
 20
21.416899999999998
 30
0.0
 10
1.8888
 20
29.1675
 30
0.0
 10
1.8888
 20
29.1675
 30
0.0
 10
5.5576999999999996
 20
23.7559
 30
0.0
 10
5.9705000000000004
 20
16.968399999999999
 30
0.0
 10
7.9884000000000004
 20
10.823
 30
0.0
 10
7.9884000000000004
 20
10.823
 30
0.0
 10
7.9884000000000004
 20
10.823
 30
0.0
 10
12.5745
 20
1.3755999999999999
 30
0.0
 10
12.5745
 20
1.3755999999999999
 30
0.0
  0
SPLINE
  5
35
100
AcDbEntity
  8
RÚteg 1
100
AcDbSpline
210
0.0
220
0.0
230
1.0
 70
     1
 71
     3
 72
    16
 73
    12
 74
     0
 42
0.0000000001
 43
0.0000000001
 40
0.0
 40
0.0
 40
0.0
 40
0.0
 40
0.3333333333333333
 40
0.3333333333333333
 40
0.3333333333333333
 40
0.3333333333333333
 40
0.6666666666666666
 40
0.6666666666666666
 40
0.6666666666666666
 40
0.6666666666666666
 40
1.0
 40
1.0
 40
1.0
 40
1.0
 10
11.382099999999999
 20
27.791599999999999
 30
0.0
 10
8.1258999999999997
 20
27.745799999999999
 30
0.0
 10
6.0621999999999998
 20
31.139500000000002
 30
0.0
 10
4.0442999999999998
 20
33.295000000000002
 30
0.0
 10
4.0442999999999998
 20
33.295000000000002
 30
0.0
 10
6.0621999999999998
 20
31.4605
 30
0.0
 10
8.4010999999999996
 20
30.222300000000001
 30
0.0
 10
10.74
 20
29.1675
 30
0.0
 10
10.74
 20
29.1675
 30
0.0
 10
10.74
 20
29.1675
 30
0.0
 10
11.382099999999999
 20
27.791599999999999
 30
0.0
 10
11.382099999999999
 20
27.791599999999999
 30
0.0
  0
SPLINE
  5
36
100
AcDbEntity
  8
RÚteg 1
100
AcDbSpline
210
0.0
220
0.0
230
1.0
 70
     1
 71
     3
 72
    36
 73
    32
 74
     0
 42
0.0000000001
 43
0.0000000001
 40
0.0
 40
0.0
 40
0.0
 40
0.0
 40
0.125
 40
0.125
 40
0.125
 40
0.125
 40
0.25
 40
0.25
 40
0.25
 40
0.25
 40
0.375
 40
0.375
 40
0.375
 40
0.375
 40
0.5
 40
0.5
 40
0.5
 40
0.5
 40
0.625
 40
0.625
 40
0.625
 40
0.625
 40
0.75
 40
0.75
 40
0.75
 40
0.75
 40
0.875
 40
0.875
 40
0.875
 40
0.875
 40
1.0
 40
1.0
 40
1.0
 40
1.0
 10
21.150500000000001
 20
-22.930800000000001
 30
0.0
 10
21.150500000000001
 20
-22.930800000000001
 30
0.0
 10
22.205300000000001
 20
-21.279800000000002
 30
0.0
 10
22.205300000000001
 20
-21.279800000000002
 30
0.0
 10
22.205300000000001
 20
-21.279800000000002
 30
0.0
 10
23.306000000000001
 20
-28.755099999999999
 30
0.0
 10
25.0029
 20
-36.276400000000002
 30
0.0
 10
29.864100000000001
 20
-42.375900000000001
 30
0.0
 10
29.864100000000001
 20
-42.375900000000001
 30
0.0
 10
30.368600000000001
 20
-47.053800000000003
 30
0.0
 10
29.680700000000002
 20
-51.639899999999997
 30
0.0
 10
29.268000000000001
 20
-56.134300000000003
 30
0.0
 10
29.268000000000001
 20
-56.134300000000003
 30
0.0
 10
28.442399999999999
 20
-56.6387
 30
0.0
 10
27.2042
 20
-55.813200000000002
 30
0.0
 10
26.1952
 20
-55.675699999999999
 30
0.0
 10
26.1952
 20
-55.675699999999999
 30
0.0
 10
26.1952
 20
-55.675699999999999
 30
0.0
 10
23.122599999999998
 20
-55.354599999999998
 30
0.0
 10
23.122599999999998
 20
-55.354599999999998
 30
0.0
 10
23.122599999999998
 20
-55.354599999999998
 30
0.0
 10
23.122599999999998
 20
-55.354599999999998
 30
0.0
 10
20.095700000000001
 20
-44.806600000000003
 30
0.0
 10
20.095700000000001
 20
-44.806600000000003
 30
0.0
 10
20.095700000000001
 20
-44.806600000000003
 30
0.0
 10
19.6371
 20
-43.2014
 30
0.0
 10
21.425699999999999
 20
-42.513500000000001
 30
0.0
 10
21.609100000000002
 20
-41.137599999999999
 30
0.0
 10
21.609100000000002
 20
-41.137599999999999
 30
0.0
 10
23.535299999999999
 20
-35.175699999999999
 30
0.0
 10
21.2423
 20
-29.0303
 30
0.0
 10
21.150500000000001
 20
-22.930800000000001
 30
0.0
  0
SPLINE
  5
37
100
AcDbEntity
  8
RÚteg 1
100
AcDbSpline
210
0.0
220
0.0
230
1.0
 70
     1
 71
     3
 72
    16
 73
    12
 74
     0
 42
0.0000000001
 43
0.0000000001
 40
0.0
 40
0.0
 40
0.0
 40
0.0
 40
0.3333333333333333
 40
0.3333333333333333
 40
0.3333333333333333
 40
0.3333333333333333
 40
0.6666666666666666
 40
0.6666666666666666
 40
0.6666666666666666
 40
0.6666666666666666
 40
1.0
 40
1.0
 40
1.0
 40
1.0
 10
24.223199999999999
 20
7.4751000000000003
 30
0.0
 10
24.406700000000001
 20
8.9427000000000003
 30
0.0
 10
24.406700000000001
 20
10.731299999999999
 30
0.0
 10
24.4984
 20
12.061199999999999
 30
0.0
 10
24.4984
 20
12.061199999999999
 30
0.0
 10
24.4984
 20
12.061199999999999
 30
0.0
 10
25.1404
 20
12.061199999999999
 30
0.0
 10
25.1404
 20
12.061199999999999
 30
0.0
 10
25.1404
 20
12.061199999999999
 30
0.0
 10
25.186299999999999
 20
10.5937
 30
0.0
 10
25.874199999999998
 20
8.4382000000000001
 30
0.0
 10
24.223199999999999
 20
7.4751000000000003
 30
0.0
  0
SPLINE
  5
38
100
AcDbEntity
  8
RÚteg 1
100
AcDbSpline
210
0.0
220
0.0
230
1.0
 70
     1
 71
     3
 72
    16
 73
    12
 74
     0
 42
0.0000000001
 43
0.0000000001
 40
0.0
 40
0.0
 40
0.0
 40
0.0
 40
0.3333333333333333
 40
0.3333333333333333
 40
0.3333333333333333
 40
0.3333333333333333
 40
0.6666666666666666
 40
0.6666666666666666
 40
0.6666666666666666
 40
0.6666666666666666
 40
1.0
 40
1.0
 40
1.0
 40
1.0
 10
39.173900000000003
 20
7.1540999999999997
 30
0.0
 10
39.173900000000003
 20
7.1540999999999997
 30
0.0
 10
33.991700000000002
 20
9.4472000000000005
 30
0.0
 10
33.991700000000002
 20
9.4472000000000005
 30
0.0
 10
33.991700000000002
 20
9.4472000000000005
 30
0.0
 10
40.137099999999997
 20
9.0343999999999998
 30
0.0
 10
46.511800000000001
 20
9.9515999999999991
 30
0.0
 10
52.198599999999999
 20
11.602600000000001
 30
0.0
 10
52.198599999999999
 20
11.602600000000001
 30
0.0
 10
48.575499999999998
 20
8.3924000000000003
 30
0.0
 10
44.172800000000002
 20
6.1909999999999998
 30
0.0
 10
39.173900000000003
 20
7.1540999999999997
 30
0.0
  0
SPLINE
  5
39
100
AcDbEntity
  8
RÚteg 1
100
AcDbSpline
210
0.0
220
0.0
230
1.0
 70
     1
 71
     3
 72
    36
 73
    32
 74
     0
 42
0.0000000001
 43
0.0000000001
 40
0.0
 40
0.0
 40
0.0
 40
0.0
 40
0.125
 40
0.125
 40
0.125
 40
0.125
 40
0.25
 40
0.25
 40
0.25
 40
0.25
 40
0.375
 40
0.375
 40
0.375
 40
0.375
 40
0.5
 40
0.5
 40
0.5
 40
0.5
 40
0.625
 40
0.625
 40
0.625
 40
0.625
 40
0.75
 40
0.75
 40
0.75
 40
0.75
 40
0.875
 40
0.875
 40
0.875
 40
0.875
 40
1.0
 40
1.0
 40
1.0
 40
1.0
 10
70.818200000000004
 20
14.216699999999999
 30
0.0
 10
72.239900000000006
 20
13.161899999999999
 30
0.0
 10
73.340599999999995
 20
11.7402
 30
0.0
 10
73.890900000000002
 20
10.226800000000001
 30
0.0
 10
73.890900000000002
 20
10.226800000000001
 30
0.0
 10
73.340599999999995
 20
7.5209999999999999
 30
0.0
 10
72.377499999999998
 20
4.6317000000000004
 30
0.0
 10
72.973699999999994
 20
1.8342000000000001
 30
0.0
 10
72.973699999999994
 20
1.8342000000000001
 30
0.0
 10
71.368600000000001
 20
4.9985999999999997
 30
0.0
 10
71.139200000000002
 20
10.5937
 30
0.0
 10
66.415499999999994
 20
12.382300000000001
 30
0.0
 10
66.415499999999994
 20
12.382300000000001
 30
0.0
 10
62.8384
 20
12.657400000000001
 30
0.0
 10
59.490499999999997
 20
13.437099999999999
 30
0.0
 10
56.326000000000001
 20
14.6753
 30
0.0
 10
56.326000000000001
 20
14.6753
 30
0.0
 10
50.5017
 20
14.125
 30
0.0
 10
45.869700000000002
 20
10.6854
 30
0.0
 10
39.632599999999996
 20
11.144
 30
0.0
 10
39.632599999999996
 20
11.144
 30
0.0
 10
37.339500000000001
 20
11.0982
 30
0.0
 10
34.266800000000003
 20
11.0982
 30
0.0
 10
31.836200000000002
 20
11.7402
 30
0.0
 10
31.836200000000002
 20
11.7402
 30
0.0
 10
34.863
 20
18.069099999999999
 30
0.0
 10
41.742199999999997
 20
22.150700000000001
 30
0.0
 10
48.529699999999998
 20
22.930399999999999
 30
0.0
 10
48.529699999999998
 20
22.930399999999999
 30
0.0
 10
57.289200000000001
 20
23.2514
 30
0.0
 10
64.3977
 20
19.5366
 30
0.0
 10
70.818200000000004
 20
14.216699999999999
 30
0.0
  0
SPLINE
  5
3A
100
AcDbEntity
  8
RÚteg 1
100
AcDbSpline
210
0.0
220
0.0
230
1.0
 70
     1
 71
     3
 72
    88
 73
    84
 74
     0
 42
0.0000000001
 43
0.0000000001
 40
0.0
 40
0.0
 40
0.0
 40
0.0
 40
0.0476190476190476
 40
0.0476190476190476
 40
0.0476190476190476
 40
0.0476190476190476
 40
0.0952380952380952
 40
0.0952380952380952
 40
0.0952380952380952
 40
0.0952380952380952
 40
0.1428571428571429
 40
0.1428571428571429
 40
0.1428571428571429
 40
0.1428571428571429
 40
0.1904761904761905
 40
0.1904761904761905
 40
0.1904761904761905
 40
0.1904761904761905
 40
0.2380952380952381
 40
0.2380952380952381
 40
0.2380952380952381
 40
0.2380952380952381
 40
0.2857142857142857
 40
0.2857142857142857
 40
0.2857142857142857
 40
0.2857142857142857
 40
0.3333333333333333
 40
0.3333333333333333
 40
0.3333333333333333
 40
0.3333333333333333
 40
0.3809523809523809
 40
0.3809523809523809
 40
0.3809523809523809
 40
0.3809523809523809
 40
0.4285714285714286
 40
0.4285714285714286
 40
0.4285714285714286
 40
0.4285714285714286
 40
0.4761904761904762
 40
0.4761904761904762
 40
0.4761904761904762
 40
0.4761904761904762
 40
0.5238095238095237
 40
0.5238095238095237
 40
0.5238095238095237
 40
0.5238095238095237
 40
0.5714285714285714
 40
0.5714285714285714
 40
0.5714285714285714
 40
0.5714285714285714
 40
0.6190476190476191
 40
0.6190476190476191
 40
0.6190476190476191
 40
0.6190476190476191
 40
0.6666666666666667
 40
0.6666666666666667
 40
0.6666666666666667
 40
0.6666666666666667
 40
0.7142857142857144
 40
0.7142857142857144
 40
0.7142857142857144
 40
0.7142857142857144
 40
0.7619047619047621
 40
0.7619047619047621
 40
0.7619047619047621
 40
0.7619047619047621
 40
0.8095238095238098
 40
0.8095238095238098
 40
0.8095238095238098
 40
0.8095238095238098
 40
0.8571428571428574
 40
0.8571428571428574
 40
0.8571428571428574
 40
0.8571428571428574
 40
0.9047619047619051
 40
0.9047619047619051
 40
0.9047619047619051
 40
0.9047619047619051
 40
0.9523809523809528
 40
0.9523809523809528
 40
0.9523809523809528
 40
0.9523809523809528
 40
1.0
 40
1.0
 40
1.0
 40
1.0
 10
29.4056
 20
32.698799999999999
 30
0.0
 10
29.726600000000001
 20
31.552299999999999
 30
0.0
 10
30.643799999999999
 20
30.497399999999999
 30
0.0
 10
31.377600000000001
 20
29.626100000000001
 30
0.0
 10
31.377600000000001
 20
29.626100000000001
 30
0.0
 10
32.569899999999997
 20
33.5702
 30
0.0
 10
33.716500000000003
 20
37.514200000000002
 30
0.0
 10
36.4223
 20
40.816200000000002
 30
0.0
 10
36.4223
 20
40.816200000000002
 30
0.0
 10
36.284700000000001
 20
42.192100000000003
 30
0.0
 10
36.055399999999999
 20
43.659599999999998
 30
0.0
 10
36.284700000000001
 20
44.9437
 30
0.0
 10
36.284700000000001
 20
44.9437
 30
0.0
 10
36.559899999999999
 20
43.980600000000003
 30
0.0
 10
36.9268
 20
43.109299999999998
 30
0.0
 10
37.523000000000003
 20
42.329599999999999
 30
0.0
 10
37.523000000000003
 20
42.329599999999999
 30
0.0
 10
41.2836
 20
46.136099999999999
 30
0.0
 10
45.732100000000003
 20
49.2089
 30
0.0
 10
49.263500000000001
 20
53.4739
 30
0.0
 10
49.263500000000001
 20
53.4739
 30
0.0
 10
49.217599999999997
 20
54.895600000000002
 30
0.0
 10
49.355200000000004
 20
56.2256
 30
0.0
 10
49.722000000000001
 20
57.463900000000002
 30
0.0
 10
49.722000000000001
 20
57.463900000000002
 30
0.0
 10
49.676200000000001
 20
56.546599999999998
 30
0.0
 10
49.813800000000001
 20
55.6753
 30
0.0
 10
50.364100000000001
 20
55.033200000000001
 30
0.0
 10
50.364100000000001
 20
55.033200000000001
 30
0.0
 10
53.024000000000001
 20
58.793799999999997
 30
0.0
 10
56.876399999999997
 20
62.921300000000002
 30
0.0
 10
60.912199999999999
 20
65.122699999999995
 30
0.0
 10
60.912199999999999
 20
65.122699999999995
 30
0.0
 10
56.9681
 20
61.178600000000003
 30
0.0
 10
53.712000000000003
 20
57.005200000000002
 30
0.0
 10
51.097900000000003
 20
52.556699999999999
 30
0.0
 10
51.097900000000003
 20
52.556699999999999
 30
0.0
 10
53.436799999999998
 20
52.510899999999999
 30
0.0
 10
55.592300000000002
 20
53.795000000000002
 30
0.0
 10
57.839500000000001
 20
54.391199999999998
 30
0.0
 10
57.839500000000001
 20
54.391199999999998
 30
0.0
 10
54.996099999999998
 20
52.9236
 30
0.0
 10
52.381999999999998
 20
50.951599999999999
 30
0.0
 10
49.125900000000001
 20
50.447099999999999
 30
0.0
 10
49.125900000000001
 20
50.447099999999999
 30
0.0
 10
45.6404
 20
47.145099999999999
 30
0.0
 10
41.191800000000001
 20
44.210000000000001
 30
0.0
 10
38.898800000000001
 20
40.0366
 30
0.0
 10
38.898800000000001
 20
40.0366
 30
0.0
 10
44.081200000000003
 20
39.165199999999999
 30
0.0
 10
48.942399999999999
 20
40.816200000000002
 30
0.0
 10
53.712000000000003
 20
41.871000000000002
 30
0.0
 10
53.712000000000003
 20
41.871000000000002
 30
0.0
 10
49.217599999999997
 20
38.844200000000001
 30
0.0
 10
43.714199999999998
 20
38.202100000000002
 30
0.0
 10
37.9816
 20
38.202100000000002
 30
0.0
 10
37.9816
 20
38.202100000000002
 30
0.0
 10
36.055399999999999
 20
34.258099999999999
 30
0.0
 10
34.3127
 20
30.2681
 30
0.0
 10
33.212000000000003
 20
25.9572
 30
0.0
 10
33.212000000000003
 20
25.9572
 30
0.0
 10
38.256799999999998
 20
25.590299999999999
 30
0.0
 10
42.659399999999998
 20
27.5623
 30
0.0
 10
46.832799999999999
 20
29.626100000000001
 30
0.0
 10
46.832799999999999
 20
29.626100000000001
 30
0.0
 10
42.8887
 20
26.186499999999999
 30
0.0
 10
37.6676
 20
24.9694
 30
0.0
 10
32.301900000000003
 20
24.9694
 30
0.0
 10
32.301900000000003
 20
24.9694
 30
0.0
 10
31.1553
 20
20.979500000000002
 30
0.0
 10
30.4145
 20
17.472899999999999
 30
0.0
 10
28.625900000000001
 20
13.758100000000001
 30
0.0
 10
28.625900000000001
 20
13.758100000000001
 30
0.0
 10
28.442399999999999
 20
13.482900000000001
 30
0.0
 10
28.029699999999998
 20
13.6205
 30
0.0
 10
27.7087
 20
13.5747
 30
0.0
 10
27.7087
 20
13.5747
 30
0.0
 10
29.4514
 20
18.023199999999999
 30
0.0
 10
29.91
 20
22.976199999999999
 30
0.0
 10
30.918900000000001
 20
27.6541
 30
0.0
 10
30.918900000000001
 20
27.6541
 30
0.0
 10
30.185199999999998
 20
29.2592
 30
0.0
 10
29.588999999999999
 20
30.8643
 30
0.0
 10
29.4056
 20
32.698799999999999
 30
0.0
  0
SPLINE
  5
3B
100
AcDbEntity
  8
RÚteg 1
100
AcDbSpline
210
0.0
220
0.0
230
1.0
 70
     1
 71
     3
 72
    44
 73
    40
 74
     0
 42
0.0000000001
 43
0.0000000001
 40
0.0
 40
0.0
 40
0.0
 40
0.0
 40
0.1
 40
0.1
 40
0.1
 40
0.1
 40
0.2
 40
0.2
 40
0.2
 40
0.2
 40
0.3
 40
0.3
 40
0.3
 40
0.3
 40
0.4
 40
0.4
 40
0.4
 40
0.4
 40
0.5
 40
0.5
 40
0.5
 40
0.5
 40
0.6
 40
0.6
 40
0.6
 40
0.6
 40
0.7
 40
0.7
 40
0.7
 40
0.7
 40
0.7999999999999999
 40
0.7999999999999999
 40
0.7999999999999999
 40
0.7999999999999999
 40
0.8999999999999999
 40
0.8999999999999999
 40
0.8999999999999999
 40
0.8999999999999999
 40
1.0
 40
1.0
 40
1.0
 40
1.0
 10
26.332799999999999
 20
20.774899999999999
 30
0.0
 10
25.782499999999999
 20
18.206600000000002
 30
0.0
 10
25.323899999999998
 20
15.317399999999999
 30
0.0
 10
22.663900000000002
 20
13.8957
 30
0.0
 10
22.663900000000002
 20
13.8957
 30
0.0
 10
21.609100000000002
 20
13.5288
 30
0.0
 10
21.196400000000001
 20
14.446
 30
0.0
 10
20.829499999999999
 20
15.133900000000001
 30
0.0
 10
20.829499999999999
 20
15.133900000000001
 30
0.0
 10
20.049800000000001
 20
26.140599999999999
 30
0.0
 10
15.6013
 20
36.046700000000001
 30
0.0
 10
16.4268
 20
47.374400000000001
 30
0.0
 10
16.4268
 20
47.374400000000001
 30
0.0
 10
17.665099999999999
 20
49.896799999999999
 30
0.0
 10
20.004000000000001
 20
51.960500000000003
 30
0.0
 10
22.663900000000002
 20
52.740200000000002
 30
0.0
 10
22.663900000000002
 20
52.740200000000002
 30
0.0
 10
22.021899999999999
 20
49.575699999999998
 30
0.0
 10
20.7377
 20
46.319600000000001
 30
0.0
 10
21.471499999999999
 20
42.925800000000002
 30
0.0
 10
21.471499999999999
 20
42.925800000000002
 30
0.0
 10
22.4346
 20
44.806100000000001
 30
0.0
 10
22.8932
 20
46.869900000000001
 30
0.0
 10
23.764600000000002
 20
48.7502
 30
0.0
 10
23.764600000000002
 20
48.7502
 30
0.0
 10
23.764600000000002
 20
48.7502
 30
0.0
 10
26.057600000000001
 20
53.198799999999999
 30
0.0
 10
26.057600000000001
 20
53.198799999999999
 30
0.0
 10
26.057600000000001
 20
53.198799999999999
 30
0.0
 10
25.782499999999999
 20
50.722299999999997
 30
0.0
 10
24.5443
 20
47.878799999999998
 30
0.0
 10
25.874199999999998
 20
45.539900000000003
 30
0.0
 10
25.874199999999998
 20
45.539900000000003
 30
0.0
 10
26.424600000000002
 20
48.1999
 30
0.0
 10
27.571100000000001
 20
50.584699999999998
 30
0.0
 10
29.4056
 20
52.740200000000002
 30
0.0
 10
29.4056
 20
52.740200000000002
 30
0.0
 10
25.415600000000001
 20
43.292700000000004
 30
0.0
 10
26.928999999999998
 20
31.598099999999999
 30
0.0
 10
26.332799999999999
 20
20.774899999999999
 30
0.0
  0
SPLINE
  5
3C
100
AcDbEntity
  8
RÚteg 1
100
AcDbSpline
210
0.0
220
0.0
230
1.0
 70
     1
 71
     3
 72
    60
 73
    56
 74
     0
 42
0.0000000001
 43
0.0000000001
 40
0.0
 40
0.0
 40
0.0
 40
0.0
 40
0.0714285714285714
 40
0.0714285714285714
 40
0.0714285714285714
 40
0.0714285714285714
 40
0.1428571428571429
 40
0.1428571428571429
 40
0.1428571428571429
 40
0.1428571428571429
 40
0.2142857142857143
 40
0.2142857142857143
 40
0.2142857142857143
 40
0.2142857142857143
 40
0.2857142857142857
 40
0.2857142857142857
 40
0.2857142857142857
 40
0.2857142857142857
 40
0.3571428571428571
 40
0.3571428571428571
 40
0.3571428571428571
 40
0.3571428571428571
 40
0.4285714285714285
 40
0.4285714285714285
 40
0.4285714285714285
 40
0.4285714285714285
 40
0.4999999999999999
 40
0.4999999999999999
 40
0.4999999999999999
 40
0.4999999999999999
 40
0.5714285714285713
 40
0.5714285714285713
 40
0.5714285714285713
 40
0.5714285714285713
 40
0.6428571428571427
 40
0.6428571428571427
 40
0.6428571428571427
 40
0.6428571428571427
 40
0.7142857142857141
 40
0.7142857142857141
 40
0.7142857142857141
 40
0.7142857142857141
 40
0.7857142857142855
 40
0.7857142857142855
 40
0.7857142857142855
 40
0.7857142857142855
 40
0.8571428571428569
 40
0.8571428571428569
 40
0.8571428571428569
 40
0.8571428571428569
 40
0.9285714285714283
 40
0.9285714285714283
 40
0.9285714285714283
 40
0.9285714285714283
 40
1.0
 40
1.0
 40
1.0
 40
1.0
 10
3.2646999999999999
 20
73.194199999999995
 30
0.0
 10
5.3284000000000002
 20
80.715500000000006
 30
0.0
 10
12.9413
 20
85.897800000000004
 30
0.0
 10
15.3261
 20
93.235600000000005
 30
0.0
 10
15.3261
 20
93.235600000000005
 30
0.0
 10
16.610199999999999
 20
95.345200000000006
 30
0.0
 10
18.490600000000001
 20
97.409000000000006
 30
0.0
 10
20.554300000000001
 20
98.876499999999993
 30
0.0
 10
20.554300000000001
 20
98.876499999999993
 30
0.0
 10
20.554300000000001
 20
98.876499999999993
 30
0.0
 10
33.0745
 20
104.10469999999999
 30
0.0
 10
33.0745
 20
104.10469999999999
 30
0.0
 10
33.0745
 20
104.10469999999999
 30
0.0
 10
33.212000000000003
 20
103.004
 30
0.0
 10
32.157200000000003
 20
101.5823
 30
0.0
 10
32.936900000000001
 20
100.25239999999999
 30
0.0
 10
32.936900000000001
 20
100.25239999999999
 30
0.0
 10
35.275799999999997
 20
94.382199999999997
 30
0.0
 10
43.301499999999997
 20
93.648399999999995
 30
0.0
 10
44.860799999999998
 20
87.411199999999994
 30
0.0
 10
44.860799999999998
 20
87.411199999999994
 30
0.0
 10
43.347299999999997
 20
82.779300000000006
 30
0.0
 10
48.346200000000003
 20
79.935900000000004
 30
0.0
 10
47.429000000000002
 20
75.349699999999999
 30
0.0
 10
47.429000000000002
 20
75.349699999999999
 30
0.0
 10
46.878700000000002
 20
68.241200000000006
 30
0.0
 10
42.292499999999997
 20
60.765900000000002
 30
0.0
 10
35.505099999999999
 20
58.243499999999997
 30
0.0
 10
35.505099999999999
 20
58.243499999999997
 30
0.0
 10
29.038599999999999
 20
56.317300000000003
 30
0.0
 10
22.113600000000002
 20
55.537700000000001
 30
0.0
 10
16.4268
 20
51.822899999999997
 30
0.0
 10
16.4268
 20
51.822899999999997
 30
0.0
 10
16.4268
 20
51.822899999999997
 30
0.0
 10
21.930199999999999
 20
55.788200000000003
 30
0.0
 10
21.930199999999999
 20
55.788200000000003
 30
0.0
 10
21.930199999999999
 20
55.788200000000003
 30
0.0
 10
21.609100000000002
 20
59.915700000000001
 30
0.0
 10
22.984999999999999
 20
64.801699999999997
 30
0.0
 10
19.1785
 20
67.415700000000001
 30
0.0
 10
19.1785
 20
67.415700000000001
 30
0.0
 10
18.0778
 20
67.461600000000004
 30
0.0
 10
17.023
 20
67.369900000000001
 30
0.0
 10
16.243400000000001
 20
66.636099999999999
 30
0.0
 10
16.243400000000001
 20
66.636099999999999
 30
0.0
 10
13.812799999999999
 20
63.242400000000004
 30
0.0
 10
14.0878
 20
58.656199999999998
 30
0.0
 10
13.354100000000001
 20
54.574599999999997
 30
0.0
 10
13.354100000000001
 20
54.574599999999997
 30
0.0
 10
13.354100000000001
 20
54.574599999999997
 30
0.0
 10
12.8955
 20
54.391199999999998
 30
0.0
 10
12.8955
 20
54.391199999999998
 30
0.0
 10
12.8955
 20
54.391199999999998
 30
0.0
 10
6.4291
 20
58.931399999999996
 30
0.0
 10
2.6225999999999998
 20
65.718900000000005
 30
0.0
 10
3.2646999999999999
 20
73.194199999999995
 30
0.0
  0
SPLINE
  5
3D
100
AcDbEntity
  8
RÚteg 1
100
AcDbSpline
210
0.0
220
0.0
230
1.0
 70
     1
 71
     3
 72
    20
 73
    16
 74
     0
 42
0.0000000001
 43
0.0000000001
 40
0.0
 40
0.0
 40
0.0
 40
0.0
 40
0.25
 40
0.25
 40
0.25
 40
0.25
 40
0.5
 40
0.5
 40
0.5
 40
0.5
 40
0.75
 40
0.75
 40
0.75
 40
0.75
 40
1.0
 40
1.0
 40
1.0
 40
1.0
 10
1.1092
 20
68.414100000000005
 30
0.0
 10
2.4392
 20
64.011399999999995
 30
0.0
 10
3.5398000000000001
 20
58.9773
 30
0.0
 10
7.8507999999999996
 20
56.088000000000001
 30
0.0
 10
7.8507999999999996
 20
56.088000000000001
 30
0.0
 10
9.0890000000000004
 20
55.262500000000003
 30
0.0
 10
10.2814
 20
54.070099999999996
 30
0.0
 10
11.382099999999999
 20
53.198799999999999
 30
0.0
 10
11.382099999999999
 20
53.198799999999999
 30
0.0
 10
7.2087000000000003
 20
54.253599999999999
 30
0.0
 10
2.1640000000000001
 20
57.097000000000001
 30
0.0
 10
1.5678000000000001
 20
61.912399999999998
 30
0.0
 10
1.5678000000000001
 20
61.912399999999998
 30
0.0
 10
1.4301999999999999
 20
63.976199999999999
 30
0.0
 10
0.2836
 20
66.336200000000005
 30
0.0
 10
1.1092
 20
68.414100000000005
 30
0.0
  0
SPLINE
  5
3E
100
AcDbEntity
  8
RÚteg 1
100
AcDbSpline
210
0.0
220
0.0
230
1.0
 70
     1
 71
     3
 72
    84
 73
    80
 74
     0
 42
0.0000000001
 43
0.0000000001
 40
0.0
 40
0.0
 40
0.0
 40
0.0
 40
0.05
 40
0.05
 40
0.05
 40
0.05
 40
0.1
 40
0.1
 40
0.1
 40
0.1
 40
0.15
 40
0.15
 40
0.15
 40
0.15
 40
0.2
 40
0.2
 40
0.2
 40
0.2
 40
0.25
 40
0.25
 40
0.25
 40
0.25
 40
0.3
 40
0.3
 40
0.3
 40
0.3
 40
0.35
 40
0.35
 40
0.35
 40
0.35
 40
0.4
 40
0.4
 40
0.4
 40
0.4
 40
0.45
 40
0.45
 40
0.45
 40
0.45
 40
0.4999999999999999
 40
0.4999999999999999
 40
0.4999999999999999
 40
0.4999999999999999
 40
0.5499999999999999
 40
0.5499999999999999
 40
0.5499999999999999
 40
0.5499999999999999
 40
0.6
 40
0.6
 40
0.6
 40
0.6
 40
0.65
 40
0.65
 40
0.65
 40
0.65
 40
0.7000000000000001
 40
0.7000000000000001
 40
0.7000000000000001
 40
0.7000000000000001
 40
0.7500000000000001
 40
0.7500000000000001
 40
0.7500000000000001
 40
0.7500000000000001
 40
0.8000000000000002
 40
0.8000000000000002
 40
0.8000000000000002
 40
0.8000000000000002
 40
0.8500000000000002
 40
0.8500000000000002
 40
0.8500000000000002
 40
0.8500000000000002
 40
0.9000000000000002
 40
0.9000000000000002
 40
0.9000000000000002
 40
0.9000000000000002
 40
0.9500000000000003
 40
0.9500000000000003
 40
0.9500000000000003
 40
0.9500000000000003
 40
1.0
 40
1.0
 40
1.0
 40
1.0
 10
-30.672499999999999
 20
104.37990000000001
 30
0.0
 10
-27.599799999999998
 20
104.37990000000001
 30
0.0
 10
-25.260899999999999
 20
101.8575
 30
0.0
 10
-22.738600000000002
 20
100.1148
 30
0.0
 10
-22.738600000000002
 20
100.1148
 30
0.0
 10
-20.2621
 20
98.142799999999994
 30
0.0
 10
-18.381799999999998
 20
95.620400000000004
 30
0.0
 10
-16.5931
 20
93.235600000000005
 30
0.0
 10
-16.5931
 20
93.235600000000005
 30
0.0
 10
-16.409700000000001
 20
96.766900000000007
 30
0.0
 10
-18.014900000000001
 20
99.977199999999996
 30
0.0
 10
-18.748699999999999
 20
103.32510000000001
 30
0.0
 10
-18.748699999999999
 20
103.32510000000001
 30
0.0
 10
-13.979100000000001
 20
98.509699999999995
 30
0.0
 10
-16.960100000000001
 20
90.438100000000006
 30
0.0
 10
-12.649100000000001
 20
85.4392
 30
0.0
 10
-12.649100000000001
 20
85.4392
 30
0.0
 10
-10.952199999999999
 20
87.411199999999994
 30
0.0
 10
-10.9064
 20
90.025300000000001
 30
0.0
 10
-10.035
 20
92.318399999999997
 30
0.0
 10
-10.035
 20
92.318399999999997
 30
0.0
 10
-9.3470999999999993
 20
89.108099999999993
 30
0.0
 10
-10.493600000000001
 20
86.035399999999996
 30
0.0
 10
-11.4108
 20
83.146100000000004
 30
0.0
 10
-11.4108
 20
83.146100000000004
 30
0.0
 10
-9.9891000000000005
 20
79.431399999999996
 30
0.0
 10
-8.2922999999999991
 20
75.900099999999995
 30
0.0
 10
-6.2285000000000004
 20
72.460499999999996
 30
0.0
 10
-6.2285000000000004
 20
72.460499999999996
 30
0.0
 10
-3.8896000000000002
 20
77.046599999999998
 30
0.0
 10
-2.7888999999999999
 20
82.320599999999999
 30
0.0
 10
-3.2934000000000001
 20
87.869799999999998
 30
0.0
 10
-3.2934000000000001
 20
87.869799999999998
 30
0.0
 10
-1.0463
 20
82.183099999999996
 30
0.0
 10
-2.6514000000000002
 20
75.395600000000002
 30
0.0
 10
-5.4489000000000001
 20
70.442599999999999
 30
0.0
 10
-5.4489000000000001
 20
70.442599999999999
 30
0.0
 10
-0.7252
 20
62.875500000000002
 30
0.0
 10
3.0811999999999999
 20
54.941499999999998
 30
0.0
 10
7.0711000000000004
 20
47.0533
 30
0.0
 10
7.0711000000000004
 20
47.0533
 30
0.0
 10
6.8876999999999997
 20
46.869900000000001
 30
0.0
 10
6.8876999999999997
 20
46.594700000000003
 30
0.0
 10
6.6124999999999998
 20
46.457099999999997
 30
0.0
 10
6.6124999999999998
 20
46.457099999999997
 30
0.0
 10
3.0175999999999998
 20
53.459800000000001
 30
0.0
 10
-2.1928000000000001
 20
60.169699999999999
 30
0.0
 10
-6.3661000000000003
 20
67.094700000000003
 30
0.0
 10
-6.3661000000000003
 20
67.094700000000003
 30
0.0
 10
-6.2868000000000004
 20
66.953599999999994
 30
0.0
 10
-6.7278000000000002
 20
67.659099999999995
 30
0.0
 10
-6.9659000000000004
 20
68.0261
 30
0.0
 10
-6.9659000000000004
 20
68.0261
 30
0.0
 10
-7.4774000000000003
 20
69.246600000000001
 30
0.0
 10
-7.6044
 20
69.204300000000003
 30
0.0
 10
-8.2005999999999997
 20
70.305000000000007
 30
0.0
 10
-8.2005999999999997
 20
70.305000000000007
 30
0.0
 10
-12.694900000000001
 20
70.671899999999994
 30
0.0
 10
-17.235199999999999
 20
71.084599999999995
 30
0.0
 10
-20.904199999999999
 20
73.515299999999996
 30
0.0
 10
-20.904199999999999
 20
73.515299999999996
 30
0.0
 10
-17.327000000000002
 20
72.231200000000001
 30
0.0
 10
-13.199400000000001
 20
71.8643
 30
0.0
 10
-9.1178000000000008
 20
72.277000000000001
 30
0.0
 10
-9.1178000000000008
 20
72.277000000000001
 30
0.0
 10
-10.447699999999999
 20
77.367599999999996
 30
0.0
 10
-12.2822
 20
82.274799999999999
 30
0.0
 10
-14.6211
 20
86.952600000000004
 30
0.0
 10
-14.6211
 20
86.952600000000004
 30
0.0
 10
-17.6021
 20
88.190899999999999
 30
0.0
 10
-20.720700000000001
 20
89.062200000000004
 30
0.0
 10
-23.334800000000001
 20
91.080100000000002
 30
0.0
 10
-23.334800000000001
 20
91.080100000000002
 30
0.0
 10
-21.271000000000001
 20
90.162899999999993
 30
0.0
 10
-18.840399999999999
 20
89.704300000000003
 30
0.0
 10
-16.5931
 20
89.704300000000003
 30
0.0
 10
-16.5931
 20
89.704300000000003
 30
0.0
 10
-19.940999999999999
 20
95.299400000000006
 30
0.0
 10
-24.802299999999999
 20
101.21550000000001
 30
0.0
 10
-30.672499999999999
 20
104.37990000000001
 30
0.0
  0
SPLINE
  5
3F
100
AcDbEntity
  8
RÚteg 1
100
AcDbSpline
210
0.0
220
0.0
230
1.0
 70
     1
 71
     3
 72
    48
 73
    44
 74
     0
 42
0.0000000001
 43
0.0000000001
 40
0.0
 40
0.0
 40
0.0
 40
0.0
 40
0.0909090909090909
 40
0.0909090909090909
 40
0.0909090909090909
 40
0.0909090909090909
 40
0.1818181818181818
 40
0.1818181818181818
 40
0.1818181818181818
 40
0.1818181818181818
 40
0.2727272727272727
 40
0.2727272727272727
 40
0.2727272727272727
 40
0.2727272727272727
 40
0.3636363636363637
 40
0.3636363636363637
 40
0.3636363636363637
 40
0.3636363636363637
 40
0.4545454545454546
 40
0.4545454545454546
 40
0.4545454545454546
 40
0.4545454545454546
 40
0.5454545454545455
 40
0.5454545454545455
 40
0.5454545454545455
 40
0.5454545454545455
 40
0.6363636363636365
 40
0.6363636363636365
 40
0.6363636363636365
 40
0.6363636363636365
 40
0.7272727272727274
 40
0.7272727272727274
 40
0.7272727272727274
 40
0.7272727272727274
 40
0.8181818181818183
 40
0.8181818181818183
 40
0.8181818181818183
 40
0.8181818181818183
 40
0.9090909090909093
 40
0.9090909090909093
 40
0.9090909090909093
 40
0.9090909090909093
 40
1.0
 40
1.0
 40
1.0
 40
1.0
 10
-52.2273
 20
51.639499999999998
 30
0.0
 10
-54.153500000000001
 20
51.089199999999998
 30
0.0
 10
-55.987900000000003
 20
50.3095
 30
0.0
 10
-58.051699999999997
 20
49.988500000000002
 30
0.0
 10
-58.051699999999997
 20
49.988500000000002
 30
0.0
 10
-56.171399999999998
 20
51.639499999999998
 30
0.0
 10
-54.061799999999998
 20
53.382199999999997
 30
0.0
 10
-51.631100000000004
 20
53.932499999999997
 30
0.0
 10
-51.631100000000004
 20
53.932499999999997
 30
0.0
 10
-49.567399999999999
 20
57.188699999999997
 30
0.0
 10
-47.090899999999998
 20
60.903399999999998
 30
0.0
 10
-43.376100000000001
 20
62.371000000000002
 30
0.0
 10
-43.376100000000001
 20
62.371000000000002
 30
0.0
 10
-39.661299999999997
 20
63.104799999999997
 30
0.0
 10
-37.0473
 20
60.399000000000001
 30
0.0
 10
-33.7453
 20
61.1327
 30
0.0
 10
-33.7453
 20
61.1327
 30
0.0
 10
-29.709399999999999
 20
64.022000000000006
 30
0.0
 10
-24.848199999999999
 20
65.764700000000005
 30
0.0
 10
-19.665900000000001
 20
64.9392
 30
0.0
 10
-19.665900000000001
 20
64.9392
 30
0.0
 10
-15.4466
 20
64.205500000000001
 30
0.0
 10
-12.098699999999999
 20
61.362000000000002
 30
0.0
 10
-8.9802
 20
58.060000000000002
 30
0.0
 10
-8.9802
 20
58.060000000000002
 30
0.0
 10
-5.5865
 20
57.326300000000003
 30
0.0
 10
-1.6882999999999999
 20
56.684199999999997
 30
0.0
 10
-0.0831
 20
52.877699999999997
 30
0.0
 10
-0.0831
 20
52.877699999999997
 30
0.0
 10
0.6964
 20
51.089199999999998
 30
0.0
 10
0.5589
 20
48.1081
 30
0.0
 10
-0.0831
 20
46.136099999999999
 30
0.0
 10
-0.0831
 20
46.136099999999999
 30
0.0
 10
-4.8526999999999996
 20
43.751300000000001
 30
0.0
 10
-11.869400000000001
 20
42.6965
 30
0.0
 10
-16.318000000000001
 20
46.457099999999997
 30
0.0
 10
-16.318000000000001
 20
46.457099999999997
 30
0.0
 10
-19.436599999999999
 20
49.438200000000002
 30
0.0
 10
-23.701599999999999
 20
50.814
 30
0.0
 10
-27.9209
 20
49.2089
 30
0.0
 10
-27.9209
 20
49.2089
 30
0.0
 10
-36.680399999999999
 20
44.760300000000001
 30
0.0
 10
-43.376100000000001
 20
53.611499999999999
 30
0.0
 10
-52.2273
 20
51.639499999999998
 30
0.0
  0
SPLINE
  5
40
100
AcDbEntity
  8
RÚteg 1
100
AcDbSpline
210
0.0
220
0.0
230
1.0
 70
     1
 71
     3
 72
    60
 73
    56
 74
     0
 42
0.0000000001
 43
0.0000000001
 40
0.0
 40
0.0
 40
0.0
 40
0.0
 40
0.0714285714285714
 40
0.0714285714285714
 40
0.0714285714285714
 40
0.0714285714285714
 40
0.1428571428571429
 40
0.1428571428571429
 40
0.1428571428571429
 40
0.1428571428571429
 40
0.2142857142857143
 40
0.2142857142857143
 40
0.2142857142857143
 40
0.2142857142857143
 40
0.2857142857142857
 40
0.2857142857142857
 40
0.2857142857142857
 40
0.2857142857142857
 40
0.3571428571428571
 40
0.3571428571428571
 40
0.3571428571428571
 40
0.3571428571428571
 40
0.4285714285714285
 40
0.4285714285714285
 40
0.4285714285714285
 40
0.4285714285714285
 40
0.4999999999999999
 40
0.4999999999999999
 40
0.4999999999999999
 40
0.4999999999999999
 40
0.5714285714285713
 40
0.5714285714285713
 40
0.5714285714285713
 40
0.5714285714285713
 40
0.6428571428571427
 40
0.6428571428571427
 40
0.6428571428571427
 40
0.6428571428571427
 40
0.7142857142857141
 40
0.7142857142857141
 40
0.7142857142857141
 40
0.7142857142857141
 40
0.7857142857142855
 40
0.7857142857142855
 40
0.7857142857142855
 40
0.7857142857142855
 40
0.8571428571428569
 40
0.8571428571428569
 40
0.8571428571428569
 40
0.8571428571428569
 40
0.9285714285714283
 40
0.9285714285714283
 40
0.9285714285714283
 40
0.9285714285714283
 40
1.0
 40
1.0
 40
1.0
 40
1.0
 10
-49.475700000000003
 20
28.571300000000001
 30
0.0
 10
-49.377099999999999
 20
33.545699999999997
 30
0.0
 10
-51.434899999999999
 20
39.307699999999997
 30
0.0
 10
-49.696899999999999
 20
43.116100000000003
 30
0.0
 10
-49.696899999999999
 20
43.116100000000003
 30
0.0
 10
-48.7303
 20
45.834099999999999
 30
0.0
 10
-47.671999999999997
 20
47.3628
 30
0.0
 10
-47.671999999999997
 20
47.3628
 30
0.0
 10
-47.671999999999997
 20
47.3628
 30
0.0
 10
-47.420499999999997
 20
45.7637
 30
0.0
 10
-50.259
 20
36.250300000000003
 30
0.0
 10
-41.082999999999998
 20
29.350899999999999
 30
0.0
 10
-41.082999999999998
 20
29.350899999999999
 30
0.0
 10
-34.616599999999998
 20
24.9483
 30
0.0
 10
-26.8202
 20
23.8476
 30
0.0
 10
-19.665900000000001
 20
21.0959
 30
0.0
 10
-19.665900000000001
 20
21.0959
 30
0.0
 10
-14.575200000000001
 20
18.757000000000001
 30
0.0
 10
-13.199400000000001
 20
13.2995
 30
0.0
 10
-12.007
 20
8.5298999999999996
 30
0.0
 10
-12.007
 20
8.5298999999999996
 30
0.0
 10
-11.686
 20
2.9807000000000001
 30
0.0
 10
-11.777799999999999
 20
-3.6690999999999998
 30
0.0
 10
-17.831399999999999
 20
-6.4207000000000001
 30
0.0
 10
-17.831399999999999
 20
-6.4207000000000001
 30
0.0
 10
-21.179300000000001
 20
-8.6220999999999997
 30
0.0
 10
-24.802299999999999
 20
-10.2272
 30
0.0
 10
-28.517099999999999
 20
-11.465400000000001
 30
0.0
 10
-28.517099999999999
 20
-11.465400000000001
 30
0.0
 10
-29.4802
 20
-8.9888999999999992
 30
0.0
 10
-29.526
 20
-5.8244999999999996
 30
0.0
 10
-32.506999999999998
 20
-4.4486999999999997
 30
0.0
 10
-32.506999999999998
 20
-4.4486999999999997
 30
0.0
 10
-33.653500000000001
 20
-4.0818000000000003
 30
0.0
 10
-34.8001
 20
-4.6321000000000003
 30
0.0
 10
-35.717300000000002
 20
-5.2282999999999999
 30
0.0
 10
-35.717300000000002
 20
-5.2282999999999999
 30
0.0
 10
-37.322499999999998
 20
-6.0997000000000003
 30
0.0
 10
-37.0473
 20
-7.7965999999999998
 30
0.0
 10
-38.1479
 20
-8.8971999999999998
 30
0.0
 10
-38.1479
 20
-8.8971999999999998
 30
0.0
 10
-43.972299999999997
 20
-6.3289999999999997
 30
0.0
 10
-50.163600000000002
 20
-4.7697000000000003
 30
0.0
 10
-56.354799999999997
 20
-3.2103999999999999
 30
0.0
 10
-56.354799999999997
 20
-3.2103999999999999
 30
0.0
 10
-57.822400000000002
 20
-2.4767000000000001
 30
0.0
 10
-59.335799999999999
 20
-1.5136000000000001
 30
0.0
 10
-59.886200000000002
 20
0.1373
 30
0.0
 10
-59.886200000000002
 20
0.1373
 30
0.0
 10
-61.9499
 20
7.0624000000000002
 30
0.0
 10
-58.510300000000001
 20
13.2536
 30
0.0
 10
-55.758699999999997
 20
18.9404
 30
0.0
 10
-55.758699999999997
 20
18.9404
 30
0.0
 10
-54.107599999999998
 20
22.334199999999999
 30
0.0
 10
-49.704999999999998
 20
24.581399999999999
 30
0.0
 10
-49.475700000000003
 20
28.571300000000001
 30
0.0
  0
SPLINE
  5
41
100
AcDbEntity
  8
RÚteg 1
100
AcDbSpline
210
0.0
220
0.0
230
1.0
 70
     1
 71
     3
 72
    16
 73
    12
 74
     0
 42
0.0000000001
 43
0.0000000001
 40
0.0
 40
0.0
 40
0.0
 40
0.0
 40
0.3333333333333333
 40
0.3333333333333333
 40
0.3333333333333333
 40
0.3333333333333333
 40
0.6666666666666666
 40
0.6666666666666666
 40
0.6666666666666666
 40
0.6666666666666666
 40
1.0
 40
1.0
 40
1.0
 40
1.0
 10
-72.406199999999998
 20
6.5579000000000001
 30
0.0
 10
-69.883899999999997
 20
7.5209999999999999
 30
0.0
 10
-67.221800000000002
 20
7.9252000000000002
 30
0.0
 10
-64.151300000000006
 20
7.0164999999999997
 30
0.0
 10
-64.151300000000006
 20
7.0164999999999997
 30
0.0
 10
-64.151300000000006
 20
7.0164999999999997
 30
0.0
 10
-63.830199999999998
 20
6.4203000000000001
 30
0.0
 10
-63.830199999999998
 20
6.4203000000000001
 30
0.0
 10
-63.830199999999998
 20
6.4203000000000001
 30
0.0
 10
-67.309899999999999
 20
7.2637
 30
0.0
 10
-69.471100000000007
 20
5.9158999999999997
 30
0.0
 10
-72.406199999999998
 20
6.5579000000000001
 30
0.0
  0
SPLINE
  5
42
100
AcDbEntity
  8
RÚteg 1
100
AcDbSpline
210
0.0
220
0.0
230
1.0
 70
     1
 71
     3
 72
    16
 73
    12
 74
     0
 42
0.0000000001
 43
0.0000000001
 40
0.0
 40
0.0
 40
0.0
 40
0.0
 40
0.3333333333333333
 40
0.3333333333333333
 40
0.3333333333333333
 40
0.3333333333333333
 40
0.6666666666666666
 40
0.6666666666666666
 40
0.6666666666666666
 40
0.6666666666666666
 40
1.0
 40
1.0
 40
1.0
 40
1.0
 10
-70.132199999999997
 20
-1.5556000000000001
 30
0.0
 10
-68.3095
 20
0.1494
 30
0.0
 10
-65.618799999999993
 20
0.229
 30
0.0
 10
-63.234000000000002
 20
0.2749
 30
0.0
 10
-63.234000000000002
 20
0.2749
 30
0.0
 10
-63.234000000000002
 20
0.2749
 30
0.0
 10
-63.096400000000003
 20
-0.6422
 30
0.0
 10
-63.096400000000003
 20
-0.6422
 30
0.0
 10
-63.096400000000003
 20
-0.6422
 30
0.0
 10
-63.096400000000003
 20
-0.6422
 30
0.0
 10
-70.132199999999997
 20
-1.5556000000000001
 30
0.0
 10
-70.132199999999997
 20
-1.5556000000000001
 30
0.0
  0
SPLINE
  5
43
100
AcDbEntity
  8
RÚteg 1
100
AcDbSpline
210
0.0
220
0.0
230
1.0
 70
     1
 71
     3
 72
    60
 73
    56
 74
     0
 42
0.0000000001
 43
0.0000000001
 40
0.0
 40
0.0
 40
0.0
 40
0.0
 40
0.0714285714285714
 40
0.0714285714285714
 40
0.0714285714285714
 40
0.0714285714285714
 40
0.1428571428571429
 40
0.1428571428571429
 40
0.1428571428571429
 40
0.1428571428571429
 40
0.2142857142857143
 40
0.2142857142857143
 40
0.2142857142857143
 40
0.2142857142857143
 40
0.2857142857142857
 40
0.2857142857142857
 40
0.2857142857142857
 40
0.2857142857142857
 40
0.3571428571428571
 40
0.3571428571428571
 40
0.3571428571428571
 40
0.3571428571428571
 40
0.4285714285714285
 40
0.4285714285714285
 40
0.4285714285714285
 40
0.4285714285714285
 40
0.4999999999999999
 40
0.4999999999999999
 40
0.4999999999999999
 40
0.4999999999999999
 40
0.5714285714285713
 40
0.5714285714285713
 40
0.5714285714285713
 40
0.5714285714285713
 40
0.6428571428571427
 40
0.6428571428571427
 40
0.6428571428571427
 40
0.6428571428571427
 40
0.7142857142857141
 40
0.7142857142857141
 40
0.7142857142857141
 40
0.7142857142857141
 40
0.7857142857142855
 40
0.7857142857142855
 40
0.7857142857142855
 40
0.7857142857142855
 40
0.8571428571428569
 40
0.8571428571428569
 40
0.8571428571428569
 40
0.8571428571428569
 40
0.9285714285714283
 40
0.9285714285714283
 40
0.9285714285714283
 40
0.9285714285714283
 40
1.0
 40
1.0
 40
1.0
 40
1.0
 10
-73.185900000000004
 20
13.437099999999999
 30
0.0
 10
-70.617699999999999
 20
15.363200000000001
 30
0.0
 10
-67.407399999999996
 20
16.372199999999999
 30
0.0
 10
-64.472300000000004
 20
17.564599999999999
 30
0.0
 10
-64.472300000000004
 20
17.564599999999999
 30
0.0
 10
-64.472300000000004
 20
17.564599999999999
 30
0.0
 10
-68.141199999999998
 20
20.774899999999999
 30
0.0
 10
-68.141199999999998
 20
20.774899999999999
 30
0.0
 10
-68.141199999999998
 20
20.774899999999999
 30
0.0
 10
-68.141199999999998
 20
20.774899999999999
 30
0.0
 10
-73.644499999999994
 20
21.371099999999998
 30
0.0
 10
-73.644499999999994
 20
21.371099999999998
 30
0.0
 10
-73.644499999999994
 20
21.371099999999998
 30
0.0
 10
-72.543800000000005
 20
22.104900000000001
 30
0.0
 10
-70.9846
 20
21.783799999999999
 30
0.0
 10
-69.792199999999994
 20
22.2883
 30
0.0
 10
-69.792199999999994
 20
22.2883
 30
0.0
 10
-73.277600000000007
 20
26.140599999999999
 30
0.0
 10
-75.570700000000002
 20
30.680900000000001
 30
0.0
 10
-76.396199999999993
 20
35.450499999999998
 30
0.0
 10
-76.396199999999993
 20
35.450499999999998
 30
0.0
 10
-73.919700000000006
 20
31.185400000000001
 30
0.0
 10
-71.764200000000002
 20
26.782699999999998
 30
0.0
 10
-67.957700000000003
 20
23.067900000000002
 30
0.0
 10
-67.957700000000003
 20
23.067900000000002
 30
0.0
 10
-67.086399999999998
 20
24.3521
 30
0.0
 10
-66.994699999999995
 20
26.278199999999998
 30
0.0
 10
-65.985699999999994
 20
27.6541
 30
0.0
 10
-65.985699999999994
 20
27.6541
 30
0.0
 10
-66.215000000000003
 20
25.4527
 30
0.0
 10
-66.215000000000003
 20
23.572399999999998
 30
0.0
 10
-65.985699999999994
 20
21.371099999999998
 30
0.0
 10
-65.985699999999994
 20
21.371099999999998
 30
0.0
 10
-65.985699999999994
 20
21.371099999999998
 30
0.0
 10
-61.720599999999997
 20
18.4818
 30
0.0
 10
-61.720599999999997
 20
18.4818
 30
0.0
 10
-61.720599999999997
 20
18.4818
 30
0.0
 10
-61.720599999999997
 20
18.4818
 30
0.0
 10
-60.023699999999998
 20
24.3062
 30
0.0
 10
-60.023699999999998
 20
24.3062
 30
0.0
 10
-60.023699999999998
 20
24.3062
 30
0.0
 10
-60.253
 20
21.967300000000002
 30
0.0
 10
-59.977899999999998
 20
19.444900000000001
 30
0.0
 10
-59.427599999999998
 20
17.243600000000001
 30
0.0
 10
-59.427599999999998
 20
17.243600000000001
 30
0.0
 10
-59.473399999999998
 20
16.693200000000001
 30
0.0
 10
-59.656799999999997
 20
16.188700000000001
 30
0.0
 10
-60.023699999999998
 20
15.7301
 30
0.0
 10
-60.023699999999998
 20
15.7301
 30
0.0
 10
-60.023699999999998
 20
15.7301
 30
0.0
 10
-61.995800000000003
 20
16.3263
 30
0.0
 10
-61.995800000000003
 20
16.3263
 30
0.0
 10
-61.995800000000003
 20
16.3263
 30
0.0
 10
-65.618799999999993
 20
15.133900000000001
 30
0.0
 10
-69.471100000000007
 20
14.4002
 30
0.0
 10
-73.185900000000004
 20
13.437099999999999
 30
0.0
  0
SPLINE
  5
44
100
AcDbEntity
  8
RÚteg 1
100
AcDbSpline
210
0.0
220
0.0
230
1.0
 70
     1
 71
     3
 72
    20
 73
    16
 74
     0
 42
0.0000000001
 43
0.0000000001
 40
0.0
 40
0.0
 40
0.0
 40
0.0
 40
0.25
 40
0.25
 40
0.25
 40
0.25
 40
0.5
 40
0.5
 40
0.5
 40
0.5
 40
0.75
 40
0.75
 40
0.75
 40
0.75
 40
1.0
 40
1.0
 40
1.0
 40
1.0
 10
-56.033799999999999
 20
-9.8143999999999991
 30
0.0
 10
-59.106499999999997
 20
-7.8883000000000001
 30
0.0
 10
-61.491300000000003
 20
-4.6321000000000003
 30
0.0
 10
-61.537100000000002
 20
-0.9174
 30
0.0
 10
-61.537100000000002
 20
-0.9174
 30
0.0
 10
-59.473399999999998
 20
-8.5303000000000004
 30
0.0
 10
-51.140999999999998
 20
-5.9065000000000003
 30
0.0
 10
-45.6892
 20
-8.3409999999999993
 30
0.0
 10
-45.6892
 20
-8.3409999999999993
 30
0.0
 10
-41.557200000000002
 20
-9.9634999999999998
 30
0.0
 10
-37.0931
 20
-11.7865
 30
0.0
 10
-33.2866
 20
-14.675800000000001
 30
0.0
 10
-33.2866
 20
-14.675800000000001
 30
0.0
 10
-40.303400000000003
 20
-11.694699999999999
 30
0.0
 10
-48.787700000000001
 20
-12.245100000000001
 30
0.0
 10
-56.033799999999999
 20
-9.8143999999999991
 30
0.0
  0
SPLINE
  5
45
100
AcDbEntity
  8
RÚteg 1
100
AcDbSpline
210
0.0
220
0.0
230
1.0
 70
     1
 71
     3
 72
    16
 73
    12
 74
     0
 42
0.0000000001
 43
0.0000000001
 40
0.0
 40
0.0
 40
0.0
 40
0.0
 40
0.3333333333333333
 40
0.3333333333333333
 40
0.3333333333333333
 40
0.3333333333333333
 40
0.6666666666666666
 40
0.6666666666666666
 40
0.6666666666666666
 40
0.6666666666666666
 40
1.0
 40
1.0
 40
1.0
 40
1.0
 10
-43.651299999999999
 20
-18.3446
 30
0.0
 10
-43.651299999999999
 20
-18.3446
 30
0.0
 10
-42.380299999999998
 20
-19.900099999999998
 30
0.0
 10
-42.380299999999998
 20
-19.900099999999998
 30
0.0
 10
-42.380299999999998
 20
-19.900099999999998
 30
0.0
 10
-44.614600000000003
 20
-19.0181
 30
0.0
 10
-50.908099999999997
 20
-17.882200000000001
 30
0.0
 10
-52.375700000000002
 20
-17.606999999999999
 30
0.0
 10
-52.375700000000002
 20
-17.606999999999999
 30
0.0
 10
-50.376600000000003
 20
-16.372299999999999
 30
0.0
 10
-45.806699999999999
 20
-17.565000000000001
 30
0.0
 10
-43.651299999999999
 20
-18.3446
 30
0.0
  0
SPLINE
  5
46
100
AcDbEntity
  8
RÚteg 1
100
AcDbSpline
210
0.0
220
0.0
230
1.0
 70
     1
 71
     3
 72
    16
 73
    12
 74
     0
 42
0.0000000001
 43
0.0000000001
 40
0.0
 40
0.0
 40
0.0
 40
0.0
 40
0.3333333333333333
 40
0.3333333333333333
 40
0.3333333333333333
 40
0.3333333333333333
 40
0.6666666666666666
 40
0.6666666666666666
 40
0.6666666666666666
 40
0.6666666666666666
 40
1.0
 40
1.0
 40
1.0
 40
1.0
 10
-46.127800000000001
 20
-24.948599999999999
 30
0.0
 10
-43.192700000000002
 20
-24.7193
 30
0.0
 10
-40.303400000000003
 20
-25.682400000000001
 30
0.0
 10
-37.872799999999998
 20
-27.058299999999999
 30
0.0
 10
-37.872799999999998
 20
-27.058299999999999
 30
0.0
 10
-37.872799999999998
 20
-27.058299999999999
 30
0.0
 10
-36.496899999999997
 20
-29.351299999999998
 30
0.0
 10
-36.496899999999997
 20
-29.351299999999998
 30
0.0
 10
-36.496899999999997
 20
-29.351299999999998
 30
0.0
 10
-39.615499999999997
 20
-27.654499999999999
 30
0.0
 10
-42.825800000000001
 20
-25.957599999999999
 30
0.0
 10
-46.127800000000001
 20
-24.948599999999999
 30
0.0
  0
SPLINE
  5
47
100
AcDbEntity
  8
RÚteg 1
100
AcDbSpline
210
0.0
220
0.0
230
1.0
 70
     1
 71
     3
 72
    16
 73
    12
 74
     0
 42
0.0000000001
 43
0.0000000001
 40
0.0
 40
0.0
 40
0.0
 40
0.0
 40
0.3333333333333333
 40
0.3333333333333333
 40
0.3333333333333333
 40
0.3333333333333333
 40
0.6666666666666666
 40
0.6666666666666666
 40
0.6666666666666666
 40
0.6666666666666666
 40
1.0
 40
1.0
 40
1.0
 40
1.0
 10
-60.023699999999998
 20
-41.275199999999998
 30
0.0
 10
-57.180399999999999
 20
-38.431800000000003
 30
0.0
 10
-53.140000000000001
 20
-37.715400000000002
 30
0.0
 10
-48.8795
 20
-38.248399999999997
 30
0.0
 10
-48.8795
 20
-38.248399999999997
 30
0.0
 10
-48.8795
 20
-38.248399999999997
 30
0.0
 10
-48.558399999999999
 20
-38.8446
 30
0.0
 10
-48.558399999999999
 20
-38.8446
 30
0.0
 10
-48.558399999999999
 20
-38.8446
 30
0.0
 10
-52.640099999999997
 20
-38.752899999999997
 30
0.0
 10
-56.400700000000001
 20
-40.036999999999999
 30
0.0
 10
-60.023699999999998
 20
-41.275199999999998
 30
0.0
  0
SPLINE
  5
48
100
AcDbEntity
  8
RÚteg 1
100
AcDbSpline
210
0.0
220
0.0
230
1.0
 70
     1
 71
     3
 72
   256
 73
   252
 74
     0
 42
0.0000000001
 43
0.0000000001
 40
0.0
 40
0.0
 40
0.0
 40
0.0
 40
0.0158730158730159
 40
0.0158730158730159
 40
0.0158730158730159
 40
0.0158730158730159
 40
0.0317460317460317
 40
0.0317460317460317
 40
0.0317460317460317
 40
0.0317460317460317
 40
0.0476190476190476
 40
0.0476190476190476
 40
0.0476190476190476
 40
0.0476190476190476
 40
0.0634920634920635
 40
0.0634920634920635
 40
0.0634920634920635
 40
0.0634920634920635
 40
0.0793650793650794
 40
0.0793650793650794
 40
0.0793650793650794
 40
0.0793650793650794
 40
0.0952380952380952
 40
0.0952380952380952
 40
0.0952380952380952
 40
0.0952380952380952
 40
0.1111111111111111
 40
0.1111111111111111
 40
0.1111111111111111
 40
0.1111111111111111
 40
0.126984126984127
 40
0.126984126984127
 40
0.126984126984127
 40
0.126984126984127
 40
0.1428571428571429
 40
0.1428571428571429
 40
0.1428571428571429
 40
0.1428571428571429
 40
0.1587301587301587
 40
0.1587301587301587
 40
0.1587301587301587
 40
0.1587301587301587
 40
0.1746031746031746
 40
0.1746031746031746
 40
0.1746031746031746
 40
0.1746031746031746
 40
0.1904761904761905
 40
0.1904761904761905
 40
0.1904761904761905
 40
0.1904761904761905
 40
0.2063492063492063
 40
0.2063492063492063
 40
0.2063492063492063
 40
0.2063492063492063
 40
0.2222222222222222
 40
0.2222222222222222
 40
0.2222222222222222
 40
0.2222222222222222
 40
0.2380952380952381
 40
0.2380952380952381
 40
0.2380952380952381
 40
0.2380952380952381
 40
0.253968253968254
 40
0.253968253968254
 40
0.253968253968254
 40
0.253968253968254
 40
0.2698412698412698
 40
0.2698412698412698
 40
0.2698412698412698
 40
0.2698412698412698
 40
0.2857142857142857
 40
0.2857142857142857
 40
0.2857142857142857
 40
0.2857142857142857
 40
0.3015873015873016
 40
0.3015873015873016
 40
0.3015873015873016
 40
0.3015873015873016
 40
0.3174603174603174
 40
0.3174603174603174
 40
0.3174603174603174
 40
0.3174603174603174
 40
0.3333333333333333
 40
0.3333333333333333
 40
0.3333333333333333
 40
0.3333333333333333
 40
0.3492063492063492
 40
0.3492063492063492
 40
0.3492063492063492
 40
0.3492063492063492
 40
0.3650793650793651
 40
0.3650793650793651
 40
0.3650793650793651
 40
0.3650793650793651
 40
0.3809523809523809
 40
0.3809523809523809
 40
0.3809523809523809
 40
0.3809523809523809
 40
0.3968253968253968
 40
0.3968253968253968
 40
0.3968253968253968
 40
0.3968253968253968
 40
0.4126984126984127
 40
0.4126984126984127
 40
0.4126984126984127
 40
0.4126984126984127
 40
0.4285714285714286
 40
0.4285714285714286
 40
0.4285714285714286
 40
0.4285714285714286
 40
0.4444444444444444
 40
0.4444444444444444
 40
0.4444444444444444
 40
0.4444444444444444
 40
0.4603174603174603
 40
0.4603174603174603
 40
0.4603174603174603
 40
0.4603174603174603
 40
0.4761904761904762
 40
0.4761904761904762
 40
0.4761904761904762
 40
0.4761904761904762
 40
0.492063492063492
 40
0.492063492063492
 40
0.492063492063492
 40
0.492063492063492
 40
0.5079365079365079
 40
0.5079365079365079
 40
0.5079365079365079
 40
0.5079365079365079
 40
0.5238095238095237
 40
0.5238095238095237
 40
0.5238095238095237
 40
0.5238095238095237
 40
0.5396825396825395
 40
0.5396825396825395
 40
0.5396825396825395
 40
0.5396825396825395
 40
0.5555555555555554
 40
0.5555555555555554
 40
0.5555555555555554
 40
0.5555555555555554
 40
0.5714285714285712
 40
0.5714285714285712
 40
0.5714285714285712
 40
0.5714285714285712
 40
0.587301587301587
 40
0.587301587301587
 40
0.587301587301587
 40
0.587301587301587
 40
0.6031746031746028
 40
0.6031746031746028
 40
0.6031746031746028
 40
0.6031746031746028
 40
0.6190476190476186
 40
0.6190476190476186
 40
0.6190476190476186
 40
0.6190476190476186
 40
0.6349206349206344
 40
0.6349206349206344
 40
0.6349206349206344
 40
0.6349206349206344
 40
0.6507936507936503
 40
0.6507936507936503
 40
0.6507936507936503
 40
0.6507936507936503
 40
0.6666666666666661
 40
0.6666666666666661
 40
0.6666666666666661
 40
0.6666666666666661
 40
0.6825396825396819
 40
0.6825396825396819
 40
0.6825396825396819
 40
0.6825396825396819
 40
0.6984126984126977
 40
0.6984126984126977
 40
0.6984126984126977
 40
0.6984126984126977
 40
0.7142857142857135
 40
0.7142857142857135
 40
0.7142857142857135
 40
0.7142857142857135
 40
0.7301587301587293
 40
0.7301587301587293
 40
0.7301587301587293
 40
0.7301587301587293
 40
0.7460317460317452
 40
0.7460317460317452
 40
0.7460317460317452
 40
0.7460317460317452
 40
0.761904761904761
 40
0.761904761904761
 40
0.761904761904761
 40
0.761904761904761
 40
0.7777777777777768
 40
0.7777777777777768
 40
0.7777777777777768
 40
0.7777777777777768
 40
0.7936507936507926
 40
0.7936507936507926
 40
0.7936507936507926
 40
0.7936507936507926
 40
0.8095238095238084
 40
0.8095238095238084
 40
0.8095238095238084
 40
0.8095238095238084
 40
0.8253968253968242
 40
0.8253968253968242
 40
0.8253968253968242
 40
0.8253968253968242
 40
0.8412698412698401
 40
0.8412698412698401
 40
0.8412698412698401
 40
0.8412698412698401
 40
0.8571428571428559
 40
0.8571428571428559
 40
0.8571428571428559
 40
0.8571428571428559
 40
0.8730158730158717
 40
0.8730158730158717
 40
0.8730158730158717
 40
0.8730158730158717
 40
0.8888888888888875
 40
0.8888888888888875
 40
0.8888888888888875
 40
0.8888888888888875
 40
0.9047619047619033
 40
0.9047619047619033
 40
0.9047619047619033
 40
0.9047619047619033
 40
0.9206349206349191
 40
0.9206349206349191
 40
0.9206349206349191
 40
0.9206349206349191
 40
0.936507936507935
 40
0.936507936507935
 40
0.936507936507935
 40
0.936507936507935
 40
0.9523809523809508
 40
0.9523809523809508
 40
0.9523809523809508
 40
0.9523809523809508
 40
0.9682539682539666
 40
0.9682539682539666
 40
0.9682539682539666
 40
0.9682539682539666
 40
0.9841269841269824
 40
0.9841269841269824
 40
0.9841269841269824
 40
0.9841269841269824
 40
1.0
 40
1.0
 40
1.0
 40
1.0
 10
43.163899999999998
 20
-82.550299999999993
 30
0.0
 10
43.3932
 20
-83.008899999999997
 30
0.0
 10
44.723199999999999
 20
-83.467600000000004
 30
0.0
 10
44.081200000000003
 20
-84.247200000000007
 30
0.0
 10
44.081200000000003
 20
-84.247200000000007
 30
0.0
 10
43.668399999999998
 20
-84.522400000000005
 30
0.0
 10
42.980499999999999
 20
-83.788600000000002
 30
0.0
 10
42.384300000000003
 20
-83.650999999999996
 30
0.0
 10
42.384300000000003
 20
-83.650999999999996
 30
0.0
 10
41.054299999999998
 20
-88.603999999999999
 30
0.0
 10
40.503999999999998
 20
-93.8322
 30
0.0
 10
40.549799999999998
 20
-99.381399999999999
 30
0.0
 10
40.549799999999998
 20
-99.381399999999999
 30
0.0
 10
39.449100000000001
 20
-93.786299999999997
 30
0.0
 10
40.017099999999999
 20
-87.739699999999999
 30
0.0
 10
41.668100000000003
 20
-82.694999999999993
 30
0.0
 10
41.668100000000003
 20
-82.694999999999993
 30
0.0
 10
41.668100000000003
 20
-82.694999999999993
 30
0.0
 10
39.075200000000002
 20
-81.005200000000002
 30
0.0
 10
39.075200000000002
 20
-81.005200000000002
 30
0.0
 10
39.075200000000002
 20
-81.005200000000002
 30
0.0
 10
35.936300000000003
 20
-87.398200000000003
 30
0.0
 10
34.404400000000003
 20
-94.245000000000005
 30
0.0
 10
33.395499999999998
 20
-101.2158
 30
0.0
 10
33.395499999999998
 20
-101.2158
 30
0.0
 10
32.982700000000001
 20
-93.602900000000005
 30
0.0
 10
34.220999999999997
 20
-86.677800000000005
 30
0.0
 10
37.064399999999999
 20
-80.440700000000007
 30
0.0
 10
37.064399999999999
 20
-80.440700000000007
 30
0.0
 10
36.055399999999999
 20
-79.523499999999999
 30
0.0
 10
34.587800000000001
 20
-79.110799999999998
 30
0.0
 10
33.395499999999998
 20
-78.422799999999995
 30
0.0
 10
33.395499999999998
 20
-78.422799999999995
 30
0.0
 10
28.625900000000001
 20
-83.880300000000005
 30
0.0
 10
25.965900000000001
 20
-90.163300000000007
 30
0.0
 10
23.306000000000001
 20
-96.492199999999997
 30
0.0
 10
23.306000000000001
 20
-96.492199999999997
 30
0.0
 10
24.5443
 20
-89.704700000000003
 30
0.0
 10
27.571100000000001
 20
-83.696899999999999
 30
0.0
 10
31.377600000000001
 20
-77.964200000000005
 30
0.0
 10
31.377600000000001
 20
-77.964200000000005
 30
0.0
 10
29.543099999999999
 20
-76.909400000000005
 30
0.0
 10
27.112500000000001
 20
-76.404899999999998
 30
0.0
 10
24.957000000000001
 20
-75.671199999999999
 30
0.0
 10
24.957000000000001
 20
-75.671199999999999
 30
0.0
 10
16.151599999999998
 20
-81.587299999999999
 30
0.0
 10
11.703099999999999
 20
-90.897099999999995
 30
0.0
 10
7.9884000000000004
 20
-99.702399999999997
 30
0.0
 10
7.9884000000000004
 20
-99.702399999999997
 30
0.0
 10
9.3183000000000007
 20
-90.071600000000004
 30
0.0
 10
15.234400000000001
 20
-81.816599999999994
 30
0.0
 10
22.984999999999999
 20
-75.396000000000001
 30
0.0
 10
22.984999999999999
 20
-75.396000000000001
 30
0.0
 10
18.062200000000001
 20
-71.876000000000005
 30
0.0
 10
12.652900000000001
 20
-78.4024
 30
0.0
 10
8.7479999999999993
 20
-81.174499999999995
 30
0.0
 10
8.7479999999999993
 20
-81.174499999999995
 30
0.0
 10
1.8344
 20
-86.575100000000006
 30
0.0
 10
-2.8692000000000002
 20
-95.688500000000005
 30
0.0
 10
-5.3385999999999996
 20
-98.334299999999999
 30
0.0
 10
-5.3385999999999996
 20
-98.334299999999999
 30
0.0
 10
-2.1636000000000002
 20
-88.456500000000005
 30
0.0
 10
6.8876999999999997
 20
-79.661100000000005
 30
0.0
 10
15.6472
 20
-74.020200000000003
 30
0.0
 10
15.6472
 20
-74.020200000000003
 30
0.0
 10
15.6472
 20
-74.020200000000003
 30
0.0
 10
10.74
 20
-73.102900000000005
 30
0.0
 10
10.74
 20
-73.102900000000005
 30
0.0
 10
10.74
 20
-73.102900000000005
 30
0.0
 10
2.3933
 20
-76.267399999999995
 30
0.0
 10
-5.3571999999999997
 20
-81.128600000000006
 30
0.0
 10
-12.4656
 20
-86.998900000000006
 30
0.0
 10
-12.4656
 20
-86.998900000000006
 30
0.0
 10
-6.8705999999999996
 20
-80.119699999999995
 30
0.0
 10
0.3754
 20
-77.276300000000006
 30
0.0
 10
6.9335000000000004
 20
-72.644300000000001
 30
0.0
 10
6.9335000000000004
 20
-72.644300000000001
 30
0.0
 10
5.5118999999999998
 20
-72.093999999999994
 30
0.0
 10
3.9066999999999998
 20
-72.048100000000005
 30
0.0
 10
2.3473999999999999
 20
-71.864699999999999
 30
0.0
 10
2.3473999999999999
 20
-71.864699999999999
 30
0.0
 10
-6.3201999999999998
 20
-74.753900000000002
 30
0.0
 10
-15.9511
 20
-76.267399999999995
 30
0.0
 10
-23.930900000000001
 20
-81.174499999999995
 30
0.0
 10
-23.930900000000001
 20
-81.174499999999995
 30
0.0
 10
-17.464600000000001
 20
-75.992199999999997
 30
0.0
 10
-8.8425999999999991
 20
-72.827799999999996
 30
0.0
 10
-0.0831
 20
-71.543599999999998
 30
0.0
 10
-0.0831
 20
-71.543599999999998
 30
0.0
 10
-3.1099999999999999
 20
-70.855699999999999
 30
0.0
 10
-5.9992000000000001
 20
-69.892600000000002
 30
0.0
 10
-9.1178000000000008
 20
-69.433999999999997
 30
0.0
 10
-9.1178000000000008
 20
-69.433999999999997
 30
0.0
 10
-15.4466
 20
-69.021299999999997
 30
0.0
 10
-21.179300000000001
 20
-70.030199999999994
 30
0.0
 10
-27.141200000000001
 20
-70.488799999999998
 30
0.0
 10
-27.141200000000001
 20
-70.488799999999998
 30
0.0
 10
-22.646799999999999
 20
-68.562700000000007
 30
0.0
 10
-17.464600000000001
 20
-67.828900000000004
 30
0.0
 10
-12.1905
 20
-68.195800000000006
 30
0.0
 10
-12.1905
 20
-68.195800000000006
 30
0.0
 10
-12.1905
 20
-68.195800000000006
 30
0.0
 10
-20.124500000000001
 20
-64.068299999999994
 30
0.0
 10
-20.124500000000001
 20
-64.068299999999994
 30
0.0
 10
-20.124500000000001
 20
-64.068299999999994
 30
0.0
 10
-20.124500000000001
 20
-64.068299999999994
 30
0.0
 10
-31.5898
 20
-64.068299999999994
 30
0.0
 10
-31.5898
 20
-64.068299999999994
 30
0.0
 10
-31.5898
 20
-64.068299999999994
 30
0.0
 10
-28.654699999999998
 20
-63.1511
 30
0.0
 10
-25.581900000000001
 20
-62.692399999999999
 30
0.0
 10
-22.279900000000001
 20
-62.692399999999999
 30
0.0
 10
-22.279900000000001
 20
-62.692399999999999
 30
0.0
 10
-25.398499999999999
 20
-58.152200000000001
 30
0.0
 10
-30.810099999999998
 20
-59.115299999999998
 30
0.0
 10
-35.258699999999997
 20
-57.785299999999999
 30
0.0
 10
-35.258699999999997
 20
-57.785299999999999
 30
0.0
 10
-35.258699999999997
 20
-57.785299999999999
 30
0.0
 10
-28.327999999999999
 20
-57.764899999999997
 30
0.0
 10
-28.327999999999999
 20
-57.764899999999997
 30
0.0
 10
-28.327999999999999
 20
-57.764899999999997
 30
0.0
 10
-28.327999999999999
 20
-57.764899999999997
 30
0.0
 10
-33.882899999999999
 20
-51.685699999999997
 30
0.0
 10
-33.882899999999999
 20
-51.685699999999997
 30
0.0
 10
-33.882899999999999
 20
-51.685699999999997
 30
0.0
 10
-33.882899999999999
 20
-51.685699999999997
 30
0.0
 10
-41.816800000000001
 20
-49.988900000000001
 30
0.0
 10
-41.816800000000001
 20
-49.988900000000001
 30
0.0
 10
-41.816800000000001
 20
-49.988900000000001
 30
0.0
 10
-40.349299999999999
 20
-49.622
 30
0.0
 10
-37.643500000000003
 20
-49.484400000000001
 30
0.0
 10
-35.717300000000002
 20
-49.530299999999997
 30
0.0
 10
-35.717300000000002
 20
-49.530299999999997
 30
0.0
 10
-36.441899999999997
 20
-45.241300000000003
 30
0.0
 10
-50.392899999999997
 20
-44.347999999999999
 30
0.0
 10
-50.392899999999997
 20
-44.347999999999999
 30
0.0
 10
-50.392899999999997
 20
-44.347999999999999
 30
0.0
 10
-47.641199999999998
 20
-43.981099999999998
 30
0.0
 10
-42.167499999999997
 20
-44.408700000000003
 30
0.0
 10
-38.911299999999997
 20
-45.417700000000004
 30
0.0
 10
-38.911299999999997
 20
-45.417700000000004
 30
0.0
 10
-38.911299999999997
 20
-45.417700000000004
 30
0.0
 10
-44.018099999999997
 20
-40.4039
 30
0.0
 10
-46.402900000000002
 20
-37.927399999999999
 30
0.0
 10
-46.402900000000002
 20
-37.927399999999999
 30
0.0
 10
-43.146799999999999
 20
-38.431800000000003
 30
0.0
 10
-40.807899999999997
 20
-41.4587
 30
0.0
 10
-38.331400000000002
 20
-43.568300000000001
 30
0.0
 10
-38.331400000000002
 20
-43.568300000000001
 30
0.0
 10
-38.331400000000002
 20
-43.568300000000001
 30
0.0
 10
-38.927599999999998
 20
-36.0929
 30
0.0
 10
-38.927599999999998
 20
-36.0929
 30
0.0
 10
-38.927599999999998
 20
-36.0929
 30
0.0
 10
-37.368299999999998
 20
-39.211500000000001
 30
0.0
 10
-36.955500000000001
 20
-42.834499999999998
 30
0.0
 10
-36.313499999999998
 20
-46.32
 30
0.0
 10
-36.313499999999998
 20
-46.32
 30
0.0
 10
-36.313499999999998
 20
-46.32
 30
0.0
 10
-30.213999999999999
 20
-53.199199999999998
 30
0.0
 10
-30.213999999999999
 20
-53.199199999999998
 30
0.0
 10
-30.213999999999999
 20
-53.199199999999998
 30
0.0
 10
-30.0305
 20
-50.447499999999998
 30
0.0
 10
-29.9846
 20
-47.604100000000003
 30
0.0
 10
-29.4343
 20
-44.944200000000002
 30
0.0
 10
-29.4343
 20
-44.944200000000002
 30
0.0
 10
-29.4343
 20
-44.944200000000002
 30
0.0
 10
-27.599799999999998
 20
-55.950800000000001
 30
0.0
 10
-27.599799999999998
 20
-55.950800000000001
 30
0.0
 10
-27.599799999999998
 20
-55.950800000000001
 30
0.0
 10
-21.5076
 20
-62.586199999999998
 30
0.0
 10
-11.218299999999999
 20
-66.995900000000006
 30
0.0
 10
-11.218299999999999
 20
-66.995900000000006
 30
0.0
 10
-11.218299999999999
 20
-66.995900000000006
 30
0.0
 10
-13.7865
 20
-63.5105
 30
0.0
 10
-17.0518
 20
-59.619700000000002
 30
0.0
 10
-17.831399999999999
 20
-55.354599999999998
 30
0.0
 10
-17.831399999999999
 20
-55.354599999999998
 30
0.0
 10
-15.4925
 20
-60.536999999999999
 30
0.0
 10
-11.1815
 20
-64.893799999999999
 30
0.0
 10
-6.6871
 20
-68.792000000000002
 30
0.0
 10
-6.6871
 20
-68.792000000000002
 30
0.0
 10
-6.6871
 20
-68.792000000000002
 30
0.0
 10
7.2435999999999998
 20
-70.876499999999993
 30
0.0
 10
7.2435999999999998
 20
-70.876499999999993
 30
0.0
 10
7.2435999999999998
 20
-70.876499999999993
 30
0.0
 10
7.2435999999999998
 20
-70.876499999999993
 30
0.0
 10
-3.1631999999999998
 20
-59.6464
 30
0.0
 10
-3.1631999999999998
 20
-59.6464
 30
0.0
 10
-3.1631999999999998
 20
-59.6464
 30
0.0
 10
-3.1631999999999998
 20
-59.6464
 30
0.0
 10
6.1265000000000001
 20
-66.349199999999996
 30
0.0
 10
8.7680000000000007
 20
-70.947400000000002
 30
0.0
 10
8.7680000000000007
 20
-70.947400000000002
 30
0.0
 10
12.253399999999999
 20
-71.2226
 30
0.0
 10
16.288900000000002
 20
-71.024600000000007
 30
0.0
 10
19.590900000000001
 20
-71.758399999999995
 30
0.0
 10
19.590900000000001
 20
-71.758399999999995
 30
0.0
 10
19.590900000000001
 20
-71.758399999999995
 30
0.0
 10
14.651999999999999
 20
-63.0565
 30
0.0
 10
9.5876000000000001
 20
-57.588900000000002
 30
0.0
 10
9.5876000000000001
 20
-57.588900000000002
 30
0.0
 10
14.4756
 20
-60.822299999999998
 30
0.0
 10
18.353000000000002
 20
-66.774100000000004
 30
0.0
 10
21.150500000000001
 20
-72.185699999999997
 30
0.0
 10
21.150500000000001
 20
-72.185699999999997
 30
0.0
 10
23.626999999999999
 20
-72.460899999999995
 30
0.0
 10
25.920100000000001
 20
-73.240499999999997
 30
0.0
 10
28.167300000000001
 20
-74.020200000000003
 30
0.0
 10
28.167300000000001
 20
-74.020200000000003
 30
0.0
 10
27.892099999999999
 20
-69.342299999999994
 30
0.0
 10
25.5991
 20
-65.168899999999994
 30
0.0
 10
24.0397
 20
-60.857999999999997
 30
0.0
 10
24.0397
 20
-60.857999999999997
 30
0.0
 10
27.2042
 20
-64.343400000000003
 30
0.0
 10
29.038599999999999
 20
-69.342299999999994
 30
0.0
 10
29.726600000000001
 20
-74.295299999999997
 30
0.0
 10
29.726600000000001
 20
-74.295299999999997
 30
0.0
 10
29.726600000000001
 20
-74.295299999999997
 30
0.0
 10
35.755600000000001
 20
-76.965900000000005
 30
0.0
 10
35.755600000000001
 20
-76.965900000000005
 30
0.0
 10
35.755600000000001
 20
-76.965900000000005
 30
0.0
 10
36.718600000000002
 20
-72.104600000000005
 30
0.0
 10
35.9178
 20
-67.553700000000006
 30
0.0
 10
35.046500000000002
 20
-63.288600000000002
 30
0.0
 10
35.046500000000002
 20
-63.288600000000002
 30
0.0
 10
36.880899999999997
 20
-67.737200000000001
 30
0.0
 10
37.293700000000001
 20
-72.572599999999994
 30
0.0
 10
37.064399999999999
 20
-77.846599999999995
 30
0.0
 10
37.064399999999999
 20
-77.846599999999995
 30
0.0
 10
38.052900000000001
 20
-78.696399999999997
 30
0.0
 10
37.8765
 20
-78.4024
 30
0.0
 10
38.577800000000003
 20
-78.881399999999999
 30
0.0
 10
38.577800000000003
 20
-78.881399999999999
 30
0.0
 10
41.466999999999999
 20
-75.992199999999997
 30
0.0
 10
44.585599999999999
 20
-73.057100000000005
 30
0.0
 10
48.529699999999998
 20
-72.323300000000003
 30
0.0
 10
48.529699999999998
 20
-72.323300000000003
 30
0.0
 10
45.273499999999999
 20
-73.836699999999993
 30
0.0
 10
42.200800000000001
 20
-76.771799999999999
 30
0.0
 10
39.953600000000002
 20
-79.798699999999997
 30
0.0
 10
39.953600000000002
 20
-79.798699999999997
 30
0.0
 10
39.953600000000002
 20
-79.798699999999997
 30
0.0
 10
42.286299999999997
 20
-81.636200000000002
 30
0.0
 10
42.286299999999997
 20
-81.636200000000002
 30
0.0
 10
42.286299999999997
 20
-81.636200000000002
 30
0.0
 10
46.343200000000003
 20
-78.519999999999996
 30
0.0
 10
50.811700000000002
 20
-76.0505
 30
0.0
 10
57.514499999999998
 20
-77.520399999999995
 30
0.0
 10
57.514499999999998
 20
-77.520399999999995
 30
0.0
 10
57.514499999999998
 20
-77.520399999999995
 30
0.0
 10
48.165900000000001
 20
-77.520399999999995
 30
0.0
 10
43.163899999999998
 20
-82.550299999999993
 30
0.0
  0
ENDSEC
  0
SECTION
  2
OBJECTS
  0
DICTIONARY
  5
19
100
AcDbDictionary
280
     0
281
     1
  3
ACAD_GROUP
350
1A
  3
ACAD_MLINESTYLE
350
1B
  3
ACAD_LAYOUT
350
1E
  3
ACAD_PLOTSETTINGS
350
22
  3
ACAD_PLOTSTYLENAME
350
1F
  3
ACAD_WIPEOUT_VARS
350
23
  0
DICTIONARY
  5
1A
102
{ACAD_REACTORS
330
19
102
}
100
AcDbDictionary
280
     0
281
     1
  0
DICTIONARY
  5
1B
102
{ACAD_REACTORS
330
19
102
}
100
AcDbDictionary
280
     0
281
     1
  3
Standard
350
1C
  0
MLINESTYLE
  5
1C
102
{ACAD_REACTORS
330
1B
102
}
100
AcDbMlineStyle
  2
Standard
 70
     0
  3

 62
     0
 51
90.0
 52
90.0
 71
     2
 49
0.5
 62
   256
  6
BYLAYER
 49
-0.5
 62
   256
  6
BYLAYER
  0
ACDBDICTIONARYWDFLT
  5
1F
102
{ACAD_REACTORS
330
19
102
}
100
AcDbDictionary
281
     1
  3
Normal
350
1D
100
AcDbDictionaryWithDefault
340
1D
  0
ACDBPLACEHOLDER
  5
1D
102
{ACAD_REACTORS
330
1F
102
}
  0
LAYOUT
  5
20
102
{ACAD_REACTORS
330
1E
102
}
100
AcDbPlotSettings
  1

  2

  4

  6

 40
0.0
 41
0.0
 42
0.0
 43
0.0
 44
0.0
 45
0.0
 46
0.0
 47
0.0
 48
0.0
 49
0.0
140
0.0
141
0.0
142
1.0
143
1.0
 70
  1024
 72
     0
 73
     0
 74
     0
  7

 75
     0
147
1.0
148
0.0
149
0.0
100
AcDbLayout
  1
Model
 70
     0
 71
     0
 10
0.0
 20
0.0
 11
0.0
 21
0.0
 12
0.0
 22
0.0
 32
0.0
 14
0.0
 24
0.0
 34
0.0
 15
0.0
 25
0.0
 35
0.0
146
0.0
 13
0.0
 23
0.0
 33
0.0
 16
0.0
 26
0.0
 36
0.0
 17
0.0
 27
0.0
 37
0.0
 76
     0
330
A
331
0
345
0
346
0
  0
LAYOUT
  5
21
102
{ACAD_REACTORS
330
1E
102
}
100
AcDbPlotSettings
  1

  2

  4

  6

 40
0.0
 41
0.0
 42
0.0
 43
0.0
 44
0.0
 45
0.0
 46
0.0
 47
0.0
 48
0.0
 49
0.0
140
0.0
141
0.0
142
1.0
143
1.0
 70
     0
 72
     0
 73
     0
 74
     0
  7

 75
     0
147
1.0
148
0.0
149
0.0
100
AcDbLayout
  1
Layout1
 70
     0
 71
     0
 10
0.0
 20
0.0
 11
0.0
 21
0.0
 12
0.0
 22
0.0
 32
0.0
 14
0.0
 24
0.0
 34
0.0
 15
0.0
 25
0.0
 35
0.0
146
0.0
 13
0.0
 23
0.0
 33
0.0
 16
0.0
 26
0.0
 36
0.0
 17
0.0
 27
0.0
 37
0.0
 76
     0
330
B
331
0
345
0
346
0
  0
DICTIONARY
  5
1E
102
{ACAD_REACTORS
330
19
102
}
100
AcDbDictionary
280
     0
281
     1
  3
Layout1
350
21
  3
Model
350
20
  0
DICTIONARY
  5
22
102
{ACAD_REACTORS
330
19
102
}
100
AcDbDictionary
280
     0
281
     1
  0
WIPEOUTVARIABLES
  5
23
100
AcDbWipeoutVariables
 70
     1
  0
ENDSEC
  0
EOF
