  0
SECTION
  2
HEADER
  9
$ACADVER
  1
AC1009
  9
$DWGCODEPAGE
  3
ansi_1252
  9
$INSBASE
 10
0.0
 20
0.0
 30
0.0
  9
$EXTMIN
 10
-114.4978
 20
-79.2256
 30
0.0
  9
$EXTMAX
 10
-17.896
 20
77.4098
 30
0.0
  9
$LIMMIN
 10
0.0
 20
0.0
  9
$LIMMAX
 10
12.0
 20
9.0
  9
$ORTHOMODE
 70
     0
  9
$REGENMODE
 70
     1
  9
$FILLMODE
 70
     1
  9
$QTEXTMODE
 70
     0
  9
$MIRRTEXT
 70
     1
  9
$DRAGMODE
 70
     2
  9
$LTSCALE
 40
1.0
  9
$OSMODE
 70
    37
  9
$ATTMODE
 70
     1
  9
$TEXTSIZE
 40
0.2
  9
$TRACEWID
 40
0.05
  9
$TEXTSTYLE
  7
STANDARD
  9
$CLAYER
  8
0
  9
$CELTYPE
  6
BYLAYER
  9
$CECOLOR
 62
   256
  9
$DIMSCALE
 40
1.0
  9
$DIMASZ
 40
0.18
  9
$DIMEXO
 40
0.0625
  9
$DIMDLI
 40
0.38
  9
$DIMRND
 40
0.0
  9
$DIMDLE
 40
0.0
  9
$DIMEXE
 40
0.18
  9
$DIMTP
 40
0.0
  9
$DIMTM
 40
0.0
  9
$DIMTXT
 40
0.18
  9
$DIMCEN
 40
0.09
  9
$DIMTSZ
 40
0.0
  9
$DIMTOL
 70
     0
  9
$DIMLIM
 70
     0
  9
$DIMTIH
 70
     1
  9
$DIMTOH
 70
     1
  9
$DIMSE1
 70
     0
  9
$DIMSE2
 70
     0
  9
$DIMTAD
 70
     0
  9
$DIMZIN
 70
     0
  9
$DIMBLK
  1

  9
$DIMASO
 70
     1
  9
$DIMSHO
 70
     1
  9
$DIMPOST
  1

  9
$DIMAPOST
  1

  9
$DIMALT
 70
     0
  9
$DIMALTD
 70
     2
  9
$DIMALTF
 40
25.4
  9
$DIMLFAC
 40
1.0
  9
$DIMTOFL
 70
     0
  9
$DIMTVP
 40
0.0
  9
$DIMTIX
 70
     0
  9
$DIMSOXD
 70
     0
  9
$DIMSAH
 70
     0
  9
$DIMBLK1
  1

  9
$DIMBLK2
  1

  9
$DIMSTYLE
  2
STANDARD
  9
$DIMCLRD
 70
     0
  9
$DIMCLRE
 70
     0
  9
$DIMCLRT
 70
     0
  9
$DIMTFAC
 40
1.0
  9
$DIMGAP
 40
0.09
  9
$LUNITS
 70
     2
  9
$LUPREC
 70
     4
  9
$SKETCHINC
 40
0.1
  9
$FILLETRAD
 40
0.5
  9
$AUNITS
 70
     0
  9
$AUPREC
 70
     0
  9
$MENU
  1
.
  9
$ELEVATION
 40
0.0
  9
$PELEVATION
 40
0.0
  9
$THICKNESS
 40
0.0
  9
$LIMCHECK
 70
     0
  9
$CHAMFERA
 40
0.5
  9
$CHAMFERB
 40
0.5
  9
$SKPOLY
 70
     0
  9
$TDCREATE
 40
2455490.90457338
  9
$TDUPDATE
 40
2455490.904573391
  9
$TDINDWG
 40
0.0000000116
  9
$TDUSRTIMER
 40
0.0000000116
  9
$USRTIMER
 70
     1
  9
$ANGBASE
 50
0.0
  9
$ANGDIR
 70
     0
  9
$PDMODE
 70
     0
  9
$PDSIZE
 40
0.0
  9
$PLINEWID
 40
0.0
  9
$COORDS
 70
     1
  9
$SPLFRAME
 70
     0
  9
$SPLINETYPE
 70
     6
  9
$SPLINESEGS
 70
     8
  9
$ATTDIA
 70
     0
  9
$ATTREQ
 70
     1
  9
$HANDLING
 70
     1
  9
$HANDSEED
  5
CD3
  9
$SURFTAB1
 70
     6
  9
$SURFTAB2
 70
     6
  9
$SURFTYPE
 70
     6
  9
$SURFU
 70
     6
  9
$SURFV
 70
     6
  9
$UCSNAME
  2

  9
$UCSORG
 10
0.0
 20
0.0
 30
0.0
  9
$UCSXDIR
 10
1.0
 20
0.0
 30
0.0
  9
$UCSYDIR
 10
0.0
 20
1.0
 30
0.0
  9
$PUCSNAME
  2

  9
$PUCSORG
 10
0.0
 20
0.0
 30
0.0
  9
$PUCSXDIR
 10
1.0
 20
0.0
 30
0.0
  9
$PUCSYDIR
 10
0.0
 20
1.0
 30
0.0
  9
$USERI1
 70
     0
  9
$USERI2
 70
     0
  9
$USERI3
 70
     0
  9
$USERI4
 70
     0
  9
$USERI5
 70
     0
  9
$USERR1
 40
0.0
  9
$USERR2
 40
0.0
  9
$USERR3
 40
0.0
  9
$USERR4
 40
0.0
  9
$USERR5
 40
0.0
  9
$WORLDVIEW
 70
     1
  9
$SHADEDGE
 70
     3
  9
$SHADEDIF
 70
    70
  9
$TILEMODE
 70
     1
  9
$MAXACTVP
 70
    64
  9
$PLIMCHECK
 70
     0
  9
$PEXTMIN
 10
1.000000000000000E+20
 20
1.000000000000000E+20
 30
1.000000000000000E+20
  9
$PEXTMAX
 10
-1.000000000000000E+20
 20
-1.000000000000000E+20
 30
-1.000000000000000E+20
  9
$PLIMMIN
 10
0.0
 20
0.0
  9
$PLIMMAX
 10
12.0
 20
9.0
  9
$UNITMODE
 70
     0
  9
$VISRETAIN
 70
     1
  9
$PLINEGEN
 70
     0
  9
$PSLTSCALE
 70
     1
  0
ENDSEC
  0
SECTION
  2
TABLES
  0
TABLE
  2
VPORT
 70
     1
  0
VPORT
  2
*ACTIVE
 70
     0
 10
0.0
 20
0.0
 11
1.0
 21
1.0
 12
10.42990654205607
 22
4.5
 13
0.0
 23
0.0
 14
0.5
 24
0.5
 15
0.5
 25
0.5
 16
0.0
 26
0.0
 36
1.0
 17
0.0
 27
0.0
 37
0.0
 40
9.0
 41
1.972972972850329
 42
50.0
 43
0.0
 44
0.0
 50
0.0
 51
0.0
 71
     0
 72
   100
 73
     1
 74
     3
 75
     0
 76
     0
 77
     0
 78
     0
  0
ENDTAB
  0
TABLE
  2
LTYPE
 70
     1
  0
LTYPE
  2
CONTINUOUS
 70
     0
  3
Solid line
 72
    65
 73
     0
 40
0.0
  0
ENDTAB
  0
TABLE
  2
LAYER
 70
     2
  0
LAYER
  2
0
 70
     0
 62
     7
  6
CONTINUOUS
  0
LAYER
  2
CAMADA_1
 70
     0
 62
     7
  6
CONTINUOUS
  0
ENDTAB
  0
TABLE
  2
STYLE
 70
     1
  0
STYLE
  2
STANDARD
 70
     0
 40
0.0
 41
1.0
 50
0.0
 71
     0
 42
0.2
  3
txt
  4

  0
ENDTAB
  0
TABLE
  2
VIEW
 70
     0
  0
ENDTAB
  0
TABLE
  2
UCS
 70
     0
  0
ENDTAB
  0
TABLE
  2
APPID
 70
     2
  0
APPID
  2
ACAD
 70
     0
  0
APPID
  2
ODA
 70
     0
  0
ENDTAB
  0
TABLE
  2
DIMSTYLE
 70
     1
  0
DIMSTYLE
  2
STANDARD
 70
     0
  3

  4

  5

  6

  7

 40
1.0
 41
0.18
 42
0.0625
 43
0.38
 44
0.18
 45
0.0
 46
0.0
 47
0.0
 48
0.0
140
0.18
141
0.09
142
0.0
143
25.4
144
1.0
145
0.0
146
1.0
147
0.09
 71
     0
 72
     0
 73
     1
 74
     1
 75
     0
 76
     0
 77
     0
 78
     0
170
     0
171
     2
172
     0
173
     0
174
     0
175
     0
176
     0
177
     0
178
     0
  0
ENDTAB
  0
ENDSEC
  0
SECTION
  2
BLOCKS
  0
BLOCK
  8
0
  2
$MODEL_SPACE
 70
     0
 10
0.0
 20
0.0
 30
0.0
  3
$MODEL_SPACE
  1

  0
ENDBLK
  5
21
  8
0
  0
BLOCK
 67
     1
  8
0
  2
$PAPER_SPACE
 70
     0
 10
0.0
 20
0.0
 30
0.0
  3
$PAPER_SPACE
  1

  0
ENDBLK
  5
1D
 67
     1
  8
0
  0
ENDSEC
  0
SECTION
  2
ENTITIES
  0
POLYLINE
  5
41
  8
CAMADA_1
 62
   250
 66
     1
 10
0.0
 20
0.0
 30
0.0
 70
     1
  0
VERTEX
  5
87
  8
CAMADA_1
 62
   250
 10
-101.9967
 20
43.2727
 30
0.0
  0
VERTEX
  5
88
  8
CAMADA_1
 62
   250
 10
-104.9098
 20
43.2727
 30
0.0
  0
VERTEX
  5
89
  8
CAMADA_1
 62
   250
 10
-104.8797
 20
43.6905
 30
0.0
  0
VERTEX
  5
8A
  8
CAMADA_1
 62
   250
 10
-104.8153
 20
44.2437
 30
0.0
  0
VERTEX
  5
8B
  8
CAMADA_1
 62
   250
 10
-104.6731
 20
44.8746
 30
0.0
  0
VERTEX
  5
8C
  8
CAMADA_1
 62
   250
 10
-104.4093
 20
45.5252
 30
0.0
  0
VERTEX
  5
8D
  8
CAMADA_1
 62
   250
 10
-103.9805
 20
46.1378
 30
0.0
  0
VERTEX
  5
8E
  8
CAMADA_1
 62
   250
 10
-103.3432
 20
46.6545
 30
0.0
  0
VERTEX
  5
8F
  8
CAMADA_1
 62
   250
 10
-102.4537
 20
47.0176
 30
0.0
  0
VERTEX
  5
90
  8
CAMADA_1
 62
   250
 10
-101.2684
 20
47.169
 30
0.0
  0
VERTEX
  5
91
  8
CAMADA_1
 62
   250
 10
-100.4565
 20
47.0909
 30
0.0
  0
VERTEX
  5
92
  8
CAMADA_1
 62
   250
 10
-99.7426
 20
46.9062
 30
0.0
  0
VERTEX
  5
93
  8
CAMADA_1
 62
   250
 10
-99.1307
 20
46.6096
 30
0.0
  0
VERTEX
  5
94
  8
CAMADA_1
 62
   250
 10
-98.6246
 20
46.1961
 30
0.0
  0
VERTEX
  5
95
  8
CAMADA_1
 62
   250
 10
-98.2282
 20
45.6606
 30
0.0
  0
VERTEX
  5
96
  8
CAMADA_1
 62
   250
 10
-97.9453
 20
44.9979
 30
0.0
  0
VERTEX
  5
97
  8
CAMADA_1
 62
   250
 10
-97.7798
 20
44.2031
 30
0.0
  0
VERTEX
  5
98
  8
CAMADA_1
 62
   250
 10
-97.7357
 20
43.2709
 30
0.0
  0
VERTEX
  5
99
  8
CAMADA_1
 62
   250
 10
-100.6129
 20
43.2709
 30
0.0
  0
VERTEX
  5
9A
  8
CAMADA_1
 62
   250
 10
-100.6129
 20
45.3483
 30
0.0
  0
VERTEX
  5
9B
  8
CAMADA_1
 62
   250
 10
-101.9603
 20
45.3483
 30
0.0
  0
VERTEX
  5
9C
  8
CAMADA_1
 62
   250
 10
-101.9967
 20
43.2727
 30
0.0
  0
VERTEX
  5
9D
  8
CAMADA_1
 62
   250
 10
-101.9967
 20
43.2727
 30
0.0
  0
SEQEND
  5
9E
  8
CAMADA_1
 62
   250
  0
POLYLINE
  5
42
  8
CAMADA_1
 62
   250
 66
     1
 10
0.0
 20
0.0
 30
0.0
 70
     1
  0
VERTEX
  5
9F
  8
CAMADA_1
 62
   250
 10
-101.2757
 20
34.1701
 30
0.0
  0
VERTEX
  5
A0
  8
CAMADA_1
 62
   250
 10
-104.1888
 20
34.1701
 30
0.0
  0
VERTEX
  5
A1
  8
CAMADA_1
 62
   250
 10
-104.1587
 20
34.5879
 30
0.0
  0
VERTEX
  5
A2
  8
CAMADA_1
 62
   250
 10
-104.0943
 20
35.1411
 30
0.0
  0
VERTEX
  5
A3
  8
CAMADA_1
 62
   250
 10
-103.9521
 20
35.772
 30
0.0
  0
VERTEX
  5
A4
  8
CAMADA_1
 62
   250
 10
-103.6883
 20
36.4226
 30
0.0
  0
VERTEX
  5
A5
  8
CAMADA_1
 62
   250
 10
-103.2595
 20
37.0352
 30
0.0
  0
VERTEX
  5
A6
  8
CAMADA_1
 62
   250
 10
-102.6222
 20
37.552
 30
0.0
  0
VERTEX
  5
A7
  8
CAMADA_1
 62
   250
 10
-101.7327
 20
37.915
 30
0.0
  0
VERTEX
  5
A8
  8
CAMADA_1
 62
   250
 10
-100.5474
 20
38.0664
 30
0.0
  0
VERTEX
  5
A9
  8
CAMADA_1
 62
   250
 10
-99.7355
 20
37.9884
 30
0.0
  0
VERTEX
  5
AA
  8
CAMADA_1
 62
   250
 10
-99.0216
 20
37.8036
 30
0.0
  0
VERTEX
  5
AB
  8
CAMADA_1
 62
   250
 10
-98.4097
 20
37.507
 30
0.0
  0
VERTEX
  5
AC
  8
CAMADA_1
 62
   250
 10
-97.9036
 20
37.0935
 30
0.0
  0
VERTEX
  5
AD
  8
CAMADA_1
 62
   250
 10
-97.5072
 20
36.558
 30
0.0
  0
VERTEX
  5
AE
  8
CAMADA_1
 62
   250
 10
-97.2243
 20
35.8953
 30
0.0
  0
VERTEX
  5
AF
  8
CAMADA_1
 62
   250
 10
-97.0588
 20
35.1005
 30
0.0
  0
VERTEX
  5
B0
  8
CAMADA_1
 62
   250
 10
-97.0147
 20
34.1683
 30
0.0
  0
VERTEX
  5
B1
  8
CAMADA_1
 62
   250
 10
-99.8919
 20
34.1683
 30
0.0
  0
VERTEX
  5
B2
  8
CAMADA_1
 62
   250
 10
-99.8919
 20
36.2457
 30
0.0
  0
VERTEX
  5
B3
  8
CAMADA_1
 62
   250
 10
-101.2393
 20
36.2457
 30
0.0
  0
VERTEX
  5
B4
  8
CAMADA_1
 62
   250
 10
-101.2757
 20
34.1701
 30
0.0
  0
VERTEX
  5
B5
  8
CAMADA_1
 62
   250
 10
-101.2757
 20
34.1701
 30
0.0
  0
SEQEND
  5
B6
  8
CAMADA_1
 62
   250
  0
POLYLINE
  5
43
  8
CAMADA_1
 62
   250
 66
     1
 10
0.0
 20
0.0
 30
0.0
 70
     1
  0
VERTEX
  5
B7
  8
CAMADA_1
 62
   250
 10
-101.1855
 20
26.9602
 30
0.0
  0
VERTEX
  5
B8
  8
CAMADA_1
 62
   250
 10
-104.0987
 20
26.9602
 30
0.0
  0
VERTEX
  5
B9
  8
CAMADA_1
 62
   250
 10
-104.0686
 20
27.3779
 30
0.0
  0
VERTEX
  5
BA
  8
CAMADA_1
 62
   250
 10
-104.0042
 20
27.9312
 30
0.0
  0
VERTEX
  5
BB
  8
CAMADA_1
 62
   250
 10
-103.8619
 20
28.562
 30
0.0
  0
VERTEX
  5
BC
  8
CAMADA_1
 62
   250
 10
-103.5982
 20
29.2127
 30
0.0
  0
VERTEX
  5
BD
  8
CAMADA_1
 62
   250
 10
-103.1694
 20
29.8252
 30
0.0
  0
VERTEX
  5
BE
  8
CAMADA_1
 62
   250
 10
-102.532
 20
30.342
 30
0.0
  0
VERTEX
  5
BF
  8
CAMADA_1
 62
   250
 10
-101.6425
 20
30.705
 30
0.0
  0
VERTEX
  5
C0
  8
CAMADA_1
 62
   250
 10
-100.4573
 20
30.8565
 30
0.0
  0
VERTEX
  5
C1
  8
CAMADA_1
 62
   250
 10
-99.6454
 20
30.7784
 30
0.0
  0
VERTEX
  5
C2
  8
CAMADA_1
 62
   250
 10
-98.9315
 20
30.5936
 30
0.0
  0
VERTEX
  5
C3
  8
CAMADA_1
 62
   250
 10
-98.3196
 20
30.297
 30
0.0
  0
VERTEX
  5
C4
  8
CAMADA_1
 62
   250
 10
-97.8135
 20
29.8835
 30
0.0
  0
VERTEX
  5
C5
  8
CAMADA_1
 62
   250
 10
-97.4171
 20
29.348
 30
0.0
  0
VERTEX
  5
C6
  8
CAMADA_1
 62
   250
 10
-97.1342
 20
28.6854
 30
0.0
  0
VERTEX
  5
C7
  8
CAMADA_1
 62
   250
 10
-96.9687
 20
27.8905
 30
0.0
  0
VERTEX
  5
C8
  8
CAMADA_1
 62
   250
 10
-96.9245
 20
26.9583
 30
0.0
  0
VERTEX
  5
C9
  8
CAMADA_1
 62
   250
 10
-99.8018
 20
26.9583
 30
0.0
  0
VERTEX
  5
CA
  8
CAMADA_1
 62
   250
 10
-99.8018
 20
29.0358
 30
0.0
  0
VERTEX
  5
CB
  8
CAMADA_1
 62
   250
 10
-101.1491
 20
29.0358
 30
0.0
  0
VERTEX
  5
CC
  8
CAMADA_1
 62
   250
 10
-101.1855
 20
26.9602
 30
0.0
  0
VERTEX
  5
CD
  8
CAMADA_1
 62
   250
 10
-101.1855
 20
26.9602
 30
0.0
  0
SEQEND
  5
CE
  8
CAMADA_1
 62
   250
  0
POLYLINE
  5
44
  8
CAMADA_1
 62
   250
 66
     1
 10
0.0
 20
0.0
 30
0.0
 70
     1
  0
VERTEX
  5
CF
  8
CAMADA_1
 62
   250
 10
-101.2757
 20
19.7502
 30
0.0
  0
VERTEX
  5
D0
  8
CAMADA_1
 62
   250
 10
-104.1888
 20
19.7502
 30
0.0
  0
VERTEX
  5
D1
  8
CAMADA_1
 62
   250
 10
-104.1587
 20
20.168
 30
0.0
  0
VERTEX
  5
D2
  8
CAMADA_1
 62
   250
 10
-104.0943
 20
20.7212
 30
0.0
  0
VERTEX
  5
D3
  8
CAMADA_1
 62
   250
 10
-103.9521
 20
21.3521
 30
0.0
  0
VERTEX
  5
D4
  8
CAMADA_1
 62
   250
 10
-103.6883
 20
22.0027
 30
0.0
  0
VERTEX
  5
D5
  8
CAMADA_1
 62
   250
 10
-103.2595
 20
22.6153
 30
0.0
  0
VERTEX
  5
D6
  8
CAMADA_1
 62
   250
 10
-102.6222
 20
23.132
 30
0.0
  0
VERTEX
  5
D7
  8
CAMADA_1
 62
   250
 10
-101.7327
 20
23.495
 30
0.0
  0
VERTEX
  5
D8
  8
CAMADA_1
 62
   250
 10
-100.5474
 20
23.6465
 30
0.0
  0
VERTEX
  5
D9
  8
CAMADA_1
 62
   250
 10
-99.7355
 20
23.5684
 30
0.0
  0
VERTEX
  5
DA
  8
CAMADA_1
 62
   250
 10
-99.0216
 20
23.3837
 30
0.0
  0
VERTEX
  5
DB
  8
CAMADA_1
 62
   250
 10
-98.4097
 20
23.0871
 30
0.0
  0
VERTEX
  5
DC
  8
CAMADA_1
 62
   250
 10
-97.9036
 20
22.6735
 30
0.0
  0
VERTEX
  5
DD
  8
CAMADA_1
 62
   250
 10
-97.5072
 20
22.138
 30
0.0
  0
VERTEX
  5
DE
  8
CAMADA_1
 62
   250
 10
-97.2243
 20
21.4754
 30
0.0
  0
VERTEX
  5
DF
  8
CAMADA_1
 62
   250
 10
-97.0588
 20
20.6805
 30
0.0
  0
VERTEX
  5
E0
  8
CAMADA_1
 62
   250
 10
-97.0147
 20
19.7484
 30
0.0
  0
VERTEX
  5
E1
  8
CAMADA_1
 62
   250
 10
-99.8919
 20
19.7484
 30
0.0
  0
VERTEX
  5
E2
  8
CAMADA_1
 62
   250
 10
-99.8919
 20
21.8258
 30
0.0
  0
VERTEX
  5
E3
  8
CAMADA_1
 62
   250
 10
-101.2393
 20
21.8258
 30
0.0
  0
VERTEX
  5
E4
  8
CAMADA_1
 62
   250
 10
-101.2757
 20
19.7502
 30
0.0
  0
VERTEX
  5
E5
  8
CAMADA_1
 62
   250
 10
-101.2757
 20
19.7502
 30
0.0
  0
SEQEND
  5
E6
  8
CAMADA_1
 62
   250
  0
POLYLINE
  5
45
  8
CAMADA_1
 62
   250
 66
     1
 10
0.0
 20
0.0
 30
0.0
 70
     1
  0
VERTEX
  5
E7
  8
CAMADA_1
 62
   250
 10
-93.1552
 20
-51.8193
 30
0.0
  0
VERTEX
  5
E8
  8
CAMADA_1
 62
   250
 10
-96.0683
 20
-51.8193
 30
0.0
  0
VERTEX
  5
E9
  8
CAMADA_1
 62
   250
 10
-96.0383
 20
-51.4015
 30
0.0
  0
VERTEX
  5
EA
  8
CAMADA_1
 62
   250
 10
-95.9739
 20
-50.8483
 30
0.0
  0
VERTEX
  5
EB
  8
CAMADA_1
 62
   250
 10
-95.8316
 20
-50.2174
 30
0.0
  0
VERTEX
  5
EC
  8
CAMADA_1
 62
   250
 10
-95.5679
 20
-49.5668
 30
0.0
  0
VERTEX
  5
ED
  8
CAMADA_1
 62
   250
 10
-95.1391
 20
-48.9542
 30
0.0
  0
VERTEX
  5
EE
  8
CAMADA_1
 62
   250
 10
-94.5017
 20
-48.4375
 30
0.0
  0
VERTEX
  5
EF
  8
CAMADA_1
 62
   250
 10
-93.6122
 20
-48.0745
 30
0.0
  0
VERTEX
  5
F0
  8
CAMADA_1
 62
   250
 10
-92.4269
 20
-47.923
 30
0.0
  0
VERTEX
  5
F1
  8
CAMADA_1
 62
   250
 10
-91.615
 20
-48.0011
 30
0.0
  0
VERTEX
  5
F2
  8
CAMADA_1
 62
   250
 10
-90.9012
 20
-48.1858
 30
0.0
  0
VERTEX
  5
F3
  8
CAMADA_1
 62
   250
 10
-90.2893
 20
-48.4824
 30
0.0
  0
VERTEX
  5
F4
  8
CAMADA_1
 62
   250
 10
-89.7832
 20
-48.896
 30
0.0
  0
VERTEX
  5
F5
  8
CAMADA_1
 62
   250
 10
-89.3868
 20
-49.4315
 30
0.0
  0
VERTEX
  5
F6
  8
CAMADA_1
 62
   250
 10
-89.1039
 20
-50.0941
 30
0.0
  0
VERTEX
  5
F7
  8
CAMADA_1
 62
   250
 10
-88.9384
 20
-50.889
 30
0.0
  0
VERTEX
  5
F8
  8
CAMADA_1
 62
   250
 10
-88.8942
 20
-51.8211
 30
0.0
  0
VERTEX
  5
F9
  8
CAMADA_1
 62
   250
 10
-91.7715
 20
-51.8211
 30
0.0
  0
VERTEX
  5
FA
  8
CAMADA_1
 62
   250
 10
-91.7715
 20
-49.7437
 30
0.0
  0
VERTEX
  5
FB
  8
CAMADA_1
 62
   250
 10
-93.1188
 20
-49.7437
 30
0.0
  0
VERTEX
  5
FC
  8
CAMADA_1
 62
   250
 10
-93.1552
 20
-51.8193
 30
0.0
  0
VERTEX
  5
FD
  8
CAMADA_1
 62
   250
 10
-93.1552
 20
-51.8193
 30
0.0
  0
SEQEND
  5
FE
  8
CAMADA_1
 62
   250
  0
POLYLINE
  5
46
  8
CAMADA_1
 62
   250
 66
     1
 10
0.0
 20
0.0
 30
0.0
 70
     1
  0
VERTEX
  5
FF
  8
CAMADA_1
 62
   250
 10
-99.1958
 20
-59.6136
 30
0.0
  0
VERTEX
  5
100
  8
CAMADA_1
 62
   250
 10
-102.1089
 20
-59.6136
 30
0.0
  0
VERTEX
  5
101
  8
CAMADA_1
 62
   250
 10
-102.0789
 20
-59.1959
 30
0.0
  0
VERTEX
  5
102
  8
CAMADA_1
 62
   250
 10
-102.0145
 20
-58.6426
 30
0.0
  0
VERTEX
  5
103
  8
CAMADA_1
 62
   250
 10
-101.8722
 20
-58.0118
 30
0.0
  0
VERTEX
  5
104
  8
CAMADA_1
 62
   250
 10
-101.6085
 20
-57.3611
 30
0.0
  0
VERTEX
  5
105
  8
CAMADA_1
 62
   250
 10
-101.1797
 20
-56.7485
 30
0.0
  0
VERTEX
  5
106
  8
CAMADA_1
 62
   250
 10
-100.5423
 20
-56.2318
 30
0.0
  0
VERTEX
  5
107
  8
CAMADA_1
 62
   250
 10
-99.6528
 20
-55.8688
 30
0.0
  0
VERTEX
  5
108
  8
CAMADA_1
 62
   250
 10
-98.4675
 20
-55.7173
 30
0.0
  0
VERTEX
  5
109
  8
CAMADA_1
 62
   250
 10
-97.6556
 20
-55.7954
 30
0.0
  0
VERTEX
  5
10A
  8
CAMADA_1
 62
   250
 10
-96.9418
 20
-55.9802
 30
0.0
  0
VERTEX
  5
10B
  8
CAMADA_1
 62
   250
 10
-96.3299
 20
-56.2768
 30
0.0
  0
VERTEX
  5
10C
  8
CAMADA_1
 62
   250
 10
-95.8238
 20
-56.6903
 30
0.0
  0
VERTEX
  5
10D
  8
CAMADA_1
 62
   250
 10
-95.4274
 20
-57.2258
 30
0.0
  0
VERTEX
  5
10E
  8
CAMADA_1
 62
   250
 10
-95.1445
 20
-57.8884
 30
0.0
  0
VERTEX
  5
10F
  8
CAMADA_1
 62
   250
 10
-94.979
 20
-58.6833
 30
0.0
  0
VERTEX
  5
110
  8
CAMADA_1
 62
   250
 10
-94.9348
 20
-59.6155
 30
0.0
  0
VERTEX
  5
111
  8
CAMADA_1
 62
   250
 10
-97.8121
 20
-59.6155
 30
0.0
  0
VERTEX
  5
112
  8
CAMADA_1
 62
   250
 10
-97.8121
 20
-57.538
 30
0.0
  0
VERTEX
  5
113
  8
CAMADA_1
 62
   250
 10
-99.1594
 20
-57.538
 30
0.0
  0
VERTEX
  5
114
  8
CAMADA_1
 62
   250
 10
-99.1958
 20
-59.6136
 30
0.0
  0
VERTEX
  5
115
  8
CAMADA_1
 62
   250
 10
-99.1958
 20
-59.6136
 30
0.0
  0
SEQEND
  5
116
  8
CAMADA_1
 62
   250
  0
POLYLINE
  5
47
  8
CAMADA_1
 62
   250
 66
     1
 10
0.0
 20
0.0
 30
0.0
 70
     1
  0
VERTEX
  5
117
  8
CAMADA_1
 62
   250
 10
-109.7182
 20
-59.8085
 30
0.0
  0
VERTEX
  5
118
  8
CAMADA_1
 62
   250
 10
-112.6313
 20
-59.8085
 30
0.0
  0
VERTEX
  5
119
  8
CAMADA_1
 62
   250
 10
-112.6012
 20
-59.3907
 30
0.0
  0
VERTEX
  5
11A
  8
CAMADA_1
 62
   250
 10
-112.5368
 20
-58.8375
 30
0.0
  0
VERTEX
  5
11B
  8
CAMADA_1
 62
   250
 10
-112.3946
 20
-58.2066
 30
0.0
  0
VERTEX
  5
11C
  8
CAMADA_1
 62
   250
 10
-112.1308
 20
-57.556
 30
0.0
  0
VERTEX
  5
11D
  8
CAMADA_1
 62
   250
 10
-111.702
 20
-56.9434
 30
0.0
  0
VERTEX
  5
11E
  8
CAMADA_1
 62
   250
 10
-111.0647
 20
-56.4267
 30
0.0
  0
VERTEX
  5
11F
  8
CAMADA_1
 62
   250
 10
-110.1752
 20
-56.0637
 30
0.0
  0
VERTEX
  5
120
  8
CAMADA_1
 62
   250
 10
-108.9899
 20
-55.9122
 30
0.0
  0
VERTEX
  5
121
  8
CAMADA_1
 62
   250
 10
-108.178
 20
-55.9903
 30
0.0
  0
VERTEX
  5
122
  8
CAMADA_1
 62
   250
 10
-107.4641
 20
-56.175
 30
0.0
  0
VERTEX
  5
123
  8
CAMADA_1
 62
   250
 10
-106.8522
 20
-56.4716
 30
0.0
  0
VERTEX
  5
124
  8
CAMADA_1
 62
   250
 10
-106.3461
 20
-56.8851
 30
0.0
  0
VERTEX
  5
125
  8
CAMADA_1
 62
   250
 10
-105.9497
 20
-57.4206
 30
0.0
  0
VERTEX
  5
126
  8
CAMADA_1
 62
   250
 10
-105.6668
 20
-58.0833
 30
0.0
  0
VERTEX
  5
127
  8
CAMADA_1
 62
   250
 10
-105.5013
 20
-58.8782
 30
0.0
  0
VERTEX
  5
128
  8
CAMADA_1
 62
   250
 10
-105.4572
 20
-59.8103
 30
0.0
  0
VERTEX
  5
129
  8
CAMADA_1
 62
   250
 10
-108.3344
 20
-59.8103
 30
0.0
  0
VERTEX
  5
12A
  8
CAMADA_1
 62
   250
 10
-108.3344
 20
-57.7329
 30
0.0
  0
VERTEX
  5
12B
  8
CAMADA_1
 62
   250
 10
-109.6818
 20
-57.7329
 30
0.0
  0
VERTEX
  5
12C
  8
CAMADA_1
 62
   250
 10
-109.7182
 20
-59.8085
 30
0.0
  0
VERTEX
  5
12D
  8
CAMADA_1
 62
   250
 10
-109.7182
 20
-59.8085
 30
0.0
  0
SEQEND
  5
12E
  8
CAMADA_1
 62
   250
  0
POLYLINE
  5
48
  8
CAMADA_1
 62
   250
 66
     1
 10
0.0
 20
0.0
 30
0.0
 70
     1
  0
VERTEX
  5
12F
  8
CAMADA_1
 62
   250
 10
-73.3435
 20
-36.3887
 30
0.0
  0
VERTEX
  5
130
  8
CAMADA_1
 62
   250
 10
-73.3435
 20
-33.4756
 30
0.0
  0
VERTEX
  5
131
  8
CAMADA_1
 62
   250
 10
-72.9257
 20
-33.5057
 30
0.0
  0
VERTEX
  5
132
  8
CAMADA_1
 62
   250
 10
-72.3725
 20
-33.5701
 30
0.0
  0
VERTEX
  5
133
  8
CAMADA_1
 62
   250
 10
-71.7416
 20
-33.7124
 30
0.0
  0
VERTEX
  5
134
  8
CAMADA_1
 62
   250
 10
-71.091
 20
-33.9761
 30
0.0
  0
VERTEX
  5
135
  8
CAMADA_1
 62
   250
 10
-70.4784
 20
-34.4049
 30
0.0
  0
VERTEX
  5
136
  8
CAMADA_1
 62
   250
 10
-69.9617
 20
-35.0422
 30
0.0
  0
VERTEX
  5
137
  8
CAMADA_1
 62
   250
 10
-69.5987
 20
-35.9317
 30
0.0
  0
VERTEX
  5
138
  8
CAMADA_1
 62
   250
 10
-69.4472
 20
-37.117
 30
0.0
  0
VERTEX
  5
139
  8
CAMADA_1
 62
   250
 10
-69.5253
 20
-37.9289
 30
0.0
  0
VERTEX
  5
13A
  8
CAMADA_1
 62
   250
 10
-69.71
 20
-38.6428
 30
0.0
  0
VERTEX
  5
13B
  8
CAMADA_1
 62
   250
 10
-70.0066
 20
-39.2547
 30
0.0
  0
VERTEX
  5
13C
  8
CAMADA_1
 62
   250
 10
-70.4201
 20
-39.7608
 30
0.0
  0
VERTEX
  5
13D
  8
CAMADA_1
 62
   250
 10
-70.9556
 20
-40.1572
 30
0.0
  0
VERTEX
  5
13E
  8
CAMADA_1
 62
   250
 10
-71.6183
 20
-40.4401
 30
0.0
  0
VERTEX
  5
13F
  8
CAMADA_1
 62
   250
 10
-72.4132
 20
-40.6056
 30
0.0
  0
VERTEX
  5
140
  8
CAMADA_1
 62
   250
 10
-73.3453
 20
-40.6497
 30
0.0
  0
VERTEX
  5
141
  8
CAMADA_1
 62
   250
 10
-73.3453
 20
-37.7725
 30
0.0
  0
VERTEX
  5
142
  8
CAMADA_1
 62
   250
 10
-71.2679
 20
-37.7725
 30
0.0
  0
VERTEX
  5
143
  8
CAMADA_1
 62
   250
 10
-71.2679
 20
-36.4252
 30
0.0
  0
VERTEX
  5
144
  8
CAMADA_1
 62
   250
 10
-73.3435
 20
-36.3887
 30
0.0
  0
VERTEX
  5
145
  8
CAMADA_1
 62
   250
 10
-73.3435
 20
-36.3887
 30
0.0
  0
SEQEND
  5
146
  8
CAMADA_1
 62
   250
  0
POLYLINE
  5
49
  8
CAMADA_1
 62
   250
 66
     1
 10
0.0
 20
0.0
 30
0.0
 70
     1
  0
VERTEX
  5
147
  8
CAMADA_1
 62
   250
 10
-86.8943
 20
56.6487
 30
0.0
  0
VERTEX
  5
148
  8
CAMADA_1
 62
   250
 10
-88.2064
 20
56.6367
 30
0.0
  0
VERTEX
  5
149
  8
CAMADA_1
 62
   250
 10
-88.1884
 20
58.8014
 30
0.0
  0
VERTEX
  5
14A
  8
CAMADA_1
 62
   250
 10
-93.6498
 20
58.7924
 30
0.0
  0
VERTEX
  5
14B
  8
CAMADA_1
 62
   250
 10
-93.6498
 20
57.4773
 30
0.0
  0
VERTEX
  5
14C
  8
CAMADA_1
 62
   250
 10
-95.4754
 20
57.4864
 30
0.0
  0
VERTEX
  5
14D
  8
CAMADA_1
 62
   250
 10
-95.508
 20
57.0909
 30
0.0
  0
VERTEX
  5
14E
  8
CAMADA_1
 62
   250
 10
-95.4908
 20
56.7331
 30
0.0
  0
VERTEX
  5
14F
  8
CAMADA_1
 62
   250
 10
-95.4281
 20
56.4136
 30
0.0
  0
VERTEX
  5
150
  8
CAMADA_1
 62
   250
 10
-95.3239
 20
56.133
 30
0.0
  0
VERTEX
  5
151
  8
CAMADA_1
 62
   250
 10
-95.1826
 20
55.8917
 30
0.0
  0
VERTEX
  5
152
  8
CAMADA_1
 62
   250
 10
-95.0084
 20
55.6905
 30
0.0
  0
VERTEX
  5
153
  8
CAMADA_1
 62
   250
 10
-94.8055
 20
55.5297
 30
0.0
  0
VERTEX
  5
154
  8
CAMADA_1
 62
   250
 10
-94.5781
 20
55.41
 30
0.0
  0
VERTEX
  5
155
  8
CAMADA_1
 62
   250
 10
-94.2515
 20
55.3361
 30
0.0
  0
VERTEX
  5
156
  8
CAMADA_1
 62
   250
 10
-93.925
 20
55.286
 30
0.0
  0
VERTEX
  5
157
  8
CAMADA_1
 62
   250
 10
-93.5984
 20
55.2601
 30
0.0
  0
VERTEX
  5
158
  8
CAMADA_1
 62
   250
 10
-93.2719
 20
55.2592
 30
0.0
  0
VERTEX
  5
159
  8
CAMADA_1
 62
   250
 10
-92.9453
 20
55.2838
 30
0.0
  0
VERTEX
  5
15A
  8
CAMADA_1
 62
   250
 10
-92.6188
 20
55.3345
 30
0.0
  0
VERTEX
  5
15B
  8
CAMADA_1
 62
   250
 10
-92.2922
 20
55.4119
 30
0.0
  0
VERTEX
  5
15C
  8
CAMADA_1
 62
   250
 10
-91.9657
 20
55.5167
 30
0.0
  0
VERTEX
  5
15D
  8
CAMADA_1
 62
   250
 10
-91.7577
 20
55.5937
 30
0.0
  0
VERTEX
  5
15E
  8
CAMADA_1
 62
   250
 10
-91.5598
 20
55.6549
 30
0.0
  0
VERTEX
  5
15F
  8
CAMADA_1
 62
   250
 10
-91.3695
 20
55.6948
 30
0.0
  0
VERTEX
  5
160
  8
CAMADA_1
 62
   250
 10
-91.1844
 20
55.7078
 30
0.0
  0
VERTEX
  5
161
  8
CAMADA_1
 62
   250
 10
-91.002
 20
55.6883
 30
0.0
  0
VERTEX
  5
162
  8
CAMADA_1
 62
   250
 10
-90.8201
 20
55.6308
 30
0.0
  0
VERTEX
  5
163
  8
CAMADA_1
 62
   250
 10
-90.6363
 20
55.5297
 30
0.0
  0
VERTEX
  5
164
  8
CAMADA_1
 62
   250
 10
-90.4481
 20
55.3795
 30
0.0
  0
VERTEX
  5
165
  8
CAMADA_1
 62
   250
 10
-90.169
 20
55.0542
 30
0.0
  0
VERTEX
  5
166
  8
CAMADA_1
 62
   250
 10
-89.8734
 20
54.7505
 30
0.0
  0
VERTEX
  5
167
  8
CAMADA_1
 62
   250
 10
-89.5573
 20
54.474
 30
0.0
  0
VERTEX
  5
168
  8
CAMADA_1
 62
   250
 10
-89.2166
 20
54.2297
 30
0.0
  0
VERTEX
  5
169
  8
CAMADA_1
 62
   250
 10
-88.8474
 20
54.0229
 30
0.0
  0
VERTEX
  5
16A
  8
CAMADA_1
 62
   250
 10
-88.4456
 20
53.859
 30
0.0
  0
VERTEX
  5
16B
  8
CAMADA_1
 62
   250
 10
-88.0073
 20
53.7433
 30
0.0
  0
VERTEX
  5
16C
  8
CAMADA_1
 62
   250
 10
-87.5283
 20
53.6809
 30
0.0
  0
VERTEX
  5
16D
  8
CAMADA_1
 62
   250
 10
-87.1373
 20
53.676
 30
0.0
  0
VERTEX
  5
16E
  8
CAMADA_1
 62
   250
 10
-86.75
 20
53.6721
 30
0.0
  0
VERTEX
  5
16F
  8
CAMADA_1
 62
   250
 10
-86.3672
 20
53.6769
 30
0.0
  0
VERTEX
  5
170
  8
CAMADA_1
 62
   250
 10
-85.9901
 20
53.6981
 30
0.0
  0
VERTEX
  5
171
  8
CAMADA_1
 62
   250
 10
-85.6198
 20
53.7432
 30
0.0
  0
VERTEX
  5
172
  8
CAMADA_1
 62
   250
 10
-85.2573
 20
53.82
 30
0.0
  0
VERTEX
  5
173
  8
CAMADA_1
 62
   250
 10
-84.9037
 20
53.9362
 30
0.0
  0
VERTEX
  5
174
  8
CAMADA_1
 62
   250
 10
-84.56
 20
54.0994
 30
0.0
  0
VERTEX
  5
175
  8
CAMADA_1
 62
   250
 10
-84.3675
 20
54.2065
 30
0.0
  0
VERTEX
  5
176
  8
CAMADA_1
 62
   250
 10
-84.1931
 20
54.3896
 30
0.0
  0
VERTEX
  5
177
  8
CAMADA_1
 62
   250
 10
-84.0406
 20
54.6325
 30
0.0
  0
VERTEX
  5
178
  8
CAMADA_1
 62
   250
 10
-83.9137
 20
54.9192
 30
0.0
  0
VERTEX
  5
179
  8
CAMADA_1
 62
   250
 10
-83.8163
 20
55.2336
 30
0.0
  0
VERTEX
  5
17A
  8
CAMADA_1
 62
   250
 10
-83.7521
 20
55.5598
 30
0.0
  0
VERTEX
  5
17B
  8
CAMADA_1
 62
   250
 10
-83.725
 20
55.8817
 30
0.0
  0
VERTEX
  5
17C
  8
CAMADA_1
 62
   250
 10
-83.7387
 20
56.1833
 30
0.0
  0
VERTEX
  5
17D
  8
CAMADA_1
 62
   250
 10
-85.4801
 20
56.1563
 30
0.0
  0
VERTEX
  5
17E
  8
CAMADA_1
 62
   250
 10
-85.4531
 20
58.8134
 30
0.0
  0
VERTEX
  5
17F
  8
CAMADA_1
 62
   250
 10
-86.9063
 20
58.8134
 30
0.0
  0
VERTEX
  5
180
  8
CAMADA_1
 62
   250
 10
-86.8943
 20
56.6487
 30
0.0
  0
VERTEX
  5
181
  8
CAMADA_1
 62
   250
 10
-86.8943
 20
56.6487
 30
0.0
  0
SEQEND
  5
182
  8
CAMADA_1
 62
   250
  0
POLYLINE
  5
4A
  8
CAMADA_1
 62
   250
 66
     1
 10
0.0
 20
0.0
 30
0.0
 70
     1
  0
VERTEX
  5
183
  8
CAMADA_1
 62
   250
 10
-86.8943
 20
41.7918
 30
0.0
  0
VERTEX
  5
184
  8
CAMADA_1
 62
   250
 10
-88.2064
 20
41.7797
 30
0.0
  0
VERTEX
  5
185
  8
CAMADA_1
 62
   250
 10
-88.1884
 20
43.9445
 30
0.0
  0
VERTEX
  5
186
  8
CAMADA_1
 62
   250
 10
-93.6498
 20
43.9355
 30
0.0
  0
VERTEX
  5
187
  8
CAMADA_1
 62
   250
 10
-93.6498
 20
42.6204
 30
0.0
  0
VERTEX
  5
188
  8
CAMADA_1
 62
   250
 10
-95.4754
 20
42.6295
 30
0.0
  0
VERTEX
  5
189
  8
CAMADA_1
 62
   250
 10
-95.508
 20
42.234
 30
0.0
  0
VERTEX
  5
18A
  8
CAMADA_1
 62
   250
 10
-95.4908
 20
41.8762
 30
0.0
  0
VERTEX
  5
18B
  8
CAMADA_1
 62
   250
 10
-95.4281
 20
41.5567
 30
0.0
  0
VERTEX
  5
18C
  8
CAMADA_1
 62
   250
 10
-95.3239
 20
41.2761
 30
0.0
  0
VERTEX
  5
18D
  8
CAMADA_1
 62
   250
 10
-95.1826
 20
41.0348
 30
0.0
  0
VERTEX
  5
18E
  8
CAMADA_1
 62
   250
 10
-95.0084
 20
40.8335
 30
0.0
  0
VERTEX
  5
18F
  8
CAMADA_1
 62
   250
 10
-94.8055
 20
40.6728
 30
0.0
  0
VERTEX
  5
190
  8
CAMADA_1
 62
   250
 10
-94.5781
 20
40.5531
 30
0.0
  0
VERTEX
  5
191
  8
CAMADA_1
 62
   250
 10
-94.2515
 20
40.4792
 30
0.0
  0
VERTEX
  5
192
  8
CAMADA_1
 62
   250
 10
-93.925
 20
40.429
 30
0.0
  0
VERTEX
  5
193
  8
CAMADA_1
 62
   250
 10
-93.5984
 20
40.4032
 30
0.0
  0
VERTEX
  5
194
  8
CAMADA_1
 62
   250
 10
-93.2719
 20
40.4023
 30
0.0
  0
VERTEX
  5
195
  8
CAMADA_1
 62
   250
 10
-92.9453
 20
40.4269
 30
0.0
  0
VERTEX
  5
196
  8
CAMADA_1
 62
   250
 10
-92.6188
 20
40.4776
 30
0.0
  0
VERTEX
  5
197
  8
CAMADA_1
 62
   250
 10
-92.2922
 20
40.555
 30
0.0
  0
VERTEX
  5
198
  8
CAMADA_1
 62
   250
 10
-91.9657
 20
40.6598
 30
0.0
  0
VERTEX
  5
199
  8
CAMADA_1
 62
   250
 10
-91.7577
 20
40.7367
 30
0.0
  0
VERTEX
  5
19A
  8
CAMADA_1
 62
   250
 10
-91.5598
 20
40.798
 30
0.0
  0
VERTEX
  5
19B
  8
CAMADA_1
 62
   250
 10
-91.3695
 20
40.8378
 30
0.0
  0
VERTEX
  5
19C
  8
CAMADA_1
 62
   250
 10
-91.1844
 20
40.8508
 30
0.0
  0
VERTEX
  5
19D
  8
CAMADA_1
 62
   250
 10
-91.002
 20
40.8314
 30
0.0
  0
VERTEX
  5
19E
  8
CAMADA_1
 62
   250
 10
-90.8201
 20
40.7739
 30
0.0
  0
VERTEX
  5
19F
  8
CAMADA_1
 62
   250
 10
-90.6363
 20
40.6728
 30
0.0
  0
VERTEX
  5
1A0
  8
CAMADA_1
 62
   250
 10
-90.4481
 20
40.5226
 30
0.0
  0
VERTEX
  5
1A1
  8
CAMADA_1
 62
   250
 10
-90.169
 20
40.1973
 30
0.0
  0
VERTEX
  5
1A2
  8
CAMADA_1
 62
   250
 10
-89.8734
 20
39.8936
 30
0.0
  0
VERTEX
  5
1A3
  8
CAMADA_1
 62
   250
 10
-89.5573
 20
39.6171
 30
0.0
  0
VERTEX
  5
1A4
  8
CAMADA_1
 62
   250
 10
-89.2166
 20
39.3727
 30
0.0
  0
VERTEX
  5
1A5
  8
CAMADA_1
 62
   250
 10
-88.8474
 20
39.166
 30
0.0
  0
VERTEX
  5
1A6
  8
CAMADA_1
 62
   250
 10
-88.4456
 20
39.0021
 30
0.0
  0
VERTEX
  5
1A7
  8
CAMADA_1
 62
   250
 10
-88.0073
 20
38.8864
 30
0.0
  0
VERTEX
  5
1A8
  8
CAMADA_1
 62
   250
 10
-87.5283
 20
38.824
 30
0.0
  0
VERTEX
  5
1A9
  8
CAMADA_1
 62
   250
 10
-87.1373
 20
38.8191
 30
0.0
  0
VERTEX
  5
1AA
  8
CAMADA_1
 62
   250
 10
-86.75
 20
38.8152
 30
0.0
  0
VERTEX
  5
1AB
  8
CAMADA_1
 62
   250
 10
-86.3672
 20
38.82
 30
0.0
  0
VERTEX
  5
1AC
  8
CAMADA_1
 62
   250
 10
-85.9901
 20
38.8411
 30
0.0
  0
VERTEX
  5
1AD
  8
CAMADA_1
 62
   250
 10
-85.6198
 20
38.8863
 30
0.0
  0
VERTEX
  5
1AE
  8
CAMADA_1
 62
   250
 10
-85.2573
 20
38.9631
 30
0.0
  0
VERTEX
  5
1AF
  8
CAMADA_1
 62
   250
 10
-84.9037
 20
39.0793
 30
0.0
  0
VERTEX
  5
1B0
  8
CAMADA_1
 62
   250
 10
-84.56
 20
39.2425
 30
0.0
  0
VERTEX
  5
1B1
  8
CAMADA_1
 62
   250
 10
-84.3675
 20
39.3496
 30
0.0
  0
VERTEX
  5
1B2
  8
CAMADA_1
 62
   250
 10
-84.1931
 20
39.5327
 30
0.0
  0
VERTEX
  5
1B3
  8
CAMADA_1
 62
   250
 10
-84.0406
 20
39.7755
 30
0.0
  0
VERTEX
  5
1B4
  8
CAMADA_1
 62
   250
 10
-83.9137
 20
40.0623
 30
0.0
  0
VERTEX
  5
1B5
  8
CAMADA_1
 62
   250
 10
-83.8163
 20
40.3767
 30
0.0
  0
VERTEX
  5
1B6
  8
CAMADA_1
 62
   250
 10
-83.7521
 20
40.7029
 30
0.0
  0
VERTEX
  5
1B7
  8
CAMADA_1
 62
   250
 10
-83.725
 20
41.0248
 30
0.0
  0
VERTEX
  5
1B8
  8
CAMADA_1
 62
   250
 10
-83.7387
 20
41.3264
 30
0.0
  0
VERTEX
  5
1B9
  8
CAMADA_1
 62
   250
 10
-85.4801
 20
41.2993
 30
0.0
  0
VERTEX
  5
1BA
  8
CAMADA_1
 62
   250
 10
-85.4531
 20
43.9565
 30
0.0
  0
VERTEX
  5
1BB
  8
CAMADA_1
 62
   250
 10
-86.9063
 20
43.9565
 30
0.0
  0
VERTEX
  5
1BC
  8
CAMADA_1
 62
   250
 10
-86.8943
 20
41.7918
 30
0.0
  0
VERTEX
  5
1BD
  8
CAMADA_1
 62
   250
 10
-86.8943
 20
41.7918
 30
0.0
  0
SEQEND
  5
1BE
  8
CAMADA_1
 62
   250
  0
POLYLINE
  5
4B
  8
CAMADA_1
 62
   250
 66
     1
 10
0.0
 20
0.0
 30
0.0
 70
     1
  0
VERTEX
  5
1BF
  8
CAMADA_1
 62
   250
 10
-92.5325
 20
48.9425
 30
0.0
  0
VERTEX
  5
1C0
  8
CAMADA_1
 62
   250
 10
-91.2204
 20
48.9545
 30
0.0
  0
VERTEX
  5
1C1
  8
CAMADA_1
 62
   250
 10
-91.2384
 20
46.7898
 30
0.0
  0
VERTEX
  5
1C2
  8
CAMADA_1
 62
   250
 10
-85.777
 20
46.7988
 30
0.0
  0
VERTEX
  5
1C3
  8
CAMADA_1
 62
   250
 10
-85.777
 20
48.1138
 30
0.0
  0
VERTEX
  5
1C4
  8
CAMADA_1
 62
   250
 10
-83.9515
 20
48.1048
 30
0.0
  0
VERTEX
  5
1C5
  8
CAMADA_1
 62
   250
 10
-83.9188
 20
48.5003
 30
0.0
  0
VERTEX
  5
1C6
  8
CAMADA_1
 62
   250
 10
-83.936
 20
48.8581
 30
0.0
  0
VERTEX
  5
1C7
  8
CAMADA_1
 62
   250
 10
-83.9987
 20
49.1776
 30
0.0
  0
VERTEX
  5
1C8
  8
CAMADA_1
 62
   250
 10
-84.1029
 20
49.4582
 30
0.0
  0
VERTEX
  5
1C9
  8
CAMADA_1
 62
   250
 10
-84.2442
 20
49.6994
 30
0.0
  0
VERTEX
  5
1CA
  8
CAMADA_1
 62
   250
 10
-84.4184
 20
49.9007
 30
0.0
  0
VERTEX
  5
1CB
  8
CAMADA_1
 62
   250
 10
-84.6213
 20
50.0615
 30
0.0
  0
VERTEX
  5
1CC
  8
CAMADA_1
 62
   250
 10
-84.8487
 20
50.1812
 30
0.0
  0
VERTEX
  5
1CD
  8
CAMADA_1
 62
   250
 10
-85.1753
 20
50.2551
 30
0.0
  0
VERTEX
  5
1CE
  8
CAMADA_1
 62
   250
 10
-85.5018
 20
50.3052
 30
0.0
  0
VERTEX
  5
1CF
  8
CAMADA_1
 62
   250
 10
-85.8284
 20
50.3311
 30
0.0
  0
VERTEX
  5
1D0
  8
CAMADA_1
 62
   250
 10
-86.1549
 20
50.332
 30
0.0
  0
VERTEX
  5
1D1
  8
CAMADA_1
 62
   250
 10
-86.4815
 20
50.3074
 30
0.0
  0
VERTEX
  5
1D2
  8
CAMADA_1
 62
   250
 10
-86.808
 20
50.2567
 30
0.0
  0
VERTEX
  5
1D3
  8
CAMADA_1
 62
   250
 10
-87.1346
 20
50.1792
 30
0.0
  0
VERTEX
  5
1D4
  8
CAMADA_1
 62
   250
 10
-87.4612
 20
50.0745
 30
0.0
  0
VERTEX
  5
1D5
  8
CAMADA_1
 62
   250
 10
-87.6691
 20
49.9975
 30
0.0
  0
VERTEX
  5
1D6
  8
CAMADA_1
 62
   250
 10
-87.867
 20
49.9363
 30
0.0
  0
VERTEX
  5
1D7
  8
CAMADA_1
 62
   250
 10
-88.0573
 20
49.8964
 30
0.0
  0
VERTEX
  5
1D8
  8
CAMADA_1
 62
   250
 10
-88.2425
 20
49.8834
 30
0.0
  0
VERTEX
  5
1D9
  8
CAMADA_1
 62
   250
 10
-88.4248
 20
49.9029
 30
0.0
  0
VERTEX
  5
1DA
  8
CAMADA_1
 62
   250
 10
-88.6067
 20
49.9604
 30
0.0
  0
VERTEX
  5
1DB
  8
CAMADA_1
 62
   250
 10
-88.7905
 20
50.0615
 30
0.0
  0
VERTEX
  5
1DC
  8
CAMADA_1
 62
   250
 10
-88.9788
 20
50.2117
 30
0.0
  0
VERTEX
  5
1DD
  8
CAMADA_1
 62
   250
 10
-89.2578
 20
50.537
 30
0.0
  0
VERTEX
  5
1DE
  8
CAMADA_1
 62
   250
 10
-89.5534
 20
50.8406
 30
0.0
  0
VERTEX
  5
1DF
  8
CAMADA_1
 62
   250
 10
-89.8696
 20
51.1172
 30
0.0
  0
VERTEX
  5
1E0
  8
CAMADA_1
 62
   250
 10
-90.2102
 20
51.3615
 30
0.0
  0
VERTEX
  5
1E1
  8
CAMADA_1
 62
   250
 10
-90.5794
 20
51.5683
 30
0.0
  0
VERTEX
  5
1E2
  8
CAMADA_1
 62
   250
 10
-90.9812
 20
51.7322
 30
0.0
  0
VERTEX
  5
1E3
  8
CAMADA_1
 62
   250
 10
-91.4195
 20
51.8479
 30
0.0
  0
VERTEX
  5
1E4
  8
CAMADA_1
 62
   250
 10
-91.8985
 20
51.9103
 30
0.0
  0
VERTEX
  5
1E5
  8
CAMADA_1
 62
   250
 10
-92.2895
 20
51.9152
 30
0.0
  0
VERTEX
  5
1E6
  8
CAMADA_1
 62
   250
 10
-92.6769
 20
51.9191
 30
0.0
  0
VERTEX
  5
1E7
  8
CAMADA_1
 62
   250
 10
-93.0596
 20
51.9143
 30
0.0
  0
VERTEX
  5
1E8
  8
CAMADA_1
 62
   250
 10
-93.4367
 20
51.8931
 30
0.0
  0
VERTEX
  5
1E9
  8
CAMADA_1
 62
   250
 10
-93.807
 20
51.848
 30
0.0
  0
VERTEX
  5
1EA
  8
CAMADA_1
 62
   250
 10
-94.1695
 20
51.7711
 30
0.0
  0
VERTEX
  5
1EB
  8
CAMADA_1
 62
   250
 10
-94.5231
 20
51.655
 30
0.0
  0
VERTEX
  5
1EC
  8
CAMADA_1
 62
   250
 10
-94.8669
 20
51.4918
 30
0.0
  0
VERTEX
  5
1ED
  8
CAMADA_1
 62
   250
 10
-95.0593
 20
51.3846
 30
0.0
  0
VERTEX
  5
1EE
  8
CAMADA_1
 62
   250
 10
-95.2337
 20
51.2016
 30
0.0
  0
VERTEX
  5
1EF
  8
CAMADA_1
 62
   250
 10
-95.3862
 20
50.9587
 30
0.0
  0
VERTEX
  5
1F0
  8
CAMADA_1
 62
   250
 10
-95.5131
 20
50.672
 30
0.0
  0
VERTEX
  5
1F1
  8
CAMADA_1
 62
   250
 10
-95.6105
 20
50.3575
 30
0.0
  0
VERTEX
  5
1F2
  8
CAMADA_1
 62
   250
 10
-95.6747
 20
50.0313
 30
0.0
  0
VERTEX
  5
1F3
  8
CAMADA_1
 62
   250
 10
-95.7018
 20
49.7095
 30
0.0
  0
VERTEX
  5
1F4
  8
CAMADA_1
 62
   250
 10
-95.6881
 20
49.4079
 30
0.0
  0
VERTEX
  5
1F5
  8
CAMADA_1
 62
   250
 10
-93.9467
 20
49.4349
 30
0.0
  0
VERTEX
  5
1F6
  8
CAMADA_1
 62
   250
 10
-93.9737
 20
46.7777
 30
0.0
  0
VERTEX
  5
1F7
  8
CAMADA_1
 62
   250
 10
-92.5205
 20
46.7777
 30
0.0
  0
VERTEX
  5
1F8
  8
CAMADA_1
 62
   250
 10
-92.5325
 20
48.9425
 30
0.0
  0
VERTEX
  5
1F9
  8
CAMADA_1
 62
   250
 10
-92.5325
 20
48.9425
 30
0.0
  0
SEQEND
  5
1FA
  8
CAMADA_1
 62
   250
  0
POLYLINE
  5
4C
  8
CAMADA_1
 62
   250
 66
     1
 10
0.0
 20
0.0
 30
0.0
 70
     1
  0
VERTEX
  5
1FB
  8
CAMADA_1
 62
   250
 10
-105.3249
 20
52.5319
 30
0.0
  0
VERTEX
  5
1FC
  8
CAMADA_1
 62
   250
 10
-106.6753
 20
52.5331
 30
0.0
  0
VERTEX
  5
1FD
  8
CAMADA_1
 62
   250
 10
-106.6389
 20
49.8709
 30
0.0
  0
VERTEX
  5
1FE
  8
CAMADA_1
 62
   250
 10
-107.8836
 20
50.1072
 30
0.0
  0
VERTEX
  5
1FF
  8
CAMADA_1
 62
   250
 10
-108.1572
 20
50.8223
 30
0.0
  0
VERTEX
  5
200
  8
CAMADA_1
 62
   250
 10
-108.4902
 20
51.4096
 30
0.0
  0
VERTEX
  5
201
  8
CAMADA_1
 62
   250
 10
-108.8829
 20
51.873
 30
0.0
  0
VERTEX
  5
202
  8
CAMADA_1
 62
   250
 10
-109.3357
 20
52.216
 30
0.0
  0
VERTEX
  5
203
  8
CAMADA_1
 62
   250
 10
-109.8489
 20
52.4425
 30
0.0
  0
VERTEX
  5
204
  8
CAMADA_1
 62
   250
 10
-110.4228
 20
52.5563
 30
0.0
  0
VERTEX
  5
205
  8
CAMADA_1
 62
   250
 10
-111.0577
 20
52.5609
 30
0.0
  0
VERTEX
  5
206
  8
CAMADA_1
 62
   250
 10
-111.754
 20
52.4601
 30
0.0
  0
VERTEX
  5
207
  8
CAMADA_1
 62
   250
 10
-112.0575
 20
52.8104
 30
0.0
  0
VERTEX
  5
208
  8
CAMADA_1
 62
   250
 10
-112.3389
 20
53.1797
 30
0.0
  0
VERTEX
  5
209
  8
CAMADA_1
 62
   250
 10
-112.5981
 20
53.5664
 30
0.0
  0
VERTEX
  5
20A
  8
CAMADA_1
 62
   250
 10
-112.8347
 20
53.9689
 30
0.0
  0
VERTEX
  5
20B
  8
CAMADA_1
 62
   250
 10
-113.0482
 20
54.3856
 30
0.0
  0
VERTEX
  5
20C
  8
CAMADA_1
 62
   250
 10
-113.2385
 20
54.8147
 30
0.0
  0
VERTEX
  5
20D
  8
CAMADA_1
 62
   250
 10
-113.4051
 20
55.2546
 30
0.0
  0
VERTEX
  5
20E
  8
CAMADA_1
 62
   250
 10
-113.5478
 20
55.7036
 30
0.0
  0
VERTEX
  5
20F
  8
CAMADA_1
 62
   250
 10
-113.087
 20
56.2699
 30
0.0
  0
VERTEX
  5
210
  8
CAMADA_1
 62
   250
 10
-112.7587
 20
56.835
 30
0.0
  0
VERTEX
  5
211
  8
CAMADA_1
 62
   250
 10
-112.5618
 20
57.4005
 30
0.0
  0
VERTEX
  5
212
  8
CAMADA_1
 62
   250
 10
-112.4949
 20
57.9681
 30
0.0
  0
VERTEX
  5
213
  8
CAMADA_1
 62
   250
 10
-112.557
 20
58.5393
 30
0.0
  0
VERTEX
  5
214
  8
CAMADA_1
 62
   250
 10
-112.7469
 20
59.1158
 30
0.0
  0
VERTEX
  5
215
  8
CAMADA_1
 62
   250
 10
-113.0634
 20
59.6991
 30
0.0
  0
VERTEX
  5
216
  8
CAMADA_1
 62
   250
 10
-113.5054
 20
60.2909
 30
0.0
  0
VERTEX
  5
217
  8
CAMADA_1
 62
   250
 10
-113.097
 20
61.2165
 30
0.0
  0
VERTEX
  5
218
  8
CAMADA_1
 62
   250
 10
-110.8643
 20
59.8567
 30
0.0
  0
VERTEX
  5
219
  8
CAMADA_1
 62
   250
 10
-110.2112
 20
61.0098
 30
0.0
  0
VERTEX
  5
21A
  8
CAMADA_1
 62
   250
 10
-112.4158
 20
62.3375
 30
0.0
  0
VERTEX
  5
21B
  8
CAMADA_1
 62
   250
 10
-111.6678
 20
63.2243
 30
0.0
  0
VERTEX
  5
21C
  8
CAMADA_1
 62
   250
 10
-111.0201
 20
63.1336
 30
0.0
  0
VERTEX
  5
21D
  8
CAMADA_1
 62
   250
 10
-110.4121
 20
63.1267
 30
0.0
  0
VERTEX
  5
21E
  8
CAMADA_1
 62
   250
 10
-109.8477
 20
63.2146
 30
0.0
  0
VERTEX
  5
21F
  8
CAMADA_1
 62
   250
 10
-109.3306
 20
63.4083
 30
0.0
  0
VERTEX
  5
220
  8
CAMADA_1
 62
   250
 10
-108.8646
 20
63.7186
 30
0.0
  0
VERTEX
  5
221
  8
CAMADA_1
 62
   250
 10
-108.4536
 20
64.1565
 30
0.0
  0
VERTEX
  5
222
  8
CAMADA_1
 62
   250
 10
-108.1013
 20
64.7329
 30
0.0
  0
VERTEX
  5
223
  8
CAMADA_1
 62
   250
 10
-107.8116
 20
65.4588
 30
0.0
  0
VERTEX
  5
224
  8
CAMADA_1
 62
   250
 10
-107.3598
 20
65.5496
 30
0.0
  0
VERTEX
  5
225
  8
CAMADA_1
 62
   250
 10
-106.9085
 20
65.615
 30
0.0
  0
VERTEX
  5
226
  8
CAMADA_1
 62
   250
 10
-106.4563
 20
65.6542
 30
0.0
  0
VERTEX
  5
227
  8
CAMADA_1
 62
   250
 10
-106.0019
 20
65.666
 30
0.0
  0
VERTEX
  5
228
  8
CAMADA_1
 62
   250
 10
-105.544
 20
65.6496
 30
0.0
  0
VERTEX
  5
229
  8
CAMADA_1
 62
   250
 10
-105.0813
 20
65.604
 30
0.0
  0
VERTEX
  5
22A
  8
CAMADA_1
 62
   250
 10
-104.6125
 20
65.5281
 30
0.0
  0
VERTEX
  5
22B
  8
CAMADA_1
 62
   250
 10
-104.1361
 20
65.421
 30
0.0
  0
VERTEX
  5
22C
  8
CAMADA_1
 62
   250
 10
-103.853
 20
64.7482
 30
0.0
  0
VERTEX
  5
22D
  8
CAMADA_1
 62
   250
 10
-103.515
 20
64.1927
 30
0.0
  0
VERTEX
  5
22E
  8
CAMADA_1
 62
   250
 10
-103.12
 20
63.7517
 30
0.0
  0
VERTEX
  5
22F
  8
CAMADA_1
 62
   250
 10
-102.6662
 20
63.4228
 30
0.0
  0
VERTEX
  5
230
  8
CAMADA_1
 62
   250
 10
-102.1516
 20
63.2034
 30
0.0
  0
VERTEX
  5
231
  8
CAMADA_1
 62
   250
 10
-101.5742
 20
63.0908
 30
0.0
  0
VERTEX
  5
232
  8
CAMADA_1
 62
   250
 10
-100.9321
 20
63.0826
 30
0.0
  0
VERTEX
  5
233
  8
CAMADA_1
 62
   250
 10
-100.2233
 20
63.1762
 30
0.0
  0
VERTEX
  5
234
  8
CAMADA_1
 62
   250
 10
-99.5127
 20
62.3061
 30
0.0
  0
VERTEX
  5
235
  8
CAMADA_1
 62
   250
 10
-101.8211
 20
60.9192
 30
0.0
  0
VERTEX
  5
236
  8
CAMADA_1
 62
   250
 10
-101.1418
 20
59.7753
 30
0.0
  0
VERTEX
  5
237
  8
CAMADA_1
 62
   250
 10
-98.8154
 20
61.1481
 30
0.0
  0
VERTEX
  5
238
  8
CAMADA_1
 62
   250
 10
-98.3355
 20
59.9028
 30
0.0
  0
VERTEX
  5
239
  8
CAMADA_1
 62
   250
 10
-98.8349
 20
59.338
 30
0.0
  0
VERTEX
  5
23A
  8
CAMADA_1
 62
   250
 10
-99.1916
 20
58.7749
 30
0.0
  0
VERTEX
  5
23B
  8
CAMADA_1
 62
   250
 10
-99.4072
 20
58.2135
 30
0.0
  0
VERTEX
  5
23C
  8
CAMADA_1
 62
   250
 10
-99.4835
 20
57.6538
 30
0.0
  0
VERTEX
  5
23D
  8
CAMADA_1
 62
   250
 10
-99.4219
 20
57.0957
 30
0.0
  0
VERTEX
  5
23E
  8
CAMADA_1
 62
   250
 10
-99.2242
 20
56.5393
 30
0.0
  0
VERTEX
  5
23F
  8
CAMADA_1
 62
   250
 10
-98.8919
 20
55.9845
 30
0.0
  0
VERTEX
  5
240
  8
CAMADA_1
 62
   250
 10
-98.4267
 20
55.4312
 30
0.0
  0
VERTEX
  5
241
  8
CAMADA_1
 62
   250
 10
-98.5781
 20
54.9926
 30
0.0
  0
VERTEX
  5
242
  8
CAMADA_1
 62
   250
 10
-98.7579
 20
54.5654
 30
0.0
  0
VERTEX
  5
243
  8
CAMADA_1
 62
   250
 10
-98.9654
 20
54.1492
 30
0.0
  0
VERTEX
  5
244
  8
CAMADA_1
 62
   250
 10
-99.2
 20
53.744
 30
0.0
  0
VERTEX
  5
245
  8
CAMADA_1
 62
   250
 10
-99.4611
 20
53.3494
 30
0.0
  0
VERTEX
  5
246
  8
CAMADA_1
 62
   250
 10
-99.7481
 20
52.9651
 30
0.0
  0
VERTEX
  5
247
  8
CAMADA_1
 62
   250
 10
-100.0602
 20
52.591
 30
0.0
  0
VERTEX
  5
248
  8
CAMADA_1
 62
   250
 10
-100.3971
 20
52.2268
 30
0.0
  0
VERTEX
  5
249
  8
CAMADA_1
 62
   250
 10
-100.7693
 20
52.2852
 30
0.0
  0
VERTEX
  5
24A
  8
CAMADA_1
 62
   250
 10
-101.1229
 20
52.3231
 30
0.0
  0
VERTEX
  5
24B
  8
CAMADA_1
 62
   250
 10
-101.4581
 20
52.339
 30
0.0
  0
VERTEX
  5
24C
  8
CAMADA_1
 62
   250
 10
-101.7749
 20
52.3316
 30
0.0
  0
VERTEX
  5
24D
  8
CAMADA_1
 62
   250
 10
-102.0734
 20
52.2995
 30
0.0
  0
VERTEX
  5
24E
  8
CAMADA_1
 62
   250
 10
-102.3536
 20
52.2412
 30
0.0
  0
VERTEX
  5
24F
  8
CAMADA_1
 62
   250
 10
-102.6158
 20
52.1554
 30
0.0
  0
VERTEX
  5
250
  8
CAMADA_1
 62
   250
 10
-102.8598
 20
52.0405
 30
0.0
  0
VERTEX
  5
251
  8
CAMADA_1
 62
   250
 10
-103.0861
 20
51.882
 30
0.0
  0
VERTEX
  5
252
  8
CAMADA_1
 62
   250
 10
-103.2959
 20
51.6976
 30
0.0
  0
VERTEX
  5
253
  8
CAMADA_1
 62
   250
 10
-103.4905
 20
51.4868
 30
0.0
  0
VERTEX
  5
254
  8
CAMADA_1
 62
   250
 10
-103.6713
 20
51.2493
 30
0.0
  0
VERTEX
  5
255
  8
CAMADA_1
 62
   250
 10
-103.8398
 20
50.9846
 30
0.0
  0
VERTEX
  5
256
  8
CAMADA_1
 62
   250
 10
-103.9974
 20
50.6923
 30
0.0
  0
VERTEX
  5
257
  8
CAMADA_1
 62
   250
 10
-104.1454
 20
50.372
 30
0.0
  0
VERTEX
  5
258
  8
CAMADA_1
 62
   250
 10
-104.2853
 20
50.0233
 30
0.0
  0
VERTEX
  5
259
  8
CAMADA_1
 62
   250
 10
-105.3657
 20
49.9084
 30
0.0
  0
VERTEX
  5
25A
  8
CAMADA_1
 62
   250
 10
-105.3249
 20
52.5319
 30
0.0
  0
VERTEX
  5
25B
  8
CAMADA_1
 62
   250
 10
-105.3249
 20
52.5319
 30
0.0
  0
SEQEND
  5
25C
  8
CAMADA_1
 62
   250
  0
POLYLINE
  5
4D
  8
CAMADA_1
 62
   250
 66
     1
 10
0.0
 20
0.0
 30
0.0
 70
     1
  0
VERTEX
  5
25D
  8
CAMADA_1
 62
   250
 10
-108.4761
 20
57.7906
 30
0.0
  0
VERTEX
  5
25E
  8
CAMADA_1
 62
   250
 10
-108.425
 20
58.2929
 30
0.0
  0
VERTEX
  5
25F
  8
CAMADA_1
 62
   250
 10
-108.2793
 20
58.7606
 30
0.0
  0
VERTEX
  5
260
  8
CAMADA_1
 62
   250
 10
-108.0492
 20
59.1838
 30
0.0
  0
VERTEX
  5
261
  8
CAMADA_1
 62
   250
 10
-107.7444
 20
59.5525
 30
0.0
  0
VERTEX
  5
262
  8
CAMADA_1
 62
   250
 10
-107.3753
 20
59.8566
 30
0.0
  0
VERTEX
  5
263
  8
CAMADA_1
 62
   250
 10
-106.9517
 20
60.0861
 30
0.0
  0
VERTEX
  5
264
  8
CAMADA_1
 62
   250
 10
-106.4837
 20
60.2309
 30
0.0
  0
VERTEX
  5
265
  8
CAMADA_1
 62
   250
 10
-105.9814
 20
60.2812
 30
0.0
  0
VERTEX
  5
266
  8
CAMADA_1
 62
   250
 10
-105.4791
 20
60.2301
 30
0.0
  0
VERTEX
  5
267
  8
CAMADA_1
 62
   250
 10
-105.0114
 20
60.0845
 30
0.0
  0
VERTEX
  5
268
  8
CAMADA_1
 62
   250
 10
-104.5882
 20
59.8542
 30
0.0
  0
VERTEX
  5
269
  8
CAMADA_1
 62
   250
 10
-104.2195
 20
59.5496
 30
0.0
  0
VERTEX
  5
26A
  8
CAMADA_1
 62
   250
 10
-103.9154
 20
59.1804
 30
0.0
  0
VERTEX
  5
26B
  8
CAMADA_1
 62
   250
 10
-103.6859
 20
58.7568
 30
0.0
  0
VERTEX
  5
26C
  8
CAMADA_1
 62
   250
 10
-103.5411
 20
58.2888
 30
0.0
  0
VERTEX
  5
26D
  8
CAMADA_1
 62
   250
 10
-103.4908
 20
57.7865
 30
0.0
  0
VERTEX
  5
26E
  8
CAMADA_1
 62
   250
 10
-103.5419
 20
57.2842
 30
0.0
  0
VERTEX
  5
26F
  8
CAMADA_1
 62
   250
 10
-103.6875
 20
56.8165
 30
0.0
  0
VERTEX
  5
270
  8
CAMADA_1
 62
   250
 10
-103.9178
 20
56.3932
 30
0.0
  0
VERTEX
  5
271
  8
CAMADA_1
 62
   250
 10
-104.2225
 20
56.0246
 30
0.0
  0
VERTEX
  5
272
  8
CAMADA_1
 62
   250
 10
-104.5916
 20
55.7205
 30
0.0
  0
VERTEX
  5
273
  8
CAMADA_1
 62
   250
 10
-105.0152
 20
55.491
 30
0.0
  0
VERTEX
  5
274
  8
CAMADA_1
 62
   250
 10
-105.4832
 20
55.3462
 30
0.0
  0
VERTEX
  5
275
  8
CAMADA_1
 62
   250
 10
-105.9855
 20
55.2959
 30
0.0
  0
VERTEX
  5
276
  8
CAMADA_1
 62
   250
 10
-106.4878
 20
55.347
 30
0.0
  0
VERTEX
  5
277
  8
CAMADA_1
 62
   250
 10
-106.9555
 20
55.4927
 30
0.0
  0
VERTEX
  5
278
  8
CAMADA_1
 62
   250
 10
-107.3787
 20
55.7228
 30
0.0
  0
VERTEX
  5
279
  8
CAMADA_1
 62
   250
 10
-107.7474
 20
56.0275
 30
0.0
  0
VERTEX
  5
27A
  8
CAMADA_1
 62
   250
 10
-108.0515
 20
56.3967
 30
0.0
  0
VERTEX
  5
27B
  8
CAMADA_1
 62
   250
 10
-108.281
 20
56.8203
 30
0.0
  0
VERTEX
  5
27C
  8
CAMADA_1
 62
   250
 10
-108.4258
 20
57.2883
 30
0.0
  0
VERTEX
  5
27D
  8
CAMADA_1
 62
   250
 10
-108.4761
 20
57.7906
 30
0.0
  0
VERTEX
  5
27E
  8
CAMADA_1
 62
   250
 10
-108.4761
 20
57.7906
 30
0.0
  0
SEQEND
  5
27F
  8
CAMADA_1
 62
   250
  0
POLYLINE
  5
4E
  8
CAMADA_1
 62
   250
 66
     1
 10
0.0
 20
0.0
 30
0.0
 70
     1
  0
VERTEX
  5
280
  8
CAMADA_1
 62
   250
 10
-23.3677
 20
-75.7736
 30
0.0
  0
VERTEX
  5
281
  8
CAMADA_1
 62
   250
 10
-24.5147
 20
-76.4216
 30
0.0
  0
VERTEX
  5
282
  8
CAMADA_1
 62
   250
 10
-23.1402
 20
-78.7371
 30
0.0
  0
VERTEX
  5
283
  8
CAMADA_1
 62
   250
 10
-23.4394
 20
-78.8596
 30
0.0
  0
VERTEX
  5
284
  8
CAMADA_1
 62
   250
 10
-23.7514
 20
-78.9804
 30
0.0
  0
VERTEX
  5
285
  8
CAMADA_1
 62
   250
 10
-23.9098
 20
-79.0374
 30
0.0
  0
VERTEX
  5
286
  8
CAMADA_1
 62
   250
 10
-24.0687
 20
-79.0907
 30
0.0
  0
VERTEX
  5
287
  8
CAMADA_1
 62
   250
 10
-24.227
 20
-79.1391
 30
0.0
  0
VERTEX
  5
288
  8
CAMADA_1
 62
   250
 10
-24.3839
 20
-79.1815
 30
0.0
  0
VERTEX
  5
289
  8
CAMADA_1
 62
   250
 10
-24.9744
 20
-78.6931
 30
0.0
  0
VERTEX
  5
28A
  8
CAMADA_1
 62
   250
 10
-25.5577
 20
-78.3489
 30
0.0
  0
VERTEX
  5
28B
  8
CAMADA_1
 62
   250
 10
-26.1329
 20
-78.1452
 30
0.0
  0
VERTEX
  5
28C
  8
CAMADA_1
 62
   250
 10
-26.6995
 20
-78.0787
 30
0.0
  0
VERTEX
  5
28D
  8
CAMADA_1
 62
   250
 10
-27.2569
 20
-78.1458
 30
0.0
  0
VERTEX
  5
28E
  8
CAMADA_1
 62
   250
 10
-27.8046
 20
-78.343
 30
0.0
  0
VERTEX
  5
28F
  8
CAMADA_1
 62
   250
 10
-28.3417
 20
-78.667
 30
0.0
  0
VERTEX
  5
290
  8
CAMADA_1
 62
   250
 10
-28.8678
 20
-79.1142
 30
0.0
  0
VERTEX
  5
291
  8
CAMADA_1
 62
   250
 10
-29.3064
 20
-78.9578
 30
0.0
  0
VERTEX
  5
292
  8
CAMADA_1
 62
   250
 10
-29.7397
 20
-78.7755
 30
0.0
  0
VERTEX
  5
293
  8
CAMADA_1
 62
   250
 10
-30.1649
 20
-78.5681
 30
0.0
  0
VERTEX
  5
294
  8
CAMADA_1
 62
   250
 10
-30.5796
 20
-78.3363
 30
0.0
  0
VERTEX
  5
295
  8
CAMADA_1
 62
   250
 10
-30.9811
 20
-78.081
 30
0.0
  0
VERTEX
  5
296
  8
CAMADA_1
 62
   250
 10
-31.3669
 20
-77.803
 30
0.0
  0
VERTEX
  5
297
  8
CAMADA_1
 62
   250
 10
-31.7343
 20
-77.503
 30
0.0
  0
VERTEX
  5
298
  8
CAMADA_1
 62
   250
 10
-32.0809
 20
-77.1818
 30
0.0
  0
VERTEX
  5
299
  8
CAMADA_1
 62
   250
 10
-31.987
 20
-76.4214
 30
0.0
  0
VERTEX
  5
29A
  8
CAMADA_1
 62
   250
 10
-31.9868
 20
-75.7647
 30
0.0
  0
VERTEX
  5
29B
  8
CAMADA_1
 62
   250
 10
-32.0854
 20
-75.1995
 30
0.0
  0
VERTEX
  5
29C
  8
CAMADA_1
 62
   250
 10
-32.2878
 20
-74.7141
 30
0.0
  0
VERTEX
  5
29D
  8
CAMADA_1
 62
   250
 10
-32.599
 20
-74.2964
 30
0.0
  0
VERTEX
  5
29E
  8
CAMADA_1
 62
   250
 10
-33.0241
 20
-73.9345
 30
0.0
  0
VERTEX
  5
29F
  8
CAMADA_1
 62
   250
 10
-33.568
 20
-73.6164
 30
0.0
  0
VERTEX
  5
2A0
  8
CAMADA_1
 62
   250
 10
-34.2358
 20
-73.3302
 30
0.0
  0
VERTEX
  5
2A1
  8
CAMADA_1
 62
   250
 10
-34.3627
 20
-72.2512
 30
0.0
  0
VERTEX
  5
2A2
  8
CAMADA_1
 62
   250
 10
-31.7401
 20
-72.275
 30
0.0
  0
VERTEX
  5
2A3
  8
CAMADA_1
 62
   250
 10
-31.7542
 20
-70.9396
 30
0.0
  0
VERTEX
  5
2A4
  8
CAMADA_1
 62
   250
 10
-34.398
 20
-70.9816
 30
0.0
  0
VERTEX
  5
2A5
  8
CAMADA_1
 62
   250
 10
-34.2097
 20
-69.7193
 30
0.0
  0
VERTEX
  5
2A6
  8
CAMADA_1
 62
   250
 10
-33.5973
 20
-69.482
 30
0.0
  0
VERTEX
  5
2A7
  8
CAMADA_1
 62
   250
 10
-33.0559
 20
-69.1907
 30
0.0
  0
VERTEX
  5
2A8
  8
CAMADA_1
 62
   250
 10
-32.5957
 20
-68.838
 30
0.0
  0
VERTEX
  5
2A9
  8
CAMADA_1
 62
   250
 10
-32.2268
 20
-68.4161
 30
0.0
  0
VERTEX
  5
2AA
  8
CAMADA_1
 62
   250
 10
-31.9595
 20
-67.9174
 30
0.0
  0
VERTEX
  5
2AB
  8
CAMADA_1
 62
   250
 10
-31.8041
 20
-67.3342
 30
0.0
  0
VERTEX
  5
2AC
  8
CAMADA_1
 62
   250
 10
-31.7708
 20
-66.659
 30
0.0
  0
VERTEX
  5
2AD
  8
CAMADA_1
 62
   250
 10
-31.8698
 20
-65.884
 30
0.0
  0
VERTEX
  5
2AE
  8
CAMADA_1
 62
   250
 10
-31.5213
 20
-65.5817
 30
0.0
  0
VERTEX
  5
2AF
  8
CAMADA_1
 62
   250
 10
-31.1633
 20
-65.2978
 30
0.0
  0
VERTEX
  5
2B0
  8
CAMADA_1
 62
   250
 10
-30.7932
 20
-65.0338
 30
0.0
  0
VERTEX
  5
2B1
  8
CAMADA_1
 62
   250
 10
-30.4087
 20
-64.7912
 30
0.0
  0
VERTEX
  5
2B2
  8
CAMADA_1
 62
   250
 10
-30.0074
 20
-64.5716
 30
0.0
  0
VERTEX
  5
2B3
  8
CAMADA_1
 62
   250
 10
-29.5867
 20
-64.3765
 30
0.0
  0
VERTEX
  5
2B4
  8
CAMADA_1
 62
   250
 10
-29.1443
 20
-64.2074
 30
0.0
  0
VERTEX
  5
2B5
  8
CAMADA_1
 62
   250
 10
-28.6778
 20
-64.0658
 30
0.0
  0
VERTEX
  5
2B6
  8
CAMADA_1
 62
   250
 10
-28.0803
 20
-64.5306
 30
0.0
  0
VERTEX
  5
2B7
  8
CAMADA_1
 62
   250
 10
-27.5005
 20
-64.8577
 30
0.0
  0
VERTEX
  5
2B8
  8
CAMADA_1
 62
   250
 10
-26.9348
 20
-65.0493
 30
0.0
  0
VERTEX
  5
2B9
  8
CAMADA_1
 62
   250
 10
-26.38
 20
-65.1079
 30
0.0
  0
VERTEX
  5
2BA
  8
CAMADA_1
 62
   250
 10
-25.8326
 20
-65.0355
 30
0.0
  0
VERTEX
  5
2BB
  8
CAMADA_1
 62
   250
 10
-25.2891
 20
-64.8348
 30
0.0
  0
VERTEX
  5
2BC
  8
CAMADA_1
 62
   250
 10
-24.7463
 20
-64.508
 30
0.0
  0
VERTEX
  5
2BD
  8
CAMADA_1
 62
   250
 10
-24.2005
 20
-64.0574
 30
0.0
  0
VERTEX
  5
2BE
  8
CAMADA_1
 62
   250
 10
-23.1555
 20
-64.4694
 30
0.0
  0
VERTEX
  5
2BF
  8
CAMADA_1
 62
   250
 10
-24.4701
 20
-66.7404
 30
0.0
  0
VERTEX
  5
2C0
  8
CAMADA_1
 62
   250
 10
-23.3296
 20
-67.3844
 30
0.0
  0
VERTEX
  5
2C1
  8
CAMADA_1
 62
   250
 10
-21.9814
 20
-65.1392
 30
0.0
  0
VERTEX
  5
2C2
  8
CAMADA_1
 62
   250
 10
-21.155
 20
-65.9139
 30
0.0
  0
VERTEX
  5
2C3
  8
CAMADA_1
 62
   250
 10
-21.2577
 20
-66.6563
 30
0.0
  0
VERTEX
  5
2C4
  8
CAMADA_1
 62
   250
 10
-21.2474
 20
-67.3161
 30
0.0
  0
VERTEX
  5
2C5
  8
CAMADA_1
 62
   250
 10
-21.1245
 20
-67.8976
 30
0.0
  0
VERTEX
  5
2C6
  8
CAMADA_1
 62
   250
 10
-20.8896
 20
-68.4046
 30
0.0
  0
VERTEX
  5
2C7
  8
CAMADA_1
 62
   250
 10
-20.5431
 20
-68.8413
 30
0.0
  0
VERTEX
  5
2C8
  8
CAMADA_1
 62
   250
 10
-20.0854
 20
-69.2118
 30
0.0
  0
VERTEX
  5
2C9
  8
CAMADA_1
 62
   250
 10
-19.5171
 20
-69.5202
 30
0.0
  0
VERTEX
  5
2CA
  8
CAMADA_1
 62
   250
 10
-18.8387
 20
-69.7705
 30
0.0
  0
VERTEX
  5
2CB
  8
CAMADA_1
 62
   250
 10
-18.7525
 20
-70.2239
 30
0.0
  0
VERTEX
  5
2CC
  8
CAMADA_1
 62
   250
 10
-18.6899
 20
-70.6758
 30
0.0
  0
VERTEX
  5
2CD
  8
CAMADA_1
 62
   250
 10
-18.6526
 20
-71.128
 30
0.0
  0
VERTEX
  5
2CE
  8
CAMADA_1
 62
   250
 10
-18.642
 20
-71.5822
 30
0.0
  0
VERTEX
  5
2CF
  8
CAMADA_1
 62
   250
 10
-18.6597
 20
-72.04
 30
0.0
  0
VERTEX
  5
2D0
  8
CAMADA_1
 62
   250
 10
-18.7073
 20
-72.5032
 30
0.0
  0
VERTEX
  5
2D1
  8
CAMADA_1
 62
   250
 10
-18.7862
 20
-72.9735
 30
0.0
  0
VERTEX
  5
2D2
  8
CAMADA_1
 62
   250
 10
-18.8981
 20
-73.4526
 30
0.0
  0
VERTEX
  5
2D3
  8
CAMADA_1
 62
   250
 10
-19.6087
 20
-73.7473
 30
0.0
  0
VERTEX
  5
2D4
  8
CAMADA_1
 62
   250
 10
-20.1758
 20
-74.0898
 30
0.0
  0
VERTEX
  5
2D5
  8
CAMADA_1
 62
   250
 10
-20.6096
 20
-74.4845
 30
0.0
  0
VERTEX
  5
2D6
  8
CAMADA_1
 62
   250
 10
-20.9205
 20
-74.9355
 30
0.0
  0
VERTEX
  5
2D7
  8
CAMADA_1
 62
   250
 10
-21.1186
 20
-75.4474
 30
0.0
  0
VERTEX
  5
2D8
  8
CAMADA_1
 62
   250
 10
-21.2144
 20
-76.0243
 30
0.0
  0
VERTEX
  5
2D9
  8
CAMADA_1
 62
   250
 10
-21.2181
 20
-76.6707
 30
0.0
  0
VERTEX
  5
2DA
  8
CAMADA_1
 62
   250
 10
-21.1399
 20
-77.3909
 30
0.0
  0
VERTEX
  5
2DB
  8
CAMADA_1
 62
   250
 10
-22.0053
 20
-78.04
 30
0.0
  0
VERTEX
  5
2DC
  8
CAMADA_1
 62
   250
 10
-23.3677
 20
-75.7736
 30
0.0
  0
VERTEX
  5
2DD
  8
CAMADA_1
 62
   250
 10
-23.3677
 20
-75.7736
 30
0.0
  0
SEQEND
  5
2DE
  8
CAMADA_1
 62
   250
  0
POLYLINE
  5
4F
  8
CAMADA_1
 62
   250
 66
     1
 10
0.0
 20
0.0
 30
0.0
 70
     1
  0
VERTEX
  5
2DF
  8
CAMADA_1
 62
   250
 10
-28.7706
 20
-72.7882
 30
0.0
  0
VERTEX
  5
2E0
  8
CAMADA_1
 62
   250
 10
-28.9714
 20
-72.325
 30
0.0
  0
VERTEX
  5
2E1
  8
CAMADA_1
 62
   250
 10
-29.0728
 20
-71.8457
 30
0.0
  0
VERTEX
  5
2E2
  8
CAMADA_1
 62
   250
 10
-29.0787
 20
-71.364
 30
0.0
  0
VERTEX
  5
2E3
  8
CAMADA_1
 62
   250
 10
-28.9929
 20
-70.8935
 30
0.0
  0
VERTEX
  5
2E4
  8
CAMADA_1
 62
   250
 10
-28.8194
 20
-70.4478
 30
0.0
  0
VERTEX
  5
2E5
  8
CAMADA_1
 62
   250
 10
-28.5619
 20
-70.0407
 30
0.0
  0
VERTEX
  5
2E6
  8
CAMADA_1
 62
   250
 10
-28.2243
 20
-69.6856
 30
0.0
  0
VERTEX
  5
2E7
  8
CAMADA_1
 62
   250
 10
-27.8105
 20
-69.3964
 30
0.0
  0
VERTEX
  5
2E8
  8
CAMADA_1
 62
   250
 10
-27.3473
 20
-69.1956
 30
0.0
  0
VERTEX
  5
2E9
  8
CAMADA_1
 62
   250
 10
-26.868
 20
-69.0942
 30
0.0
  0
VERTEX
  5
2EA
  8
CAMADA_1
 62
   250
 10
-26.3863
 20
-69.0883
 30
0.0
  0
VERTEX
  5
2EB
  8
CAMADA_1
 62
   250
 10
-25.9158
 20
-69.1741
 30
0.0
  0
VERTEX
  5
2EC
  8
CAMADA_1
 62
   250
 10
-25.4701
 20
-69.3476
 30
0.0
  0
VERTEX
  5
2ED
  8
CAMADA_1
 62
   250
 10
-25.0629
 20
-69.6051
 30
0.0
  0
VERTEX
  5
2EE
  8
CAMADA_1
 62
   250
 10
-24.7079
 20
-69.9427
 30
0.0
  0
VERTEX
  5
2EF
  8
CAMADA_1
 62
   250
 10
-24.4187
 20
-70.3565
 30
0.0
  0
VERTEX
  5
2F0
  8
CAMADA_1
 62
   250
 10
-24.2179
 20
-70.8197
 30
0.0
  0
VERTEX
  5
2F1
  8
CAMADA_1
 62
   250
 10
-24.1164
 20
-71.2989
 30
0.0
  0
VERTEX
  5
2F2
  8
CAMADA_1
 62
   250
 10
-24.1106
 20
-71.7807
 30
0.0
  0
VERTEX
  5
2F3
  8
CAMADA_1
 62
   250
 10
-24.1963
 20
-72.2512
 30
0.0
  0
VERTEX
  5
2F4
  8
CAMADA_1
 62
   250
 10
-24.3699
 20
-72.6969
 30
0.0
  0
VERTEX
  5
2F5
  8
CAMADA_1
 62
   250
 10
-24.6274
 20
-73.104
 30
0.0
  0
VERTEX
  5
2F6
  8
CAMADA_1
 62
   250
 10
-24.965
 20
-73.4591
 30
0.0
  0
VERTEX
  5
2F7
  8
CAMADA_1
 62
   250
 10
-25.3788
 20
-73.7483
 30
0.0
  0
VERTEX
  5
2F8
  8
CAMADA_1
 62
   250
 10
-25.8419
 20
-73.9491
 30
0.0
  0
VERTEX
  5
2F9
  8
CAMADA_1
 62
   250
 10
-26.3212
 20
-74.0505
 30
0.0
  0
VERTEX
  5
2FA
  8
CAMADA_1
 62
   250
 10
-26.8029
 20
-74.0564
 30
0.0
  0
VERTEX
  5
2FB
  8
CAMADA_1
 62
   250
 10
-27.2735
 20
-73.9706
 30
0.0
  0
VERTEX
  5
2FC
  8
CAMADA_1
 62
   250
 10
-27.7191
 20
-73.7971
 30
0.0
  0
VERTEX
  5
2FD
  8
CAMADA_1
 62
   250
 10
-28.1263
 20
-73.5396
 30
0.0
  0
VERTEX
  5
2FE
  8
CAMADA_1
 62
   250
 10
-28.4814
 20
-73.202
 30
0.0
  0
VERTEX
  5
2FF
  8
CAMADA_1
 62
   250
 10
-28.7706
 20
-72.7882
 30
0.0
  0
VERTEX
  5
300
  8
CAMADA_1
 62
   250
 10
-28.7706
 20
-72.7882
 30
0.0
  0
SEQEND
  5
301
  8
CAMADA_1
 62
   250
  0
POLYLINE
  5
50
  8
CAMADA_1
 62
   250
 66
     1
 10
0.0
 20
0.0
 30
0.0
 70
     1
  0
VERTEX
  5
302
  8
CAMADA_1
 62
   250
 10
-99.4339
 20
-8.115
 30
0.0
  0
VERTEX
  5
303
  8
CAMADA_1
 62
   250
 10
-100.0036
 20
-8.6383
 30
0.0
  0
VERTEX
  5
304
  8
CAMADA_1
 62
   250
 10
-100.522
 20
-9.2136
 30
0.0
  0
VERTEX
  5
305
  8
CAMADA_1
 62
   250
 10
-100.9848
 20
-9.836
 30
0.0
  0
VERTEX
  5
306
  8
CAMADA_1
 62
   250
 10
-101.3879
 20
-10.5011
 30
0.0
  0
VERTEX
  5
307
  8
CAMADA_1
 62
   250
 10
-101.7274
 20
-11.2041
 30
0.0
  0
VERTEX
  5
308
  8
CAMADA_1
 62
   250
 10
-101.9989
 20
-11.9404
 30
0.0
  0
VERTEX
  5
309
  8
CAMADA_1
 62
   250
 10
-102.1984
 20
-12.7052
 30
0.0
  0
VERTEX
  5
30A
  8
CAMADA_1
 62
   250
 10
-102.3218
 20
-13.4941
 30
0.0
  0
VERTEX
  5
30B
  8
CAMADA_1
 62
   250
 10
-99.6526
 20
-13.4941
 30
0.0
  0
VERTEX
  5
30C
  8
CAMADA_1
 62
   250
 10
-99.6526
 20
-14.8109
 30
0.0
  0
VERTEX
  5
30D
  8
CAMADA_1
 62
   250
 10
-102.3218
 20
-14.8109
 30
0.0
  0
VERTEX
  5
30E
  8
CAMADA_1
 62
   250
 10
-102.043
 20
-16.2663
 30
0.0
  0
VERTEX
  5
30F
  8
CAMADA_1
 62
   250
 10
-101.5107
 20
-17.6217
 30
0.0
  0
VERTEX
  5
310
  8
CAMADA_1
 62
   250
 10
-100.7515
 20
-18.8481
 30
0.0
  0
VERTEX
  5
311
  8
CAMADA_1
 62
   250
 10
-99.792
 20
-19.9166
 30
0.0
  0
VERTEX
  5
312
  8
CAMADA_1
 62
   250
 10
-98.6588
 20
-20.7981
 30
0.0
  0
VERTEX
  5
313
  8
CAMADA_1
 62
   250
 10
-97.3784
 20
-21.4636
 30
0.0
  0
VERTEX
  5
314
  8
CAMADA_1
 62
   250
 10
-95.9773
 20
-21.8842
 30
0.0
  0
VERTEX
  5
315
  8
CAMADA_1
 62
   250
 10
-94.4823
 20
-22.0309
 30
0.0
  0
VERTEX
  5
316
  8
CAMADA_1
 62
   250
 10
-94.0371
 20
-22.0157
 30
0.0
  0
VERTEX
  5
317
  8
CAMADA_1
 62
   250
 10
-93.5941
 20
-21.9715
 30
0.0
  0
VERTEX
  5
318
  8
CAMADA_1
 62
   250
 10
-93.1551
 20
-21.9007
 30
0.0
  0
VERTEX
  5
319
  8
CAMADA_1
 62
   250
 10
-92.7224
 20
-21.8056
 30
0.0
  0
VERTEX
  5
31A
  8
CAMADA_1
 62
   250
 10
-92.2981
 20
-21.6883
 30
0.0
  0
VERTEX
  5
31B
  8
CAMADA_1
 62
   250
 10
-91.8842
 20
-21.5512
 30
0.0
  0
VERTEX
  5
31C
  8
CAMADA_1
 62
   250
 10
-91.4829
 20
-21.3965
 30
0.0
  0
VERTEX
  5
31D
  8
CAMADA_1
 62
   250
 10
-91.0961
 20
-21.2266
 30
0.0
  0
VERTEX
  5
31E
  8
CAMADA_1
 62
   250
 10
-92.3971
 20
-18.9853
 30
0.0
  0
VERTEX
  5
31F
  8
CAMADA_1
 62
   250
 10
-91.286
 20
-18.3428
 30
0.0
  0
VERTEX
  5
320
  8
CAMADA_1
 62
   250
 10
-89.9527
 20
-20.5815
 30
0.0
  0
VERTEX
  5
321
  8
CAMADA_1
 62
   250
 10
-89.2457
 20
-20.0021
 30
0.0
  0
VERTEX
  5
322
  8
CAMADA_1
 62
   250
 10
-88.6031
 20
-19.3426
 30
0.0
  0
VERTEX
  5
323
  8
CAMADA_1
 62
   250
 10
-88.0339
 20
-18.6111
 30
0.0
  0
VERTEX
  5
324
  8
CAMADA_1
 62
   250
 10
-87.5475
 20
-17.8159
 30
0.0
  0
VERTEX
  5
325
  8
CAMADA_1
 62
   250
 10
-87.1531
 20
-16.9653
 30
0.0
  0
VERTEX
  5
326
  8
CAMADA_1
 62
   250
 10
-86.8599
 20
-16.0674
 30
0.0
  0
VERTEX
  5
327
  8
CAMADA_1
 62
   250
 10
-86.6772
 20
-15.1305
 30
0.0
  0
VERTEX
  5
328
  8
CAMADA_1
 62
   250
 10
-86.6143
 20
-14.1629
 30
0.0
  0
VERTEX
  5
329
  8
CAMADA_1
 62
   250
 10
-86.6754
 20
-13.2019
 30
0.0
  0
VERTEX
  5
32A
  8
CAMADA_1
 62
   250
 10
-86.8531
 20
-12.2724
 30
0.0
  0
VERTEX
  5
32B
  8
CAMADA_1
 62
   250
 10
-87.1388
 20
-11.3819
 30
0.0
  0
VERTEX
  5
32C
  8
CAMADA_1
 62
   250
 10
-87.5241
 20
-10.5383
 30
0.0
  0
VERTEX
  5
32D
  8
CAMADA_1
 62
   250
 10
-88.0003
 20
-9.7493
 30
0.0
  0
VERTEX
  5
32E
  8
CAMADA_1
 62
   250
 10
-88.5591
 20
-9.0226
 30
0.0
  0
VERTEX
  5
32F
  8
CAMADA_1
 62
   250
 10
-89.1917
 20
-8.366
 30
0.0
  0
VERTEX
  5
330
  8
CAMADA_1
 62
   250
 10
-89.8898
 20
-7.7872
 30
0.0
  0
VERTEX
  5
331
  8
CAMADA_1
 62
   250
 10
-91.2802
 20
-10.0658
 30
0.0
  0
VERTEX
  5
332
  8
CAMADA_1
 62
   250
 10
-92.4043
 20
-9.38
 30
0.0
  0
VERTEX
  5
333
  8
CAMADA_1
 62
   250
 10
-91.014
 20
-7.1013
 30
0.0
  0
VERTEX
  5
334
  8
CAMADA_1
 62
   250
 10
-91.4072
 20
-6.9269
 30
0.0
  0
VERTEX
  5
335
  8
CAMADA_1
 62
   250
 10
-91.8176
 20
-6.7699
 30
0.0
  0
VERTEX
  5
336
  8
CAMADA_1
 62
   250
 10
-92.2424
 20
-6.6322
 30
0.0
  0
VERTEX
  5
337
  8
CAMADA_1
 62
   250
 10
-92.6787
 20
-6.5156
 30
0.0
  0
VERTEX
  5
338
  8
CAMADA_1
 62
   250
 10
-93.1237
 20
-6.4217
 30
0.0
  0
VERTEX
  5
339
  8
CAMADA_1
 62
   250
 10
-93.5745
 20
-6.3524
 30
0.0
  0
VERTEX
  5
33A
  8
CAMADA_1
 62
   250
 10
-94.0284
 20
-6.3095
 30
0.0
  0
VERTEX
  5
33B
  8
CAMADA_1
 62
   250
 10
-94.4823
 20
-6.2948
 30
0.0
  0
VERTEX
  5
33C
  8
CAMADA_1
 62
   250
 10
-95.1773
 20
-6.3266
 30
0.0
  0
VERTEX
  5
33D
  8
CAMADA_1
 62
   250
 10
-95.8557
 20
-6.4202
 30
0.0
  0
VERTEX
  5
33E
  8
CAMADA_1
 62
   250
 10
-96.515
 20
-6.5726
 30
0.0
  0
VERTEX
  5
33F
  8
CAMADA_1
 62
   250
 10
-97.1525
 20
-6.781
 30
0.0
  0
VERTEX
  5
340
  8
CAMADA_1
 62
   250
 10
-97.7657
 20
-7.0422
 30
0.0
  0
VERTEX
  5
341
  8
CAMADA_1
 62
   250
 10
-98.3521
 20
-7.3536
 30
0.0
  0
VERTEX
  5
342
  8
CAMADA_1
 62
   250
 10
-98.909
 20
-7.7122
 30
0.0
  0
VERTEX
  5
343
  8
CAMADA_1
 62
   250
 10
-99.4339
 20
-8.115
 30
0.0
  0
VERTEX
  5
344
  8
CAMADA_1
 62
   250
 10
-99.4339
 20
-8.115
 30
0.0
  0
SEQEND
  5
345
  8
CAMADA_1
 62
   250
  0
POLYLINE
  5
51
  8
CAMADA_1
 62
   250
 66
     1
 10
0.0
 20
0.0
 30
0.0
 70
     1
  0
VERTEX
  5
346
  8
CAMADA_1
 62
   250
 10
-94.3842
 20
-11.6803
 30
0.0
  0
VERTEX
  5
347
  8
CAMADA_1
 62
   250
 10
-93.8819
 20
-11.7309
 30
0.0
  0
VERTEX
  5
348
  8
CAMADA_1
 62
   250
 10
-93.4141
 20
-11.8762
 30
0.0
  0
VERTEX
  5
349
  8
CAMADA_1
 62
   250
 10
-92.9907
 20
-12.1061
 30
0.0
  0
VERTEX
  5
34A
  8
CAMADA_1
 62
   250
 10
-92.6218
 20
-12.4104
 30
0.0
  0
VERTEX
  5
34B
  8
CAMADA_1
 62
   250
 10
-92.3174
 20
-12.7794
 30
0.0
  0
VERTEX
  5
34C
  8
CAMADA_1
 62
   250
 10
-92.0875
 20
-13.2028
 30
0.0
  0
VERTEX
  5
34D
  8
CAMADA_1
 62
   250
 10
-91.9422
 20
-13.6706
 30
0.0
  0
VERTEX
  5
34E
  8
CAMADA_1
 62
   250
 10
-91.8916
 20
-14.1729
 30
0.0
  0
VERTEX
  5
34F
  8
CAMADA_1
 62
   250
 10
-91.9422
 20
-14.6752
 30
0.0
  0
VERTEX
  5
350
  8
CAMADA_1
 62
   250
 10
-92.0875
 20
-15.143
 30
0.0
  0
VERTEX
  5
351
  8
CAMADA_1
 62
   250
 10
-92.3174
 20
-15.5664
 30
0.0
  0
VERTEX
  5
352
  8
CAMADA_1
 62
   250
 10
-92.6218
 20
-15.9354
 30
0.0
  0
VERTEX
  5
353
  8
CAMADA_1
 62
   250
 10
-92.9907
 20
-16.2397
 30
0.0
  0
VERTEX
  5
354
  8
CAMADA_1
 62
   250
 10
-93.4141
 20
-16.4696
 30
0.0
  0
VERTEX
  5
355
  8
CAMADA_1
 62
   250
 10
-93.8819
 20
-16.6149
 30
0.0
  0
VERTEX
  5
356
  8
CAMADA_1
 62
   250
 10
-94.3842
 20
-16.6655
 30
0.0
  0
VERTEX
  5
357
  8
CAMADA_1
 62
   250
 10
-94.8865
 20
-16.6149
 30
0.0
  0
VERTEX
  5
358
  8
CAMADA_1
 62
   250
 10
-95.3544
 20
-16.4696
 30
0.0
  0
VERTEX
  5
359
  8
CAMADA_1
 62
   250
 10
-95.7778
 20
-16.2397
 30
0.0
  0
VERTEX
  5
35A
  8
CAMADA_1
 62
   250
 10
-96.1467
 20
-15.9354
 30
0.0
  0
VERTEX
  5
35B
  8
CAMADA_1
 62
   250
 10
-96.4511
 20
-15.5664
 30
0.0
  0
VERTEX
  5
35C
  8
CAMADA_1
 62
   250
 10
-96.681
 20
-15.143
 30
0.0
  0
VERTEX
  5
35D
  8
CAMADA_1
 62
   250
 10
-96.8262
 20
-14.6752
 30
0.0
  0
VERTEX
  5
35E
  8
CAMADA_1
 62
   250
 10
-96.8769
 20
-14.1729
 30
0.0
  0
VERTEX
  5
35F
  8
CAMADA_1
 62
   250
 10
-96.8262
 20
-13.6706
 30
0.0
  0
VERTEX
  5
360
  8
CAMADA_1
 62
   250
 10
-96.681
 20
-13.2028
 30
0.0
  0
VERTEX
  5
361
  8
CAMADA_1
 62
   250
 10
-96.4511
 20
-12.7794
 30
0.0
  0
VERTEX
  5
362
  8
CAMADA_1
 62
   250
 10
-96.1467
 20
-12.4104
 30
0.0
  0
VERTEX
  5
363
  8
CAMADA_1
 62
   250
 10
-95.7778
 20
-12.1061
 30
0.0
  0
VERTEX
  5
364
  8
CAMADA_1
 62
   250
 10
-95.3544
 20
-11.8762
 30
0.0
  0
VERTEX
  5
365
  8
CAMADA_1
 62
   250
 10
-94.8865
 20
-11.7309
 30
0.0
  0
VERTEX
  5
366
  8
CAMADA_1
 62
   250
 10
-94.3842
 20
-11.6803
 30
0.0
  0
VERTEX
  5
367
  8
CAMADA_1
 62
   250
 10
-94.3842
 20
-11.6803
 30
0.0
  0
SEQEND
  5
368
  8
CAMADA_1
 62
   250
  0
POLYLINE
  5
52
  8
CAMADA_1
 62
   250
 66
     1
 10
0.0
 20
0.0
 30
0.0
 70
     1
  0
VERTEX
  5
369
  8
CAMADA_1
 62
   250
 10
-110.9129
 20
-38.9569
 30
0.0
  0
VERTEX
  5
36A
  8
CAMADA_1
 62
   250
 10
-111.4827
 20
-39.4802
 30
0.0
  0
VERTEX
  5
36B
  8
CAMADA_1
 62
   250
 10
-112.0011
 20
-40.0555
 30
0.0
  0
VERTEX
  5
36C
  8
CAMADA_1
 62
   250
 10
-112.4639
 20
-40.678
 30
0.0
  0
VERTEX
  5
36D
  8
CAMADA_1
 62
   250
 10
-112.867
 20
-41.343
 30
0.0
  0
VERTEX
  5
36E
  8
CAMADA_1
 62
   250
 10
-113.2065
 20
-42.046
 30
0.0
  0
VERTEX
  5
36F
  8
CAMADA_1
 62
   250
 10
-113.478
 20
-42.7823
 30
0.0
  0
VERTEX
  5
370
  8
CAMADA_1
 62
   250
 10
-113.6775
 20
-43.5472
 30
0.0
  0
VERTEX
  5
371
  8
CAMADA_1
 62
   250
 10
-113.8009
 20
-44.336
 30
0.0
  0
VERTEX
  5
372
  8
CAMADA_1
 62
   250
 10
-111.1316
 20
-44.336
 30
0.0
  0
VERTEX
  5
373
  8
CAMADA_1
 62
   250
 10
-111.1316
 20
-45.6529
 30
0.0
  0
VERTEX
  5
374
  8
CAMADA_1
 62
   250
 10
-113.8009
 20
-45.6529
 30
0.0
  0
VERTEX
  5
375
  8
CAMADA_1
 62
   250
 10
-113.522
 20
-47.1082
 30
0.0
  0
VERTEX
  5
376
  8
CAMADA_1
 62
   250
 10
-112.9898
 20
-48.4636
 30
0.0
  0
VERTEX
  5
377
  8
CAMADA_1
 62
   250
 10
-112.2306
 20
-49.69
 30
0.0
  0
VERTEX
  5
378
  8
CAMADA_1
 62
   250
 10
-111.2711
 20
-50.7585
 30
0.0
  0
VERTEX
  5
379
  8
CAMADA_1
 62
   250
 10
-110.1378
 20
-51.64
 30
0.0
  0
VERTEX
  5
37A
  8
CAMADA_1
 62
   250
 10
-108.8575
 20
-52.3056
 30
0.0
  0
VERTEX
  5
37B
  8
CAMADA_1
 62
   250
 10
-107.4564
 20
-52.7261
 30
0.0
  0
VERTEX
  5
37C
  8
CAMADA_1
 62
   250
 10
-105.9614
 20
-52.8728
 30
0.0
  0
VERTEX
  5
37D
  8
CAMADA_1
 62
   250
 10
-105.5162
 20
-52.8576
 30
0.0
  0
VERTEX
  5
37E
  8
CAMADA_1
 62
   250
 10
-105.0731
 20
-52.8135
 30
0.0
  0
VERTEX
  5
37F
  8
CAMADA_1
 62
   250
 10
-104.6342
 20
-52.7427
 30
0.0
  0
VERTEX
  5
380
  8
CAMADA_1
 62
   250
 10
-104.2015
 20
-52.6475
 30
0.0
  0
VERTEX
  5
381
  8
CAMADA_1
 62
   250
 10
-103.7772
 20
-52.5302
 30
0.0
  0
VERTEX
  5
382
  8
CAMADA_1
 62
   250
 10
-103.3633
 20
-52.3931
 30
0.0
  0
VERTEX
  5
383
  8
CAMADA_1
 62
   250
 10
-102.9619
 20
-52.2385
 30
0.0
  0
VERTEX
  5
384
  8
CAMADA_1
 62
   250
 10
-102.5752
 20
-52.0685
 30
0.0
  0
VERTEX
  5
385
  8
CAMADA_1
 62
   250
 10
-103.8762
 20
-49.8272
 30
0.0
  0
VERTEX
  5
386
  8
CAMADA_1
 62
   250
 10
-102.7651
 20
-49.1847
 30
0.0
  0
VERTEX
  5
387
  8
CAMADA_1
 62
   250
 10
-101.4317
 20
-51.4234
 30
0.0
  0
VERTEX
  5
388
  8
CAMADA_1
 62
   250
 10
-100.7248
 20
-50.8441
 30
0.0
  0
VERTEX
  5
389
  8
CAMADA_1
 62
   250
 10
-100.0822
 20
-50.1845
 30
0.0
  0
VERTEX
  5
38A
  8
CAMADA_1
 62
   250
 10
-99.513
 20
-49.453
 30
0.0
  0
VERTEX
  5
38B
  8
CAMADA_1
 62
   250
 10
-99.0266
 20
-48.6578
 30
0.0
  0
VERTEX
  5
38C
  8
CAMADA_1
 62
   250
 10
-98.6322
 20
-47.8072
 30
0.0
  0
VERTEX
  5
38D
  8
CAMADA_1
 62
   250
 10
-98.339
 20
-46.9093
 30
0.0
  0
VERTEX
  5
38E
  8
CAMADA_1
 62
   250
 10
-98.1563
 20
-45.9724
 30
0.0
  0
VERTEX
  5
38F
  8
CAMADA_1
 62
   250
 10
-98.0933
 20
-45.0048
 30
0.0
  0
VERTEX
  5
390
  8
CAMADA_1
 62
   250
 10
-98.1545
 20
-44.0438
 30
0.0
  0
VERTEX
  5
391
  8
CAMADA_1
 62
   250
 10
-98.3322
 20
-43.1143
 30
0.0
  0
VERTEX
  5
392
  8
CAMADA_1
 62
   250
 10
-98.6179
 20
-42.2238
 30
0.0
  0
VERTEX
  5
393
  8
CAMADA_1
 62
   250
 10
-99.0032
 20
-41.3802
 30
0.0
  0
VERTEX
  5
394
  8
CAMADA_1
 62
   250
 10
-99.4794
 20
-40.5912
 30
0.0
  0
VERTEX
  5
395
  8
CAMADA_1
 62
   250
 10
-100.0382
 20
-39.8645
 30
0.0
  0
VERTEX
  5
396
  8
CAMADA_1
 62
   250
 10
-100.6708
 20
-39.2079
 30
0.0
  0
VERTEX
  5
397
  8
CAMADA_1
 62
   250
 10
-101.3689
 20
-38.6291
 30
0.0
  0
VERTEX
  5
398
  8
CAMADA_1
 62
   250
 10
-102.7592
 20
-40.9078
 30
0.0
  0
VERTEX
  5
399
  8
CAMADA_1
 62
   250
 10
-103.8833
 20
-40.2219
 30
0.0
  0
VERTEX
  5
39A
  8
CAMADA_1
 62
   250
 10
-102.4931
 20
-37.9432
 30
0.0
  0
VERTEX
  5
39B
  8
CAMADA_1
 62
   250
 10
-102.8863
 20
-37.7688
 30
0.0
  0
VERTEX
  5
39C
  8
CAMADA_1
 62
   250
 10
-103.2967
 20
-37.6119
 30
0.0
  0
VERTEX
  5
39D
  8
CAMADA_1
 62
   250
 10
-103.7215
 20
-37.4741
 30
0.0
  0
VERTEX
  5
39E
  8
CAMADA_1
 62
   250
 10
-104.1578
 20
-37.3575
 30
0.0
  0
VERTEX
  5
39F
  8
CAMADA_1
 62
   250
 10
-104.6028
 20
-37.2636
 30
0.0
  0
VERTEX
  5
3A0
  8
CAMADA_1
 62
   250
 10
-105.0536
 20
-37.1943
 30
0.0
  0
VERTEX
  5
3A1
  8
CAMADA_1
 62
   250
 10
-105.5075
 20
-37.1514
 30
0.0
  0
VERTEX
  5
3A2
  8
CAMADA_1
 62
   250
 10
-105.9614
 20
-37.1367
 30
0.0
  0
VERTEX
  5
3A3
  8
CAMADA_1
 62
   250
 10
-106.6564
 20
-37.1686
 30
0.0
  0
VERTEX
  5
3A4
  8
CAMADA_1
 62
   250
 10
-107.3348
 20
-37.2622
 30
0.0
  0
VERTEX
  5
3A5
  8
CAMADA_1
 62
   250
 10
-107.9941
 20
-37.4145
 30
0.0
  0
VERTEX
  5
3A6
  8
CAMADA_1
 62
   250
 10
-108.6316
 20
-37.6229
 30
0.0
  0
VERTEX
  5
3A7
  8
CAMADA_1
 62
   250
 10
-109.2448
 20
-37.8841
 30
0.0
  0
VERTEX
  5
3A8
  8
CAMADA_1
 62
   250
 10
-109.8311
 20
-38.1955
 30
0.0
  0
VERTEX
  5
3A9
  8
CAMADA_1
 62
   250
 10
-110.3881
 20
-38.5541
 30
0.0
  0
VERTEX
  5
3AA
  8
CAMADA_1
 62
   250
 10
-110.9129
 20
-38.9569
 30
0.0
  0
VERTEX
  5
3AB
  8
CAMADA_1
 62
   250
 10
-110.9129
 20
-38.9569
 30
0.0
  0
SEQEND
  5
3AC
  8
CAMADA_1
 62
   250
  0
POLYLINE
  5
53
  8
CAMADA_1
 62
   250
 66
     1
 10
0.0
 20
0.0
 30
0.0
 70
     1
  0
VERTEX
  5
3AD
  8
CAMADA_1
 62
   250
 10
-105.9471
 20
-42.5121
 30
0.0
  0
VERTEX
  5
3AE
  8
CAMADA_1
 62
   250
 10
-105.4448
 20
-42.5628
 30
0.0
  0
VERTEX
  5
3AF
  8
CAMADA_1
 62
   250
 10
-104.9769
 20
-42.708
 30
0.0
  0
VERTEX
  5
3B0
  8
CAMADA_1
 62
   250
 10
-104.5535
 20
-42.9379
 30
0.0
  0
VERTEX
  5
3B1
  8
CAMADA_1
 62
   250
 10
-104.1846
 20
-43.2423
 30
0.0
  0
VERTEX
  5
3B2
  8
CAMADA_1
 62
   250
 10
-103.8802
 20
-43.6112
 30
0.0
  0
VERTEX
  5
3B3
  8
CAMADA_1
 62
   250
 10
-103.6504
 20
-44.0346
 30
0.0
  0
VERTEX
  5
3B4
  8
CAMADA_1
 62
   250
 10
-103.5051
 20
-44.5025
 30
0.0
  0
VERTEX
  5
3B5
  8
CAMADA_1
 62
   250
 10
-103.4545
 20
-45.0048
 30
0.0
  0
VERTEX
  5
3B6
  8
CAMADA_1
 62
   250
 10
-103.5051
 20
-45.5071
 30
0.0
  0
VERTEX
  5
3B7
  8
CAMADA_1
 62
   250
 10
-103.6504
 20
-45.9749
 30
0.0
  0
VERTEX
  5
3B8
  8
CAMADA_1
 62
   250
 10
-103.8802
 20
-46.3983
 30
0.0
  0
VERTEX
  5
3B9
  8
CAMADA_1
 62
   250
 10
-104.1846
 20
-46.7673
 30
0.0
  0
VERTEX
  5
3BA
  8
CAMADA_1
 62
   250
 10
-104.5535
 20
-47.0716
 30
0.0
  0
VERTEX
  5
3BB
  8
CAMADA_1
 62
   250
 10
-104.9769
 20
-47.3015
 30
0.0
  0
VERTEX
  5
3BC
  8
CAMADA_1
 62
   250
 10
-105.4448
 20
-47.4468
 30
0.0
  0
VERTEX
  5
3BD
  8
CAMADA_1
 62
   250
 10
-105.9471
 20
-47.4974
 30
0.0
  0
VERTEX
  5
3BE
  8
CAMADA_1
 62
   250
 10
-106.4494
 20
-47.4468
 30
0.0
  0
VERTEX
  5
3BF
  8
CAMADA_1
 62
   250
 10
-106.9173
 20
-47.3015
 30
0.0
  0
VERTEX
  5
3C0
  8
CAMADA_1
 62
   250
 10
-107.3407
 20
-47.0716
 30
0.0
  0
VERTEX
  5
3C1
  8
CAMADA_1
 62
   250
 10
-107.7096
 20
-46.7673
 30
0.0
  0
VERTEX
  5
3C2
  8
CAMADA_1
 62
   250
 10
-108.014
 20
-46.3983
 30
0.0
  0
VERTEX
  5
3C3
  8
CAMADA_1
 62
   250
 10
-108.2438
 20
-45.9749
 30
0.0
  0
VERTEX
  5
3C4
  8
CAMADA_1
 62
   250
 10
-108.3891
 20
-45.5071
 30
0.0
  0
VERTEX
  5
3C5
  8
CAMADA_1
 62
   250
 10
-108.4397
 20
-45.0048
 30
0.0
  0
VERTEX
  5
3C6
  8
CAMADA_1
 62
   250
 10
-108.3891
 20
-44.5025
 30
0.0
  0
VERTEX
  5
3C7
  8
CAMADA_1
 62
   250
 10
-108.2438
 20
-44.0346
 30
0.0
  0
VERTEX
  5
3C8
  8
CAMADA_1
 62
   250
 10
-108.014
 20
-43.6112
 30
0.0
  0
VERTEX
  5
3C9
  8
CAMADA_1
 62
   250
 10
-107.7096
 20
-43.2423
 30
0.0
  0
VERTEX
  5
3CA
  8
CAMADA_1
 62
   250
 10
-107.3407
 20
-42.9379
 30
0.0
  0
VERTEX
  5
3CB
  8
CAMADA_1
 62
   250
 10
-106.9173
 20
-42.708
 30
0.0
  0
VERTEX
  5
3CC
  8
CAMADA_1
 62
   250
 10
-106.4494
 20
-42.5628
 30
0.0
  0
VERTEX
  5
3CD
  8
CAMADA_1
 62
   250
 10
-105.9471
 20
-42.5121
 30
0.0
  0
VERTEX
  5
3CE
  8
CAMADA_1
 62
   250
 10
-105.9471
 20
-42.5121
 30
0.0
  0
SEQEND
  5
3CF
  8
CAMADA_1
 62
   250
  0
POLYLINE
  5
54
  8
CAMADA_1
 62
   250
 66
     1
 10
0.0
 20
0.0
 30
0.0
 70
     1
  0
VERTEX
  5
3D0
  8
CAMADA_1
 62
   250
 10
-68.3363
 20
-51.221
 30
0.0
  0
VERTEX
  5
3D1
  8
CAMADA_1
 62
   250
 10
-68.3363
 20
-48.7794
 30
0.0
  0
VERTEX
  5
3D2
  8
CAMADA_1
 62
   250
 10
-69.5894
 20
-48.7794
 30
0.0
  0
VERTEX
  5
3D3
  8
CAMADA_1
 62
   250
 10
-69.5905
 20
-51.2336
 30
0.0
  0
VERTEX
  5
3D4
  8
CAMADA_1
 62
   250
 10
-70.0068
 20
-51.1428
 30
0.0
  0
VERTEX
  5
3D5
  8
CAMADA_1
 62
   250
 10
-70.3741
 20
-50.9875
 30
0.0
  0
VERTEX
  5
3D6
  8
CAMADA_1
 62
   250
 10
-70.6895
 20
-50.7683
 30
0.0
  0
VERTEX
  5
3D7
  8
CAMADA_1
 62
   250
 10
-70.9499
 20
-50.4854
 30
0.0
  0
VERTEX
  5
3D8
  8
CAMADA_1
 62
   250
 10
-71.1524
 20
-50.1394
 30
0.0
  0
VERTEX
  5
3D9
  8
CAMADA_1
 62
   250
 10
-71.2939
 20
-49.7306
 30
0.0
  0
VERTEX
  5
3DA
  8
CAMADA_1
 62
   250
 10
-71.3716
 20
-49.2594
 30
0.0
  0
VERTEX
  5
3DB
  8
CAMADA_1
 62
   250
 10
-71.3824
 20
-48.7263
 30
0.0
  0
VERTEX
  5
3DC
  8
CAMADA_1
 62
   250
 10
-71.2041
 20
-47.9886
 30
0.0
  0
VERTEX
  5
3DD
  8
CAMADA_1
 62
   250
 10
-70.8588
 20
-47.3968
 30
0.0
  0
VERTEX
  5
3DE
  8
CAMADA_1
 62
   250
 10
-70.3855
 20
-46.9527
 30
0.0
  0
VERTEX
  5
3DF
  8
CAMADA_1
 62
   250
 10
-69.8236
 20
-46.6578
 30
0.0
  0
VERTEX
  5
3E0
  8
CAMADA_1
 62
   250
 10
-69.2123
 20
-46.5136
 30
0.0
  0
VERTEX
  5
3E1
  8
CAMADA_1
 62
   250
 10
-68.5908
 20
-46.5218
 30
0.0
  0
VERTEX
  5
3E2
  8
CAMADA_1
 62
   250
 10
-67.9981
 20
-46.684
 30
0.0
  0
VERTEX
  5
3E3
  8
CAMADA_1
 62
   250
 10
-67.4737
 20
-47.0017
 30
0.0
  0
VERTEX
  5
3E4
  8
CAMADA_1
 62
   250
 10
-67.2203
 20
-47.2327
 30
0.0
  0
VERTEX
  5
3E5
  8
CAMADA_1
 62
   250
 10
-67.0043
 20
-47.4872
 30
0.0
  0
VERTEX
  5
3E6
  8
CAMADA_1
 62
   250
 10
-66.8279
 20
-47.7665
 30
0.0
  0
VERTEX
  5
3E7
  8
CAMADA_1
 62
   250
 10
-66.693
 20
-48.0721
 30
0.0
  0
VERTEX
  5
3E8
  8
CAMADA_1
 62
   250
 10
-66.6017
 20
-48.4051
 30
0.0
  0
VERTEX
  5
3E9
  8
CAMADA_1
 62
   250
 10
-66.556
 20
-48.7668
 30
0.0
  0
VERTEX
  5
3EA
  8
CAMADA_1
 62
   250
 10
-66.558
 20
-49.1585
 30
0.0
  0
VERTEX
  5
3EB
  8
CAMADA_1
 62
   250
 10
-66.6098
 20
-49.5816
 30
0.0
  0
VERTEX
  5
3EC
  8
CAMADA_1
 62
   250
 10
-66.7368
 20
-49.9522
 30
0.0
  0
VERTEX
  5
3ED
  8
CAMADA_1
 62
   250
 10
-66.8915
 20
-50.2712
 30
0.0
  0
VERTEX
  5
3EE
  8
CAMADA_1
 62
   250
 10
-67.0727
 20
-50.5408
 30
0.0
  0
VERTEX
  5
3EF
  8
CAMADA_1
 62
   250
 10
-67.2793
 20
-50.763
 30
0.0
  0
VERTEX
  5
3F0
  8
CAMADA_1
 62
   250
 10
-67.5101
 20
-50.94
 30
0.0
  0
VERTEX
  5
3F1
  8
CAMADA_1
 62
   250
 10
-67.7639
 20
-51.0739
 30
0.0
  0
VERTEX
  5
3F2
  8
CAMADA_1
 62
   250
 10
-68.0397
 20
-51.1669
 30
0.0
  0
VERTEX
  5
3F3
  8
CAMADA_1
 62
   250
 10
-68.3363
 20
-51.221
 30
0.0
  0
VERTEX
  5
3F4
  8
CAMADA_1
 62
   250
 10
-68.3363
 20
-51.221
 30
0.0
  0
SEQEND
  5
3F5
  8
CAMADA_1
 62
   250
  0
POLYLINE
  5
55
  8
CAMADA_1
 62
   250
 66
     1
 10
0.0
 20
0.0
 30
0.0
 70
     1
  0
VERTEX
  5
3F6
  8
CAMADA_1
 62
   250
 10
-76.1999
 20
-49.6639
 30
0.0
  0
VERTEX
  5
3F7
  8
CAMADA_1
 62
   250
 10
-76.1999
 20
-47.2223
 30
0.0
  0
VERTEX
  5
3F8
  8
CAMADA_1
 62
   250
 10
-77.4529
 20
-47.2223
 30
0.0
  0
VERTEX
  5
3F9
  8
CAMADA_1
 62
   250
 10
-77.454
 20
-49.6765
 30
0.0
  0
VERTEX
  5
3FA
  8
CAMADA_1
 62
   250
 10
-77.8703
 20
-49.5857
 30
0.0
  0
VERTEX
  5
3FB
  8
CAMADA_1
 62
   250
 10
-78.2376
 20
-49.4304
 30
0.0
  0
VERTEX
  5
3FC
  8
CAMADA_1
 62
   250
 10
-78.553
 20
-49.2112
 30
0.0
  0
VERTEX
  5
3FD
  8
CAMADA_1
 62
   250
 10
-78.8134
 20
-48.9283
 30
0.0
  0
VERTEX
  5
3FE
  8
CAMADA_1
 62
   250
 10
-79.0159
 20
-48.5822
 30
0.0
  0
VERTEX
  5
3FF
  8
CAMADA_1
 62
   250
 10
-79.1575
 20
-48.1734
 30
0.0
  0
VERTEX
  5
400
  8
CAMADA_1
 62
   250
 10
-79.2351
 20
-47.7023
 30
0.0
  0
VERTEX
  5
401
  8
CAMADA_1
 62
   250
 10
-79.2459
 20
-47.1692
 30
0.0
  0
VERTEX
  5
402
  8
CAMADA_1
 62
   250
 10
-79.0676
 20
-46.4315
 30
0.0
  0
VERTEX
  5
403
  8
CAMADA_1
 62
   250
 10
-78.7223
 20
-45.8397
 30
0.0
  0
VERTEX
  5
404
  8
CAMADA_1
 62
   250
 10
-78.2491
 20
-45.3956
 30
0.0
  0
VERTEX
  5
405
  8
CAMADA_1
 62
   250
 10
-77.6872
 20
-45.1007
 30
0.0
  0
VERTEX
  5
406
  8
CAMADA_1
 62
   250
 10
-77.0758
 20
-44.9565
 30
0.0
  0
VERTEX
  5
407
  8
CAMADA_1
 62
   250
 10
-76.4543
 20
-44.9647
 30
0.0
  0
VERTEX
  5
408
  8
CAMADA_1
 62
   250
 10
-75.8616
 20
-45.1269
 30
0.0
  0
VERTEX
  5
409
  8
CAMADA_1
 62
   250
 10
-75.3372
 20
-45.4446
 30
0.0
  0
VERTEX
  5
40A
  8
CAMADA_1
 62
   250
 10
-75.0838
 20
-45.6755
 30
0.0
  0
VERTEX
  5
40B
  8
CAMADA_1
 62
   250
 10
-74.8678
 20
-45.93
 30
0.0
  0
VERTEX
  5
40C
  8
CAMADA_1
 62
   250
 10
-74.6914
 20
-46.2094
 30
0.0
  0
VERTEX
  5
40D
  8
CAMADA_1
 62
   250
 10
-74.5565
 20
-46.515
 30
0.0
  0
VERTEX
  5
40E
  8
CAMADA_1
 62
   250
 10
-74.4652
 20
-46.8479
 30
0.0
  0
VERTEX
  5
40F
  8
CAMADA_1
 62
   250
 10
-74.4195
 20
-47.2096
 30
0.0
  0
VERTEX
  5
410
  8
CAMADA_1
 62
   250
 10
-74.4215
 20
-47.6014
 30
0.0
  0
VERTEX
  5
411
  8
CAMADA_1
 62
   250
 10
-74.4733
 20
-48.0244
 30
0.0
  0
VERTEX
  5
412
  8
CAMADA_1
 62
   250
 10
-74.6003
 20
-48.395
 30
0.0
  0
VERTEX
  5
413
  8
CAMADA_1
 62
   250
 10
-74.7551
 20
-48.7141
 30
0.0
  0
VERTEX
  5
414
  8
CAMADA_1
 62
   250
 10
-74.9363
 20
-48.9837
 30
0.0
  0
VERTEX
  5
415
  8
CAMADA_1
 62
   250
 10
-75.1428
 20
-49.2059
 30
0.0
  0
VERTEX
  5
416
  8
CAMADA_1
 62
   250
 10
-75.3736
 20
-49.3829
 30
0.0
  0
VERTEX
  5
417
  8
CAMADA_1
 62
   250
 10
-75.6274
 20
-49.5168
 30
0.0
  0
VERTEX
  5
418
  8
CAMADA_1
 62
   250
 10
-75.9033
 20
-49.6098
 30
0.0
  0
VERTEX
  5
419
  8
CAMADA_1
 62
   250
 10
-76.1999
 20
-49.6639
 30
0.0
  0
VERTEX
  5
41A
  8
CAMADA_1
 62
   250
 10
-76.1999
 20
-49.6639
 30
0.0
  0
SEQEND
  5
41B
  8
CAMADA_1
 62
   250
  0
POLYLINE
  5
56
  8
CAMADA_1
 62
   250
 66
     1
 10
0.0
 20
0.0
 30
0.0
 70
     1
  0
VERTEX
  5
41C
  8
CAMADA_1
 62
   250
 10
-84.4137
 20
-47.7953
 30
0.0
  0
VERTEX
  5
41D
  8
CAMADA_1
 62
   250
 10
-84.4137
 20
-45.3537
 30
0.0
  0
VERTEX
  5
41E
  8
CAMADA_1
 62
   250
 10
-85.6668
 20
-45.3537
 30
0.0
  0
VERTEX
  5
41F
  8
CAMADA_1
 62
   250
 10
-85.6679
 20
-47.8079
 30
0.0
  0
VERTEX
  5
420
  8
CAMADA_1
 62
   250
 10
-86.0841
 20
-47.7171
 30
0.0
  0
VERTEX
  5
421
  8
CAMADA_1
 62
   250
 10
-86.4515
 20
-47.5619
 30
0.0
  0
VERTEX
  5
422
  8
CAMADA_1
 62
   250
 10
-86.7669
 20
-47.3426
 30
0.0
  0
VERTEX
  5
423
  8
CAMADA_1
 62
   250
 10
-87.0273
 20
-47.0597
 30
0.0
  0
VERTEX
  5
424
  8
CAMADA_1
 62
   250
 10
-87.2298
 20
-46.7137
 30
0.0
  0
VERTEX
  5
425
  8
CAMADA_1
 62
   250
 10
-87.3713
 20
-46.3049
 30
0.0
  0
VERTEX
  5
426
  8
CAMADA_1
 62
   250
 10
-87.449
 20
-45.8337
 30
0.0
  0
VERTEX
  5
427
  8
CAMADA_1
 62
   250
 10
-87.4598
 20
-45.3006
 30
0.0
  0
VERTEX
  5
428
  8
CAMADA_1
 62
   250
 10
-87.2815
 20
-44.5629
 30
0.0
  0
VERTEX
  5
429
  8
CAMADA_1
 62
   250
 10
-86.9361
 20
-43.9711
 30
0.0
  0
VERTEX
  5
42A
  8
CAMADA_1
 62
   250
 10
-86.4629
 20
-43.527
 30
0.0
  0
VERTEX
  5
42B
  8
CAMADA_1
 62
   250
 10
-85.901
 20
-43.2321
 30
0.0
  0
VERTEX
  5
42C
  8
CAMADA_1
 62
   250
 10
-85.2897
 20
-43.0879
 30
0.0
  0
VERTEX
  5
42D
  8
CAMADA_1
 62
   250
 10
-84.6682
 20
-43.0962
 30
0.0
  0
VERTEX
  5
42E
  8
CAMADA_1
 62
   250
 10
-84.0755
 20
-43.2583
 30
0.0
  0
VERTEX
  5
42F
  8
CAMADA_1
 62
   250
 10
-83.5511
 20
-43.576
 30
0.0
  0
VERTEX
  5
430
  8
CAMADA_1
 62
   250
 10
-83.2977
 20
-43.807
 30
0.0
  0
VERTEX
  5
431
  8
CAMADA_1
 62
   250
 10
-83.0817
 20
-44.0615
 30
0.0
  0
VERTEX
  5
432
  8
CAMADA_1
 62
   250
 10
-82.9053
 20
-44.3408
 30
0.0
  0
VERTEX
  5
433
  8
CAMADA_1
 62
   250
 10
-82.7704
 20
-44.6464
 30
0.0
  0
VERTEX
  5
434
  8
CAMADA_1
 62
   250
 10
-82.679
 20
-44.9794
 30
0.0
  0
VERTEX
  5
435
  8
CAMADA_1
 62
   250
 10
-82.6334
 20
-45.3411
 30
0.0
  0
VERTEX
  5
436
  8
CAMADA_1
 62
   250
 10
-82.6354
 20
-45.7328
 30
0.0
  0
VERTEX
  5
437
  8
CAMADA_1
 62
   250
 10
-82.6871
 20
-46.1559
 30
0.0
  0
VERTEX
  5
438
  8
CAMADA_1
 62
   250
 10
-82.8142
 20
-46.5265
 30
0.0
  0
VERTEX
  5
439
  8
CAMADA_1
 62
   250
 10
-82.9689
 20
-46.8455
 30
0.0
  0
VERTEX
  5
43A
  8
CAMADA_1
 62
   250
 10
-83.1501
 20
-47.1151
 30
0.0
  0
VERTEX
  5
43B
  8
CAMADA_1
 62
   250
 10
-83.3567
 20
-47.3373
 30
0.0
  0
VERTEX
  5
43C
  8
CAMADA_1
 62
   250
 10
-83.5874
 20
-47.5143
 30
0.0
  0
VERTEX
  5
43D
  8
CAMADA_1
 62
   250
 10
-83.8413
 20
-47.6483
 30
0.0
  0
VERTEX
  5
43E
  8
CAMADA_1
 62
   250
 10
-84.1171
 20
-47.7412
 30
0.0
  0
VERTEX
  5
43F
  8
CAMADA_1
 62
   250
 10
-84.4137
 20
-47.7953
 30
0.0
  0
VERTEX
  5
440
  8
CAMADA_1
 62
   250
 10
-84.4137
 20
-47.7953
 30
0.0
  0
SEQEND
  5
441
  8
CAMADA_1
 62
   250
  0
POLYLINE
  5
57
  8
CAMADA_1
 62
   250
 66
     1
 10
0.0
 20
0.0
 30
0.0
 70
     1
  0
VERTEX
  5
442
  8
CAMADA_1
 62
   250
 10
-93.2853
 20
-38.5891
 30
0.0
  0
VERTEX
  5
443
  8
CAMADA_1
 62
   250
 10
-93.2904
 20
-37.7526
 30
0.0
  0
VERTEX
  5
444
  8
CAMADA_1
 62
   250
 10
-77.5532
 20
-37.7526
 30
0.0
  0
VERTEX
  5
445
  8
CAMADA_1
 62
   250
 10
-77.5532
 20
-40.3415
 30
0.0
  0
VERTEX
  5
446
  8
CAMADA_1
 62
   250
 10
-95.9254
 20
-40.3328
 30
0.0
  0
VERTEX
  5
447
  8
CAMADA_1
 62
   250
 10
-95.9078
 20
-38.5802
 30
0.0
  0
VERTEX
  5
448
  8
CAMADA_1
 62
   250
 10
-93.2853
 20
-38.5891
 30
0.0
  0
VERTEX
  5
449
  8
CAMADA_1
 62
   250
 10
-93.2853
 20
-38.5891
 30
0.0
  0
SEQEND
  5
44A
  8
CAMADA_1
 62
   250
  0
POLYLINE
  5
58
  8
CAMADA_1
 62
   250
 66
     1
 10
0.0
 20
0.0
 30
0.0
 70
     1
  0
VERTEX
  5
44B
  8
CAMADA_1
 62
   250
 10
-105.8903
 20
-70.5789
 30
0.0
  0
VERTEX
  5
44C
  8
CAMADA_1
 62
   250
 10
-101.4748
 20
-70.5789
 30
0.0
  0
VERTEX
  5
44D
  8
CAMADA_1
 62
   250
 10
-101.4748
 20
-71.9127
 30
0.0
  0
VERTEX
  5
44E
  8
CAMADA_1
 62
   250
 10
-105.8903
 20
-71.9127
 30
0.0
  0
VERTEX
  5
44F
  8
CAMADA_1
 62
   250
 10
-105.8903
 20
-70.5789
 30
0.0
  0
VERTEX
  5
450
  8
CAMADA_1
 62
   250
 10
-105.8903
 20
-70.5789
 30
0.0
  0
SEQEND
  5
451
  8
CAMADA_1
 62
   250
  0
POLYLINE
  5
59
  8
CAMADA_1
 62
   250
 66
     1
 10
0.0
 20
0.0
 30
0.0
 70
     1
  0
VERTEX
  5
452
  8
CAMADA_1
 62
   250
 10
-92.4119
 20
-69.967
 30
0.0
  0
VERTEX
  5
453
  8
CAMADA_1
 62
   250
 10
-92.1498
 20
-69.9935
 30
0.0
  0
VERTEX
  5
454
  8
CAMADA_1
 62
   250
 10
-91.9058
 20
-70.0693
 30
0.0
  0
VERTEX
  5
455
  8
CAMADA_1
 62
   250
 10
-91.6849
 20
-70.1892
 30
0.0
  0
VERTEX
  5
456
  8
CAMADA_1
 62
   250
 10
-91.4924
 20
-70.348
 30
0.0
  0
VERTEX
  5
457
  8
CAMADA_1
 62
   250
 10
-91.3337
 20
-70.5404
 30
0.0
  0
VERTEX
  5
458
  8
CAMADA_1
 62
   250
 10
-91.2137
 20
-70.7613
 30
0.0
  0
VERTEX
  5
459
  8
CAMADA_1
 62
   250
 10
-91.138
 20
-71.0055
 30
0.0
  0
VERTEX
  5
45A
  8
CAMADA_1
 62
   250
 10
-91.1115
 20
-71.2675
 30
0.0
  0
VERTEX
  5
45B
  8
CAMADA_1
 62
   250
 10
-91.138
 20
-71.5296
 30
0.0
  0
VERTEX
  5
45C
  8
CAMADA_1
 62
   250
 10
-91.2137
 20
-71.7737
 30
0.0
  0
VERTEX
  5
45D
  8
CAMADA_1
 62
   250
 10
-91.3337
 20
-71.9946
 30
0.0
  0
VERTEX
  5
45E
  8
CAMADA_1
 62
   250
 10
-91.4924
 20
-72.1871
 30
0.0
  0
VERTEX
  5
45F
  8
CAMADA_1
 62
   250
 10
-91.6849
 20
-72.3459
 30
0.0
  0
VERTEX
  5
460
  8
CAMADA_1
 62
   250
 10
-91.9058
 20
-72.4658
 30
0.0
  0
VERTEX
  5
461
  8
CAMADA_1
 62
   250
 10
-92.1498
 20
-72.5416
 30
0.0
  0
VERTEX
  5
462
  8
CAMADA_1
 62
   250
 10
-92.4119
 20
-72.568
 30
0.0
  0
VERTEX
  5
463
  8
CAMADA_1
 62
   250
 10
-92.6739
 20
-72.5416
 30
0.0
  0
VERTEX
  5
464
  8
CAMADA_1
 62
   250
 10
-92.9181
 20
-72.4658
 30
0.0
  0
VERTEX
  5
465
  8
CAMADA_1
 62
   250
 10
-93.1389
 20
-72.3459
 30
0.0
  0
VERTEX
  5
466
  8
CAMADA_1
 62
   250
 10
-93.3314
 20
-72.1871
 30
0.0
  0
VERTEX
  5
467
  8
CAMADA_1
 62
   250
 10
-93.4902
 20
-71.9946
 30
0.0
  0
VERTEX
  5
468
  8
CAMADA_1
 62
   250
 10
-93.6101
 20
-71.7737
 30
0.0
  0
VERTEX
  5
469
  8
CAMADA_1
 62
   250
 10
-93.6859
 20
-71.5296
 30
0.0
  0
VERTEX
  5
46A
  8
CAMADA_1
 62
   250
 10
-93.7123
 20
-71.2675
 30
0.0
  0
VERTEX
  5
46B
  8
CAMADA_1
 62
   250
 10
-93.6859
 20
-71.0055
 30
0.0
  0
VERTEX
  5
46C
  8
CAMADA_1
 62
   250
 10
-93.6101
 20
-70.7613
 30
0.0
  0
VERTEX
  5
46D
  8
CAMADA_1
 62
   250
 10
-93.4902
 20
-70.5404
 30
0.0
  0
VERTEX
  5
46E
  8
CAMADA_1
 62
   250
 10
-93.3314
 20
-70.348
 30
0.0
  0
VERTEX
  5
46F
  8
CAMADA_1
 62
   250
 10
-93.1389
 20
-70.1892
 30
0.0
  0
VERTEX
  5
470
  8
CAMADA_1
 62
   250
 10
-92.9181
 20
-70.0693
 30
0.0
  0
VERTEX
  5
471
  8
CAMADA_1
 62
   250
 10
-92.6739
 20
-69.9935
 30
0.0
  0
VERTEX
  5
472
  8
CAMADA_1
 62
   250
 10
-92.4119
 20
-69.967
 30
0.0
  0
VERTEX
  5
473
  8
CAMADA_1
 62
   250
 10
-92.4119
 20
-69.967
 30
0.0
  0
SEQEND
  5
474
  8
CAMADA_1
 62
   250
  0
POLYLINE
  5
5A
  8
CAMADA_1
 62
   250
 66
     1
 10
0.0
 20
0.0
 30
0.0
 70
     1
  0
VERTEX
  5
475
  8
CAMADA_1
 62
   250
 10
-95.9787
 20
-69.6448
 30
0.0
  0
VERTEX
  5
476
  8
CAMADA_1
 62
   250
 10
-95.4319
 20
-69.0598
 30
0.0
  0
VERTEX
  5
477
  8
CAMADA_1
 62
   250
 10
-94.8573
 20
-68.5898
 30
0.0
  0
VERTEX
  5
478
  8
CAMADA_1
 62
   250
 10
-94.2534
 20
-68.241
 30
0.0
  0
VERTEX
  5
479
  8
CAMADA_1
 62
   250
 10
-93.6189
 20
-68.0196
 30
0.0
  0
VERTEX
  5
47A
  8
CAMADA_1
 62
   250
 10
-92.952
 20
-67.932
 30
0.0
  0
VERTEX
  5
47B
  8
CAMADA_1
 62
   250
 10
-92.2513
 20
-67.9843
 30
0.0
  0
VERTEX
  5
47C
  8
CAMADA_1
 62
   250
 10
-91.5154
 20
-68.183
 30
0.0
  0
VERTEX
  5
47D
  8
CAMADA_1
 62
   250
 10
-90.7426
 20
-68.5341
 30
0.0
  0
VERTEX
  5
47E
  8
CAMADA_1
 62
   250
 10
-90.1384
 20
-69.1889
 30
0.0
  0
VERTEX
  5
47F
  8
CAMADA_1
 62
   250
 10
-89.7003
 20
-69.857
 30
0.0
  0
VERTEX
  5
480
  8
CAMADA_1
 62
   250
 10
-89.4281
 20
-70.5331
 30
0.0
  0
VERTEX
  5
481
  8
CAMADA_1
 62
   250
 10
-89.322
 20
-71.2121
 30
0.0
  0
VERTEX
  5
482
  8
CAMADA_1
 62
   250
 10
-89.3819
 20
-71.8889
 30
0.0
  0
VERTEX
  5
483
  8
CAMADA_1
 62
   250
 10
-89.6078
 20
-72.5581
 30
0.0
  0
VERTEX
  5
484
  8
CAMADA_1
 62
   250
 10
-89.9996
 20
-73.2147
 30
0.0
  0
VERTEX
  5
485
  8
CAMADA_1
 62
   250
 10
-90.5576
 20
-73.8534
 30
0.0
  0
VERTEX
  5
486
  8
CAMADA_1
 62
   250
 10
-91.1733
 20
-74.2469
 30
0.0
  0
VERTEX
  5
487
  8
CAMADA_1
 62
   250
 10
-91.8461
 20
-74.4984
 30
0.0
  0
VERTEX
  5
488
  8
CAMADA_1
 62
   250
 10
-92.5568
 20
-74.6068
 30
0.0
  0
VERTEX
  5
489
  8
CAMADA_1
 62
   250
 10
-93.2867
 20
-74.5715
 30
0.0
  0
VERTEX
  5
48A
  8
CAMADA_1
 62
   250
 10
-94.0165
 20
-74.3914
 30
0.0
  0
VERTEX
  5
48B
  8
CAMADA_1
 62
   250
 10
-94.7272
 20
-74.0658
 30
0.0
  0
VERTEX
  5
48C
  8
CAMADA_1
 62
   250
 10
-95.3999
 20
-73.5938
 30
0.0
  0
VERTEX
  5
48D
  8
CAMADA_1
 62
   250
 10
-96.0156
 20
-72.9745
 30
0.0
  0
VERTEX
  5
48E
  8
CAMADA_1
 62
   250
 10
-96.3964
 20
-74.1861
 30
0.0
  0
VERTEX
  5
48F
  8
CAMADA_1
 62
   250
 10
-96.9105
 20
-75.2789
 30
0.0
  0
VERTEX
  5
490
  8
CAMADA_1
 62
   250
 10
-97.5549
 20
-76.2479
 30
0.0
  0
VERTEX
  5
491
  8
CAMADA_1
 62
   250
 10
-98.3267
 20
-77.0881
 30
0.0
  0
VERTEX
  5
492
  8
CAMADA_1
 62
   250
 10
-99.2231
 20
-77.7946
 30
0.0
  0
VERTEX
  5
493
  8
CAMADA_1
 62
   250
 10
-100.241
 20
-78.3623
 30
0.0
  0
VERTEX
  5
494
  8
CAMADA_1
 62
   250
 10
-101.3776
 20
-78.7865
 30
0.0
  0
VERTEX
  5
495
  8
CAMADA_1
 62
   250
 10
-102.63
 20
-79.062
 30
0.0
  0
VERTEX
  5
496
  8
CAMADA_1
 62
   250
 10
-104.2206
 20
-79.0539
 30
0.0
  0
VERTEX
  5
497
  8
CAMADA_1
 62
   250
 10
-105.7321
 20
-78.7785
 30
0.0
  0
VERTEX
  5
498
  8
CAMADA_1
 62
   250
 10
-107.1369
 20
-78.242
 30
0.0
  0
VERTEX
  5
499
  8
CAMADA_1
 62
   250
 10
-108.4078
 20
-77.4506
 30
0.0
  0
VERTEX
  5
49A
  8
CAMADA_1
 62
   250
 10
-109.5173
 20
-76.4109
 30
0.0
  0
VERTEX
  5
49B
  8
CAMADA_1
 62
   250
 10
-110.438
 20
-75.1291
 30
0.0
  0
VERTEX
  5
49C
  8
CAMADA_1
 62
   250
 10
-111.1424
 20
-73.6115
 30
0.0
  0
VERTEX
  5
49D
  8
CAMADA_1
 62
   250
 10
-111.6033
 20
-71.8644
 30
0.0
  0
VERTEX
  5
49E
  8
CAMADA_1
 62
   250
 10
-112.749
 20
-71.8666
 30
0.0
  0
VERTEX
  5
49F
  8
CAMADA_1
 62
   250
 10
-112.9507
 20
-71.8451
 30
0.0
  0
VERTEX
  5
4A0
  8
CAMADA_1
 62
   250
 10
-113.1356
 20
-71.7984
 30
0.0
  0
VERTEX
  5
4A1
  8
CAMADA_1
 62
   250
 10
-113.3033
 20
-71.7257
 30
0.0
  0
VERTEX
  5
4A2
  8
CAMADA_1
 62
   250
 10
-113.4532
 20
-71.6264
 30
0.0
  0
VERTEX
  5
4A3
  8
CAMADA_1
 62
   250
 10
-113.585
 20
-71.5
 30
0.0
  0
VERTEX
  5
4A4
  8
CAMADA_1
 62
   250
 10
-113.6983
 20
-71.3458
 30
0.0
  0
VERTEX
  5
4A5
  8
CAMADA_1
 62
   250
 10
-113.7926
 20
-71.1631
 30
0.0
  0
VERTEX
  5
4A6
  8
CAMADA_1
 62
   250
 10
-113.8675
 20
-70.9514
 30
0.0
  0
VERTEX
  5
4A7
  8
CAMADA_1
 62
   250
 10
-113.8892
 20
-70.6675
 30
0.0
  0
VERTEX
  5
4A8
  8
CAMADA_1
 62
   250
 10
-113.907
 20
-70.3837
 30
0.0
  0
VERTEX
  5
4A9
  8
CAMADA_1
 62
   250
 10
-113.9207
 20
-70.0999
 30
0.0
  0
VERTEX
  5
4AA
  8
CAMADA_1
 62
   250
 10
-113.93
 20
-69.8161
 30
0.0
  0
VERTEX
  5
4AB
  8
CAMADA_1
 62
   250
 10
-113.9348
 20
-69.5323
 30
0.0
  0
VERTEX
  5
4AC
  8
CAMADA_1
 62
   250
 10
-113.9349
 20
-69.2485
 30
0.0
  0
VERTEX
  5
4AD
  8
CAMADA_1
 62
   250
 10
-113.9301
 20
-68.9647
 30
0.0
  0
VERTEX
  5
4AE
  8
CAMADA_1
 62
   250
 10
-113.92
 20
-68.6809
 30
0.0
  0
VERTEX
  5
4AF
  8
CAMADA_1
 62
   250
 10
-113.8956
 20
-68.5316
 30
0.0
  0
VERTEX
  5
4B0
  8
CAMADA_1
 62
   250
 10
-113.8418
 20
-68.3976
 30
0.0
  0
VERTEX
  5
4B1
  8
CAMADA_1
 62
   250
 10
-113.7613
 20
-68.2799
 30
0.0
  0
VERTEX
  5
4B2
  8
CAMADA_1
 62
   250
 10
-113.6563
 20
-68.1793
 30
0.0
  0
VERTEX
  5
4B3
  8
CAMADA_1
 62
   250
 10
-113.5295
 20
-68.0968
 30
0.0
  0
VERTEX
  5
4B4
  8
CAMADA_1
 62
   250
 10
-113.3831
 20
-68.033
 30
0.0
  0
VERTEX
  5
4B5
  8
CAMADA_1
 62
   250
 10
-113.2196
 20
-67.9889
 30
0.0
  0
VERTEX
  5
4B6
  8
CAMADA_1
 62
   250
 10
-113.0416
 20
-67.9654
 30
0.0
  0
VERTEX
  5
4B7
  8
CAMADA_1
 62
   250
 10
-110.7923
 20
-67.9466
 30
0.0
  0
VERTEX
  5
4B8
  8
CAMADA_1
 62
   250
 10
-110.1257
 20
-66.8784
 30
0.0
  0
VERTEX
  5
4B9
  8
CAMADA_1
 62
   250
 10
-109.3829
 20
-65.9561
 30
0.0
  0
VERTEX
  5
4BA
  8
CAMADA_1
 62
   250
 10
-108.5645
 20
-65.177
 30
0.0
  0
VERTEX
  5
4BB
  8
CAMADA_1
 62
   250
 10
-107.6714
 20
-64.5388
 30
0.0
  0
VERTEX
  5
4BC
  8
CAMADA_1
 62
   250
 10
-106.7046
 20
-64.0388
 30
0.0
  0
VERTEX
  5
4BD
  8
CAMADA_1
 62
   250
 10
-105.6648
 20
-63.6747
 30
0.0
  0
VERTEX
  5
4BE
  8
CAMADA_1
 62
   250
 10
-104.553
 20
-63.4441
 30
0.0
  0
VERTEX
  5
4BF
  8
CAMADA_1
 62
   250
 10
-103.37
 20
-63.3442
 30
0.0
  0
VERTEX
  5
4C0
  8
CAMADA_1
 62
   250
 10
-102.1042
 20
-63.5022
 30
0.0
  0
VERTEX
  5
4C1
  8
CAMADA_1
 62
   250
 10
-100.8915
 20
-63.8216
 30
0.0
  0
VERTEX
  5
4C2
  8
CAMADA_1
 62
   250
 10
-99.7544
 20
-64.3117
 30
0.0
  0
VERTEX
  5
4C3
  8
CAMADA_1
 62
   250
 10
-98.7151
 20
-64.9818
 30
0.0
  0
VERTEX
  5
4C4
  8
CAMADA_1
 62
   250
 10
-97.7956
 20
-65.8409
 30
0.0
  0
VERTEX
  5
4C5
  8
CAMADA_1
 62
   250
 10
-97.0182
 20
-66.8983
 30
0.0
  0
VERTEX
  5
4C6
  8
CAMADA_1
 62
   250
 10
-96.4052
 20
-68.1633
 30
0.0
  0
VERTEX
  5
4C7
  8
CAMADA_1
 62
   250
 10
-95.9787
 20
-69.6448
 30
0.0
  0
VERTEX
  5
4C8
  8
CAMADA_1
 62
   250
 10
-95.9787
 20
-69.6448
 30
0.0
  0
SEQEND
  5
4C9
  8
CAMADA_1
 62
   250
  0
POLYLINE
  5
5B
  8
CAMADA_1
 62
   250
 66
     1
 10
0.0
 20
0.0
 30
0.0
 70
     1
  0
VERTEX
  5
4CA
  8
CAMADA_1
 62
   250
 10
-41.2888
 20
-49.3373
 30
0.0
  0
VERTEX
  5
4CB
  8
CAMADA_1
 62
   250
 10
-42.6638
 20
-48.5293
 30
0.0
  0
VERTEX
  5
4CC
  8
CAMADA_1
 62
   250
 10
-45.1303
 20
-52.9236
 30
0.0
  0
VERTEX
  5
4CD
  8
CAMADA_1
 62
   250
 10
-43.8262
 20
-53.7033
 30
0.0
  0
VERTEX
  5
4CE
  8
CAMADA_1
 62
   250
 10
-41.2888
 20
-49.3373
 30
0.0
  0
VERTEX
  5
4CF
  8
CAMADA_1
 62
   250
 10
-41.2888
 20
-49.3373
 30
0.0
  0
SEQEND
  5
4D0
  8
CAMADA_1
 62
   250
  0
POLYLINE
  5
5C
  8
CAMADA_1
 62
   250
 66
     1
 10
0.0
 20
0.0
 30
0.0
 70
     1
  0
VERTEX
  5
4D1
  8
CAMADA_1
 62
   250
 10
-63.5802
 20
-65.84
 30
0.0
  0
VERTEX
  5
4D2
  8
CAMADA_1
 62
   250
 10
-63.7753
 20
-64.2794
 30
0.0
  0
VERTEX
  5
4D3
  8
CAMADA_1
 62
   250
 10
-72.7488
 20
-65.2938
 30
0.0
  0
VERTEX
  5
4D4
  8
CAMADA_1
 62
   250
 10
-72.5147
 20
-66.8544
 30
0.0
  0
VERTEX
  5
4D5
  8
CAMADA_1
 62
   250
 10
-63.5802
 20
-65.84
 30
0.0
  0
VERTEX
  5
4D6
  8
CAMADA_1
 62
   250
 10
-63.5802
 20
-65.84
 30
0.0
  0
SEQEND
  5
4D7
  8
CAMADA_1
 62
   250
  0
POLYLINE
  5
5D
  8
CAMADA_1
 62
   250
 66
     1
 10
0.0
 20
0.0
 30
0.0
 70
     1
  0
VERTEX
  5
4D8
  8
CAMADA_1
 62
   250
 10
-93.8559
 20
-34.6544
 30
0.0
  0
VERTEX
  5
4D9
  8
CAMADA_1
 62
   250
 10
-93.8611
 20
-35.4909
 30
0.0
  0
VERTEX
  5
4DA
  8
CAMADA_1
 62
   250
 10
-78.1238
 20
-35.4909
 30
0.0
  0
VERTEX
  5
4DB
  8
CAMADA_1
 62
   250
 10
-78.1238
 20
-32.902
 30
0.0
  0
VERTEX
  5
4DC
  8
CAMADA_1
 62
   250
 10
-96.4961
 20
-32.9107
 30
0.0
  0
VERTEX
  5
4DD
  8
CAMADA_1
 62
   250
 10
-96.4784
 20
-34.6633
 30
0.0
  0
VERTEX
  5
4DE
  8
CAMADA_1
 62
   250
 10
-93.8559
 20
-34.6544
 30
0.0
  0
VERTEX
  5
4DF
  8
CAMADA_1
 62
   250
 10
-93.8559
 20
-34.6544
 30
0.0
  0
SEQEND
  5
4E0
  8
CAMADA_1
 62
   250
  0
POLYLINE
  5
5E
  8
CAMADA_1
 62
   250
 66
     1
 10
0.0
 20
0.0
 30
0.0
 70
     1
  0
VERTEX
  5
4E1
  8
CAMADA_1
 62
   250
 10
-68.9209
 20
36.0627
 30
0.0
  0
VERTEX
  5
4E2
  8
CAMADA_1
 62
   250
 10
-71.834
 20
36.0627
 30
0.0
  0
VERTEX
  5
4E3
  8
CAMADA_1
 62
   250
 10
-71.804
 20
36.4805
 30
0.0
  0
VERTEX
  5
4E4
  8
CAMADA_1
 62
   250
 10
-71.7396
 20
37.0337
 30
0.0
  0
VERTEX
  5
4E5
  8
CAMADA_1
 62
   250
 10
-71.5973
 20
37.6646
 30
0.0
  0
VERTEX
  5
4E6
  8
CAMADA_1
 62
   250
 10
-71.3336
 20
38.3153
 30
0.0
  0
VERTEX
  5
4E7
  8
CAMADA_1
 62
   250
 10
-70.9048
 20
38.9278
 30
0.0
  0
VERTEX
  5
4E8
  8
CAMADA_1
 62
   250
 10
-70.2674
 20
39.4446
 30
0.0
  0
VERTEX
  5
4E9
  8
CAMADA_1
 62
   250
 10
-69.3779
 20
39.8076
 30
0.0
  0
VERTEX
  5
4EA
  8
CAMADA_1
 62
   250
 10
-68.1926
 20
39.959
 30
0.0
  0
VERTEX
  5
4EB
  8
CAMADA_1
 62
   250
 10
-67.3807
 20
39.881
 30
0.0
  0
VERTEX
  5
4EC
  8
CAMADA_1
 62
   250
 10
-66.6669
 20
39.6962
 30
0.0
  0
VERTEX
  5
4ED
  8
CAMADA_1
 62
   250
 10
-66.055
 20
39.3996
 30
0.0
  0
VERTEX
  5
4EE
  8
CAMADA_1
 62
   250
 10
-65.5489
 20
38.9861
 30
0.0
  0
VERTEX
  5
4EF
  8
CAMADA_1
 62
   250
 10
-65.1525
 20
38.4506
 30
0.0
  0
VERTEX
  5
4F0
  8
CAMADA_1
 62
   250
 10
-64.8696
 20
37.7879
 30
0.0
  0
VERTEX
  5
4F1
  8
CAMADA_1
 62
   250
 10
-64.7041
 20
36.9931
 30
0.0
  0
VERTEX
  5
4F2
  8
CAMADA_1
 62
   250
 10
-64.6599
 20
36.0609
 30
0.0
  0
VERTEX
  5
4F3
  8
CAMADA_1
 62
   250
 10
-67.5372
 20
36.0609
 30
0.0
  0
VERTEX
  5
4F4
  8
CAMADA_1
 62
   250
 10
-67.5372
 20
38.1383
 30
0.0
  0
VERTEX
  5
4F5
  8
CAMADA_1
 62
   250
 10
-68.8845
 20
38.1383
 30
0.0
  0
VERTEX
  5
4F6
  8
CAMADA_1
 62
   250
 10
-68.9209
 20
36.0627
 30
0.0
  0
VERTEX
  5
4F7
  8
CAMADA_1
 62
   250
 10
-68.9209
 20
36.0627
 30
0.0
  0
SEQEND
  5
4F8
  8
CAMADA_1
 62
   250
  0
POLYLINE
  5
5F
  8
CAMADA_1
 62
   250
 66
     1
 10
0.0
 20
0.0
 30
0.0
 70
     1
  0
VERTEX
  5
4F9
  8
CAMADA_1
 62
   250
 10
-68.9209
 20
28.7627
 30
0.0
  0
VERTEX
  5
4FA
  8
CAMADA_1
 62
   250
 10
-71.834
 20
28.7627
 30
0.0
  0
VERTEX
  5
4FB
  8
CAMADA_1
 62
   250
 10
-71.804
 20
29.1804
 30
0.0
  0
VERTEX
  5
4FC
  8
CAMADA_1
 62
   250
 10
-71.7396
 20
29.7336
 30
0.0
  0
VERTEX
  5
4FD
  8
CAMADA_1
 62
   250
 10
-71.5973
 20
30.3645
 30
0.0
  0
VERTEX
  5
4FE
  8
CAMADA_1
 62
   250
 10
-71.3336
 20
31.0152
 30
0.0
  0
VERTEX
  5
4FF
  8
CAMADA_1
 62
   250
 10
-70.9048
 20
31.6277
 30
0.0
  0
VERTEX
  5
500
  8
CAMADA_1
 62
   250
 10
-70.2674
 20
32.1445
 30
0.0
  0
VERTEX
  5
501
  8
CAMADA_1
 62
   250
 10
-69.3779
 20
32.5075
 30
0.0
  0
VERTEX
  5
502
  8
CAMADA_1
 62
   250
 10
-68.1926
 20
32.659
 30
0.0
  0
VERTEX
  5
503
  8
CAMADA_1
 62
   250
 10
-67.3807
 20
32.5809
 30
0.0
  0
VERTEX
  5
504
  8
CAMADA_1
 62
   250
 10
-66.6669
 20
32.3961
 30
0.0
  0
VERTEX
  5
505
  8
CAMADA_1
 62
   250
 10
-66.055
 20
32.0995
 30
0.0
  0
VERTEX
  5
506
  8
CAMADA_1
 62
   250
 10
-65.5489
 20
31.686
 30
0.0
  0
VERTEX
  5
507
  8
CAMADA_1
 62
   250
 10
-65.1525
 20
31.1505
 30
0.0
  0
VERTEX
  5
508
  8
CAMADA_1
 62
   250
 10
-64.8696
 20
30.4879
 30
0.0
  0
VERTEX
  5
509
  8
CAMADA_1
 62
   250
 10
-64.7041
 20
29.693
 30
0.0
  0
VERTEX
  5
50A
  8
CAMADA_1
 62
   250
 10
-64.6599
 20
28.7608
 30
0.0
  0
VERTEX
  5
50B
  8
CAMADA_1
 62
   250
 10
-67.5372
 20
28.7608
 30
0.0
  0
VERTEX
  5
50C
  8
CAMADA_1
 62
   250
 10
-67.5372
 20
30.8383
 30
0.0
  0
VERTEX
  5
50D
  8
CAMADA_1
 62
   250
 10
-68.8845
 20
30.8383
 30
0.0
  0
VERTEX
  5
50E
  8
CAMADA_1
 62
   250
 10
-68.9209
 20
28.7627
 30
0.0
  0
VERTEX
  5
50F
  8
CAMADA_1
 62
   250
 10
-68.9209
 20
28.7627
 30
0.0
  0
SEQEND
  5
510
  8
CAMADA_1
 62
   250
  0
POLYLINE
  5
60
  8
CAMADA_1
 62
   250
 66
     1
 10
0.0
 20
0.0
 30
0.0
 70
     1
  0
VERTEX
  5
511
  8
CAMADA_1
 62
   250
 10
-41.4329
 20
50.8432
 30
0.0
  0
VERTEX
  5
512
  8
CAMADA_1
 62
   250
 10
-44.346
 20
50.8432
 30
0.0
  0
VERTEX
  5
513
  8
CAMADA_1
 62
   250
 10
-44.3159
 20
51.261
 30
0.0
  0
VERTEX
  5
514
  8
CAMADA_1
 62
   250
 10
-44.2516
 20
51.8142
 30
0.0
  0
VERTEX
  5
515
  8
CAMADA_1
 62
   250
 10
-44.1093
 20
52.4451
 30
0.0
  0
VERTEX
  5
516
  8
CAMADA_1
 62
   250
 10
-43.8455
 20
53.0957
 30
0.0
  0
VERTEX
  5
517
  8
CAMADA_1
 62
   250
 10
-43.4168
 20
53.7083
 30
0.0
  0
VERTEX
  5
518
  8
CAMADA_1
 62
   250
 10
-42.7794
 20
54.225
 30
0.0
  0
VERTEX
  5
519
  8
CAMADA_1
 62
   250
 10
-41.8899
 20
54.588
 30
0.0
  0
VERTEX
  5
51A
  8
CAMADA_1
 62
   250
 10
-40.7046
 20
54.7395
 30
0.0
  0
VERTEX
  5
51B
  8
CAMADA_1
 62
   250
 10
-39.8927
 20
54.6614
 30
0.0
  0
VERTEX
  5
51C
  8
CAMADA_1
 62
   250
 10
-39.1789
 20
54.4767
 30
0.0
  0
VERTEX
  5
51D
  8
CAMADA_1
 62
   250
 10
-38.5669
 20
54.1801
 30
0.0
  0
VERTEX
  5
51E
  8
CAMADA_1
 62
   250
 10
-38.0608
 20
53.7665
 30
0.0
  0
VERTEX
  5
51F
  8
CAMADA_1
 62
   250
 10
-37.6644
 20
53.231
 30
0.0
  0
VERTEX
  5
520
  8
CAMADA_1
 62
   250
 10
-37.3815
 20
52.5684
 30
0.0
  0
VERTEX
  5
521
  8
CAMADA_1
 62
   250
 10
-37.2161
 20
51.7735
 30
0.0
  0
VERTEX
  5
522
  8
CAMADA_1
 62
   250
 10
-37.1719
 20
50.8414
 30
0.0
  0
VERTEX
  5
523
  8
CAMADA_1
 62
   250
 10
-40.0492
 20
50.8414
 30
0.0
  0
VERTEX
  5
524
  8
CAMADA_1
 62
   250
 10
-40.0492
 20
52.9188
 30
0.0
  0
VERTEX
  5
525
  8
CAMADA_1
 62
   250
 10
-41.3965
 20
52.9188
 30
0.0
  0
VERTEX
  5
526
  8
CAMADA_1
 62
   250
 10
-41.4329
 20
50.8432
 30
0.0
  0
VERTEX
  5
527
  8
CAMADA_1
 62
   250
 10
-41.4329
 20
50.8432
 30
0.0
  0
SEQEND
  5
528
  8
CAMADA_1
 62
   250
  0
POLYLINE
  5
61
  8
CAMADA_1
 62
   250
 66
     1
 10
0.0
 20
0.0
 30
0.0
 70
     1
  0
VERTEX
  5
529
  8
CAMADA_1
 62
   250
 10
-41.0724
 20
6.8624
 30
0.0
  0
VERTEX
  5
52A
  8
CAMADA_1
 62
   250
 10
-43.9855
 20
6.8624
 30
0.0
  0
VERTEX
  5
52B
  8
CAMADA_1
 62
   250
 10
-43.9554
 20
7.2801
 30
0.0
  0
VERTEX
  5
52C
  8
CAMADA_1
 62
   250
 10
-43.8911
 20
7.8334
 30
0.0
  0
VERTEX
  5
52D
  8
CAMADA_1
 62
   250
 10
-43.7488
 20
8.4642
 30
0.0
  0
VERTEX
  5
52E
  8
CAMADA_1
 62
   250
 10
-43.4851
 20
9.1149
 30
0.0
  0
VERTEX
  5
52F
  8
CAMADA_1
 62
   250
 10
-43.0563
 20
9.7275
 30
0.0
  0
VERTEX
  5
530
  8
CAMADA_1
 62
   250
 10
-42.4189
 20
10.2442
 30
0.0
  0
VERTEX
  5
531
  8
CAMADA_1
 62
   250
 10
-41.5294
 20
10.6072
 30
0.0
  0
VERTEX
  5
532
  8
CAMADA_1
 62
   250
 10
-40.3441
 20
10.7587
 30
0.0
  0
VERTEX
  5
533
  8
CAMADA_1
 62
   250
 10
-39.5322
 20
10.6806
 30
0.0
  0
VERTEX
  5
534
  8
CAMADA_1
 62
   250
 10
-38.8184
 20
10.4958
 30
0.0
  0
VERTEX
  5
535
  8
CAMADA_1
 62
   250
 10
-38.2065
 20
10.1992
 30
0.0
  0
VERTEX
  5
536
  8
CAMADA_1
 62
   250
 10
-37.7003
 20
9.7857
 30
0.0
  0
VERTEX
  5
537
  8
CAMADA_1
 62
   250
 10
-37.3039
 20
9.2502
 30
0.0
  0
VERTEX
  5
538
  8
CAMADA_1
 62
   250
 10
-37.021
 20
8.5876
 30
0.0
  0
VERTEX
  5
539
  8
CAMADA_1
 62
   250
 10
-36.8556
 20
7.7927
 30
0.0
  0
VERTEX
  5
53A
  8
CAMADA_1
 62
   250
 10
-36.8114
 20
6.8605
 30
0.0
  0
VERTEX
  5
53B
  8
CAMADA_1
 62
   250
 10
-39.6887
 20
6.8605
 30
0.0
  0
VERTEX
  5
53C
  8
CAMADA_1
 62
   250
 10
-39.6887
 20
8.938
 30
0.0
  0
VERTEX
  5
53D
  8
CAMADA_1
 62
   250
 10
-41.036
 20
8.938
 30
0.0
  0
VERTEX
  5
53E
  8
CAMADA_1
 62
   250
 10
-41.0724
 20
6.8624
 30
0.0
  0
VERTEX
  5
53F
  8
CAMADA_1
 62
   250
 10
-41.0724
 20
6.8624
 30
0.0
  0
SEQEND
  5
540
  8
CAMADA_1
 62
   250
  0
POLYLINE
  5
62
  8
CAMADA_1
 62
   250
 66
     1
 10
0.0
 20
0.0
 30
0.0
 70
     1
  0
VERTEX
  5
541
  8
CAMADA_1
 62
   250
 10
-45.2181
 20
-3.3216
 30
0.0
  0
VERTEX
  5
542
  8
CAMADA_1
 62
   250
 10
-48.1313
 20
-3.3216
 30
0.0
  0
VERTEX
  5
543
  8
CAMADA_1
 62
   250
 10
-48.1012
 20
-2.9039
 30
0.0
  0
VERTEX
  5
544
  8
CAMADA_1
 62
   250
 10
-48.0368
 20
-2.3506
 30
0.0
  0
VERTEX
  5
545
  8
CAMADA_1
 62
   250
 10
-47.8945
 20
-1.7198
 30
0.0
  0
VERTEX
  5
546
  8
CAMADA_1
 62
   250
 10
-47.6308
 20
-1.0691
 30
0.0
  0
VERTEX
  5
547
  8
CAMADA_1
 62
   250
 10
-47.202
 20
-0.4565
 30
0.0
  0
VERTEX
  5
548
  8
CAMADA_1
 62
   250
 10
-46.5646
 20
0.0601
 30
0.0
  0
VERTEX
  5
549
  8
CAMADA_1
 62
   250
 10
-45.6751
 20
0.4231
 30
0.0
  0
VERTEX
  5
54A
  8
CAMADA_1
 62
   250
 10
-44.4899
 20
0.5746
 30
0.0
  0
VERTEX
  5
54B
  8
CAMADA_1
 62
   250
 10
-43.678
 20
0.4965
 30
0.0
  0
VERTEX
  5
54C
  8
CAMADA_1
 62
   250
 10
-42.9641
 20
0.3117
 30
0.0
  0
VERTEX
  5
54D
  8
CAMADA_1
 62
   250
 10
-42.3522
 20
0.0151
 30
0.0
  0
VERTEX
  5
54E
  8
CAMADA_1
 62
   250
 10
-41.8461
 20
-0.3983
 30
0.0
  0
VERTEX
  5
54F
  8
CAMADA_1
 62
   250
 10
-41.4497
 20
-0.9338
 30
0.0
  0
VERTEX
  5
550
  8
CAMADA_1
 62
   250
 10
-41.1668
 20
-1.5964
 30
0.0
  0
VERTEX
  5
551
  8
CAMADA_1
 62
   250
 10
-41.0013
 20
-2.3913
 30
0.0
  0
VERTEX
  5
552
  8
CAMADA_1
 62
   250
 10
-40.9571
 20
-3.3234
 30
0.0
  0
VERTEX
  5
553
  8
CAMADA_1
 62
   250
 10
-43.8344
 20
-3.3234
 30
0.0
  0
VERTEX
  5
554
  8
CAMADA_1
 62
   250
 10
-43.8344
 20
-1.246
 30
0.0
  0
VERTEX
  5
555
  8
CAMADA_1
 62
   250
 10
-45.1817
 20
-1.246
 30
0.0
  0
VERTEX
  5
556
  8
CAMADA_1
 62
   250
 10
-45.2181
 20
-3.3216
 30
0.0
  0
VERTEX
  5
557
  8
CAMADA_1
 62
   250
 10
-45.2181
 20
-3.3216
 30
0.0
  0
SEQEND
  5
558
  8
CAMADA_1
 62
   250
  0
POLYLINE
  5
63
  8
CAMADA_1
 62
   250
 66
     1
 10
0.0
 20
0.0
 30
0.0
 70
     1
  0
VERTEX
  5
559
  8
CAMADA_1
 62
   250
 10
-45.4885
 20
-10.7118
 30
0.0
  0
VERTEX
  5
55A
  8
CAMADA_1
 62
   250
 10
-48.4016
 20
-10.7118
 30
0.0
  0
VERTEX
  5
55B
  8
CAMADA_1
 62
   250
 10
-48.3715
 20
-10.2941
 30
0.0
  0
VERTEX
  5
55C
  8
CAMADA_1
 62
   250
 10
-48.3072
 20
-9.7408
 30
0.0
  0
VERTEX
  5
55D
  8
CAMADA_1
 62
   250
 10
-48.1649
 20
-9.11
 30
0.0
  0
VERTEX
  5
55E
  8
CAMADA_1
 62
   250
 10
-47.9012
 20
-8.4593
 30
0.0
  0
VERTEX
  5
55F
  8
CAMADA_1
 62
   250
 10
-47.4724
 20
-7.8468
 30
0.0
  0
VERTEX
  5
560
  8
CAMADA_1
 62
   250
 10
-46.835
 20
-7.33
 30
0.0
  0
VERTEX
  5
561
  8
CAMADA_1
 62
   250
 10
-45.9455
 20
-6.967
 30
0.0
  0
VERTEX
  5
562
  8
CAMADA_1
 62
   250
 10
-44.7602
 20
-6.8155
 30
0.0
  0
VERTEX
  5
563
  8
CAMADA_1
 62
   250
 10
-43.9483
 20
-6.8936
 30
0.0
  0
VERTEX
  5
564
  8
CAMADA_1
 62
   250
 10
-43.2345
 20
-7.0784
 30
0.0
  0
VERTEX
  5
565
  8
CAMADA_1
 62
   250
 10
-42.6226
 20
-7.375
 30
0.0
  0
VERTEX
  5
566
  8
CAMADA_1
 62
   250
 10
-42.1164
 20
-7.7885
 30
0.0
  0
VERTEX
  5
567
  8
CAMADA_1
 62
   250
 10
-41.7201
 20
-8.324
 30
0.0
  0
VERTEX
  5
568
  8
CAMADA_1
 62
   250
 10
-41.4372
 20
-8.9866
 30
0.0
  0
VERTEX
  5
569
  8
CAMADA_1
 62
   250
 10
-41.2717
 20
-9.7815
 30
0.0
  0
VERTEX
  5
56A
  8
CAMADA_1
 62
   250
 10
-41.2275
 20
-10.7137
 30
0.0
  0
VERTEX
  5
56B
  8
CAMADA_1
 62
   250
 10
-44.1048
 20
-10.7137
 30
0.0
  0
VERTEX
  5
56C
  8
CAMADA_1
 62
   250
 10
-44.1048
 20
-8.6362
 30
0.0
  0
VERTEX
  5
56D
  8
CAMADA_1
 62
   250
 10
-45.4521
 20
-8.6362
 30
0.0
  0
VERTEX
  5
56E
  8
CAMADA_1
 62
   250
 10
-45.4885
 20
-10.7118
 30
0.0
  0
VERTEX
  5
56F
  8
CAMADA_1
 62
   250
 10
-45.4885
 20
-10.7118
 30
0.0
  0
SEQEND
  5
570
  8
CAMADA_1
 62
   250
  0
POLYLINE
  5
64
  8
CAMADA_1
 62
   250
 66
     1
 10
0.0
 20
0.0
 30
0.0
 70
     1
  0
VERTEX
  5
571
  8
CAMADA_1
 62
   250
 10
-78.8408
 20
59.624
 30
0.0
  0
VERTEX
  5
572
  8
CAMADA_1
 62
   250
 10
-77.5288
 20
59.636
 30
0.0
  0
VERTEX
  5
573
  8
CAMADA_1
 62
   250
 10
-77.5467
 20
57.4712
 30
0.0
  0
VERTEX
  5
574
  8
CAMADA_1
 62
   250
 10
-72.0853
 20
57.4802
 30
0.0
  0
VERTEX
  5
575
  8
CAMADA_1
 62
   250
 10
-72.0853
 20
58.7953
 30
0.0
  0
VERTEX
  5
576
  8
CAMADA_1
 62
   250
 10
-70.2598
 20
58.7863
 30
0.0
  0
VERTEX
  5
577
  8
CAMADA_1
 62
   250
 10
-70.2271
 20
59.1817
 30
0.0
  0
VERTEX
  5
578
  8
CAMADA_1
 62
   250
 10
-70.2443
 20
59.5395
 30
0.0
  0
VERTEX
  5
579
  8
CAMADA_1
 62
   250
 10
-70.3071
 20
59.859
 30
0.0
  0
VERTEX
  5
57A
  8
CAMADA_1
 62
   250
 10
-70.4113
 20
60.1396
 30
0.0
  0
VERTEX
  5
57B
  8
CAMADA_1
 62
   250
 10
-70.5525
 20
60.3809
 30
0.0
  0
VERTEX
  5
57C
  8
CAMADA_1
 62
   250
 10
-70.7267
 20
60.5822
 30
0.0
  0
VERTEX
  5
57D
  8
CAMADA_1
 62
   250
 10
-70.9296
 20
60.7429
 30
0.0
  0
VERTEX
  5
57E
  8
CAMADA_1
 62
   250
 10
-71.157
 20
60.8626
 30
0.0
  0
VERTEX
  5
57F
  8
CAMADA_1
 62
   250
 10
-71.4836
 20
60.9365
 30
0.0
  0
VERTEX
  5
580
  8
CAMADA_1
 62
   250
 10
-71.8102
 20
60.9867
 30
0.0
  0
VERTEX
  5
581
  8
CAMADA_1
 62
   250
 10
-72.1367
 20
61.0125
 30
0.0
  0
VERTEX
  5
582
  8
CAMADA_1
 62
   250
 10
-72.4633
 20
61.0134
 30
0.0
  0
VERTEX
  5
583
  8
CAMADA_1
 62
   250
 10
-72.7898
 20
60.9888
 30
0.0
  0
VERTEX
  5
584
  8
CAMADA_1
 62
   250
 10
-73.1164
 20
60.9381
 30
0.0
  0
VERTEX
  5
585
  8
CAMADA_1
 62
   250
 10
-73.4429
 20
60.8607
 30
0.0
  0
VERTEX
  5
586
  8
CAMADA_1
 62
   250
 10
-73.7695
 20
60.756
 30
0.0
  0
VERTEX
  5
587
  8
CAMADA_1
 62
   250
 10
-73.9774
 20
60.679
 30
0.0
  0
VERTEX
  5
588
  8
CAMADA_1
 62
   250
 10
-74.1753
 20
60.6178
 30
0.0
  0
VERTEX
  5
589
  8
CAMADA_1
 62
   250
 10
-74.3656
 20
60.5779
 30
0.0
  0
VERTEX
  5
58A
  8
CAMADA_1
 62
   250
 10
-74.5508
 20
60.5649
 30
0.0
  0
VERTEX
  5
58B
  8
CAMADA_1
 62
   250
 10
-74.7331
 20
60.5843
 30
0.0
  0
VERTEX
  5
58C
  8
CAMADA_1
 62
   250
 10
-74.915
 20
60.6419
 30
0.0
  0
VERTEX
  5
58D
  8
CAMADA_1
 62
   250
 10
-75.0989
 20
60.7429
 30
0.0
  0
VERTEX
  5
58E
  8
CAMADA_1
 62
   250
 10
-75.2871
 20
60.8932
 30
0.0
  0
VERTEX
  5
58F
  8
CAMADA_1
 62
   250
 10
-75.5662
 20
61.2185
 30
0.0
  0
VERTEX
  5
590
  8
CAMADA_1
 62
   250
 10
-75.8618
 20
61.5221
 30
0.0
  0
VERTEX
  5
591
  8
CAMADA_1
 62
   250
 10
-76.1779
 20
61.7986
 30
0.0
  0
VERTEX
  5
592
  8
CAMADA_1
 62
   250
 10
-76.5185
 20
62.043
 30
0.0
  0
VERTEX
  5
593
  8
CAMADA_1
 62
   250
 10
-76.8877
 20
62.2497
 30
0.0
  0
VERTEX
  5
594
  8
CAMADA_1
 62
   250
 10
-77.2895
 20
62.4136
 30
0.0
  0
VERTEX
  5
595
  8
CAMADA_1
 62
   250
 10
-77.7279
 20
62.5294
 30
0.0
  0
VERTEX
  5
596
  8
CAMADA_1
 62
   250
 10
-78.2068
 20
62.5917
 30
0.0
  0
VERTEX
  5
597
  8
CAMADA_1
 62
   250
 10
-78.5978
 20
62.5966
 30
0.0
  0
VERTEX
  5
598
  8
CAMADA_1
 62
   250
 10
-78.9852
 20
62.6005
 30
0.0
  0
VERTEX
  5
599
  8
CAMADA_1
 62
   250
 10
-79.368
 20
62.5957
 30
0.0
  0
VERTEX
  5
59A
  8
CAMADA_1
 62
   250
 10
-79.745
 20
62.5746
 30
0.0
  0
VERTEX
  5
59B
  8
CAMADA_1
 62
   250
 10
-80.1153
 20
62.5294
 30
0.0
  0
VERTEX
  5
59C
  8
CAMADA_1
 62
   250
 10
-80.4778
 20
62.4526
 30
0.0
  0
VERTEX
  5
59D
  8
CAMADA_1
 62
   250
 10
-80.8315
 20
62.3364
 30
0.0
  0
VERTEX
  5
59E
  8
CAMADA_1
 62
   250
 10
-81.1752
 20
62.1732
 30
0.0
  0
VERTEX
  5
59F
  8
CAMADA_1
 62
   250
 10
-81.3676
 20
62.0661
 30
0.0
  0
VERTEX
  5
5A0
  8
CAMADA_1
 62
   250
 10
-81.542
 20
61.8831
 30
0.0
  0
VERTEX
  5
5A1
  8
CAMADA_1
 62
   250
 10
-81.6946
 20
61.6402
 30
0.0
  0
VERTEX
  5
5A2
  8
CAMADA_1
 62
   250
 10
-81.8214
 20
61.3534
 30
0.0
  0
VERTEX
  5
5A3
  8
CAMADA_1
 62
   250
 10
-81.9189
 20
61.039
 30
0.0
  0
VERTEX
  5
5A4
  8
CAMADA_1
 62
   250
 10
-81.9831
 20
60.7128
 30
0.0
  0
VERTEX
  5
5A5
  8
CAMADA_1
 62
   250
 10
-82.0102
 20
60.3909
 30
0.0
  0
VERTEX
  5
5A6
  8
CAMADA_1
 62
   250
 10
-81.9964
 20
60.0894
 30
0.0
  0
VERTEX
  5
5A7
  8
CAMADA_1
 62
   250
 10
-80.255
 20
60.1164
 30
0.0
  0
VERTEX
  5
5A8
  8
CAMADA_1
 62
   250
 10
-80.282
 20
57.4592
 30
0.0
  0
VERTEX
  5
5A9
  8
CAMADA_1
 62
   250
 10
-78.8288
 20
57.4592
 30
0.0
  0
VERTEX
  5
5AA
  8
CAMADA_1
 62
   250
 10
-78.8408
 20
59.624
 30
0.0
  0
VERTEX
  5
5AB
  8
CAMADA_1
 62
   250
 10
-78.8408
 20
59.624
 30
0.0
  0
SEQEND
  5
5AC
  8
CAMADA_1
 62
   250
  0
POLYLINE
  5
65
  8
CAMADA_1
 62
   250
 66
     1
 10
0.0
 20
0.0
 30
0.0
 70
     1
  0
VERTEX
  5
5AD
  8
CAMADA_1
 62
   250
 10
-43.0095
 20
43.0192
 30
0.0
  0
VERTEX
  5
5AE
  8
CAMADA_1
 62
   250
 10
-41.6974
 20
43.0312
 30
0.0
  0
VERTEX
  5
5AF
  8
CAMADA_1
 62
   250
 10
-41.7154
 20
40.8664
 30
0.0
  0
VERTEX
  5
5B0
  8
CAMADA_1
 62
   250
 10
-36.2539
 20
40.8754
 30
0.0
  0
VERTEX
  5
5B1
  8
CAMADA_1
 62
   250
 10
-36.2539
 20
42.1905
 30
0.0
  0
VERTEX
  5
5B2
  8
CAMADA_1
 62
   250
 10
-34.4284
 20
42.1815
 30
0.0
  0
VERTEX
  5
5B3
  8
CAMADA_1
 62
   250
 10
-34.3958
 20
42.577
 30
0.0
  0
VERTEX
  5
5B4
  8
CAMADA_1
 62
   250
 10
-34.4129
 20
42.9347
 30
0.0
  0
VERTEX
  5
5B5
  8
CAMADA_1
 62
   250
 10
-34.4757
 20
43.2542
 30
0.0
  0
VERTEX
  5
5B6
  8
CAMADA_1
 62
   250
 10
-34.5799
 20
43.5349
 30
0.0
  0
VERTEX
  5
5B7
  8
CAMADA_1
 62
   250
 10
-34.7212
 20
43.7761
 30
0.0
  0
VERTEX
  5
5B8
  8
CAMADA_1
 62
   250
 10
-34.8953
 20
43.9774
 30
0.0
  0
VERTEX
  5
5B9
  8
CAMADA_1
 62
   250
 10
-35.0983
 20
44.1381
 30
0.0
  0
VERTEX
  5
5BA
  8
CAMADA_1
 62
   250
 10
-35.3257
 20
44.2578
 30
0.0
  0
VERTEX
  5
5BB
  8
CAMADA_1
 62
   250
 10
-35.6522
 20
44.3317
 30
0.0
  0
VERTEX
  5
5BC
  8
CAMADA_1
 62
   250
 10
-35.9788
 20
44.3819
 30
0.0
  0
VERTEX
  5
5BD
  8
CAMADA_1
 62
   250
 10
-36.3053
 20
44.4077
 30
0.0
  0
VERTEX
  5
5BE
  8
CAMADA_1
 62
   250
 10
-36.6319
 20
44.4086
 30
0.0
  0
VERTEX
  5
5BF
  8
CAMADA_1
 62
   250
 10
-36.9584
 20
44.384
 30
0.0
  0
VERTEX
  5
5C0
  8
CAMADA_1
 62
   250
 10
-37.285
 20
44.3333
 30
0.0
  0
VERTEX
  5
5C1
  8
CAMADA_1
 62
   250
 10
-37.6116
 20
44.2559
 30
0.0
  0
VERTEX
  5
5C2
  8
CAMADA_1
 62
   250
 10
-37.9381
 20
44.1512
 30
0.0
  0
VERTEX
  5
5C3
  8
CAMADA_1
 62
   250
 10
-38.146
 20
44.0742
 30
0.0
  0
VERTEX
  5
5C4
  8
CAMADA_1
 62
   250
 10
-38.344
 20
44.013
 30
0.0
  0
VERTEX
  5
5C5
  8
CAMADA_1
 62
   250
 10
-38.5343
 20
43.9731
 30
0.0
  0
VERTEX
  5
5C6
  8
CAMADA_1
 62
   250
 10
-38.7194
 20
43.9601
 30
0.0
  0
VERTEX
  5
5C7
  8
CAMADA_1
 62
   250
 10
-38.9017
 20
43.9795
 30
0.0
  0
VERTEX
  5
5C8
  8
CAMADA_1
 62
   250
 10
-39.0836
 20
44.0371
 30
0.0
  0
VERTEX
  5
5C9
  8
CAMADA_1
 62
   250
 10
-39.2675
 20
44.1382
 30
0.0
  0
VERTEX
  5
5CA
  8
CAMADA_1
 62
   250
 10
-39.4557
 20
44.2884
 30
0.0
  0
VERTEX
  5
5CB
  8
CAMADA_1
 62
   250
 10
-39.7348
 20
44.6137
 30
0.0
  0
VERTEX
  5
5CC
  8
CAMADA_1
 62
   250
 10
-40.0304
 20
44.9173
 30
0.0
  0
VERTEX
  5
5CD
  8
CAMADA_1
 62
   250
 10
-40.3465
 20
45.1939
 30
0.0
  0
VERTEX
  5
5CE
  8
CAMADA_1
 62
   250
 10
-40.6872
 20
45.4382
 30
0.0
  0
VERTEX
  5
5CF
  8
CAMADA_1
 62
   250
 10
-41.0564
 20
45.6449
 30
0.0
  0
VERTEX
  5
5D0
  8
CAMADA_1
 62
   250
 10
-41.4581
 20
45.8088
 30
0.0
  0
VERTEX
  5
5D1
  8
CAMADA_1
 62
   250
 10
-41.8965
 20
45.9246
 30
0.0
  0
VERTEX
  5
5D2
  8
CAMADA_1
 62
   250
 10
-42.3754
 20
45.9869
 30
0.0
  0
VERTEX
  5
5D3
  8
CAMADA_1
 62
   250
 10
-42.7664
 20
45.9919
 30
0.0
  0
VERTEX
  5
5D4
  8
CAMADA_1
 62
   250
 10
-43.1538
 20
45.9957
 30
0.0
  0
VERTEX
  5
5D5
  8
CAMADA_1
 62
   250
 10
-43.5366
 20
45.9909
 30
0.0
  0
VERTEX
  5
5D6
  8
CAMADA_1
 62
   250
 10
-43.9137
 20
45.9698
 30
0.0
  0
VERTEX
  5
5D7
  8
CAMADA_1
 62
   250
 10
-44.2839
 20
45.9247
 30
0.0
  0
VERTEX
  5
5D8
  8
CAMADA_1
 62
   250
 10
-44.6464
 20
45.8478
 30
0.0
  0
VERTEX
  5
5D9
  8
CAMADA_1
 62
   250
 10
-45.0001
 20
45.7316
 30
0.0
  0
VERTEX
  5
5DA
  8
CAMADA_1
 62
   250
 10
-45.3438
 20
45.5685
 30
0.0
  0
VERTEX
  5
5DB
  8
CAMADA_1
 62
   250
 10
-45.5362
 20
45.4613
 30
0.0
  0
VERTEX
  5
5DC
  8
CAMADA_1
 62
   250
 10
-45.7106
 20
45.2783
 30
0.0
  0
VERTEX
  5
5DD
  8
CAMADA_1
 62
   250
 10
-45.8632
 20
45.0354
 30
0.0
  0
VERTEX
  5
5DE
  8
CAMADA_1
 62
   250
 10
-45.9901
 20
44.7487
 30
0.0
  0
VERTEX
  5
5DF
  8
CAMADA_1
 62
   250
 10
-46.0875
 20
44.4342
 30
0.0
  0
VERTEX
  5
5E0
  8
CAMADA_1
 62
   250
 10
-46.1517
 20
44.108
 30
0.0
  0
VERTEX
  5
5E1
  8
CAMADA_1
 62
   250
 10
-46.1788
 20
43.7861
 30
0.0
  0
VERTEX
  5
5E2
  8
CAMADA_1
 62
   250
 10
-46.165
 20
43.4846
 30
0.0
  0
VERTEX
  5
5E3
  8
CAMADA_1
 62
   250
 10
-44.4236
 20
43.5116
 30
0.0
  0
VERTEX
  5
5E4
  8
CAMADA_1
 62
   250
 10
-44.4506
 20
40.8544
 30
0.0
  0
VERTEX
  5
5E5
  8
CAMADA_1
 62
   250
 10
-42.9974
 20
40.8544
 30
0.0
  0
VERTEX
  5
5E6
  8
CAMADA_1
 62
   250
 10
-43.0095
 20
43.0192
 30
0.0
  0
VERTEX
  5
5E7
  8
CAMADA_1
 62
   250
 10
-43.0095
 20
43.0192
 30
0.0
  0
SEQEND
  5
5E8
  8
CAMADA_1
 62
   250
  0
POLYLINE
  5
66
  8
CAMADA_1
 62
   250
 66
     1
 10
0.0
 20
0.0
 30
0.0
 70
     1
  0
VERTEX
  5
5E9
  8
CAMADA_1
 62
   250
 10
-37.6625
 20
36.3539
 30
0.0
  0
VERTEX
  5
5EA
  8
CAMADA_1
 62
   250
 10
-38.9746
 20
36.3419
 30
0.0
  0
VERTEX
  5
5EB
  8
CAMADA_1
 62
   250
 10
-38.9566
 20
38.5067
 30
0.0
  0
VERTEX
  5
5EC
  8
CAMADA_1
 62
   250
 10
-44.418
 20
38.4977
 30
0.0
  0
VERTEX
  5
5ED
  8
CAMADA_1
 62
   250
 10
-44.418
 20
37.1826
 30
0.0
  0
VERTEX
  5
5EE
  8
CAMADA_1
 62
   250
 10
-46.2435
 20
37.1916
 30
0.0
  0
VERTEX
  5
5EF
  8
CAMADA_1
 62
   250
 10
-46.2762
 20
36.7961
 30
0.0
  0
VERTEX
  5
5F0
  8
CAMADA_1
 62
   250
 10
-46.259
 20
36.4384
 30
0.0
  0
VERTEX
  5
5F1
  8
CAMADA_1
 62
   250
 10
-46.1962
 20
36.1189
 30
0.0
  0
VERTEX
  5
5F2
  8
CAMADA_1
 62
   250
 10
-46.0921
 20
35.8382
 30
0.0
  0
VERTEX
  5
5F3
  8
CAMADA_1
 62
   250
 10
-45.9508
 20
35.597
 30
0.0
  0
VERTEX
  5
5F4
  8
CAMADA_1
 62
   250
 10
-45.7766
 20
35.3957
 30
0.0
  0
VERTEX
  5
5F5
  8
CAMADA_1
 62
   250
 10
-45.5737
 20
35.235
 30
0.0
  0
VERTEX
  5
5F6
  8
CAMADA_1
 62
   250
 10
-45.3463
 20
35.1153
 30
0.0
  0
VERTEX
  5
5F7
  8
CAMADA_1
 62
   250
 10
-45.0197
 20
35.0414
 30
0.0
  0
VERTEX
  5
5F8
  8
CAMADA_1
 62
   250
 10
-44.6932
 20
34.9912
 30
0.0
  0
VERTEX
  5
5F9
  8
CAMADA_1
 62
   250
 10
-44.3666
 20
34.9654
 30
0.0
  0
VERTEX
  5
5FA
  8
CAMADA_1
 62
   250
 10
-44.0401
 20
34.9645
 30
0.0
  0
VERTEX
  5
5FB
  8
CAMADA_1
 62
   250
 10
-43.7135
 20
34.9891
 30
0.0
  0
VERTEX
  5
5FC
  8
CAMADA_1
 62
   250
 10
-43.3869
 20
35.0398
 30
0.0
  0
VERTEX
  5
5FD
  8
CAMADA_1
 62
   250
 10
-43.0604
 20
35.1172
 30
0.0
  0
VERTEX
  5
5FE
  8
CAMADA_1
 62
   250
 10
-42.7338
 20
35.2219
 30
0.0
  0
VERTEX
  5
5FF
  8
CAMADA_1
 62
   250
 10
-42.5259
 20
35.2989
 30
0.0
  0
VERTEX
  5
600
  8
CAMADA_1
 62
   250
 10
-42.328
 20
35.3601
 30
0.0
  0
VERTEX
  5
601
  8
CAMADA_1
 62
   250
 10
-42.1377
 20
35.4
 30
0.0
  0
VERTEX
  5
602
  8
CAMADA_1
 62
   250
 10
-41.9525
 20
35.413
 30
0.0
  0
VERTEX
  5
603
  8
CAMADA_1
 62
   250
 10
-41.7702
 20
35.3936
 30
0.0
  0
VERTEX
  5
604
  8
CAMADA_1
 62
   250
 10
-41.5883
 20
35.336
 30
0.0
  0
VERTEX
  5
605
  8
CAMADA_1
 62
   250
 10
-41.4045
 20
35.2349
 30
0.0
  0
VERTEX
  5
606
  8
CAMADA_1
 62
   250
 10
-41.2162
 20
35.0847
 30
0.0
  0
VERTEX
  5
607
  8
CAMADA_1
 62
   250
 10
-40.9372
 20
34.7594
 30
0.0
  0
VERTEX
  5
608
  8
CAMADA_1
 62
   250
 10
-40.6416
 20
34.4558
 30
0.0
  0
VERTEX
  5
609
  8
CAMADA_1
 62
   250
 10
-40.3254
 20
34.1792
 30
0.0
  0
VERTEX
  5
60A
  8
CAMADA_1
 62
   250
 10
-39.9848
 20
33.9349
 30
0.0
  0
VERTEX
  5
60B
  8
CAMADA_1
 62
   250
 10
-39.6156
 20
33.7282
 30
0.0
  0
VERTEX
  5
60C
  8
CAMADA_1
 62
   250
 10
-39.2138
 20
33.5643
 30
0.0
  0
VERTEX
  5
60D
  8
CAMADA_1
 62
   250
 10
-38.7755
 20
33.4485
 30
0.0
  0
VERTEX
  5
60E
  8
CAMADA_1
 62
   250
 10
-38.2965
 20
33.3862
 30
0.0
  0
VERTEX
  5
60F
  8
CAMADA_1
 62
   250
 10
-37.9055
 20
33.3812
 30
0.0
  0
VERTEX
  5
610
  8
CAMADA_1
 62
   250
 10
-37.5181
 20
33.3774
 30
0.0
  0
VERTEX
  5
611
  8
CAMADA_1
 62
   250
 10
-37.1354
 20
33.3822
 30
0.0
  0
VERTEX
  5
612
  8
CAMADA_1
 62
   250
 10
-36.7583
 20
33.4033
 30
0.0
  0
VERTEX
  5
613
  8
CAMADA_1
 62
   250
 10
-36.388
 20
33.4484
 30
0.0
  0
VERTEX
  5
614
  8
CAMADA_1
 62
   250
 10
-36.0255
 20
33.5253
 30
0.0
  0
VERTEX
  5
615
  8
CAMADA_1
 62
   250
 10
-35.6719
 20
33.6415
 30
0.0
  0
VERTEX
  5
616
  8
CAMADA_1
 62
   250
 10
-35.3281
 20
33.8046
 30
0.0
  0
VERTEX
  5
617
  8
CAMADA_1
 62
   250
 10
-35.1357
 20
33.9118
 30
0.0
  0
VERTEX
  5
618
  8
CAMADA_1
 62
   250
 10
-34.9613
 20
34.0948
 30
0.0
  0
VERTEX
  5
619
  8
CAMADA_1
 62
   250
 10
-34.8088
 20
34.3377
 30
0.0
  0
VERTEX
  5
61A
  8
CAMADA_1
 62
   250
 10
-34.6819
 20
34.6244
 30
0.0
  0
VERTEX
  5
61B
  8
CAMADA_1
 62
   250
 10
-34.5845
 20
34.9389
 30
0.0
  0
VERTEX
  5
61C
  8
CAMADA_1
 62
   250
 10
-34.5203
 20
35.2651
 30
0.0
  0
VERTEX
  5
61D
  8
CAMADA_1
 62
   250
 10
-34.4932
 20
35.587
 30
0.0
  0
VERTEX
  5
61E
  8
CAMADA_1
 62
   250
 10
-34.5069
 20
35.8885
 30
0.0
  0
VERTEX
  5
61F
  8
CAMADA_1
 62
   250
 10
-36.2483
 20
35.8615
 30
0.0
  0
VERTEX
  5
620
  8
CAMADA_1
 62
   250
 10
-36.2213
 20
38.5187
 30
0.0
  0
VERTEX
  5
621
  8
CAMADA_1
 62
   250
 10
-37.6745
 20
38.5187
 30
0.0
  0
VERTEX
  5
622
  8
CAMADA_1
 62
   250
 10
-37.6625
 20
36.3539
 30
0.0
  0
VERTEX
  5
623
  8
CAMADA_1
 62
   250
 10
-37.6625
 20
36.3539
 30
0.0
  0
SEQEND
  5
624
  8
CAMADA_1
 62
   250
  0
POLYLINE
  5
67
  8
CAMADA_1
 62
   250
 66
     1
 10
0.0
 20
0.0
 30
0.0
 70
     1
  0
VERTEX
  5
625
  8
CAMADA_1
 62
   250
 10
-37.6625
 20
20.7202
 30
0.0
  0
VERTEX
  5
626
  8
CAMADA_1
 62
   250
 10
-38.9746
 20
20.7082
 30
0.0
  0
VERTEX
  5
627
  8
CAMADA_1
 62
   250
 10
-38.9566
 20
22.8729
 30
0.0
  0
VERTEX
  5
628
  8
CAMADA_1
 62
   250
 10
-44.418
 20
22.8639
 30
0.0
  0
VERTEX
  5
629
  8
CAMADA_1
 62
   250
 10
-44.418
 20
21.5489
 30
0.0
  0
VERTEX
  5
62A
  8
CAMADA_1
 62
   250
 10
-46.2435
 20
21.5579
 30
0.0
  0
VERTEX
  5
62B
  8
CAMADA_1
 62
   250
 10
-46.2762
 20
21.1624
 30
0.0
  0
VERTEX
  5
62C
  8
CAMADA_1
 62
   250
 10
-46.259
 20
20.8046
 30
0.0
  0
VERTEX
  5
62D
  8
CAMADA_1
 62
   250
 10
-46.1962
 20
20.4851
 30
0.0
  0
VERTEX
  5
62E
  8
CAMADA_1
 62
   250
 10
-46.0921
 20
20.2045
 30
0.0
  0
VERTEX
  5
62F
  8
CAMADA_1
 62
   250
 10
-45.9508
 20
19.9633
 30
0.0
  0
VERTEX
  5
630
  8
CAMADA_1
 62
   250
 10
-45.7766
 20
19.762
 30
0.0
  0
VERTEX
  5
631
  8
CAMADA_1
 62
   250
 10
-45.5737
 20
19.6012
 30
0.0
  0
VERTEX
  5
632
  8
CAMADA_1
 62
   250
 10
-45.3463
 20
19.4815
 30
0.0
  0
VERTEX
  5
633
  8
CAMADA_1
 62
   250
 10
-45.0197
 20
19.4076
 30
0.0
  0
VERTEX
  5
634
  8
CAMADA_1
 62
   250
 10
-44.6932
 20
19.3575
 30
0.0
  0
VERTEX
  5
635
  8
CAMADA_1
 62
   250
 10
-44.3666
 20
19.3316
 30
0.0
  0
VERTEX
  5
636
  8
CAMADA_1
 62
   250
 10
-44.0401
 20
19.3307
 30
0.0
  0
VERTEX
  5
637
  8
CAMADA_1
 62
   250
 10
-43.7135
 20
19.3553
 30
0.0
  0
VERTEX
  5
638
  8
CAMADA_1
 62
   250
 10
-43.3869
 20
19.406
 30
0.0
  0
VERTEX
  5
639
  8
CAMADA_1
 62
   250
 10
-43.0604
 20
19.4835
 30
0.0
  0
VERTEX
  5
63A
  8
CAMADA_1
 62
   250
 10
-42.7338
 20
19.5882
 30
0.0
  0
VERTEX
  5
63B
  8
CAMADA_1
 62
   250
 10
-42.5259
 20
19.6652
 30
0.0
  0
VERTEX
  5
63C
  8
CAMADA_1
 62
   250
 10
-42.328
 20
19.7264
 30
0.0
  0
VERTEX
  5
63D
  8
CAMADA_1
 62
   250
 10
-42.1377
 20
19.7663
 30
0.0
  0
VERTEX
  5
63E
  8
CAMADA_1
 62
   250
 10
-41.9525
 20
19.7793
 30
0.0
  0
VERTEX
  5
63F
  8
CAMADA_1
 62
   250
 10
-41.7702
 20
19.7598
 30
0.0
  0
VERTEX
  5
640
  8
CAMADA_1
 62
   250
 10
-41.5883
 20
19.7023
 30
0.0
  0
VERTEX
  5
641
  8
CAMADA_1
 62
   250
 10
-41.4045
 20
19.6012
 30
0.0
  0
VERTEX
  5
642
  8
CAMADA_1
 62
   250
 10
-41.2162
 20
19.451
 30
0.0
  0
VERTEX
  5
643
  8
CAMADA_1
 62
   250
 10
-40.9372
 20
19.1257
 30
0.0
  0
VERTEX
  5
644
  8
CAMADA_1
 62
   250
 10
-40.6416
 20
18.8221
 30
0.0
  0
VERTEX
  5
645
  8
CAMADA_1
 62
   250
 10
-40.3254
 20
18.5455
 30
0.0
  0
VERTEX
  5
646
  8
CAMADA_1
 62
   250
 10
-39.9848
 20
18.3012
 30
0.0
  0
VERTEX
  5
647
  8
CAMADA_1
 62
   250
 10
-39.6156
 20
18.0944
 30
0.0
  0
VERTEX
  5
648
  8
CAMADA_1
 62
   250
 10
-39.2138
 20
17.9305
 30
0.0
  0
VERTEX
  5
649
  8
CAMADA_1
 62
   250
 10
-38.7755
 20
17.8148
 30
0.0
  0
VERTEX
  5
64A
  8
CAMADA_1
 62
   250
 10
-38.2965
 20
17.7524
 30
0.0
  0
VERTEX
  5
64B
  8
CAMADA_1
 62
   250
 10
-37.9055
 20
17.7475
 30
0.0
  0
VERTEX
  5
64C
  8
CAMADA_1
 62
   250
 10
-37.5181
 20
17.7436
 30
0.0
  0
VERTEX
  5
64D
  8
CAMADA_1
 62
   250
 10
-37.1354
 20
17.7484
 30
0.0
  0
VERTEX
  5
64E
  8
CAMADA_1
 62
   250
 10
-36.7583
 20
17.7696
 30
0.0
  0
VERTEX
  5
64F
  8
CAMADA_1
 62
   250
 10
-36.388
 20
17.8147
 30
0.0
  0
VERTEX
  5
650
  8
CAMADA_1
 62
   250
 10
-36.0255
 20
17.8916
 30
0.0
  0
VERTEX
  5
651
  8
CAMADA_1
 62
   250
 10
-35.6719
 20
18.0077
 30
0.0
  0
VERTEX
  5
652
  8
CAMADA_1
 62
   250
 10
-35.3281
 20
18.1709
 30
0.0
  0
VERTEX
  5
653
  8
CAMADA_1
 62
   250
 10
-35.1357
 20
18.2781
 30
0.0
  0
VERTEX
  5
654
  8
CAMADA_1
 62
   250
 10
-34.9613
 20
18.4611
 30
0.0
  0
VERTEX
  5
655
  8
CAMADA_1
 62
   250
 10
-34.8088
 20
18.704
 30
0.0
  0
VERTEX
  5
656
  8
CAMADA_1
 62
   250
 10
-34.6819
 20
18.9907
 30
0.0
  0
VERTEX
  5
657
  8
CAMADA_1
 62
   250
 10
-34.5845
 20
19.3052
 30
0.0
  0
VERTEX
  5
658
  8
CAMADA_1
 62
   250
 10
-34.5203
 20
19.6314
 30
0.0
  0
VERTEX
  5
659
  8
CAMADA_1
 62
   250
 10
-34.4932
 20
19.9532
 30
0.0
  0
VERTEX
  5
65A
  8
CAMADA_1
 62
   250
 10
-34.5069
 20
20.2548
 30
0.0
  0
VERTEX
  5
65B
  8
CAMADA_1
 62
   250
 10
-36.2483
 20
20.2278
 30
0.0
  0
VERTEX
  5
65C
  8
CAMADA_1
 62
   250
 10
-36.2213
 20
22.885
 30
0.0
  0
VERTEX
  5
65D
  8
CAMADA_1
 62
   250
 10
-37.6745
 20
22.885
 30
0.0
  0
VERTEX
  5
65E
  8
CAMADA_1
 62
   250
 10
-37.6625
 20
20.7202
 30
0.0
  0
VERTEX
  5
65F
  8
CAMADA_1
 62
   250
 10
-37.6625
 20
20.7202
 30
0.0
  0
SEQEND
  5
660
  8
CAMADA_1
 62
   250
  0
POLYLINE
  5
68
  8
CAMADA_1
 62
   250
 66
     1
 10
0.0
 20
0.0
 30
0.0
 70
     1
  0
VERTEX
  5
661
  8
CAMADA_1
 62
   250
 10
-43.2036
 20
28.4536
 30
0.0
  0
VERTEX
  5
662
  8
CAMADA_1
 62
   250
 10
-41.8915
 20
28.4656
 30
0.0
  0
VERTEX
  5
663
  8
CAMADA_1
 62
   250
 10
-41.9095
 20
26.3008
 30
0.0
  0
VERTEX
  5
664
  8
CAMADA_1
 62
   250
 10
-36.448
 20
26.3098
 30
0.0
  0
VERTEX
  5
665
  8
CAMADA_1
 62
   250
 10
-36.448
 20
27.6249
 30
0.0
  0
VERTEX
  5
666
  8
CAMADA_1
 62
   250
 10
-34.6225
 20
27.6159
 30
0.0
  0
VERTEX
  5
667
  8
CAMADA_1
 62
   250
 10
-34.5899
 20
28.0114
 30
0.0
  0
VERTEX
  5
668
  8
CAMADA_1
 62
   250
 10
-34.6071
 20
28.3691
 30
0.0
  0
VERTEX
  5
669
  8
CAMADA_1
 62
   250
 10
-34.6698
 20
28.6886
 30
0.0
  0
VERTEX
  5
66A
  8
CAMADA_1
 62
   250
 10
-34.774
 20
28.9693
 30
0.0
  0
VERTEX
  5
66B
  8
CAMADA_1
 62
   250
 10
-34.9153
 20
29.2105
 30
0.0
  0
VERTEX
  5
66C
  8
CAMADA_1
 62
   250
 10
-35.0895
 20
29.4118
 30
0.0
  0
VERTEX
  5
66D
  8
CAMADA_1
 62
   250
 10
-35.2924
 20
29.5725
 30
0.0
  0
VERTEX
  5
66E
  8
CAMADA_1
 62
   250
 10
-35.5198
 20
29.6922
 30
0.0
  0
VERTEX
  5
66F
  8
CAMADA_1
 62
   250
 10
-35.8463
 20
29.7661
 30
0.0
  0
VERTEX
  5
670
  8
CAMADA_1
 62
   250
 10
-36.1729
 20
29.8163
 30
0.0
  0
VERTEX
  5
671
  8
CAMADA_1
 62
   250
 10
-36.4995
 20
29.8421
 30
0.0
  0
VERTEX
  5
672
  8
CAMADA_1
 62
   250
 10
-36.826
 20
29.843
 30
0.0
  0
VERTEX
  5
673
  8
CAMADA_1
 62
   250
 10
-37.1526
 20
29.8184
 30
0.0
  0
VERTEX
  5
674
  8
CAMADA_1
 62
   250
 10
-37.4791
 20
29.7677
 30
0.0
  0
VERTEX
  5
675
  8
CAMADA_1
 62
   250
 10
-37.8057
 20
29.6903
 30
0.0
  0
VERTEX
  5
676
  8
CAMADA_1
 62
   250
 10
-38.1322
 20
29.5856
 30
0.0
  0
VERTEX
  5
677
  8
CAMADA_1
 62
   250
 10
-38.3401
 20
29.5086
 30
0.0
  0
VERTEX
  5
678
  8
CAMADA_1
 62
   250
 10
-38.5381
 20
29.4474
 30
0.0
  0
VERTEX
  5
679
  8
CAMADA_1
 62
   250
 10
-38.7284
 20
29.4075
 30
0.0
  0
VERTEX
  5
67A
  8
CAMADA_1
 62
   250
 10
-38.9135
 20
29.3945
 30
0.0
  0
VERTEX
  5
67B
  8
CAMADA_1
 62
   250
 10
-39.0959
 20
29.4139
 30
0.0
  0
VERTEX
  5
67C
  8
CAMADA_1
 62
   250
 10
-39.2778
 20
29.4715
 30
0.0
  0
VERTEX
  5
67D
  8
CAMADA_1
 62
   250
 10
-39.4616
 20
29.5726
 30
0.0
  0
VERTEX
  5
67E
  8
CAMADA_1
 62
   250
 10
-39.6498
 20
29.7228
 30
0.0
  0
VERTEX
  5
67F
  8
CAMADA_1
 62
   250
 10
-39.9289
 20
30.0481
 30
0.0
  0
VERTEX
  5
680
  8
CAMADA_1
 62
   250
 10
-40.2245
 20
30.3517
 30
0.0
  0
VERTEX
  5
681
  8
CAMADA_1
 62
   250
 10
-40.5406
 20
30.6283
 30
0.0
  0
VERTEX
  5
682
  8
CAMADA_1
 62
   250
 10
-40.8813
 20
30.8726
 30
0.0
  0
VERTEX
  5
683
  8
CAMADA_1
 62
   250
 10
-41.2505
 20
31.0793
 30
0.0
  0
VERTEX
  5
684
  8
CAMADA_1
 62
   250
 10
-41.6523
 20
31.2432
 30
0.0
  0
VERTEX
  5
685
  8
CAMADA_1
 62
   250
 10
-42.0906
 20
31.359
 30
0.0
  0
VERTEX
  5
686
  8
CAMADA_1
 62
   250
 10
-42.5695
 20
31.4213
 30
0.0
  0
VERTEX
  5
687
  8
CAMADA_1
 62
   250
 10
-42.9606
 20
31.4263
 30
0.0
  0
VERTEX
  5
688
  8
CAMADA_1
 62
   250
 10
-43.3479
 20
31.4301
 30
0.0
  0
VERTEX
  5
689
  8
CAMADA_1
 62
   250
 10
-43.7307
 20
31.4253
 30
0.0
  0
VERTEX
  5
68A
  8
CAMADA_1
 62
   250
 10
-44.1078
 20
31.4042
 30
0.0
  0
VERTEX
  5
68B
  8
CAMADA_1
 62
   250
 10
-44.4781
 20
31.3591
 30
0.0
  0
VERTEX
  5
68C
  8
CAMADA_1
 62
   250
 10
-44.8406
 20
31.2822
 30
0.0
  0
VERTEX
  5
68D
  8
CAMADA_1
 62
   250
 10
-45.1942
 20
31.166
 30
0.0
  0
VERTEX
  5
68E
  8
CAMADA_1
 62
   250
 10
-45.5379
 20
31.0029
 30
0.0
  0
VERTEX
  5
68F
  8
CAMADA_1
 62
   250
 10
-45.7304
 20
30.8957
 30
0.0
  0
VERTEX
  5
690
  8
CAMADA_1
 62
   250
 10
-45.9048
 20
30.7127
 30
0.0
  0
VERTEX
  5
691
  8
CAMADA_1
 62
   250
 10
-46.0573
 20
30.4698
 30
0.0
  0
VERTEX
  5
692
  8
CAMADA_1
 62
   250
 10
-46.1842
 20
30.1831
 30
0.0
  0
VERTEX
  5
693
  8
CAMADA_1
 62
   250
 10
-46.2816
 20
29.8686
 30
0.0
  0
VERTEX
  5
694
  8
CAMADA_1
 62
   250
 10
-46.3458
 20
29.5424
 30
0.0
  0
VERTEX
  5
695
  8
CAMADA_1
 62
   250
 10
-46.3729
 20
29.2205
 30
0.0
  0
VERTEX
  5
696
  8
CAMADA_1
 62
   250
 10
-46.3592
 20
28.919
 30
0.0
  0
VERTEX
  5
697
  8
CAMADA_1
 62
   250
 10
-44.6177
 20
28.946
 30
0.0
  0
VERTEX
  5
698
  8
CAMADA_1
 62
   250
 10
-44.6447
 20
26.2888
 30
0.0
  0
VERTEX
  5
699
  8
CAMADA_1
 62
   250
 10
-43.1916
 20
26.2888
 30
0.0
  0
VERTEX
  5
69A
  8
CAMADA_1
 62
   250
 10
-43.2036
 20
28.4536
 30
0.0
  0
VERTEX
  5
69B
  8
CAMADA_1
 62
   250
 10
-43.2036
 20
28.4536
 30
0.0
  0
SEQEND
  5
69C
  8
CAMADA_1
 62
   250
  0
POLYLINE
  5
69
  8
CAMADA_1
 62
   250
 66
     1
 10
0.0
 20
0.0
 30
0.0
 70
     1
  0
VERTEX
  5
69D
  8
CAMADA_1
 62
   250
 10
-22.9499
 20
44.4316
 30
0.0
  0
VERTEX
  5
69E
  8
CAMADA_1
 62
   250
 10
-24.0987
 20
43.7868
 30
0.0
  0
VERTEX
  5
69F
  8
CAMADA_1
 62
   250
 10
-22.7305
 20
41.4675
 30
0.0
  0
VERTEX
  5
6A0
  8
CAMADA_1
 62
   250
 10
-23.0301
 20
41.3459
 30
0.0
  0
VERTEX
  5
6A1
  8
CAMADA_1
 62
   250
 10
-23.3424
 20
41.226
 30
0.0
  0
VERTEX
  5
6A2
  8
CAMADA_1
 62
   250
 10
-23.501
 20
41.1693
 30
0.0
  0
VERTEX
  5
6A3
  8
CAMADA_1
 62
   250
 10
-23.66
 20
41.1165
 30
0.0
  0
VERTEX
  5
6A4
  8
CAMADA_1
 62
   250
 10
-23.8185
 20
41.0685
 30
0.0
  0
VERTEX
  5
6A5
  8
CAMADA_1
 62
   250
 10
-23.9754
 20
41.0266
 30
0.0
  0
VERTEX
  5
6A6
  8
CAMADA_1
 62
   250
 10
-24.5646
 20
41.5165
 30
0.0
  0
VERTEX
  5
6A7
  8
CAMADA_1
 62
   250
 10
-25.1469
 20
41.8624
 30
0.0
  0
VERTEX
  5
6A8
  8
CAMADA_1
 62
   250
 10
-25.7216
 20
42.0677
 30
0.0
  0
VERTEX
  5
6A9
  8
CAMADA_1
 62
   250
 10
-26.288
 20
42.1358
 30
0.0
  0
VERTEX
  5
6AA
  8
CAMADA_1
 62
   250
 10
-26.8457
 20
42.0702
 30
0.0
  0
VERTEX
  5
6AB
  8
CAMADA_1
 62
   250
 10
-27.3938
 20
41.8744
 30
0.0
  0
VERTEX
  5
6AC
  8
CAMADA_1
 62
   250
 10
-27.9319
 20
41.5519
 30
0.0
  0
VERTEX
  5
6AD
  8
CAMADA_1
 62
   250
 10
-28.4592
 20
41.1061
 30
0.0
  0
VERTEX
  5
6AE
  8
CAMADA_1
 62
   250
 10
-28.8974
 20
41.2638
 30
0.0
  0
VERTEX
  5
6AF
  8
CAMADA_1
 62
   250
 10
-29.3301
 20
41.4473
 30
0.0
  0
VERTEX
  5
6B0
  8
CAMADA_1
 62
   250
 10
-29.7548
 20
41.6559
 30
0.0
  0
VERTEX
  5
6B1
  8
CAMADA_1
 62
   250
 10
-30.1688
 20
41.8887
 30
0.0
  0
VERTEX
  5
6B2
  8
CAMADA_1
 62
   250
 10
-30.5696
 20
42.1451
 30
0.0
  0
VERTEX
  5
6B3
  8
CAMADA_1
 62
   250
 10
-30.9546
 20
42.4242
 30
0.0
  0
VERTEX
  5
6B4
  8
CAMADA_1
 62
   250
 10
-31.3213
 20
42.7253
 30
0.0
  0
VERTEX
  5
6B5
  8
CAMADA_1
 62
   250
 10
-31.667
 20
43.0474
 30
0.0
  0
VERTEX
  5
6B6
  8
CAMADA_1
 62
   250
 10
-31.5709
 20
43.8075
 30
0.0
  0
VERTEX
  5
6B7
  8
CAMADA_1
 62
   250
 10
-31.5689
 20
44.4642
 30
0.0
  0
VERTEX
  5
6B8
  8
CAMADA_1
 62
   250
 10
-31.666
 20
45.0297
 30
0.0
  0
VERTEX
  5
6B9
  8
CAMADA_1
 62
   250
 10
-31.867
 20
45.5157
 30
0.0
  0
VERTEX
  5
6BA
  8
CAMADA_1
 62
   250
 10
-32.1771
 20
45.9342
 30
0.0
  0
VERTEX
  5
6BB
  8
CAMADA_1
 62
   250
 10
-32.6012
 20
46.2973
 30
0.0
  0
VERTEX
  5
6BC
  8
CAMADA_1
 62
   250
 10
-33.1443
 20
46.6169
 30
0.0
  0
VERTEX
  5
6BD
  8
CAMADA_1
 62
   250
 10
-33.8113
 20
46.9049
 30
0.0
  0
VERTEX
  5
6BE
  8
CAMADA_1
 62
   250
 10
-33.9352
 20
47.9842
 30
0.0
  0
VERTEX
  5
6BF
  8
CAMADA_1
 62
   250
 10
-31.3127
 20
47.9532
 30
0.0
  0
VERTEX
  5
6C0
  8
CAMADA_1
 62
   250
 10
-31.3231
 20
49.2886
 30
0.0
  0
VERTEX
  5
6C1
  8
CAMADA_1
 62
   250
 10
-33.967
 20
49.2539
 30
0.0
  0
VERTEX
  5
6C2
  8
CAMADA_1
 62
   250
 10
-33.7753
 20
50.5157
 30
0.0
  0
VERTEX
  5
6C3
  8
CAMADA_1
 62
   250
 10
-33.1622
 20
50.7514
 30
0.0
  0
VERTEX
  5
6C4
  8
CAMADA_1
 62
   250
 10
-32.62
 20
51.0411
 30
0.0
  0
VERTEX
  5
6C5
  8
CAMADA_1
 62
   250
 10
-32.1588
 20
51.3926
 30
0.0
  0
VERTEX
  5
6C6
  8
CAMADA_1
 62
   250
 10
-31.7887
 20
51.8135
 30
0.0
  0
VERTEX
  5
6C7
  8
CAMADA_1
 62
   250
 10
-31.5201
 20
52.3114
 30
0.0
  0
VERTEX
  5
6C8
  8
CAMADA_1
 62
   250
 10
-31.3631
 20
52.8942
 30
0.0
  0
VERTEX
  5
6C9
  8
CAMADA_1
 62
   250
 10
-31.3279
 20
53.5693
 30
0.0
  0
VERTEX
  5
6CA
  8
CAMADA_1
 62
   250
 10
-31.4248
 20
54.3446
 30
0.0
  0
VERTEX
  5
6CB
  8
CAMADA_1
 62
   250
 10
-31.0755
 20
54.6459
 30
0.0
  0
VERTEX
  5
6CC
  8
CAMADA_1
 62
   250
 10
-30.7167
 20
54.9288
 30
0.0
  0
VERTEX
  5
6CD
  8
CAMADA_1
 62
   250
 10
-30.3459
 20
55.1918
 30
0.0
  0
VERTEX
  5
6CE
  8
CAMADA_1
 62
   250
 10
-29.9607
 20
55.4333
 30
0.0
  0
VERTEX
  5
6CF
  8
CAMADA_1
 62
   250
 10
-29.5588
 20
55.6518
 30
0.0
  0
VERTEX
  5
6D0
  8
CAMADA_1
 62
   250
 10
-29.1376
 20
55.8458
 30
0.0
  0
VERTEX
  5
6D1
  8
CAMADA_1
 62
   250
 10
-28.6947
 20
56.0137
 30
0.0
  0
VERTEX
  5
6D2
  8
CAMADA_1
 62
   250
 10
-28.2278
 20
56.154
 30
0.0
  0
VERTEX
  5
6D3
  8
CAMADA_1
 62
   250
 10
-27.6316
 20
55.6876
 30
0.0
  0
VERTEX
  5
6D4
  8
CAMADA_1
 62
   250
 10
-27.0527
 20
55.3589
 30
0.0
  0
VERTEX
  5
6D5
  8
CAMADA_1
 62
   250
 10
-26.4876
 20
55.1657
 30
0.0
  0
VERTEX
  5
6D6
  8
CAMADA_1
 62
   250
 10
-25.9329
 20
55.1057
 30
0.0
  0
VERTEX
  5
6D7
  8
CAMADA_1
 62
   250
 10
-25.3853
 20
55.1764
 30
0.0
  0
VERTEX
  5
6D8
  8
CAMADA_1
 62
   250
 10
-24.8413
 20
55.3757
 30
0.0
  0
VERTEX
  5
6D9
  8
CAMADA_1
 62
   250
 10
-24.2975
 20
55.701
 30
0.0
  0
VERTEX
  5
6DA
  8
CAMADA_1
 62
   250
 10
-23.7506
 20
56.1501
 30
0.0
  0
VERTEX
  5
6DB
  8
CAMADA_1
 62
   250
 10
-22.7067
 20
55.7352
 30
0.0
  0
VERTEX
  5
6DC
  8
CAMADA_1
 62
   250
 10
-24.0274
 20
53.4678
 30
0.0
  0
VERTEX
  5
6DD
  8
CAMADA_1
 62
   250
 10
-22.8888
 20
52.8207
 30
0.0
  0
VERTEX
  5
6DE
  8
CAMADA_1
 62
   250
 10
-21.5344
 20
55.0622
 30
0.0
  0
VERTEX
  5
6DF
  8
CAMADA_1
 62
   250
 10
-20.7102
 20
54.2852
 30
0.0
  0
VERTEX
  5
6E0
  8
CAMADA_1
 62
   250
 10
-20.8149
 20
53.5432
 30
0.0
  0
VERTEX
  5
6E1
  8
CAMADA_1
 62
   250
 10
-20.8064
 20
52.8833
 30
0.0
  0
VERTEX
  5
6E2
  8
CAMADA_1
 62
   250
 10
-20.6851
 20
52.3015
 30
0.0
  0
VERTEX
  5
6E3
  8
CAMADA_1
 62
   250
 10
-20.4516
 20
51.7938
 30
0.0
  0
VERTEX
  5
6E4
  8
CAMADA_1
 62
   250
 10
-20.1063
 20
51.3561
 30
0.0
  0
VERTEX
  5
6E5
  8
CAMADA_1
 62
   250
 10
-19.6496
 20
50.9844
 30
0.0
  0
VERTEX
  5
6E6
  8
CAMADA_1
 62
   250
 10
-19.0822
 20
50.6745
 30
0.0
  0
VERTEX
  5
6E7
  8
CAMADA_1
 62
   250
 10
-18.4045
 20
50.4224
 30
0.0
  0
VERTEX
  5
6E8
  8
CAMADA_1
 62
   250
 10
-18.3195
 20
49.9687
 30
0.0
  0
VERTEX
  5
6E9
  8
CAMADA_1
 62
   250
 10
-18.2582
 20
49.5166
 30
0.0
  0
VERTEX
  5
6EA
  8
CAMADA_1
 62
   250
 10
-18.2221
 20
49.0643
 30
0.0
  0
VERTEX
  5
6EB
  8
CAMADA_1
 62
   250
 10
-18.2127
 20
48.6101
 30
0.0
  0
VERTEX
  5
6EC
  8
CAMADA_1
 62
   250
 10
-18.2317
 20
48.1523
 30
0.0
  0
VERTEX
  5
6ED
  8
CAMADA_1
 62
   250
 10
-18.2805
 20
47.6892
 30
0.0
  0
VERTEX
  5
6EE
  8
CAMADA_1
 62
   250
 10
-18.3607
 20
47.2191
 30
0.0
  0
VERTEX
  5
6EF
  8
CAMADA_1
 62
   250
 10
-18.474
 20
46.7404
 30
0.0
  0
VERTEX
  5
6F0
  8
CAMADA_1
 62
   250
 10
-19.1854
 20
46.4476
 30
0.0
  0
VERTEX
  5
6F1
  8
CAMADA_1
 62
   250
 10
-19.7534
 20
46.1066
 30
0.0
  0
VERTEX
  5
6F2
  8
CAMADA_1
 62
   250
 10
-20.1883
 20
45.7132
 30
0.0
  0
VERTEX
  5
6F3
  8
CAMADA_1
 62
   250
 10
-20.5004
 20
45.263
 30
0.0
  0
VERTEX
  5
6F4
  8
CAMADA_1
 62
   250
 10
-20.6999
 20
44.7517
 30
0.0
  0
VERTEX
  5
6F5
  8
CAMADA_1
 62
   250
 10
-20.7973
 20
44.175
 30
0.0
  0
VERTEX
  5
6F6
  8
CAMADA_1
 62
   250
 10
-20.8027
 20
43.5286
 30
0.0
  0
VERTEX
  5
6F7
  8
CAMADA_1
 62
   250
 10
-20.7266
 20
42.8082
 30
0.0
  0
VERTEX
  5
6F8
  8
CAMADA_1
 62
   250
 10
-21.5937
 20
42.1615
 30
0.0
  0
VERTEX
  5
6F9
  8
CAMADA_1
 62
   250
 10
-22.9499
 20
44.4316
 30
0.0
  0
VERTEX
  5
6FA
  8
CAMADA_1
 62
   250
 10
-22.9499
 20
44.4316
 30
0.0
  0
SEQEND
  5
6FB
  8
CAMADA_1
 62
   250
  0
POLYLINE
  5
6A
  8
CAMADA_1
 62
   250
 66
     1
 10
0.0
 20
0.0
 30
0.0
 70
     1
  0
VERTEX
  5
6FC
  8
CAMADA_1
 62
   250
 10
-28.3446
 20
47.4319
 30
0.0
  0
VERTEX
  5
6FD
  8
CAMADA_1
 62
   250
 10
-28.5441
 20
47.8956
 30
0.0
  0
VERTEX
  5
6FE
  8
CAMADA_1
 62
   250
 10
-28.6442
 20
48.3751
 30
0.0
  0
VERTEX
  5
6FF
  8
CAMADA_1
 62
   250
 10
-28.6487
 20
48.8569
 30
0.0
  0
VERTEX
  5
700
  8
CAMADA_1
 62
   250
 10
-28.5617
 20
49.3272
 30
0.0
  0
VERTEX
  5
701
  8
CAMADA_1
 62
   250
 10
-28.3869
 20
49.7724
 30
0.0
  0
VERTEX
  5
702
  8
CAMADA_1
 62
   250
 10
-28.1283
 20
50.1789
 30
0.0
  0
VERTEX
  5
703
  8
CAMADA_1
 62
   250
 10
-27.7897
 20
50.5329
 30
0.0
  0
VERTEX
  5
704
  8
CAMADA_1
 62
   250
 10
-27.3752
 20
50.821
 30
0.0
  0
VERTEX
  5
705
  8
CAMADA_1
 62
   250
 10
-26.9115
 20
51.0206
 30
0.0
  0
VERTEX
  5
706
  8
CAMADA_1
 62
   250
 10
-26.4319
 20
51.1207
 30
0.0
  0
VERTEX
  5
707
  8
CAMADA_1
 62
   250
 10
-25.9501
 20
51.1252
 30
0.0
  0
VERTEX
  5
708
  8
CAMADA_1
 62
   250
 10
-25.4798
 20
51.0382
 30
0.0
  0
VERTEX
  5
709
  8
CAMADA_1
 62
   250
 10
-25.0347
 20
50.8634
 30
0.0
  0
VERTEX
  5
70A
  8
CAMADA_1
 62
   250
 10
-24.6282
 20
50.6048
 30
0.0
  0
VERTEX
  5
70B
  8
CAMADA_1
 62
   250
 10
-24.2741
 20
50.2662
 30
0.0
  0
VERTEX
  5
70C
  8
CAMADA_1
 62
   250
 10
-23.986
 20
49.8516
 30
0.0
  0
VERTEX
  5
70D
  8
CAMADA_1
 62
   250
 10
-23.7865
 20
49.3879
 30
0.0
  0
VERTEX
  5
70E
  8
CAMADA_1
 62
   250
 10
-23.6864
 20
48.9084
 30
0.0
  0
VERTEX
  5
70F
  8
CAMADA_1
 62
   250
 10
-23.6818
 20
48.4266
 30
0.0
  0
VERTEX
  5
710
  8
CAMADA_1
 62
   250
 10
-23.7689
 20
47.9563
 30
0.0
  0
VERTEX
  5
711
  8
CAMADA_1
 62
   250
 10
-23.9437
 20
47.5111
 30
0.0
  0
VERTEX
  5
712
  8
CAMADA_1
 62
   250
 10
-24.2023
 20
47.1046
 30
0.0
  0
VERTEX
  5
713
  8
CAMADA_1
 62
   250
 10
-24.5408
 20
46.7506
 30
0.0
  0
VERTEX
  5
714
  8
CAMADA_1
 62
   250
 10
-24.9554
 20
46.4625
 30
0.0
  0
VERTEX
  5
715
  8
CAMADA_1
 62
   250
 10
-25.4191
 20
46.2629
 30
0.0
  0
VERTEX
  5
716
  8
CAMADA_1
 62
   250
 10
-25.8986
 20
46.1628
 30
0.0
  0
VERTEX
  5
717
  8
CAMADA_1
 62
   250
 10
-26.3804
 20
46.1583
 30
0.0
  0
VERTEX
  5
718
  8
CAMADA_1
 62
   250
 10
-26.8507
 20
46.2453
 30
0.0
  0
VERTEX
  5
719
  8
CAMADA_1
 62
   250
 10
-27.2959
 20
46.4201
 30
0.0
  0
VERTEX
  5
71A
  8
CAMADA_1
 62
   250
 10
-27.7024
 20
46.6787
 30
0.0
  0
VERTEX
  5
71B
  8
CAMADA_1
 62
   250
 10
-28.0565
 20
47.0173
 30
0.0
  0
VERTEX
  5
71C
  8
CAMADA_1
 62
   250
 10
-28.3446
 20
47.4319
 30
0.0
  0
VERTEX
  5
71D
  8
CAMADA_1
 62
   250
 10
-28.3446
 20
47.4319
 30
0.0
  0
SEQEND
  5
71E
  8
CAMADA_1
 62
   250
  0
POLYLINE
  5
6B
  8
CAMADA_1
 62
   250
 66
     1
 10
0.0
 20
0.0
 30
0.0
 70
     1
  0
VERTEX
  5
71F
  8
CAMADA_1
 62
   250
 10
-53.3298
 20
8.0499
 30
0.0
  0
VERTEX
  5
720
  8
CAMADA_1
 62
   250
 10
-54.6472
 20
8.0592
 30
0.0
  0
VERTEX
  5
721
  8
CAMADA_1
 62
   250
 10
-54.6084
 20
5.3667
 30
0.0
  0
VERTEX
  5
722
  8
CAMADA_1
 62
   250
 10
-54.9288
 20
5.4096
 30
0.0
  0
VERTEX
  5
723
  8
CAMADA_1
 62
   250
 10
-55.2595
 20
5.4602
 30
0.0
  0
VERTEX
  5
724
  8
CAMADA_1
 62
   250
 10
-55.4253
 20
5.4896
 30
0.0
  0
VERTEX
  5
725
  8
CAMADA_1
 62
   250
 10
-55.5896
 20
5.5225
 30
0.0
  0
VERTEX
  5
726
  8
CAMADA_1
 62
   250
 10
-55.751
 20
5.5594
 30
0.0
  0
VERTEX
  5
727
  8
CAMADA_1
 62
   250
 10
-55.9082
 20
5.6007
 30
0.0
  0
VERTEX
  5
728
  8
CAMADA_1
 62
   250
 10
-56.1771
 20
6.3183
 30
0.0
  0
VERTEX
  5
729
  8
CAMADA_1
 62
   250
 10
-56.5114
 20
6.9073
 30
0.0
  0
VERTEX
  5
72A
  8
CAMADA_1
 62
   250
 10
-56.9088
 20
7.3704
 30
0.0
  0
VERTEX
  5
72B
  8
CAMADA_1
 62
   250
 10
-57.3671
 20
7.7103
 30
0.0
  0
VERTEX
  5
72C
  8
CAMADA_1
 62
   250
 10
-57.8839
 20
7.9297
 30
0.0
  0
VERTEX
  5
72D
  8
CAMADA_1
 62
   250
 10
-58.457
 20
8.0313
 30
0.0
  0
VERTEX
  5
72E
  8
CAMADA_1
 62
   250
 10
-59.0841
 20
8.0179
 30
0.0
  0
VERTEX
  5
72F
  8
CAMADA_1
 62
   250
 10
-59.7631
 20
7.8921
 30
0.0
  0
VERTEX
  5
730
  8
CAMADA_1
 62
   250
 10
-60.0656
 20
8.2461
 30
0.0
  0
VERTEX
  5
731
  8
CAMADA_1
 62
   250
 10
-60.3505
 20
8.62
 30
0.0
  0
VERTEX
  5
732
  8
CAMADA_1
 62
   250
 10
-60.6159
 20
9.0116
 30
0.0
  0
VERTEX
  5
733
  8
CAMADA_1
 62
   250
 10
-60.8601
 20
9.4191
 30
0.0
  0
VERTEX
  5
734
  8
CAMADA_1
 62
   250
 10
-61.0812
 20
9.8404
 30
0.0
  0
VERTEX
  5
735
  8
CAMADA_1
 62
   250
 10
-61.2772
 20
10.2737
 30
0.0
  0
VERTEX
  5
736
  8
CAMADA_1
 62
   250
 10
-61.4465
 20
10.7168
 30
0.0
  0
VERTEX
  5
737
  8
CAMADA_1
 62
   250
 10
-61.5871
 20
11.1679
 30
0.0
  0
VERTEX
  5
738
  8
CAMADA_1
 62
   250
 10
-61.1269
 20
11.7805
 30
0.0
  0
VERTEX
  5
739
  8
CAMADA_1
 62
   250
 10
-60.7997
 20
12.35
 30
0.0
  0
VERTEX
  5
73A
  8
CAMADA_1
 62
   250
 10
-60.6038
 20
12.8891
 30
0.0
  0
VERTEX
  5
73B
  8
CAMADA_1
 62
   250
 10
-60.5376
 20
13.4109
 30
0.0
  0
VERTEX
  5
73C
  8
CAMADA_1
 62
   250
 10
-60.5995
 20
13.9281
 30
0.0
  0
VERTEX
  5
73D
  8
CAMADA_1
 62
   250
 10
-60.7878
 20
14.4536
 30
0.0
  0
VERTEX
  5
73E
  8
CAMADA_1
 62
   250
 10
-61.1011
 20
15.0004
 30
0.0
  0
VERTEX
  5
73F
  8
CAMADA_1
 62
   250
 10
-61.5377
 20
15.5811
 30
0.0
  0
VERTEX
  5
740
  8
CAMADA_1
 62
   250
 10
-61.1104
 20
16.58
 30
0.0
  0
VERTEX
  5
741
  8
CAMADA_1
 62
   250
 10
-58.848
 20
15.2533
 30
0.0
  0
VERTEX
  5
742
  8
CAMADA_1
 62
   250
 10
-58.1952
 20
16.4183
 30
0.0
  0
VERTEX
  5
743
  8
CAMADA_1
 62
   250
 10
-60.5087
 20
17.6985
 30
0.0
  0
VERTEX
  5
744
  8
CAMADA_1
 62
   250
 10
-59.7168
 20
18.6994
 30
0.0
  0
VERTEX
  5
745
  8
CAMADA_1
 62
   250
 10
-59.0676
 20
18.6002
 30
0.0
  0
VERTEX
  5
746
  8
CAMADA_1
 62
   250
 10
-58.4531
 20
18.5832
 30
0.0
  0
VERTEX
  5
747
  8
CAMADA_1
 62
   250
 10
-57.8782
 20
18.6598
 30
0.0
  0
VERTEX
  5
748
  8
CAMADA_1
 62
   250
 10
-57.3483
 20
18.842
 30
0.0
  0
VERTEX
  5
749
  8
CAMADA_1
 62
   250
 10
-56.8682
 20
19.1414
 30
0.0
  0
VERTEX
  5
74A
  8
CAMADA_1
 62
   250
 10
-56.443
 20
19.5697
 30
0.0
  0
VERTEX
  5
74B
  8
CAMADA_1
 62
   250
 10
-56.0778
 20
20.1387
 30
0.0
  0
VERTEX
  5
74C
  8
CAMADA_1
 62
   250
 10
-55.7777
 20
20.86
 30
0.0
  0
VERTEX
  5
74D
  8
CAMADA_1
 62
   250
 10
-55.325
 20
20.9486
 30
0.0
  0
VERTEX
  5
74E
  8
CAMADA_1
 62
   250
 10
-54.8731
 20
21.0165
 30
0.0
  0
VERTEX
  5
74F
  8
CAMADA_1
 62
   250
 10
-54.4208
 20
21.0612
 30
0.0
  0
VERTEX
  5
750
  8
CAMADA_1
 62
   250
 10
-53.9666
 20
21.08
 30
0.0
  0
VERTEX
  5
751
  8
CAMADA_1
 62
   250
 10
-53.5091
 20
21.0706
 30
0.0
  0
VERTEX
  5
752
  8
CAMADA_1
 62
   250
 10
-53.0472
 20
21.0303
 30
0.0
  0
VERTEX
  5
753
  8
CAMADA_1
 62
   250
 10
-52.5793
 20
20.9567
 30
0.0
  0
VERTEX
  5
754
  8
CAMADA_1
 62
   250
 10
-52.1042
 20
20.8472
 30
0.0
  0
VERTEX
  5
755
  8
CAMADA_1
 62
   250
 10
-51.8176
 20
20.1465
 30
0.0
  0
VERTEX
  5
756
  8
CAMADA_1
 62
   250
 10
-51.4777
 20
19.5741
 30
0.0
  0
VERTEX
  5
757
  8
CAMADA_1
 62
   250
 10
-51.0826
 20
19.1263
 30
0.0
  0
VERTEX
  5
758
  8
CAMADA_1
 62
   250
 10
-50.6306
 20
18.7992
 30
0.0
  0
VERTEX
  5
759
  8
CAMADA_1
 62
   250
 10
-50.1199
 20
18.5893
 30
0.0
  0
VERTEX
  5
75A
  8
CAMADA_1
 62
   250
 10
-49.5487
 20
18.4927
 30
0.0
  0
VERTEX
  5
75B
  8
CAMADA_1
 62
   250
 10
-48.9151
 20
18.5058
 30
0.0
  0
VERTEX
  5
75C
  8
CAMADA_1
 62
   250
 10
-48.2175
 20
18.6248
 30
0.0
  0
VERTEX
  5
75D
  8
CAMADA_1
 62
   250
 10
-47.5165
 20
17.7471
 30
0.0
  0
VERTEX
  5
75E
  8
CAMADA_1
 62
   250
 10
-49.7874
 20
16.4323
 30
0.0
  0
VERTEX
  5
75F
  8
CAMADA_1
 62
   250
 10
-49.1191
 20
15.306
 30
0.0
  0
VERTEX
  5
760
  8
CAMADA_1
 62
   250
 10
-46.8318
 20
16.5815
 30
0.0
  0
VERTEX
  5
761
  8
CAMADA_1
 62
   250
 10
-46.501
 20
15.4982
 30
0.0
  0
VERTEX
  5
762
  8
CAMADA_1
 62
   250
 10
-46.9597
 20
14.9056
 30
0.0
  0
VERTEX
  5
763
  8
CAMADA_1
 62
   250
 10
-47.2794
 20
14.3282
 30
0.0
  0
VERTEX
  5
764
  8
CAMADA_1
 62
   250
 10
-47.4624
 20
13.7628
 30
0.0
  0
VERTEX
  5
765
  8
CAMADA_1
 62
   250
 10
-47.5112
 20
13.2061
 30
0.0
  0
VERTEX
  5
766
  8
CAMADA_1
 62
   250
 10
-47.4282
 20
12.6548
 30
0.0
  0
VERTEX
  5
767
  8
CAMADA_1
 62
   250
 10
-47.2158
 20
12.1056
 30
0.0
  0
VERTEX
  5
768
  8
CAMADA_1
 62
   250
 10
-46.8766
 20
11.5552
 30
0.0
  0
VERTEX
  5
769
  8
CAMADA_1
 62
   250
 10
-46.4129
 20
11.0004
 30
0.0
  0
VERTEX
  5
76A
  8
CAMADA_1
 62
   250
 10
-46.5639
 20
10.5643
 30
0.0
  0
VERTEX
  5
76B
  8
CAMADA_1
 62
   250
 10
-46.7347
 20
10.1412
 30
0.0
  0
VERTEX
  5
76C
  8
CAMADA_1
 62
   250
 10
-46.9276
 20
9.7304
 30
0.0
  0
VERTEX
  5
76D
  8
CAMADA_1
 62
   250
 10
-47.1445
 20
9.3313
 30
0.0
  0
VERTEX
  5
76E
  8
CAMADA_1
 62
   250
 10
-47.3879
 20
8.9431
 30
0.0
  0
VERTEX
  5
76F
  8
CAMADA_1
 62
   250
 10
-47.6598
 20
8.5651
 30
0.0
  0
VERTEX
  5
770
  8
CAMADA_1
 62
   250
 10
-47.9625
 20
8.1966
 30
0.0
  0
VERTEX
  5
771
  8
CAMADA_1
 62
   250
 10
-48.2981
 20
7.8369
 30
0.0
  0
VERTEX
  5
772
  8
CAMADA_1
 62
   250
 10
-49.0611
 20
7.9352
 30
0.0
  0
VERTEX
  5
773
  8
CAMADA_1
 62
   250
 10
-49.7235
 20
7.9206
 30
0.0
  0
VERTEX
  5
774
  8
CAMADA_1
 62
   250
 10
-50.2962
 20
7.7944
 30
0.0
  0
VERTEX
  5
775
  8
CAMADA_1
 62
   250
 10
-50.7903
 20
7.558
 30
0.0
  0
VERTEX
  5
776
  8
CAMADA_1
 62
   250
 10
-51.2171
 20
7.2128
 30
0.0
  0
VERTEX
  5
777
  8
CAMADA_1
 62
   250
 10
-51.5874
 20
6.7602
 30
0.0
  0
VERTEX
  5
778
  8
CAMADA_1
 62
   250
 10
-51.9125
 20
6.2014
 30
0.0
  0
VERTEX
  5
779
  8
CAMADA_1
 62
   250
 10
-52.2034
 20
5.538
 30
0.0
  0
VERTEX
  5
77A
  8
CAMADA_1
 62
   250
 10
-53.2771
 20
5.4061
 30
0.0
  0
VERTEX
  5
77B
  8
CAMADA_1
 62
   250
 10
-53.3298
 20
8.0499
 30
0.0
  0
VERTEX
  5
77C
  8
CAMADA_1
 62
   250
 10
-53.3298
 20
8.0499
 30
0.0
  0
SEQEND
  5
77D
  8
CAMADA_1
 62
   250
  0
POLYLINE
  5
6C
  8
CAMADA_1
 62
   250
 66
     1
 10
0.0
 20
0.0
 30
0.0
 70
     1
  0
VERTEX
  5
77E
  8
CAMADA_1
 62
   250
 10
-56.5285
 20
13.3294
 30
0.0
  0
VERTEX
  5
77F
  8
CAMADA_1
 62
   250
 10
-56.4719
 20
13.831
 30
0.0
  0
VERTEX
  5
780
  8
CAMADA_1
 62
   250
 10
-56.3212
 20
14.2972
 30
0.0
  0
VERTEX
  5
781
  8
CAMADA_1
 62
   250
 10
-56.0864
 20
14.7179
 30
0.0
  0
VERTEX
  5
782
  8
CAMADA_1
 62
   250
 10
-55.7777
 20
15.0832
 30
0.0
  0
VERTEX
  5
783
  8
CAMADA_1
 62
   250
 10
-55.4052
 20
15.3832
 30
0.0
  0
VERTEX
  5
784
  8
CAMADA_1
 62
   250
 10
-54.9791
 20
15.6081
 30
0.0
  0
VERTEX
  5
785
  8
CAMADA_1
 62
   250
 10
-54.5096
 20
15.7479
 30
0.0
  0
VERTEX
  5
786
  8
CAMADA_1
 62
   250
 10
-54.0068
 20
15.7926
 30
0.0
  0
VERTEX
  5
787
  8
CAMADA_1
 62
   250
 10
-53.5051
 20
15.7361
 30
0.0
  0
VERTEX
  5
788
  8
CAMADA_1
 62
   250
 10
-53.039
 20
15.5854
 30
0.0
  0
VERTEX
  5
789
  8
CAMADA_1
 62
   250
 10
-52.6183
 20
15.3506
 30
0.0
  0
VERTEX
  5
78A
  8
CAMADA_1
 62
   250
 10
-52.253
 20
15.0419
 30
0.0
  0
VERTEX
  5
78B
  8
CAMADA_1
 62
   250
 10
-51.953
 20
14.6694
 30
0.0
  0
VERTEX
  5
78C
  8
CAMADA_1
 62
   250
 10
-51.7281
 20
14.2434
 30
0.0
  0
VERTEX
  5
78D
  8
CAMADA_1
 62
   250
 10
-51.5883
 20
13.7738
 30
0.0
  0
VERTEX
  5
78E
  8
CAMADA_1
 62
   250
 10
-51.5436
 20
13.271
 30
0.0
  0
VERTEX
  5
78F
  8
CAMADA_1
 62
   250
 10
-51.6001
 20
12.7693
 30
0.0
  0
VERTEX
  5
790
  8
CAMADA_1
 62
   250
 10
-51.7508
 20
12.3032
 30
0.0
  0
VERTEX
  5
791
  8
CAMADA_1
 62
   250
 10
-51.9856
 20
11.8825
 30
0.0
  0
VERTEX
  5
792
  8
CAMADA_1
 62
   250
 10
-52.2943
 20
11.5172
 30
0.0
  0
VERTEX
  5
793
  8
CAMADA_1
 62
   250
 10
-52.6668
 20
11.2171
 30
0.0
  0
VERTEX
  5
794
  8
CAMADA_1
 62
   250
 10
-53.0928
 20
10.9923
 30
0.0
  0
VERTEX
  5
795
  8
CAMADA_1
 62
   250
 10
-53.5624
 20
10.8525
 30
0.0
  0
VERTEX
  5
796
  8
CAMADA_1
 62
   250
 10
-54.0652
 20
10.8077
 30
0.0
  0
VERTEX
  5
797
  8
CAMADA_1
 62
   250
 10
-54.5669
 20
10.8643
 30
0.0
  0
VERTEX
  5
798
  8
CAMADA_1
 62
   250
 10
-55.033
 20
11.015
 30
0.0
  0
VERTEX
  5
799
  8
CAMADA_1
 62
   250
 10
-55.4537
 20
11.2498
 30
0.0
  0
VERTEX
  5
79A
  8
CAMADA_1
 62
   250
 10
-55.819
 20
11.5585
 30
0.0
  0
VERTEX
  5
79B
  8
CAMADA_1
 62
   250
 10
-56.1191
 20
11.931
 30
0.0
  0
VERTEX
  5
79C
  8
CAMADA_1
 62
   250
 10
-56.3439
 20
12.357
 30
0.0
  0
VERTEX
  5
79D
  8
CAMADA_1
 62
   250
 10
-56.4837
 20
12.8265
 30
0.0
  0
VERTEX
  5
79E
  8
CAMADA_1
 62
   250
 10
-56.5285
 20
13.3294
 30
0.0
  0
VERTEX
  5
79F
  8
CAMADA_1
 62
   250
 10
-56.5285
 20
13.3294
 30
0.0
  0
SEQEND
  5
7A0
  8
CAMADA_1
 62
   250
  0
POLYLINE
  5
6D
  8
CAMADA_1
 62
   250
 66
     1
 10
0.0
 20
0.0
 30
0.0
 70
     1
  0
VERTEX
  5
7A1
  8
CAMADA_1
 62
   250
 10
-73.9634
 20
8.8804
 30
0.0
  0
VERTEX
  5
7A2
  8
CAMADA_1
 62
   250
 10
-73.9634
 20
11.322
 30
0.0
  0
VERTEX
  5
7A3
  8
CAMADA_1
 62
   250
 10
-75.2164
 20
11.322
 30
0.0
  0
VERTEX
  5
7A4
  8
CAMADA_1
 62
   250
 10
-75.2175
 20
8.8678
 30
0.0
  0
VERTEX
  5
7A5
  8
CAMADA_1
 62
   250
 10
-75.6338
 20
8.9586
 30
0.0
  0
VERTEX
  5
7A6
  8
CAMADA_1
 62
   250
 10
-76.0011
 20
9.1138
 30
0.0
  0
VERTEX
  5
7A7
  8
CAMADA_1
 62
   250
 10
-76.3165
 20
9.3331
 30
0.0
  0
VERTEX
  5
7A8
  8
CAMADA_1
 62
   250
 10
-76.5769
 20
9.616
 30
0.0
  0
VERTEX
  5
7A9
  8
CAMADA_1
 62
   250
 10
-76.7794
 20
9.962
 30
0.0
  0
VERTEX
  5
7AA
  8
CAMADA_1
 62
   250
 10
-76.9209
 20
10.3708
 30
0.0
  0
VERTEX
  5
7AB
  8
CAMADA_1
 62
   250
 10
-76.9986
 20
10.842
 30
0.0
  0
VERTEX
  5
7AC
  8
CAMADA_1
 62
   250
 10
-77.0094
 20
11.3751
 30
0.0
  0
VERTEX
  5
7AD
  8
CAMADA_1
 62
   250
 10
-76.8311
 20
12.1128
 30
0.0
  0
VERTEX
  5
7AE
  8
CAMADA_1
 62
   250
 10
-76.4858
 20
12.7046
 30
0.0
  0
VERTEX
  5
7AF
  8
CAMADA_1
 62
   250
 10
-76.0125
 20
13.1487
 30
0.0
  0
VERTEX
  5
7B0
  8
CAMADA_1
 62
   250
 10
-75.4506
 20
13.4436
 30
0.0
  0
VERTEX
  5
7B1
  8
CAMADA_1
 62
   250
 10
-74.8393
 20
13.5878
 30
0.0
  0
VERTEX
  5
7B2
  8
CAMADA_1
 62
   250
 10
-74.2178
 20
13.5795
 30
0.0
  0
VERTEX
  5
7B3
  8
CAMADA_1
 62
   250
 10
-73.6251
 20
13.4174
 30
0.0
  0
VERTEX
  5
7B4
  8
CAMADA_1
 62
   250
 10
-73.1007
 20
13.0996
 30
0.0
  0
VERTEX
  5
7B5
  8
CAMADA_1
 62
   250
 10
-72.8473
 20
12.8687
 30
0.0
  0
VERTEX
  5
7B6
  8
CAMADA_1
 62
   250
 10
-72.6313
 20
12.6142
 30
0.0
  0
VERTEX
  5
7B7
  8
CAMADA_1
 62
   250
 10
-72.4549
 20
12.3349
 30
0.0
  0
VERTEX
  5
7B8
  8
CAMADA_1
 62
   250
 10
-72.32
 20
12.0293
 30
0.0
  0
VERTEX
  5
7B9
  8
CAMADA_1
 62
   250
 10
-72.2287
 20
11.6963
 30
0.0
  0
VERTEX
  5
7BA
  8
CAMADA_1
 62
   250
 10
-72.183
 20
11.3346
 30
0.0
  0
VERTEX
  5
7BB
  8
CAMADA_1
 62
   250
 10
-72.185
 20
10.9429
 30
0.0
  0
VERTEX
  5
7BC
  8
CAMADA_1
 62
   250
 10
-72.2368
 20
10.5198
 30
0.0
  0
VERTEX
  5
7BD
  8
CAMADA_1
 62
   250
 10
-72.3638
 20
10.1492
 30
0.0
  0
VERTEX
  5
7BE
  8
CAMADA_1
 62
   250
 10
-72.5185
 20
9.8302
 30
0.0
  0
VERTEX
  5
7BF
  8
CAMADA_1
 62
   250
 10
-72.6997
 20
9.5606
 30
0.0
  0
VERTEX
  5
7C0
  8
CAMADA_1
 62
   250
 10
-72.9063
 20
9.3384
 30
0.0
  0
VERTEX
  5
7C1
  8
CAMADA_1
 62
   250
 10
-73.1371
 20
9.1613
 30
0.0
  0
VERTEX
  5
7C2
  8
CAMADA_1
 62
   250
 10
-73.3909
 20
9.0274
 30
0.0
  0
VERTEX
  5
7C3
  8
CAMADA_1
 62
   250
 10
-73.6668
 20
8.9345
 30
0.0
  0
VERTEX
  5
7C4
  8
CAMADA_1
 62
   250
 10
-73.9634
 20
8.8804
 30
0.0
  0
VERTEX
  5
7C5
  8
CAMADA_1
 62
   250
 10
-73.9634
 20
8.8804
 30
0.0
  0
SEQEND
  5
7C6
  8
CAMADA_1
 62
   250
  0
POLYLINE
  5
6E
  8
CAMADA_1
 62
   250
 66
     1
 10
0.0
 20
0.0
 30
0.0
 70
     1
  0
VERTEX
  5
7C7
  8
CAMADA_1
 62
   250
 10
-88.6384
 20
27.6134
 30
0.0
  0
VERTEX
  5
7C8
  8
CAMADA_1
 62
   250
 10
-87.0743
 20
27.6134
 30
0.0
  0
VERTEX
  5
7C9
  8
CAMADA_1
 62
   250
 10
-87.0743
 20
32.6895
 30
0.0
  0
VERTEX
  5
7CA
  8
CAMADA_1
 62
   250
 10
-88.6384
 20
32.6895
 30
0.0
  0
VERTEX
  5
7CB
  8
CAMADA_1
 62
   250
 10
-88.6384
 20
27.6134
 30
0.0
  0
VERTEX
  5
7CC
  8
CAMADA_1
 62
   250
 10
-88.6384
 20
27.6134
 30
0.0
  0
SEQEND
  5
7CD
  8
CAMADA_1
 62
   250
  0
POLYLINE
  5
6F
  8
CAMADA_1
 62
   250
 66
     1
 10
0.0
 20
0.0
 30
0.0
 70
     1
  0
VERTEX
  5
7CE
  8
CAMADA_1
 62
   250
 10
-92.642
 20
9.7139
 30
0.0
  0
VERTEX
  5
7CF
  8
CAMADA_1
 62
   250
 10
-94.0077
 20
8.9395
 30
0.0
  0
VERTEX
  5
7D0
  8
CAMADA_1
 62
   250
 10
-91.4891
 20
4.5661
 30
0.0
  0
VERTEX
  5
7D1
  8
CAMADA_1
 62
   250
 10
-90.1526
 20
5.3564
 30
0.0
  0
VERTEX
  5
7D2
  8
CAMADA_1
 62
   250
 10
-92.642
 20
9.7139
 30
0.0
  0
VERTEX
  5
7D3
  8
CAMADA_1
 62
   250
 10
-92.642
 20
9.7139
 30
0.0
  0
SEQEND
  5
7D4
  8
CAMADA_1
 62
   250
  0
POLYLINE
  5
70
  8
CAMADA_1
 62
   250
 66
     1
 10
0.0
 20
0.0
 30
0.0
 70
     1
  0
VERTEX
  5
7D5
  8
CAMADA_1
 62
   250
 10
-51.3317
 20
-11.8609
 30
0.0
  0
VERTEX
  5
7D6
  8
CAMADA_1
 62
   250
 10
-52.0048
 20
-11.6909
 30
0.0
  0
VERTEX
  5
7D7
  8
CAMADA_1
 62
   250
 10
-52.6489
 20
-11.6041
 30
0.0
  0
VERTEX
  5
7D8
  8
CAMADA_1
 62
   250
 10
-53.2651
 20
-11.5981
 30
0.0
  0
VERTEX
  5
7D9
  8
CAMADA_1
 62
   250
 10
-53.8547
 20
-11.6708
 30
0.0
  0
VERTEX
  5
7DA
  8
CAMADA_1
 62
   250
 10
-54.4188
 20
-11.8199
 30
0.0
  0
VERTEX
  5
7DB
  8
CAMADA_1
 62
   250
 10
-54.9587
 20
-12.0431
 30
0.0
  0
VERTEX
  5
7DC
  8
CAMADA_1
 62
   250
 10
-55.4754
 20
-12.338
 30
0.0
  0
VERTEX
  5
7DD
  8
CAMADA_1
 62
   250
 10
-55.9704
 20
-12.7025
 30
0.0
  0
VERTEX
  5
7DE
  8
CAMADA_1
 62
   250
 10
-56.3888
 20
-13.1205
 30
0.0
  0
VERTEX
  5
7DF
  8
CAMADA_1
 62
   250
 10
-56.7428
 20
-13.5681
 30
0.0
  0
VERTEX
  5
7E0
  8
CAMADA_1
 62
   250
 10
-57.0338
 20
-14.0449
 30
0.0
  0
VERTEX
  5
7E1
  8
CAMADA_1
 62
   250
 10
-57.2633
 20
-14.5501
 30
0.0
  0
VERTEX
  5
7E2
  8
CAMADA_1
 62
   250
 10
-57.4327
 20
-15.083
 30
0.0
  0
VERTEX
  5
7E3
  8
CAMADA_1
 62
   250
 10
-57.5432
 20
-15.643
 30
0.0
  0
VERTEX
  5
7E4
  8
CAMADA_1
 62
   250
 10
-57.5965
 20
-16.2295
 30
0.0
  0
VERTEX
  5
7E5
  8
CAMADA_1
 62
   250
 10
-57.5938
 20
-16.8418
 30
0.0
  0
VERTEX
  5
7E6
  8
CAMADA_1
 62
   250
 10
-62.4737
 20
-16.2469
 30
0.0
  0
VERTEX
  5
7E7
  8
CAMADA_1
 62
   250
 10
-67.0711
 20
-15.436
 30
0.0
  0
VERTEX
  5
7E8
  8
CAMADA_1
 62
   250
 10
-71.3814
 20
-14.3979
 30
0.0
  0
VERTEX
  5
7E9
  8
CAMADA_1
 62
   250
 10
-75.3995
 20
-13.121
 30
0.0
  0
VERTEX
  5
7EA
  8
CAMADA_1
 62
   250
 10
-79.1207
 20
-11.594
 30
0.0
  0
VERTEX
  5
7EB
  8
CAMADA_1
 62
   250
 10
-82.5401
 20
-9.8056
 30
0.0
  0
VERTEX
  5
7EC
  8
CAMADA_1
 62
   250
 10
-85.6527
 20
-7.7444
 30
0.0
  0
VERTEX
  5
7ED
  8
CAMADA_1
 62
   250
 10
-88.4538
 20
-5.399
 30
0.0
  0
VERTEX
  5
7EE
  8
CAMADA_1
 62
   250
 10
-89.1841
 20
-4.7348
 30
0.0
  0
VERTEX
  5
7EF
  8
CAMADA_1
 62
   250
 10
-89.8584
 20
-4.1704
 30
0.0
  0
VERTEX
  5
7F0
  8
CAMADA_1
 62
   250
 10
-90.4879
 20
-3.6965
 30
0.0
  0
VERTEX
  5
7F1
  8
CAMADA_1
 62
   250
 10
-91.0842
 20
-3.3038
 30
0.0
  0
VERTEX
  5
7F2
  8
CAMADA_1
 62
   250
 10
-91.6588
 20
-2.9831
 30
0.0
  0
VERTEX
  5
7F3
  8
CAMADA_1
 62
   250
 10
-92.2231
 20
-2.7252
 30
0.0
  0
VERTEX
  5
7F4
  8
CAMADA_1
 62
   250
 10
-92.7886
 20
-2.5207
 30
0.0
  0
VERTEX
  5
7F5
  8
CAMADA_1
 62
   250
 10
-93.3666
 20
-2.3605
 30
0.0
  0
VERTEX
  5
7F6
  8
CAMADA_1
 62
   250
 10
-93.9038
 20
-2.2735
 30
0.0
  0
VERTEX
  5
7F7
  8
CAMADA_1
 62
   250
 10
-94.4233
 20
-2.1939
 30
0.0
  0
VERTEX
  5
7F8
  8
CAMADA_1
 62
   250
 10
-94.9443
 20
-2.1188
 30
0.0
  0
VERTEX
  5
7F9
  8
CAMADA_1
 62
   250
 10
-95.4862
 20
-2.0454
 30
0.0
  0
VERTEX
  5
7FA
  8
CAMADA_1
 62
   250
 10
-96.0681
 20
-1.9708
 30
0.0
  0
VERTEX
  5
7FB
  8
CAMADA_1
 62
   250
 10
-96.7094
 20
-1.8921
 30
0.0
  0
VERTEX
  5
7FC
  8
CAMADA_1
 62
   250
 10
-97.4293
 20
-1.8065
 30
0.0
  0
VERTEX
  5
7FD
  8
CAMADA_1
 62
   250
 10
-98.247
 20
-1.711
 30
0.0
  0
VERTEX
  5
7FE
  8
CAMADA_1
 62
   250
 10
-98.3903
 20
-1.6821
 30
0.0
  0
VERTEX
  5
7FF
  8
CAMADA_1
 62
   250
 10
-98.5156
 20
-1.641
 30
0.0
  0
VERTEX
  5
800
  8
CAMADA_1
 62
   250
 10
-98.6246
 20
-1.5876
 30
0.0
  0
VERTEX
  5
801
  8
CAMADA_1
 62
   250
 10
-98.719
 20
-1.5217
 30
0.0
  0
VERTEX
  5
802
  8
CAMADA_1
 62
   250
 10
-98.8006
 20
-1.4434
 30
0.0
  0
VERTEX
  5
803
  8
CAMADA_1
 62
   250
 10
-98.871
 20
-1.3525
 30
0.0
  0
VERTEX
  5
804
  8
CAMADA_1
 62
   250
 10
-98.9321
 20
-1.249
 30
0.0
  0
VERTEX
  5
805
  8
CAMADA_1
 62
   250
 10
-98.9855
 20
-1.1327
 30
0.0
  0
VERTEX
  5
806
  8
CAMADA_1
 62
   250
 10
-99.237
 20
-0.1494
 30
0.0
  0
VERTEX
  5
807
  8
CAMADA_1
 62
   250
 10
-99.5167
 20
0.7857
 30
0.0
  0
VERTEX
  5
808
  8
CAMADA_1
 62
   250
 10
-99.8313
 20
1.6732
 30
0.0
  0
VERTEX
  5
809
  8
CAMADA_1
 62
   250
 10
-100.1877
 20
2.5136
 30
0.0
  0
VERTEX
  5
80A
  8
CAMADA_1
 62
   250
 10
-100.5927
 20
3.3076
 30
0.0
  0
VERTEX
  5
80B
  8
CAMADA_1
 62
   250
 10
-101.0529
 20
4.0557
 30
0.0
  0
VERTEX
  5
80C
  8
CAMADA_1
 62
   250
 10
-101.5752
 20
4.7585
 30
0.0
  0
VERTEX
  5
80D
  8
CAMADA_1
 62
   250
 10
-102.1663
 20
5.4166
 30
0.0
  0
VERTEX
  5
80E
  8
CAMADA_1
 62
   250
 10
-102.8148
 20
6.034
 30
0.0
  0
VERTEX
  5
80F
  8
CAMADA_1
 62
   250
 10
-103.4961
 20
6.6056
 30
0.0
  0
VERTEX
  5
810
  8
CAMADA_1
 62
   250
 10
-104.2125
 20
7.1339
 30
0.0
  0
VERTEX
  5
811
  8
CAMADA_1
 62
   250
 10
-104.9667
 20
7.6211
 30
0.0
  0
VERTEX
  5
812
  8
CAMADA_1
 62
   250
 10
-105.7611
 20
8.0698
 30
0.0
  0
VERTEX
  5
813
  8
CAMADA_1
 62
   250
 10
-106.5981
 20
8.4823
 30
0.0
  0
VERTEX
  5
814
  8
CAMADA_1
 62
   250
 10
-107.4801
 20
8.8609
 30
0.0
  0
VERTEX
  5
815
  8
CAMADA_1
 62
   250
 10
-108.4098
 20
9.2082
 30
0.0
  0
VERTEX
  5
816
  8
CAMADA_1
 62
   250
 10
-108.583
 20
9.2545
 30
0.0
  0
VERTEX
  5
817
  8
CAMADA_1
 62
   250
 10
-108.732
 20
9.3088
 30
0.0
  0
VERTEX
  5
818
  8
CAMADA_1
 62
   250
 10
-108.8568
 20
9.3741
 30
0.0
  0
VERTEX
  5
819
  8
CAMADA_1
 62
   250
 10
-108.9572
 20
9.4533
 30
0.0
  0
VERTEX
  5
81A
  8
CAMADA_1
 62
   250
 10
-109.0333
 20
9.5495
 30
0.0
  0
VERTEX
  5
81B
  8
CAMADA_1
 62
   250
 10
-109.0848
 20
9.6654
 30
0.0
  0
VERTEX
  5
81C
  8
CAMADA_1
 62
   250
 10
-109.1119
 20
9.8041
 30
0.0
  0
VERTEX
  5
81D
  8
CAMADA_1
 62
   250
 10
-109.1143
 20
9.9686
 30
0.0
  0
VERTEX
  5
81E
  8
CAMADA_1
 62
   250
 10
-109.2702
 20
10.7607
 30
0.0
  0
VERTEX
  5
81F
  8
CAMADA_1
 62
   250
 10
-109.4978
 20
11.5178
 30
0.0
  0
VERTEX
  5
820
  8
CAMADA_1
 62
   250
 10
-109.8033
 20
12.2191
 30
0.0
  0
VERTEX
  5
821
  8
CAMADA_1
 62
   250
 10
-110.1932
 20
12.8431
 30
0.0
  0
VERTEX
  5
822
  8
CAMADA_1
 62
   250
 10
-110.6735
 20
13.3687
 30
0.0
  0
VERTEX
  5
823
  8
CAMADA_1
 62
   250
 10
-111.2507
 20
13.7748
 30
0.0
  0
VERTEX
  5
824
  8
CAMADA_1
 62
   250
 10
-111.9311
 20
14.0402
 30
0.0
  0
VERTEX
  5
825
  8
CAMADA_1
 62
   250
 10
-112.7208
 20
14.1437
 30
0.0
  0
VERTEX
  5
826
  8
CAMADA_1
 62
   250
 10
-112.9641
 20
14.1986
 30
0.0
  0
VERTEX
  5
827
  8
CAMADA_1
 62
   250
 10
-113.1666
 20
14.2657
 30
0.0
  0
VERTEX
  5
828
  8
CAMADA_1
 62
   250
 10
-113.3299
 20
14.3474
 30
0.0
  0
VERTEX
  5
829
  8
CAMADA_1
 62
   250
 10
-113.4559
 20
14.446
 30
0.0
  0
VERTEX
  5
82A
  8
CAMADA_1
 62
   250
 10
-113.546
 20
14.5635
 30
0.0
  0
VERTEX
  5
82B
  8
CAMADA_1
 62
   250
 10
-113.6021
 20
14.7025
 30
0.0
  0
VERTEX
  5
82C
  8
CAMADA_1
 62
   250
 10
-113.6258
 20
14.865
 30
0.0
  0
VERTEX
  5
82D
  8
CAMADA_1
 62
   250
 10
-113.6187
 20
15.0534
 30
0.0
  0
VERTEX
  5
82E
  8
CAMADA_1
 62
   250
 10
-113.5958
 20
40.9994
 30
0.0
  0
VERTEX
  5
82F
  8
CAMADA_1
 62
   250
 10
-113.0607
 20
40.9871
 30
0.0
  0
VERTEX
  5
830
  8
CAMADA_1
 62
   250
 10
-112.825
 20
40.9403
 30
0.0
  0
VERTEX
  5
831
  8
CAMADA_1
 62
   250
 10
-112.6233
 20
40.8654
 30
0.0
  0
VERTEX
  5
832
  8
CAMADA_1
 62
   250
 10
-112.4525
 20
40.7628
 30
0.0
  0
VERTEX
  5
833
  8
CAMADA_1
 62
   250
 10
-112.3096
 20
40.6332
 30
0.0
  0
VERTEX
  5
834
  8
CAMADA_1
 62
   250
 10
-112.1915
 20
40.4769
 30
0.0
  0
VERTEX
  5
835
  8
CAMADA_1
 62
   250
 10
-112.0951
 20
40.2943
 30
0.0
  0
VERTEX
  5
836
  8
CAMADA_1
 62
   250
 10
-112.0174
 20
40.0858
 30
0.0
  0
VERTEX
  5
837
  8
CAMADA_1
 62
   250
 10
-111.9552
 20
39.8521
 30
0.0
  0
VERTEX
  5
838
  8
CAMADA_1
 62
   250
 10
-111.7695
 20
39.2878
 30
0.0
  0
VERTEX
  5
839
  8
CAMADA_1
 62
   250
 10
-111.5218
 20
38.8521
 30
0.0
  0
VERTEX
  5
83A
  8
CAMADA_1
 62
   250
 10
-111.2289
 20
38.556
 30
0.0
  0
VERTEX
  5
83B
  8
CAMADA_1
 62
   250
 10
-110.9076
 20
38.4101
 30
0.0
  0
VERTEX
  5
83C
  8
CAMADA_1
 62
   250
 10
-110.5748
 20
38.4253
 30
0.0
  0
VERTEX
  5
83D
  8
CAMADA_1
 62
   250
 10
-110.2473
 20
38.6124
 30
0.0
  0
VERTEX
  5
83E
  8
CAMADA_1
 62
   250
 10
-109.9419
 20
38.9824
 30
0.0
  0
VERTEX
  5
83F
  8
CAMADA_1
 62
   250
 10
-109.6755
 20
39.5459
 30
0.0
  0
VERTEX
  5
840
  8
CAMADA_1
 62
   250
 10
-109.5799
 20
39.7603
 30
0.0
  0
VERTEX
  5
841
  8
CAMADA_1
 62
   250
 10
-109.4885
 20
39.9964
 30
0.0
  0
VERTEX
  5
842
  8
CAMADA_1
 62
   250
 10
-109.3969
 20
40.2419
 30
0.0
  0
VERTEX
  5
843
  8
CAMADA_1
 62
   250
 10
-109.3011
 20
40.4844
 30
0.0
  0
VERTEX
  5
844
  8
CAMADA_1
 62
   250
 10
-109.1966
 20
40.7117
 30
0.0
  0
VERTEX
  5
845
  8
CAMADA_1
 62
   250
 10
-109.0793
 20
40.9115
 30
0.0
  0
VERTEX
  5
846
  8
CAMADA_1
 62
   250
 10
-108.9449
 20
41.0715
 30
0.0
  0
VERTEX
  5
847
  8
CAMADA_1
 62
   250
 10
-108.7892
 20
41.1794
 30
0.0
  0
VERTEX
  5
848
  8
CAMADA_1
 62
   250
 10
-107.131
 20
41.1374
 30
0.0
  0
VERTEX
  5
849
  8
CAMADA_1
 62
   250
 10
-107.1312
 20
35.8645
 30
0.0
  0
VERTEX
  5
84A
  8
CAMADA_1
 62
   250
 10
-108.6218
 20
35.8674
 30
0.0
  0
VERTEX
  5
84B
  8
CAMADA_1
 62
   250
 10
-108.7068
 20
16.2495
 30
0.0
  0
VERTEX
  5
84C
  8
CAMADA_1
 62
   250
 10
-86.0195
 20
16.2723
 30
0.0
  0
VERTEX
  5
84D
  8
CAMADA_1
 62
   250
 10
-86.0284
 20
17.7259
 30
0.0
  0
VERTEX
  5
84E
  8
CAMADA_1
 62
   250
 10
-92.0344
 20
17.6841
 30
0.0
  0
VERTEX
  5
84F
  8
CAMADA_1
 62
   250
 10
-92.0211
 20
35.7902
 30
0.0
  0
VERTEX
  5
850
  8
CAMADA_1
 62
   250
 10
-85.5446
 20
35.8248
 30
0.0
  0
VERTEX
  5
851
  8
CAMADA_1
 62
   250
 10
-85.4184
 20
35.3244
 30
0.0
  0
VERTEX
  5
852
  8
CAMADA_1
 62
   250
 10
-85.2625
 20
34.8488
 30
0.0
  0
VERTEX
  5
853
  8
CAMADA_1
 62
   250
 10
-85.0754
 20
34.407
 30
0.0
  0
VERTEX
  5
854
  8
CAMADA_1
 62
   250
 10
-84.8555
 20
34.008
 30
0.0
  0
VERTEX
  5
855
  8
CAMADA_1
 62
   250
 10
-84.6014
 20
33.6609
 30
0.0
  0
VERTEX
  5
856
  8
CAMADA_1
 62
   250
 10
-84.3115
 20
33.3748
 30
0.0
  0
VERTEX
  5
857
  8
CAMADA_1
 62
   250
 10
-83.9844
 20
33.1588
 30
0.0
  0
VERTEX
  5
858
  8
CAMADA_1
 62
   250
 10
-83.6184
 20
33.0219
 30
0.0
  0
VERTEX
  5
859
  8
CAMADA_1
 62
   250
 10
-83.3759
 20
32.9271
 30
0.0
  0
VERTEX
  5
85A
  8
CAMADA_1
 62
   250
 10
-83.1573
 20
32.7975
 30
0.0
  0
VERTEX
  5
85B
  8
CAMADA_1
 62
   250
 10
-82.9758
 20
32.6295
 30
0.0
  0
VERTEX
  5
85C
  8
CAMADA_1
 62
   250
 10
-82.8448
 20
32.4196
 30
0.0
  0
VERTEX
  5
85D
  8
CAMADA_1
 62
   250
 10
-82.7776
 20
32.1641
 30
0.0
  0
VERTEX
  5
85E
  8
CAMADA_1
 62
   250
 10
-82.7875
 20
31.8596
 30
0.0
  0
VERTEX
  5
85F
  8
CAMADA_1
 62
   250
 10
-82.8877
 20
31.5024
 30
0.0
  0
VERTEX
  5
860
  8
CAMADA_1
 62
   250
 10
-83.0916
 20
31.089
 30
0.0
  0
VERTEX
  5
861
  8
CAMADA_1
 62
   250
 10
-83.4936
 20
30.2716
 30
0.0
  0
VERTEX
  5
862
  8
CAMADA_1
 62
   250
 10
-83.8266
 20
29.3452
 30
0.0
  0
VERTEX
  5
863
  8
CAMADA_1
 62
   250
 10
-84.0956
 20
28.3197
 30
0.0
  0
VERTEX
  5
864
  8
CAMADA_1
 62
   250
 10
-84.3055
 20
27.205
 30
0.0
  0
VERTEX
  5
865
  8
CAMADA_1
 62
   250
 10
-84.4611
 20
26.0111
 30
0.0
  0
VERTEX
  5
866
  8
CAMADA_1
 62
   250
 10
-84.5674
 20
24.748
 30
0.0
  0
VERTEX
  5
867
  8
CAMADA_1
 62
   250
 10
-84.6294
 20
23.4255
 30
0.0
  0
VERTEX
  5
868
  8
CAMADA_1
 62
   250
 10
-84.6518
 20
22.0538
 30
0.0
  0
VERTEX
  5
869
  8
CAMADA_1
 62
   250
 10
-84.6487
 20
21.3903
 30
0.0
  0
VERTEX
  5
86A
  8
CAMADA_1
 62
   250
 10
-84.6318
 20
20.7146
 30
0.0
  0
VERTEX
  5
86B
  8
CAMADA_1
 62
   250
 10
-84.5962
 20
20.0288
 30
0.0
  0
VERTEX
  5
86C
  8
CAMADA_1
 62
   250
 10
-84.5369
 20
19.3352
 30
0.0
  0
VERTEX
  5
86D
  8
CAMADA_1
 62
   250
 10
-84.4486
 20
18.636
 30
0.0
  0
VERTEX
  5
86E
  8
CAMADA_1
 62
   250
 10
-84.3265
 20
17.9334
 30
0.0
  0
VERTEX
  5
86F
  8
CAMADA_1
 62
   250
 10
-84.1654
 20
17.2299
 30
0.0
  0
VERTEX
  5
870
  8
CAMADA_1
 62
   250
 10
-83.9603
 20
16.5274
 30
0.0
  0
VERTEX
  5
871
  8
CAMADA_1
 62
   250
 10
-83.7783
 20
16.0837
 30
0.0
  0
VERTEX
  5
872
  8
CAMADA_1
 62
   250
 10
-83.5627
 20
15.6304
 30
0.0
  0
VERTEX
  5
873
  8
CAMADA_1
 62
   250
 10
-83.3022
 20
15.1777
 30
0.0
  0
VERTEX
  5
874
  8
CAMADA_1
 62
   250
 10
-82.9852
 20
14.7357
 30
0.0
  0
VERTEX
  5
875
  8
CAMADA_1
 62
   250
 10
-82.6001
 20
14.3144
 30
0.0
  0
VERTEX
  5
876
  8
CAMADA_1
 62
   250
 10
-82.1355
 20
13.9243
 30
0.0
  0
VERTEX
  5
877
  8
CAMADA_1
 62
   250
 10
-81.5798
 20
13.5752
 30
0.0
  0
VERTEX
  5
878
  8
CAMADA_1
 62
   250
 10
-80.9215
 20
13.2775
 30
0.0
  0
VERTEX
  5
879
  8
CAMADA_1
 62
   250
 10
-80.6872
 20
13.1558
 30
0.0
  0
VERTEX
  5
87A
  8
CAMADA_1
 62
   250
 10
-80.4909
 20
13.0149
 30
0.0
  0
VERTEX
  5
87B
  8
CAMADA_1
 62
   250
 10
-80.3327
 20
12.8554
 30
0.0
  0
VERTEX
  5
87C
  8
CAMADA_1
 62
   250
 10
-80.2125
 20
12.6778
 30
0.0
  0
VERTEX
  5
87D
  8
CAMADA_1
 62
   250
 10
-80.1303
 20
12.4826
 30
0.0
  0
VERTEX
  5
87E
  8
CAMADA_1
 62
   250
 10
-80.0862
 20
12.2704
 30
0.0
  0
VERTEX
  5
87F
  8
CAMADA_1
 62
   250
 10
-80.0801
 20
12.0418
 30
0.0
  0
VERTEX
  5
880
  8
CAMADA_1
 62
   250
 10
-80.1121
 20
11.7972
 30
0.0
  0
VERTEX
  5
881
  8
CAMADA_1
 62
   250
 10
-80.4362
 20
10.8058
 30
0.0
  0
VERTEX
  5
882
  8
CAMADA_1
 62
   250
 10
-80.7138
 20
9.8663
 30
0.0
  0
VERTEX
  5
883
  8
CAMADA_1
 62
   250
 10
-80.924
 20
8.9778
 30
0.0
  0
VERTEX
  5
884
  8
CAMADA_1
 62
   250
 10
-81.046
 20
8.139
 30
0.0
  0
VERTEX
  5
885
  8
CAMADA_1
 62
   250
 10
-81.0587
 20
7.3492
 30
0.0
  0
VERTEX
  5
886
  8
CAMADA_1
 62
   250
 10
-80.9411
 20
6.6072
 30
0.0
  0
VERTEX
  5
887
  8
CAMADA_1
 62
   250
 10
-80.6725
 20
5.912
 30
0.0
  0
VERTEX
  5
888
  8
CAMADA_1
 62
   250
 10
-80.2317
 20
5.2627
 30
0.0
  0
VERTEX
  5
889
  8
CAMADA_1
 62
   250
 10
-79.7873
 20
4.8655
 30
0.0
  0
VERTEX
  5
88A
  8
CAMADA_1
 62
   250
 10
-79.3295
 20
4.488
 30
0.0
  0
VERTEX
  5
88B
  8
CAMADA_1
 62
   250
 10
-78.8505
 20
4.1306
 30
0.0
  0
VERTEX
  5
88C
  8
CAMADA_1
 62
   250
 10
-78.3421
 20
3.7939
 30
0.0
  0
VERTEX
  5
88D
  8
CAMADA_1
 62
   250
 10
-77.7966
 20
3.4784
 30
0.0
  0
VERTEX
  5
88E
  8
CAMADA_1
 62
   250
 10
-77.2058
 20
3.1847
 30
0.0
  0
VERTEX
  5
88F
  8
CAMADA_1
 62
   250
 10
-76.5618
 20
2.9131
 30
0.0
  0
VERTEX
  5
890
  8
CAMADA_1
 62
   250
 10
-75.8567
 20
2.6643
 30
0.0
  0
VERTEX
  5
891
  8
CAMADA_1
 62
   250
 10
-74.6045
 20
2.2559
 30
0.0
  0
VERTEX
  5
892
  8
CAMADA_1
 62
   250
 10
-73.3271
 20
1.9128
 30
0.0
  0
VERTEX
  5
893
  8
CAMADA_1
 62
   250
 10
-72.0344
 20
1.626
 30
0.0
  0
VERTEX
  5
894
  8
CAMADA_1
 62
   250
 10
-70.7368
 20
1.3865
 30
0.0
  0
VERTEX
  5
895
  8
CAMADA_1
 62
   250
 10
-69.4442
 20
1.1855
 30
0.0
  0
VERTEX
  5
896
  8
CAMADA_1
 62
   250
 10
-68.167
 20
1.0138
 30
0.0
  0
VERTEX
  5
897
  8
CAMADA_1
 62
   250
 10
-66.9151
 20
0.8627
 30
0.0
  0
VERTEX
  5
898
  8
CAMADA_1
 62
   250
 10
-65.6988
 20
0.723
 30
0.0
  0
VERTEX
  5
899
  8
CAMADA_1
 62
   250
 10
-64.8058
 20
0.6377
 30
0.0
  0
VERTEX
  5
89A
  8
CAMADA_1
 62
   250
 10
-63.9229
 20
0.5864
 30
0.0
  0
VERTEX
  5
89B
  8
CAMADA_1
 62
   250
 10
-63.0504
 20
0.5672
 30
0.0
  0
VERTEX
  5
89C
  8
CAMADA_1
 62
   250
 10
-62.1886
 20
0.5787
 30
0.0
  0
VERTEX
  5
89D
  8
CAMADA_1
 62
   250
 10
-61.3379
 20
0.619
 30
0.0
  0
VERTEX
  5
89E
  8
CAMADA_1
 62
   250
 10
-60.4987
 20
0.6865
 30
0.0
  0
VERTEX
  5
89F
  8
CAMADA_1
 62
   250
 10
-59.6713
 20
0.7793
 30
0.0
  0
VERTEX
  5
8A0
  8
CAMADA_1
 62
   250
 10
-58.8561
 20
0.8958
 30
0.0
  0
VERTEX
  5
8A1
  8
CAMADA_1
 62
   250
 10
-57.9973
 20
1.0496
 30
0.0
  0
VERTEX
  5
8A2
  8
CAMADA_1
 62
   250
 10
-57.1606
 20
1.2336
 30
0.0
  0
VERTEX
  5
8A3
  8
CAMADA_1
 62
   250
 10
-56.3413
 20
1.4447
 30
0.0
  0
VERTEX
  5
8A4
  8
CAMADA_1
 62
   250
 10
-55.5351
 20
1.6799
 30
0.0
  0
VERTEX
  5
8A5
  8
CAMADA_1
 62
   250
 10
-54.7375
 20
1.936
 30
0.0
  0
VERTEX
  5
8A6
  8
CAMADA_1
 62
   250
 10
-53.9439
 20
2.2099
 30
0.0
  0
VERTEX
  5
8A7
  8
CAMADA_1
 62
   250
 10
-53.1501
 20
2.4985
 30
0.0
  0
VERTEX
  5
8A8
  8
CAMADA_1
 62
   250
 10
-52.3516
 20
2.7986
 30
0.0
  0
VERTEX
  5
8A9
  8
CAMADA_1
 62
   250
 10
-52.1647
 20
2.8614
 30
0.0
  0
VERTEX
  5
8AA
  8
CAMADA_1
 62
   250
 10
-51.984
 20
2.8913
 30
0.0
  0
VERTEX
  5
8AB
  8
CAMADA_1
 62
   250
 10
-51.8158
 20
2.8863
 30
0.0
  0
VERTEX
  5
8AC
  8
CAMADA_1
 62
   250
 10
-51.6661
 20
2.8441
 30
0.0
  0
VERTEX
  5
8AD
  8
CAMADA_1
 62
   250
 10
-51.5412
 20
2.7627
 30
0.0
  0
VERTEX
  5
8AE
  8
CAMADA_1
 62
   250
 10
-51.4472
 20
2.6399
 30
0.0
  0
VERTEX
  5
8AF
  8
CAMADA_1
 62
   250
 10
-51.3905
 20
2.4737
 30
0.0
  0
VERTEX
  5
8B0
  8
CAMADA_1
 62
   250
 10
-51.3771
 20
2.2618
 30
0.0
  0
VERTEX
  5
8B1
  8
CAMADA_1
 62
   250
 10
-51.3317
 20
-11.8609
 30
0.0
  0
VERTEX
  5
8B2
  8
CAMADA_1
 62
   250
 10
-51.3317
 20
-11.8609
 30
0.0
  0
SEQEND
  5
8B3
  8
CAMADA_1
 62
   250
  0
POLYLINE
  5
71
  8
CAMADA_1
 62
   250
 66
     1
 10
0.0
 20
0.0
 30
0.0
 70
     1
  0
VERTEX
  5
8B4
  8
CAMADA_1
 62
   250
 10
-71.6657
 20
-5.9306
 30
0.0
  0
VERTEX
  5
8B5
  8
CAMADA_1
 62
   250
 10
-71.8533
 20
-7.4433
 30
0.0
  0
VERTEX
  5
8B6
  8
CAMADA_1
 62
   250
 10
-62.9262
 20
-8.4817
 30
0.0
  0
VERTEX
  5
8B7
  8
CAMADA_1
 62
   250
 10
-62.758
 20
-6.9668
 30
0.0
  0
VERTEX
  5
8B8
  8
CAMADA_1
 62
   250
 10
-71.6657
 20
-5.9306
 30
0.0
  0
VERTEX
  5
8B9
  8
CAMADA_1
 62
   250
 10
-71.6657
 20
-5.9306
 30
0.0
  0
SEQEND
  5
8BA
  8
CAMADA_1
 62
   250
  0
POLYLINE
  5
72
  8
CAMADA_1
 62
   250
 66
     1
 10
0.0
 20
0.0
 30
0.0
 70
     1
  0
VERTEX
  5
8BB
  8
CAMADA_1
 62
   250
 10
-30.1463
 20
37.9708
 30
0.0
  0
VERTEX
  5
8BC
  8
CAMADA_1
 62
   250
 10
-24.832
 20
37.9765
 30
0.0
  0
VERTEX
  5
8BD
  8
CAMADA_1
 62
   250
 10
-24.8319
 20
29.656
 30
0.0
  0
VERTEX
  5
8BE
  8
CAMADA_1
 62
   250
 10
-23.5145
 20
29.648
 30
0.0
  0
VERTEX
  5
8BF
  8
CAMADA_1
 62
   250
 10
-23.5197
 20
37.9779
 30
0.0
  0
VERTEX
  5
8C0
  8
CAMADA_1
 62
   250
 10
-18.2884
 20
37.9835
 30
0.0
  0
VERTEX
  5
8C1
  8
CAMADA_1
 62
   250
 10
-18.2884
 20
25.1773
 30
0.0
  0
VERTEX
  5
8C2
  8
CAMADA_1
 62
   250
 10
-18.328
 20
24.6498
 30
0.0
  0
VERTEX
  5
8C3
  8
CAMADA_1
 62
   250
 10
-18.4495
 20
24.1505
 30
0.0
  0
VERTEX
  5
8C4
  8
CAMADA_1
 62
   250
 10
-18.656
 20
23.6805
 30
0.0
  0
VERTEX
  5
8C5
  8
CAMADA_1
 62
   250
 10
-18.9507
 20
23.241
 30
0.0
  0
VERTEX
  5
8C6
  8
CAMADA_1
 62
   250
 10
-19.3369
 20
22.833
 30
0.0
  0
VERTEX
  5
8C7
  8
CAMADA_1
 62
   250
 10
-19.8177
 20
22.4576
 30
0.0
  0
VERTEX
  5
8C8
  8
CAMADA_1
 62
   250
 10
-20.3965
 20
22.116
 30
0.0
  0
VERTEX
  5
8C9
  8
CAMADA_1
 62
   250
 10
-21.0763
 20
21.8092
 30
0.0
  0
VERTEX
  5
8CA
  8
CAMADA_1
 62
   250
 10
-21.9586
 20
21.5415
 30
0.0
  0
VERTEX
  5
8CB
  8
CAMADA_1
 62
   250
 10
-22.8248
 20
21.3551
 30
0.0
  0
VERTEX
  5
8CC
  8
CAMADA_1
 62
   250
 10
-23.6754
 20
21.2488
 30
0.0
  0
VERTEX
  5
8CD
  8
CAMADA_1
 62
   250
 10
-24.5106
 20
21.2211
 30
0.0
  0
VERTEX
  5
8CE
  8
CAMADA_1
 62
   250
 10
-25.3305
 20
21.2709
 30
0.0
  0
VERTEX
  5
8CF
  8
CAMADA_1
 62
   250
 10
-26.1356
 20
21.3969
 30
0.0
  0
VERTEX
  5
8D0
  8
CAMADA_1
 62
   250
 10
-26.926
 20
21.5978
 30
0.0
  0
VERTEX
  5
8D1
  8
CAMADA_1
 62
   250
 10
-27.702
 20
21.8723
 30
0.0
  0
VERTEX
  5
8D2
  8
CAMADA_1
 62
   250
 10
-28.2436
 20
22.1261
 30
0.0
  0
VERTEX
  5
8D3
  8
CAMADA_1
 62
   250
 10
-28.7279
 20
22.4331
 30
0.0
  0
VERTEX
  5
8D4
  8
CAMADA_1
 62
   250
 10
-29.1499
 20
22.794
 30
0.0
  0
VERTEX
  5
8D5
  8
CAMADA_1
 62
   250
 10
-29.5045
 20
23.2094
 30
0.0
  0
VERTEX
  5
8D6
  8
CAMADA_1
 62
   250
 10
-29.7865
 20
23.68
 30
0.0
  0
VERTEX
  5
8D7
  8
CAMADA_1
 62
   250
 10
-29.9908
 20
24.2065
 30
0.0
  0
VERTEX
  5
8D8
  8
CAMADA_1
 62
   250
 10
-30.1124
 20
24.7895
 30
0.0
  0
VERTEX
  5
8D9
  8
CAMADA_1
 62
   250
 10
-30.1463
 20
25.4296
 30
0.0
  0
VERTEX
  5
8DA
  8
CAMADA_1
 62
   250
 10
-30.1463
 20
37.9708
 30
0.0
  0
VERTEX
  5
8DB
  8
CAMADA_1
 62
   250
 10
-30.1463
 20
37.9708
 30
0.0
  0
SEQEND
  5
8DC
  8
CAMADA_1
 62
   250
  0
POLYLINE
  5
73
  8
CAMADA_1
 62
   250
 66
     1
 10
0.0
 20
0.0
 30
0.0
 70
     1
  0
VERTEX
  5
8DD
  8
CAMADA_1
 62
   250
 10
-113.8409
 20
-24.8251
 30
0.0
  0
VERTEX
  5
8DE
  8
CAMADA_1
 62
   250
 10
-75.5077
 20
-24.9267
 30
0.0
  0
VERTEX
  5
8DF
  8
CAMADA_1
 62
   250
 10
-75.5264
 20
-27.0379
 30
0.0
  0
VERTEX
  5
8E0
  8
CAMADA_1
 62
   250
 10
-94.6784
 20
-27.0313
 30
0.0
  0
VERTEX
  5
8E1
  8
CAMADA_1
 62
   250
 10
-94.6773
 20
-28.3271
 30
0.0
  0
VERTEX
  5
8E2
  8
CAMADA_1
 62
   250
 10
-75.5637
 20
-28.3458
 30
0.0
  0
VERTEX
  5
8E3
  8
CAMADA_1
 62
   250
 10
-75.5637
 20
-30.528
 30
0.0
  0
VERTEX
  5
8E4
  8
CAMADA_1
 62
   250
 10
-113.8409
 20
-30.4037
 30
0.0
  0
VERTEX
  5
8E5
  8
CAMADA_1
 62
   250
 10
-113.8409
 20
-24.8251
 30
0.0
  0
VERTEX
  5
8E6
  8
CAMADA_1
 62
   250
 10
-113.8409
 20
-24.8251
 30
0.0
  0
SEQEND
  5
8E7
  8
CAMADA_1
 62
   250
  0
POLYLINE
  5
74
  8
CAMADA_1
 62
   250
 66
     1
 10
0.0
 20
0.0
 30
0.0
 70
     1
  0
VERTEX
  5
8E8
  8
CAMADA_1
 62
   250
 10
-71.5212
 20
-23.8447
 30
0.0
  0
VERTEX
  5
8E9
  8
CAMADA_1
 62
   250
 10
-72.4116
 20
-23.8584
 30
0.0
  0
VERTEX
  5
8EA
  8
CAMADA_1
 62
   250
 10
-72.5674
 20
-23.8464
 30
0.0
  0
VERTEX
  5
8EB
  8
CAMADA_1
 62
   250
 10
-72.7164
 20
-23.807
 30
0.0
  0
VERTEX
  5
8EC
  8
CAMADA_1
 62
   250
 10
-72.8585
 20
-23.7402
 30
0.0
  0
VERTEX
  5
8ED
  8
CAMADA_1
 62
   250
 10
-72.9938
 20
-23.6461
 30
0.0
  0
VERTEX
  5
8EE
  8
CAMADA_1
 62
   250
 10
-73.1222
 20
-23.5245
 30
0.0
  0
VERTEX
  5
8EF
  8
CAMADA_1
 62
   250
 10
-73.2438
 20
-23.3755
 30
0.0
  0
VERTEX
  5
8F0
  8
CAMADA_1
 62
   250
 10
-73.3585
 20
-23.1992
 30
0.0
  0
VERTEX
  5
8F1
  8
CAMADA_1
 62
   250
 10
-73.4664
 20
-22.9954
 30
0.0
  0
VERTEX
  5
8F2
  8
CAMADA_1
 62
   250
 10
-73.5791
 20
-22.5753
 30
0.0
  0
VERTEX
  5
8F3
  8
CAMADA_1
 62
   250
 10
-73.6559
 20
-22.1572
 30
0.0
  0
VERTEX
  5
8F4
  8
CAMADA_1
 62
   250
 10
-73.6961
 20
-21.7403
 30
0.0
  0
VERTEX
  5
8F5
  8
CAMADA_1
 62
   250
 10
-73.6993
 20
-21.3241
 30
0.0
  0
VERTEX
  5
8F6
  8
CAMADA_1
 62
   250
 10
-73.6647
 20
-20.9079
 30
0.0
  0
VERTEX
  5
8F7
  8
CAMADA_1
 62
   250
 10
-73.5919
 20
-20.4911
 30
0.0
  0
VERTEX
  5
8F8
  8
CAMADA_1
 62
   250
 10
-73.4803
 20
-20.073
 30
0.0
  0
VERTEX
  5
8F9
  8
CAMADA_1
 62
   250
 10
-73.3294
 20
-19.6529
 30
0.0
  0
VERTEX
  5
8FA
  8
CAMADA_1
 62
   250
 10
-73.2692
 20
-19.5425
 30
0.0
  0
VERTEX
  5
8FB
  8
CAMADA_1
 62
   250
 10
-73.198
 20
-19.441
 30
0.0
  0
VERTEX
  5
8FC
  8
CAMADA_1
 62
   250
 10
-73.1154
 20
-19.3487
 30
0.0
  0
VERTEX
  5
8FD
  8
CAMADA_1
 62
   250
 10
-73.0212
 20
-19.2659
 30
0.0
  0
VERTEX
  5
8FE
  8
CAMADA_1
 62
   250
 10
-72.915
 20
-19.193
 30
0.0
  0
VERTEX
  5
8FF
  8
CAMADA_1
 62
   250
 10
-72.7964
 20
-19.1302
 30
0.0
  0
VERTEX
  5
900
  8
CAMADA_1
 62
   250
 10
-72.6653
 20
-19.078
 30
0.0
  0
VERTEX
  5
901
  8
CAMADA_1
 62
   250
 10
-72.5212
 20
-19.0365
 30
0.0
  0
VERTEX
  5
902
  8
CAMADA_1
 62
   250
 10
-60.8637
 20
-19.0639
 30
0.0
  0
VERTEX
  5
903
  8
CAMADA_1
 62
   250
 10
-60.7784
 20
-19.0802
 30
0.0
  0
VERTEX
  5
904
  8
CAMADA_1
 62
   250
 10
-60.6918
 20
-19.1054
 30
0.0
  0
VERTEX
  5
905
  8
CAMADA_1
 62
   250
 10
-60.606
 20
-19.1398
 30
0.0
  0
VERTEX
  5
906
  8
CAMADA_1
 62
   250
 10
-60.5229
 20
-19.1837
 30
0.0
  0
VERTEX
  5
907
  8
CAMADA_1
 62
   250
 10
-60.4448
 20
-19.2375
 30
0.0
  0
VERTEX
  5
908
  8
CAMADA_1
 62
   250
 10
-60.3737
 20
-19.3015
 30
0.0
  0
VERTEX
  5
909
  8
CAMADA_1
 62
   250
 10
-60.3117
 20
-19.3759
 30
0.0
  0
VERTEX
  5
90A
  8
CAMADA_1
 62
   250
 10
-60.2609
 20
-19.4611
 30
0.0
  0
VERTEX
  5
90B
  8
CAMADA_1
 62
   250
 10
-60.0868
 20
-19.7944
 30
0.0
  0
VERTEX
  5
90C
  8
CAMADA_1
 62
   250
 10
-59.9535
 20
-20.1716
 30
0.0
  0
VERTEX
  5
90D
  8
CAMADA_1
 62
   250
 10
-59.863
 20
-20.5901
 30
0.0
  0
VERTEX
  5
90E
  8
CAMADA_1
 62
   250
 10
-59.8175
 20
-21.0468
 30
0.0
  0
VERTEX
  5
90F
  8
CAMADA_1
 62
   250
 10
-59.8187
 20
-21.539
 30
0.0
  0
VERTEX
  5
910
  8
CAMADA_1
 62
   250
 10
-59.8689
 20
-22.064
 30
0.0
  0
VERTEX
  5
911
  8
CAMADA_1
 62
   250
 10
-59.97
 20
-22.6189
 30
0.0
  0
VERTEX
  5
912
  8
CAMADA_1
 62
   250
 10
-60.124
 20
-23.2008
 30
0.0
  0
VERTEX
  5
913
  8
CAMADA_1
 62
   250
 10
-60.1847
 20
-23.3173
 30
0.0
  0
VERTEX
  5
914
  8
CAMADA_1
 62
   250
 10
-60.2541
 20
-23.4235
 30
0.0
  0
VERTEX
  5
915
  8
CAMADA_1
 62
   250
 10
-60.332
 20
-23.5193
 30
0.0
  0
VERTEX
  5
916
  8
CAMADA_1
 62
   250
 10
-60.4185
 20
-23.605
 30
0.0
  0
VERTEX
  5
917
  8
CAMADA_1
 62
   250
 10
-60.5135
 20
-23.6803
 30
0.0
  0
VERTEX
  5
918
  8
CAMADA_1
 62
   250
 10
-60.6171
 20
-23.7454
 30
0.0
  0
VERTEX
  5
919
  8
CAMADA_1
 62
   250
 10
-60.7292
 20
-23.8002
 30
0.0
  0
VERTEX
  5
91A
  8
CAMADA_1
 62
   250
 10
-60.85
 20
-23.8447
 30
0.0
  0
VERTEX
  5
91B
  8
CAMADA_1
 62
   250
 10
-62.0144
 20
-23.8447
 30
0.0
  0
VERTEX
  5
91C
  8
CAMADA_1
 62
   250
 10
-62.0281
 20
-21.42
 30
0.0
  0
VERTEX
  5
91D
  8
CAMADA_1
 62
   250
 10
-63.302
 20
-21.42
 30
0.0
  0
VERTEX
  5
91E
  8
CAMADA_1
 62
   250
 10
-63.302
 20
-23.831
 30
0.0
  0
VERTEX
  5
91F
  8
CAMADA_1
 62
   250
 10
-70.1787
 20
-23.831
 30
0.0
  0
VERTEX
  5
920
  8
CAMADA_1
 62
   250
 10
-70.1787
 20
-21.4337
 30
0.0
  0
VERTEX
  5
921
  8
CAMADA_1
 62
   250
 10
-71.5349
 20
-21.4337
 30
0.0
  0
VERTEX
  5
922
  8
CAMADA_1
 62
   250
 10
-71.5212
 20
-23.8447
 30
0.0
  0
VERTEX
  5
923
  8
CAMADA_1
 62
   250
 10
-71.5212
 20
-23.8447
 30
0.0
  0
SEQEND
  5
924
  8
CAMADA_1
 62
   250
  0
POLYLINE
  5
75
  8
CAMADA_1
 62
   250
 66
     1
 10
0.0
 20
0.0
 30
0.0
 70
     1
  0
VERTEX
  5
925
  8
CAMADA_1
 62
   250
 10
-68.3433
 20
21.8701
 30
0.0
  0
VERTEX
  5
926
  8
CAMADA_1
 62
   250
 10
-71.0146
 20
21.8846
 30
0.0
  0
VERTEX
  5
927
  8
CAMADA_1
 62
   250
 10
-70.979
 20
22.2853
 30
0.0
  0
VERTEX
  5
928
  8
CAMADA_1
 62
   250
 10
-70.8566
 20
22.6434
 30
0.0
  0
VERTEX
  5
929
  8
CAMADA_1
 62
   250
 10
-70.6475
 20
22.9587
 30
0.0
  0
VERTEX
  5
92A
  8
CAMADA_1
 62
   250
 10
-70.3516
 20
23.2313
 30
0.0
  0
VERTEX
  5
92B
  8
CAMADA_1
 62
   250
 10
-69.969
 20
23.4612
 30
0.0
  0
VERTEX
  5
92C
  8
CAMADA_1
 62
   250
 10
-69.4995
 20
23.6483
 30
0.0
  0
VERTEX
  5
92D
  8
CAMADA_1
 62
   250
 10
-68.9433
 20
23.7927
 30
0.0
  0
VERTEX
  5
92E
  8
CAMADA_1
 62
   250
 10
-68.3003
 20
23.8943
 30
0.0
  0
VERTEX
  5
92F
  8
CAMADA_1
 62
   250
 10
-67.812
 20
23.9441
 30
0.0
  0
VERTEX
  5
930
  8
CAMADA_1
 62
   250
 10
-67.3107
 20
23.9804
 30
0.0
  0
VERTEX
  5
931
  8
CAMADA_1
 62
   250
 10
-66.7965
 20
24.0035
 30
0.0
  0
VERTEX
  5
932
  8
CAMADA_1
 62
   250
 10
-66.2694
 20
24.0134
 30
0.0
  0
VERTEX
  5
933
  8
CAMADA_1
 62
   250
 10
-65.7292
 20
24.0104
 30
0.0
  0
VERTEX
  5
934
  8
CAMADA_1
 62
   250
 10
-65.1762
 20
23.9945
 30
0.0
  0
VERTEX
  5
935
  8
CAMADA_1
 62
   250
 10
-64.6101
 20
23.9661
 30
0.0
  0
VERTEX
  5
936
  8
CAMADA_1
 62
   250
 10
-64.0311
 20
23.9253
 30
0.0
  0
VERTEX
  5
937
  8
CAMADA_1
 62
   250
 10
-63.4531
 20
23.8472
 30
0.0
  0
VERTEX
  5
938
  8
CAMADA_1
 62
   250
 10
-62.9322
 20
23.7261
 30
0.0
  0
VERTEX
  5
939
  8
CAMADA_1
 62
   250
 10
-62.4737
 20
23.5584
 30
0.0
  0
VERTEX
  5
93A
  8
CAMADA_1
 62
   250
 10
-62.0825
 20
23.34
 30
0.0
  0
VERTEX
  5
93B
  8
CAMADA_1
 62
   250
 10
-61.764
 20
23.0673
 30
0.0
  0
VERTEX
  5
93C
  8
CAMADA_1
 62
   250
 10
-61.5231
 20
22.7363
 30
0.0
  0
VERTEX
  5
93D
  8
CAMADA_1
 62
   250
 10
-61.3648
 20
22.3433
 30
0.0
  0
VERTEX
  5
93E
  8
CAMADA_1
 62
   250
 10
-61.2945
 20
21.8844
 30
0.0
  0
VERTEX
  5
93F
  8
CAMADA_1
 62
   250
 10
-63.9825
 20
21.8805
 30
0.0
  0
VERTEX
  5
940
  8
CAMADA_1
 62
   250
 10
-64.0136
 20
3.7851
 30
0.0
  0
VERTEX
  5
941
  8
CAMADA_1
 62
   250
 10
-65.5634
 20
3.7851
 30
0.0
  0
VERTEX
  5
942
  8
CAMADA_1
 62
   250
 10
-65.5634
 20
12.1973
 30
0.0
  0
VERTEX
  5
943
  8
CAMADA_1
 62
   250
 10
-66.886
 20
12.1946
 30
0.0
  0
VERTEX
  5
944
  8
CAMADA_1
 62
   250
 10
-66.9029
 20
3.7851
 30
0.0
  0
VERTEX
  5
945
  8
CAMADA_1
 62
   250
 10
-68.4134
 20
3.7851
 30
0.0
  0
VERTEX
  5
946
  8
CAMADA_1
 62
   250
 10
-68.3433
 20
21.8701
 30
0.0
  0
VERTEX
  5
947
  8
CAMADA_1
 62
   250
 10
-68.3433
 20
21.8701
 30
0.0
  0
SEQEND
  5
948
  8
CAMADA_1
 62
   250
  0
POLYLINE
  5
76
  8
CAMADA_1
 62
   250
 66
     1
 10
0.0
 20
0.0
 30
0.0
 70
     1
  0
VERTEX
  5
949
  8
CAMADA_1
 62
   250
 10
-53.6196
 20
-40.5954
 30
0.0
  0
VERTEX
  5
94A
  8
CAMADA_1
 62
   250
 10
-53.1786
 20
-40.701
 30
0.0
  0
VERTEX
  5
94B
  8
CAMADA_1
 62
   250
 10
-52.8137
 20
-40.8549
 30
0.0
  0
VERTEX
  5
94C
  8
CAMADA_1
 62
   250
 10
-52.5187
 20
-41.0506
 30
0.0
  0
VERTEX
  5
94D
  8
CAMADA_1
 62
   250
 10
-52.2874
 20
-41.2817
 30
0.0
  0
VERTEX
  5
94E
  8
CAMADA_1
 62
   250
 10
-52.1137
 20
-41.5417
 30
0.0
  0
VERTEX
  5
94F
  8
CAMADA_1
 62
   250
 10
-51.9913
 20
-41.8241
 30
0.0
  0
VERTEX
  5
950
  8
CAMADA_1
 62
   250
 10
-51.9141
 20
-42.1225
 30
0.0
  0
VERTEX
  5
951
  8
CAMADA_1
 62
   250
 10
-51.8758
 20
-42.4304
 30
0.0
  0
VERTEX
  5
952
  8
CAMADA_1
 62
   250
 10
-51.8965
 20
-42.6181
 30
0.0
  0
VERTEX
  5
953
  8
CAMADA_1
 62
   250
 10
-51.9331
 20
-42.7758
 30
0.0
  0
VERTEX
  5
954
  8
CAMADA_1
 62
   250
 10
-51.9844
 20
-42.9081
 30
0.0
  0
VERTEX
  5
955
  8
CAMADA_1
 62
   250
 10
-52.0491
 20
-43.0196
 30
0.0
  0
VERTEX
  5
956
  8
CAMADA_1
 62
   250
 10
-52.1259
 20
-43.1149
 30
0.0
  0
VERTEX
  5
957
  8
CAMADA_1
 62
   250
 10
-52.2135
 20
-43.1986
 30
0.0
  0
VERTEX
  5
958
  8
CAMADA_1
 62
   250
 10
-52.3108
 20
-43.2752
 30
0.0
  0
VERTEX
  5
959
  8
CAMADA_1
 62
   250
 10
-52.4162
 20
-43.3495
 30
0.0
  0
VERTEX
  5
95A
  8
CAMADA_1
 62
   250
 10
-53.4089
 20
-43.5572
 30
0.0
  0
VERTEX
  5
95B
  8
CAMADA_1
 62
   250
 10
-54.4495
 20
-43.7105
 30
0.0
  0
VERTEX
  5
95C
  8
CAMADA_1
 62
   250
 10
-55.5173
 20
-43.8051
 30
0.0
  0
VERTEX
  5
95D
  8
CAMADA_1
 62
   250
 10
-56.5917
 20
-43.8366
 30
0.0
  0
VERTEX
  5
95E
  8
CAMADA_1
 62
   250
 10
-57.6519
 20
-43.8006
 30
0.0
  0
VERTEX
  5
95F
  8
CAMADA_1
 62
   250
 10
-58.6774
 20
-43.6928
 30
0.0
  0
VERTEX
  5
960
  8
CAMADA_1
 62
   250
 10
-59.6475
 20
-43.5088
 30
0.0
  0
VERTEX
  5
961
  8
CAMADA_1
 62
   250
 10
-60.5414
 20
-43.2442
 30
0.0
  0
VERTEX
  5
962
  8
CAMADA_1
 62
   250
 10
-61.1402
 20
-43.0025
 30
0.0
  0
VERTEX
  5
963
  8
CAMADA_1
 62
   250
 10
-61.6572
 20
-42.6702
 30
0.0
  0
VERTEX
  5
964
  8
CAMADA_1
 62
   250
 10
-62.0961
 20
-42.2618
 30
0.0
  0
VERTEX
  5
965
  8
CAMADA_1
 62
   250
 10
-62.4607
 20
-41.7918
 30
0.0
  0
VERTEX
  5
966
  8
CAMADA_1
 62
   250
 10
-62.7547
 20
-41.2747
 30
0.0
  0
VERTEX
  5
967
  8
CAMADA_1
 62
   250
 10
-62.982
 20
-40.7251
 30
0.0
  0
VERTEX
  5
968
  8
CAMADA_1
 62
   250
 10
-63.1464
 20
-40.1575
 30
0.0
  0
VERTEX
  5
969
  8
CAMADA_1
 62
   250
 10
-63.2515
 20
-39.5865
 30
0.0
  0
VERTEX
  5
96A
  8
CAMADA_1
 62
   250
 10
-63.3107
 20
-38.8234
 30
0.0
  0
VERTEX
  5
96B
  8
CAMADA_1
 62
   250
 10
-63.3364
 20
-38.0925
 30
0.0
  0
VERTEX
  5
96C
  8
CAMADA_1
 62
   250
 10
-63.3333
 20
-37.3833
 30
0.0
  0
VERTEX
  5
96D
  8
CAMADA_1
 62
   250
 10
-63.306
 20
-36.6849
 30
0.0
  0
VERTEX
  5
96E
  8
CAMADA_1
 62
   250
 10
-63.2591
 20
-35.9868
 30
0.0
  0
VERTEX
  5
96F
  8
CAMADA_1
 62
   250
 10
-63.1973
 20
-35.2782
 30
0.0
  0
VERTEX
  5
970
  8
CAMADA_1
 62
   250
 10
-63.1253
 20
-34.5485
 30
0.0
  0
VERTEX
  5
971
  8
CAMADA_1
 62
   250
 10
-63.0476
 20
-33.787
 30
0.0
  0
VERTEX
  5
972
  8
CAMADA_1
 62
   250
 10
-62.7778
 20
-32.6805
 30
0.0
  0
VERTEX
  5
973
  8
CAMADA_1
 62
   250
 10
-62.4263
 20
-31.6803
 30
0.0
  0
VERTEX
  5
974
  8
CAMADA_1
 62
   250
 10
-61.9902
 20
-30.7943
 30
0.0
  0
VERTEX
  5
975
  8
CAMADA_1
 62
   250
 10
-61.4672
 20
-30.0303
 30
0.0
  0
VERTEX
  5
976
  8
CAMADA_1
 62
   250
 10
-60.8546
 20
-29.396
 30
0.0
  0
VERTEX
  5
977
  8
CAMADA_1
 62
   250
 10
-60.15
 20
-28.8995
 30
0.0
  0
VERTEX
  5
978
  8
CAMADA_1
 62
   250
 10
-59.3507
 20
-28.5484
 30
0.0
  0
VERTEX
  5
979
  8
CAMADA_1
 62
   250
 10
-58.4542
 20
-28.3506
 30
0.0
  0
VERTEX
  5
97A
  8
CAMADA_1
 62
   250
 10
-57.7808
 20
-28.2312
 30
0.0
  0
VERTEX
  5
97B
  8
CAMADA_1
 62
   250
 10
-57.02
 20
-28.1143
 30
0.0
  0
VERTEX
  5
97C
  8
CAMADA_1
 62
   250
 10
-56.1928
 20
-27.9961
 30
0.0
  0
VERTEX
  5
97D
  8
CAMADA_1
 62
   250
 10
-55.3202
 20
-27.8725
 30
0.0
  0
VERTEX
  5
97E
  8
CAMADA_1
 62
   250
 10
-54.423
 20
-27.7395
 30
0.0
  0
VERTEX
  5
97F
  8
CAMADA_1
 62
   250
 10
-53.5225
 20
-27.5935
 30
0.0
  0
VERTEX
  5
980
  8
CAMADA_1
 62
   250
 10
-52.6394
 20
-27.4302
 30
0.0
  0
VERTEX
  5
981
  8
CAMADA_1
 62
   250
 10
-51.7949
 20
-27.246
 30
0.0
  0
VERTEX
  5
982
  8
CAMADA_1
 62
   250
 10
-51.6069
 20
-27.2256
 30
0.0
  0
VERTEX
  5
983
  8
CAMADA_1
 62
   250
 10
-51.4326
 20
-27.2207
 30
0.0
  0
VERTEX
  5
984
  8
CAMADA_1
 62
   250
 10
-51.2692
 20
-27.2255
 30
0.0
  0
VERTEX
  5
985
  8
CAMADA_1
 62
   250
 10
-51.114
 20
-27.2343
 30
0.0
  0
VERTEX
  5
986
  8
CAMADA_1
 62
   250
 10
-50.9644
 20
-27.2412
 30
0.0
  0
VERTEX
  5
987
  8
CAMADA_1
 62
   250
 10
-50.8177
 20
-27.2406
 30
0.0
  0
VERTEX
  5
988
  8
CAMADA_1
 62
   250
 10
-50.6712
 20
-27.2266
 30
0.0
  0
VERTEX
  5
989
  8
CAMADA_1
 62
   250
 10
-50.5222
 20
-27.1936
 30
0.0
  0
VERTEX
  5
98A
  8
CAMADA_1
 62
   250
 10
-50.524
 20
-33.6647
 30
0.0
  0
VERTEX
  5
98B
  8
CAMADA_1
 62
   250
 10
-50.7816
 20
-33.6623
 30
0.0
  0
VERTEX
  5
98C
  8
CAMADA_1
 62
   250
 10
-51.0119
 20
-33.6868
 30
0.0
  0
VERTEX
  5
98D
  8
CAMADA_1
 62
   250
 10
-51.2176
 20
-33.7377
 30
0.0
  0
VERTEX
  5
98E
  8
CAMADA_1
 62
   250
 10
-51.4013
 20
-33.8146
 30
0.0
  0
VERTEX
  5
98F
  8
CAMADA_1
 62
   250
 10
-51.5659
 20
-33.9172
 30
0.0
  0
VERTEX
  5
990
  8
CAMADA_1
 62
   250
 10
-51.7141
 20
-34.045
 30
0.0
  0
VERTEX
  5
991
  8
CAMADA_1
 62
   250
 10
-51.8486
 20
-34.1977
 30
0.0
  0
VERTEX
  5
992
  8
CAMADA_1
 62
   250
 10
-51.972
 20
-34.3749
 30
0.0
  0
VERTEX
  5
993
  8
CAMADA_1
 62
   250
 10
-52.2692
 20
-34.9145
 30
0.0
  0
VERTEX
  5
994
  8
CAMADA_1
 62
   250
 10
-52.5558
 20
-35.4072
 30
0.0
  0
VERTEX
  5
995
  8
CAMADA_1
 62
   250
 10
-52.8509
 20
-35.8491
 30
0.0
  0
VERTEX
  5
996
  8
CAMADA_1
 62
   250
 10
-53.1736
 20
-36.2365
 30
0.0
  0
VERTEX
  5
997
  8
CAMADA_1
 62
   250
 10
-53.5427
 20
-36.5657
 30
0.0
  0
VERTEX
  5
998
  8
CAMADA_1
 62
   250
 10
-53.9774
 20
-36.8328
 30
0.0
  0
VERTEX
  5
999
  8
CAMADA_1
 62
   250
 10
-54.4966
 20
-37.0341
 30
0.0
  0
VERTEX
  5
99A
  8
CAMADA_1
 62
   250
 10
-55.1194
 20
-37.1657
 30
0.0
  0
VERTEX
  5
99B
  8
CAMADA_1
 62
   250
 10
-55.6741
 20
-37.1765
 30
0.0
  0
VERTEX
  5
99C
  8
CAMADA_1
 62
   250
 10
-56.2903
 20
-37.0933
 30
0.0
  0
VERTEX
  5
99D
  8
CAMADA_1
 62
   250
 10
-56.9333
 20
-36.9073
 30
0.0
  0
VERTEX
  5
99E
  8
CAMADA_1
 62
   250
 10
-57.5688
 20
-36.6103
 30
0.0
  0
VERTEX
  5
99F
  8
CAMADA_1
 62
   250
 10
-58.1621
 20
-36.1937
 30
0.0
  0
VERTEX
  5
9A0
  8
CAMADA_1
 62
   250
 10
-58.6789
 20
-35.649
 30
0.0
  0
VERTEX
  5
9A1
  8
CAMADA_1
 62
   250
 10
-59.0845
 20
-34.9677
 30
0.0
  0
VERTEX
  5
9A2
  8
CAMADA_1
 62
   250
 10
-59.3446
 20
-34.1415
 30
0.0
  0
VERTEX
  5
9A3
  8
CAMADA_1
 62
   250
 10
-59.4311
 20
-33.9697
 30
0.0
  0
VERTEX
  5
9A4
  8
CAMADA_1
 62
   250
 10
-59.5865
 20
-33.7991
 30
0.0
  0
VERTEX
  5
9A5
  8
CAMADA_1
 62
   250
 10
-59.7926
 20
-33.6584
 30
0.0
  0
VERTEX
  5
9A6
  8
CAMADA_1
 62
   250
 10
-60.0309
 20
-33.5763
 30
0.0
  0
VERTEX
  5
9A7
  8
CAMADA_1
 62
   250
 10
-60.2831
 20
-33.5812
 30
0.0
  0
VERTEX
  5
9A8
  8
CAMADA_1
 62
   250
 10
-60.5308
 20
-33.702
 30
0.0
  0
VERTEX
  5
9A9
  8
CAMADA_1
 62
   250
 10
-60.7556
 20
-33.9672
 30
0.0
  0
VERTEX
  5
9AA
  8
CAMADA_1
 62
   250
 10
-60.9391
 20
-34.4053
 30
0.0
  0
VERTEX
  5
9AB
  8
CAMADA_1
 62
   250
 10
-60.8886
 20
-35.9363
 30
0.0
  0
VERTEX
  5
9AC
  8
CAMADA_1
 62
   250
 10
-60.3561
 20
-37.1954
 30
0.0
  0
VERTEX
  5
9AD
  8
CAMADA_1
 62
   250
 10
-59.4591
 20
-38.2104
 30
0.0
  0
VERTEX
  5
9AE
  8
CAMADA_1
 62
   250
 10
-58.3151
 20
-39.0089
 30
0.0
  0
VERTEX
  5
9AF
  8
CAMADA_1
 62
   250
 10
-57.0417
 20
-39.6189
 30
0.0
  0
VERTEX
  5
9B0
  8
CAMADA_1
 62
   250
 10
-55.7563
 20
-40.0682
 30
0.0
  0
VERTEX
  5
9B1
  8
CAMADA_1
 62
   250
 10
-54.5764
 20
-40.3844
 30
0.0
  0
VERTEX
  5
9B2
  8
CAMADA_1
 62
   250
 10
-53.6196
 20
-40.5954
 30
0.0
  0
VERTEX
  5
9B3
  8
CAMADA_1
 62
   250
 10
-53.6196
 20
-40.5954
 30
0.0
  0
SEQEND
  5
9B4
  8
CAMADA_1
 62
   250
  0
POLYLINE
  5
77
  8
CAMADA_1
 62
   250
 66
     1
 10
0.0
 20
0.0
 30
0.0
 70
     1
  0
VERTEX
  5
9B5
  8
CAMADA_1
 62
   250
 10
-36.6114
 20
-22.3557
 30
0.0
  0
VERTEX
  5
9B6
  8
CAMADA_1
 62
   250
 10
-43.2
 20
-22.423
 30
0.0
  0
VERTEX
  5
9B7
  8
CAMADA_1
 62
   250
 10
-43.2229
 20
-35.3557
 30
0.0
  0
VERTEX
  5
9B8
  8
CAMADA_1
 62
   250
 10
-49.1648
 20
-35.3391
 30
0.0
  0
VERTEX
  5
9B9
  8
CAMADA_1
 62
   250
 10
-49.1748
 20
-42.0421
 30
0.0
  0
VERTEX
  5
9BA
  8
CAMADA_1
 62
   250
 10
-46.966
 20
-42.027
 30
0.0
  0
VERTEX
  5
9BB
  8
CAMADA_1
 62
   250
 10
-46.9918
 20
-37.0772
 30
0.0
  0
VERTEX
  5
9BC
  8
CAMADA_1
 62
   250
 10
-44.7626
 20
-37.0742
 30
0.0
  0
VERTEX
  5
9BD
  8
CAMADA_1
 62
   250
 10
-44.7416
 20
-42.0281
 30
0.0
  0
VERTEX
  5
9BE
  8
CAMADA_1
 62
   250
 10
-39.8779
 20
-42.0305
 30
0.0
  0
VERTEX
  5
9BF
  8
CAMADA_1
 62
   250
 10
-39.662
 20
-42.8589
 30
0.0
  0
VERTEX
  5
9C0
  8
CAMADA_1
 62
   250
 10
-39.2124
 20
-43.4924
 30
0.0
  0
VERTEX
  5
9C1
  8
CAMADA_1
 62
   250
 10
-38.5834
 20
-43.9568
 30
0.0
  0
VERTEX
  5
9C2
  8
CAMADA_1
 62
   250
 10
-37.8292
 20
-44.2779
 30
0.0
  0
VERTEX
  5
9C3
  8
CAMADA_1
 62
   250
 10
-37.0041
 20
-44.4814
 30
0.0
  0
VERTEX
  5
9C4
  8
CAMADA_1
 62
   250
 10
-36.1625
 20
-44.5929
 30
0.0
  0
VERTEX
  5
9C5
  8
CAMADA_1
 62
   250
 10
-35.3586
 20
-44.6385
 30
0.0
  0
VERTEX
  5
9C6
  8
CAMADA_1
 62
   250
 10
-34.6466
 20
-44.6436
 30
0.0
  0
VERTEX
  5
9C7
  8
CAMADA_1
 62
   250
 10
-34.0599
 20
-44.6241
 30
0.0
  0
VERTEX
  5
9C8
  8
CAMADA_1
 62
   250
 10
-33.3178
 20
-44.5656
 30
0.0
  0
VERTEX
  5
9C9
  8
CAMADA_1
 62
   250
 10
-32.4883
 20
-44.4447
 30
0.0
  0
VERTEX
  5
9CA
  8
CAMADA_1
 62
   250
 10
-31.6392
 20
-44.2381
 30
0.0
  0
VERTEX
  5
9CB
  8
CAMADA_1
 62
   250
 10
-30.8384
 20
-43.9225
 30
0.0
  0
VERTEX
  5
9CC
  8
CAMADA_1
 62
   250
 10
-30.1536
 20
-43.4744
 30
0.0
  0
VERTEX
  5
9CD
  8
CAMADA_1
 62
   250
 10
-29.6528
 20
-42.8706
 30
0.0
  0
VERTEX
  5
9CE
  8
CAMADA_1
 62
   250
 10
-29.4037
 20
-42.0877
 30
0.0
  0
VERTEX
  5
9CF
  8
CAMADA_1
 62
   250
 10
-24.1896
 20
-42.1159
 30
0.0
  0
VERTEX
  5
9D0
  8
CAMADA_1
 62
   250
 10
-24.1774
 20
-40.5613
 30
0.0
  0
VERTEX
  5
9D1
  8
CAMADA_1
 62
   250
 10
-26.4234
 20
-40.532
 30
0.0
  0
VERTEX
  5
9D2
  8
CAMADA_1
 62
   250
 10
-26.3992
 20
-22.4316
 30
0.0
  0
VERTEX
  5
9D3
  8
CAMADA_1
 62
   250
 10
-28.3852
 20
-22.3747
 30
0.0
  0
VERTEX
  5
9D4
  8
CAMADA_1
 62
   250
 10
-36.6114
 20
-22.3557
 30
0.0
  0
VERTEX
  5
9D5
  8
CAMADA_1
 62
   250
 10
-36.6114
 20
-22.3557
 30
0.0
  0
SEQEND
  5
9D6
  8
CAMADA_1
 62
   250
  0
POLYLINE
  5
78
  8
CAMADA_1
 62
   250
 66
     1
 10
0.0
 20
0.0
 30
0.0
 70
     1
  0
VERTEX
  5
9D7
  8
CAMADA_1
 62
   250
 10
-30.488
 20
-3.3428
 30
0.0
  0
VERTEX
  5
9D8
  8
CAMADA_1
 62
   250
 10
-29.1285
 20
-3.3569
 30
0.0
  0
VERTEX
  5
9D9
  8
CAMADA_1
 62
   250
 10
-29.0888
 20
17.0266
 30
0.0
  0
VERTEX
  5
9DA
  8
CAMADA_1
 62
   250
 10
-25.6316
 20
17.0409
 30
0.0
  0
VERTEX
  5
9DB
  8
CAMADA_1
 62
   250
 10
-25.5897
 20
15.699
 30
0.0
  0
VERTEX
  5
9DC
  8
CAMADA_1
 62
   250
 10
-22.7671
 20
15.6381
 30
0.0
  0
VERTEX
  5
9DD
  8
CAMADA_1
 62
   250
 10
-22.7609
 20
16.9856
 30
0.0
  0
VERTEX
  5
9DE
  8
CAMADA_1
 62
   250
 10
-19.1035
 20
16.9715
 30
0.0
  0
VERTEX
  5
9DF
  8
CAMADA_1
 62
   250
 10
-18.9442
 20
16.9449
 30
0.0
  0
VERTEX
  5
9E0
  8
CAMADA_1
 62
   250
 10
-18.8041
 20
16.9007
 30
0.0
  0
VERTEX
  5
9E1
  8
CAMADA_1
 62
   250
 10
-18.683
 20
16.8389
 30
0.0
  0
VERTEX
  5
9E2
  8
CAMADA_1
 62
   250
 10
-18.5811
 20
16.7596
 30
0.0
  0
VERTEX
  5
9E3
  8
CAMADA_1
 62
   250
 10
-18.4984
 20
16.6628
 30
0.0
  0
VERTEX
  5
9E4
  8
CAMADA_1
 62
   250
 10
-18.4347
 20
16.5486
 30
0.0
  0
VERTEX
  5
9E5
  8
CAMADA_1
 62
   250
 10
-18.3902
 20
16.4171
 30
0.0
  0
VERTEX
  5
9E6
  8
CAMADA_1
 62
   250
 10
-18.3648
 20
16.2682
 30
0.0
  0
VERTEX
  5
9E7
  8
CAMADA_1
 62
   250
 10
-18.3444
 20
14.529
 30
0.0
  0
VERTEX
  5
9E8
  8
CAMADA_1
 62
   250
 10
-18.3521
 20
14.3773
 30
0.0
  0
VERTEX
  5
9E9
  8
CAMADA_1
 62
   250
 10
-18.3638
 20
14.2278
 30
0.0
  0
VERTEX
  5
9EA
  8
CAMADA_1
 62
   250
 10
-18.3798
 20
14.0803
 30
0.0
  0
VERTEX
  5
9EB
  8
CAMADA_1
 62
   250
 10
-18.3999
 20
13.935
 30
0.0
  0
VERTEX
  5
9EC
  8
CAMADA_1
 62
   250
 10
-18.4242
 20
13.7917
 30
0.0
  0
VERTEX
  5
9ED
  8
CAMADA_1
 62
   250
 10
-18.4526
 20
13.6505
 30
0.0
  0
VERTEX
  5
9EE
  8
CAMADA_1
 62
   250
 10
-18.4852
 20
13.5114
 30
0.0
  0
VERTEX
  5
9EF
  8
CAMADA_1
 62
   250
 10
-18.522
 20
13.3744
 30
0.0
  0
VERTEX
  5
9F0
  8
CAMADA_1
 62
   250
 10
-21.9923
 20
5.9652
 30
0.0
  0
VERTEX
  5
9F1
  8
CAMADA_1
 62
   250
 10
-22.0878
 20
-25.4568
 30
0.0
  0
VERTEX
  5
9F2
  8
CAMADA_1
 62
   250
 10
-22.1256
 20
-39.6174
 30
0.0
  0
VERTEX
  5
9F3
  8
CAMADA_1
 62
   250
 10
-22.134
 20
-45.5782
 30
0.0
  0
VERTEX
  5
9F4
  8
CAMADA_1
 62
   250
 10
-21.9228
 20
-45.5972
 30
0.0
  0
VERTEX
  5
9F5
  8
CAMADA_1
 62
   250
 10
-21.7132
 20
-45.6268
 30
0.0
  0
VERTEX
  5
9F6
  8
CAMADA_1
 62
   250
 10
-21.5056
 20
-45.6676
 30
0.0
  0
VERTEX
  5
9F7
  8
CAMADA_1
 62
   250
 10
-21.2998
 20
-45.7201
 30
0.0
  0
VERTEX
  5
9F8
  8
CAMADA_1
 62
   250
 10
-21.0962
 20
-45.7849
 30
0.0
  0
VERTEX
  5
9F9
  8
CAMADA_1
 62
   250
 10
-20.8946
 20
-45.8625
 30
0.0
  0
VERTEX
  5
9FA
  8
CAMADA_1
 62
   250
 10
-20.6953
 20
-45.9536
 30
0.0
  0
VERTEX
  5
9FB
  8
CAMADA_1
 62
   250
 10
-20.4984
 20
-46.0587
 30
0.0
  0
VERTEX
  5
9FC
  8
CAMADA_1
 62
   250
 10
-20.1028
 20
-46.3606
 30
0.0
  0
VERTEX
  5
9FD
  8
CAMADA_1
 62
   250
 10
-19.7475
 20
-46.7167
 30
0.0
  0
VERTEX
  5
9FE
  8
CAMADA_1
 62
   250
 10
-19.4401
 20
-47.12
 30
0.0
  0
VERTEX
  5
9FF
  8
CAMADA_1
 62
   250
 10
-19.1884
 20
-47.564
 30
0.0
  0
VERTEX
  5
A00
  8
CAMADA_1
 62
   250
 10
-18.9999
 20
-48.0418
 30
0.0
  0
VERTEX
  5
A01
  8
CAMADA_1
 62
   250
 10
-18.8823
 20
-48.5468
 30
0.0
  0
VERTEX
  5
A02
  8
CAMADA_1
 62
   250
 10
-18.8433
 20
-49.0721
 30
0.0
  0
VERTEX
  5
A03
  8
CAMADA_1
 62
   250
 10
-18.8905
 20
-49.6111
 30
0.0
  0
VERTEX
  5
A04
  8
CAMADA_1
 62
   250
 10
-19.1957
 20
-50.3891
 30
0.0
  0
VERTEX
  5
A05
  8
CAMADA_1
 62
   250
 10
-19.5946
 20
-51.0329
 30
0.0
  0
VERTEX
  5
A06
  8
CAMADA_1
 62
   250
 10
-20.0774
 20
-51.5406
 30
0.0
  0
VERTEX
  5
A07
  8
CAMADA_1
 62
   250
 10
-20.6338
 20
-51.9106
 30
0.0
  0
VERTEX
  5
A08
  8
CAMADA_1
 62
   250
 10
-21.2537
 20
-52.1412
 30
0.0
  0
VERTEX
  5
A09
  8
CAMADA_1
 62
   250
 10
-21.9271
 20
-52.2308
 30
0.0
  0
VERTEX
  5
A0A
  8
CAMADA_1
 62
   250
 10
-22.6437
 20
-52.1777
 30
0.0
  0
VERTEX
  5
A0B
  8
CAMADA_1
 62
   250
 10
-23.3934
 20
-51.9802
 30
0.0
  0
VERTEX
  5
A0C
  8
CAMADA_1
 62
   250
 10
-23.6245
 20
-51.8626
 30
0.0
  0
VERTEX
  5
A0D
  8
CAMADA_1
 62
   250
 10
-23.8373
 20
-51.7415
 30
0.0
  0
VERTEX
  5
A0E
  8
CAMADA_1
 62
   250
 10
-24.0345
 20
-51.6151
 30
0.0
  0
VERTEX
  5
A0F
  8
CAMADA_1
 62
   250
 10
-24.2185
 20
-51.4813
 30
0.0
  0
VERTEX
  5
A10
  8
CAMADA_1
 62
   250
 10
-24.3918
 20
-51.3383
 30
0.0
  0
VERTEX
  5
A11
  8
CAMADA_1
 62
   250
 10
-24.557
 20
-51.1842
 30
0.0
  0
VERTEX
  5
A12
  8
CAMADA_1
 62
   250
 10
-24.7164
 20
-51.017
 30
0.0
  0
VERTEX
  5
A13
  8
CAMADA_1
 62
   250
 10
-24.8726
 20
-50.8348
 30
0.0
  0
VERTEX
  5
A14
  8
CAMADA_1
 62
   250
 10
-25.0034
 20
-50.7106
 30
0.0
  0
VERTEX
  5
A15
  8
CAMADA_1
 62
   250
 10
-25.1257
 20
-50.6202
 30
0.0
  0
VERTEX
  5
A16
  8
CAMADA_1
 62
   250
 10
-25.241
 20
-50.5598
 30
0.0
  0
VERTEX
  5
A17
  8
CAMADA_1
 62
   250
 10
-25.3506
 20
-50.5252
 30
0.0
  0
VERTEX
  5
A18
  8
CAMADA_1
 62
   250
 10
-25.4557
 20
-50.5124
 30
0.0
  0
VERTEX
  5
A19
  8
CAMADA_1
 62
   250
 10
-25.5579
 20
-50.5175
 30
0.0
  0
VERTEX
  5
A1A
  8
CAMADA_1
 62
   250
 10
-25.6584
 20
-50.5362
 30
0.0
  0
VERTEX
  5
A1B
  8
CAMADA_1
 62
   250
 10
-25.7585
 20
-50.5648
 30
0.0
  0
VERTEX
  5
A1C
  8
CAMADA_1
 62
   250
 10
-27.3364
 20
-51.32
 30
0.0
  0
VERTEX
  5
A1D
  8
CAMADA_1
 62
   250
 10
-27.4773
 20
-51.4205
 30
0.0
  0
VERTEX
  5
A1E
  8
CAMADA_1
 62
   250
 10
-27.5876
 20
-51.527
 30
0.0
  0
VERTEX
  5
A1F
  8
CAMADA_1
 62
   250
 10
-27.6671
 20
-51.6398
 30
0.0
  0
VERTEX
  5
A20
  8
CAMADA_1
 62
   250
 10
-27.7158
 20
-51.7587
 30
0.0
  0
VERTEX
  5
A21
  8
CAMADA_1
 62
   250
 10
-27.7339
 20
-51.8837
 30
0.0
  0
VERTEX
  5
A22
  8
CAMADA_1
 62
   250
 10
-27.7213
 20
-52.0149
 30
0.0
  0
VERTEX
  5
A23
  8
CAMADA_1
 62
   250
 10
-27.6779
 20
-52.1521
 30
0.0
  0
VERTEX
  5
A24
  8
CAMADA_1
 62
   250
 10
-27.6037
 20
-52.2956
 30
0.0
  0
VERTEX
  5
A25
  8
CAMADA_1
 62
   250
 10
-27.349
 20
-52.8211
 30
0.0
  0
VERTEX
  5
A26
  8
CAMADA_1
 62
   250
 10
-27.1152
 20
-53.4061
 30
0.0
  0
VERTEX
  5
A27
  8
CAMADA_1
 62
   250
 10
-26.9108
 20
-54.0326
 30
0.0
  0
VERTEX
  5
A28
  8
CAMADA_1
 62
   250
 10
-26.7441
 20
-54.6827
 30
0.0
  0
VERTEX
  5
A29
  8
CAMADA_1
 62
   250
 10
-26.6233
 20
-55.3385
 30
0.0
  0
VERTEX
  5
A2A
  8
CAMADA_1
 62
   250
 10
-26.5568
 20
-55.9821
 30
0.0
  0
VERTEX
  5
A2B
  8
CAMADA_1
 62
   250
 10
-26.5528
 20
-56.5954
 30
0.0
  0
VERTEX
  5
A2C
  8
CAMADA_1
 62
   250
 10
-26.6197
 20
-57.1606
 30
0.0
  0
VERTEX
  5
A2D
  8
CAMADA_1
 62
   250
 10
-26.679
 20
-57.371
 30
0.0
  0
VERTEX
  5
A2E
  8
CAMADA_1
 62
   250
 10
-26.7754
 20
-57.5918
 30
0.0
  0
VERTEX
  5
A2F
  8
CAMADA_1
 62
   250
 10
-26.9027
 20
-57.7973
 30
0.0
  0
VERTEX
  5
A30
  8
CAMADA_1
 62
   250
 10
-27.0544
 20
-57.9613
 30
0.0
  0
VERTEX
  5
A31
  8
CAMADA_1
 62
   250
 10
-27.2242
 20
-58.0579
 30
0.0
  0
VERTEX
  5
A32
  8
CAMADA_1
 62
   250
 10
-27.4058
 20
-58.0611
 30
0.0
  0
VERTEX
  5
A33
  8
CAMADA_1
 62
   250
 10
-27.5926
 20
-57.9449
 30
0.0
  0
VERTEX
  5
A34
  8
CAMADA_1
 62
   250
 10
-27.7785
 20
-57.6833
 30
0.0
  0
VERTEX
  5
A35
  8
CAMADA_1
 62
   250
 10
-28.0647
 20
-56.9008
 30
0.0
  0
VERTEX
  5
A36
  8
CAMADA_1
 62
   250
 10
-28.3623
 20
-56.2093
 30
0.0
  0
VERTEX
  5
A37
  8
CAMADA_1
 62
   250
 10
-28.6735
 20
-55.6059
 30
0.0
  0
VERTEX
  5
A38
  8
CAMADA_1
 62
   250
 10
-29.0008
 20
-55.0876
 30
0.0
  0
VERTEX
  5
A39
  8
CAMADA_1
 62
   250
 10
-29.3463
 20
-54.6514
 30
0.0
  0
VERTEX
  5
A3A
  8
CAMADA_1
 62
   250
 10
-29.7125
 20
-54.2943
 30
0.0
  0
VERTEX
  5
A3B
  8
CAMADA_1
 62
   250
 10
-30.1014
 20
-54.0133
 30
0.0
  0
VERTEX
  5
A3C
  8
CAMADA_1
 62
   250
 10
-30.5156
 20
-53.8055
 30
0.0
  0
VERTEX
  5
A3D
  8
CAMADA_1
 62
   250
 10
-30.8296
 20
-53.711
 30
0.0
  0
VERTEX
  5
A3E
  8
CAMADA_1
 62
   250
 10
-31.0988
 20
-53.6655
 30
0.0
  0
VERTEX
  5
A3F
  8
CAMADA_1
 62
   250
 10
-31.3278
 20
-53.6656
 30
0.0
  0
VERTEX
  5
A40
  8
CAMADA_1
 62
   250
 10
-31.5212
 20
-53.7079
 30
0.0
  0
VERTEX
  5
A41
  8
CAMADA_1
 62
   250
 10
-31.6838
 20
-53.7891
 30
0.0
  0
VERTEX
  5
A42
  8
CAMADA_1
 62
   250
 10
-31.8203
 20
-53.9057
 30
0.0
  0
VERTEX
  5
A43
  8
CAMADA_1
 62
   250
 10
-31.9353
 20
-54.0544
 30
0.0
  0
VERTEX
  5
A44
  8
CAMADA_1
 62
   250
 10
-32.0336
 20
-54.2318
 30
0.0
  0
VERTEX
  5
A45
  8
CAMADA_1
 62
   250
 10
-32.2565
 20
-54.6974
 30
0.0
  0
VERTEX
  5
A46
  8
CAMADA_1
 62
   250
 10
-32.4921
 20
-55.1548
 30
0.0
  0
VERTEX
  5
A47
  8
CAMADA_1
 62
   250
 10
-32.7581
 20
-55.6017
 30
0.0
  0
VERTEX
  5
A48
  8
CAMADA_1
 62
   250
 10
-33.0719
 20
-56.0357
 30
0.0
  0
VERTEX
  5
A49
  8
CAMADA_1
 62
   250
 10
-33.4515
 20
-56.4547
 30
0.0
  0
VERTEX
  5
A4A
  8
CAMADA_1
 62
   250
 10
-33.9143
 20
-56.8564
 30
0.0
  0
VERTEX
  5
A4B
  8
CAMADA_1
 62
   250
 10
-34.478
 20
-57.2384
 30
0.0
  0
VERTEX
  5
A4C
  8
CAMADA_1
 62
   250
 10
-35.1603
 20
-57.5985
 30
0.0
  0
VERTEX
  5
A4D
  8
CAMADA_1
 62
   250
 10
-35.3074
 20
-57.6564
 30
0.0
  0
VERTEX
  5
A4E
  8
CAMADA_1
 62
   250
 10
-35.4406
 20
-57.7365
 30
0.0
  0
VERTEX
  5
A4F
  8
CAMADA_1
 62
   250
 10
-35.5593
 20
-57.8361
 30
0.0
  0
VERTEX
  5
A50
  8
CAMADA_1
 62
   250
 10
-35.6625
 20
-57.9525
 30
0.0
  0
VERTEX
  5
A51
  8
CAMADA_1
 62
   250
 10
-35.7496
 20
-58.0831
 30
0.0
  0
VERTEX
  5
A52
  8
CAMADA_1
 62
   250
 10
-35.8199
 20
-58.2251
 30
0.0
  0
VERTEX
  5
A53
  8
CAMADA_1
 62
   250
 10
-35.8724
 20
-58.3759
 30
0.0
  0
VERTEX
  5
A54
  8
CAMADA_1
 62
   250
 10
-35.9066
 20
-58.5329
 30
0.0
  0
VERTEX
  5
A55
  8
CAMADA_1
 62
   250
 10
-35.9493
 20
-58.7096
 30
0.0
  0
VERTEX
  5
A56
  8
CAMADA_1
 62
   250
 10
-35.9949
 20
-58.9123
 30
0.0
  0
VERTEX
  5
A57
  8
CAMADA_1
 62
   250
 10
-36.0419
 20
-59.1359
 30
0.0
  0
VERTEX
  5
A58
  8
CAMADA_1
 62
   250
 10
-36.089
 20
-59.3752
 30
0.0
  0
VERTEX
  5
A59
  8
CAMADA_1
 62
   250
 10
-36.1348
 20
-59.6249
 30
0.0
  0
VERTEX
  5
A5A
  8
CAMADA_1
 62
   250
 10
-36.178
 20
-59.8799
 30
0.0
  0
VERTEX
  5
A5B
  8
CAMADA_1
 62
   250
 10
-36.2172
 20
-60.1351
 30
0.0
  0
VERTEX
  5
A5C
  8
CAMADA_1
 62
   250
 10
-36.2511
 20
-60.3852
 30
0.0
  0
VERTEX
  5
A5D
  8
CAMADA_1
 62
   250
 10
-36.3059
 20
-60.5928
 30
0.0
  0
VERTEX
  5
A5E
  8
CAMADA_1
 62
   250
 10
-36.3955
 20
-60.7799
 30
0.0
  0
VERTEX
  5
A5F
  8
CAMADA_1
 62
   250
 10
-36.52
 20
-60.9466
 30
0.0
  0
VERTEX
  5
A60
  8
CAMADA_1
 62
   250
 10
-36.6792
 20
-61.0928
 30
0.0
  0
VERTEX
  5
A61
  8
CAMADA_1
 62
   250
 10
-36.8733
 20
-61.2185
 30
0.0
  0
VERTEX
  5
A62
  8
CAMADA_1
 62
   250
 10
-37.1022
 20
-61.3237
 30
0.0
  0
VERTEX
  5
A63
  8
CAMADA_1
 62
   250
 10
-37.3659
 20
-61.4084
 30
0.0
  0
VERTEX
  5
A64
  8
CAMADA_1
 62
   250
 10
-37.6644
 20
-61.4727
 30
0.0
  0
VERTEX
  5
A65
  8
CAMADA_1
 62
   250
 10
-41.3907
 20
-61.99
 30
0.0
  0
VERTEX
  5
A66
  8
CAMADA_1
 62
   250
 10
-41.8359
 20
-62.0714
 30
0.0
  0
VERTEX
  5
A67
  8
CAMADA_1
 62
   250
 10
-42.2743
 20
-62.1834
 30
0.0
  0
VERTEX
  5
A68
  8
CAMADA_1
 62
   250
 10
-42.7043
 20
-62.3244
 30
0.0
  0
VERTEX
  5
A69
  8
CAMADA_1
 62
   250
 10
-43.1242
 20
-62.4931
 30
0.0
  0
VERTEX
  5
A6A
  8
CAMADA_1
 62
   250
 10
-43.5323
 20
-62.6883
 30
0.0
  0
VERTEX
  5
A6B
  8
CAMADA_1
 62
   250
 10
-43.9271
 20
-62.9086
 30
0.0
  0
VERTEX
  5
A6C
  8
CAMADA_1
 62
   250
 10
-44.3068
 20
-63.1527
 30
0.0
  0
VERTEX
  5
A6D
  8
CAMADA_1
 62
   250
 10
-44.6697
 20
-63.4193
 30
0.0
  0
VERTEX
  5
A6E
  8
CAMADA_1
 62
   250
 10
-48.4711
 20
-66.7447
 30
0.0
  0
VERTEX
  5
A6F
  8
CAMADA_1
 62
   250
 10
-52.3861
 20
-69.468
 30
0.0
  0
VERTEX
  5
A70
  8
CAMADA_1
 62
   250
 10
-56.4152
 20
-71.6579
 30
0.0
  0
VERTEX
  5
A71
  8
CAMADA_1
 62
   250
 10
-60.5587
 20
-73.3827
 30
0.0
  0
VERTEX
  5
A72
  8
CAMADA_1
 62
   250
 10
-64.8168
 20
-74.7109
 30
0.0
  0
VERTEX
  5
A73
  8
CAMADA_1
 62
   250
 10
-69.1898
 20
-75.7111
 30
0.0
  0
VERTEX
  5
A74
  8
CAMADA_1
 62
   250
 10
-73.6782
 20
-76.4516
 30
0.0
  0
VERTEX
  5
A75
  8
CAMADA_1
 62
   250
 10
-78.2821
 20
-77.0009
 30
0.0
  0
VERTEX
  5
A76
  8
CAMADA_1
 62
   250
 10
-78.6531
 20
-77.5181
 30
0.0
  0
VERTEX
  5
A77
  8
CAMADA_1
 62
   250
 10
-79.0441
 20
-77.9503
 30
0.0
  0
VERTEX
  5
A78
  8
CAMADA_1
 62
   250
 10
-79.461
 20
-78.3052
 30
0.0
  0
VERTEX
  5
A79
  8
CAMADA_1
 62
   250
 10
-79.9096
 20
-78.5904
 30
0.0
  0
VERTEX
  5
A7A
  8
CAMADA_1
 62
   250
 10
-80.3959
 20
-78.8137
 30
0.0
  0
VERTEX
  5
A7B
  8
CAMADA_1
 62
   250
 10
-80.9258
 20
-78.9825
 30
0.0
  0
VERTEX
  5
A7C
  8
CAMADA_1
 62
   250
 10
-81.5052
 20
-79.1046
 30
0.0
  0
VERTEX
  5
A7D
  8
CAMADA_1
 62
   250
 10
-82.1399
 20
-79.1876
 30
0.0
  0
VERTEX
  5
A7E
  8
CAMADA_1
 62
   250
 10
-83.1134
 20
-79.1051
 30
0.0
  0
VERTEX
  5
A7F
  8
CAMADA_1
 62
   250
 10
-83.9925
 20
-78.8549
 30
0.0
  0
VERTEX
  5
A80
  8
CAMADA_1
 62
   250
 10
-84.7701
 20
-78.4534
 30
0.0
  0
VERTEX
  5
A81
  8
CAMADA_1
 62
   250
 10
-85.4392
 20
-77.917
 30
0.0
  0
VERTEX
  5
A82
  8
CAMADA_1
 62
   250
 10
-85.993
 20
-77.2623
 30
0.0
  0
VERTEX
  5
A83
  8
CAMADA_1
 62
   250
 10
-86.4243
 20
-76.5057
 30
0.0
  0
VERTEX
  5
A84
  8
CAMADA_1
 62
   250
 10
-86.7263
 20
-75.6635
 30
0.0
  0
VERTEX
  5
A85
  8
CAMADA_1
 62
   250
 10
-86.8918
 20
-74.7524
 30
0.0
  0
VERTEX
  5
A86
  8
CAMADA_1
 62
   250
 10
-86.8546
 20
-74.0647
 30
0.0
  0
VERTEX
  5
A87
  8
CAMADA_1
 62
   250
 10
-86.7717
 20
-73.4638
 30
0.0
  0
VERTEX
  5
A88
  8
CAMADA_1
 62
   250
 10
-86.6409
 20
-72.9355
 30
0.0
  0
VERTEX
  5
A89
  8
CAMADA_1
 62
   250
 10
-86.4604
 20
-72.4653
 30
0.0
  0
VERTEX
  5
A8A
  8
CAMADA_1
 62
   250
 10
-86.228
 20
-72.039
 30
0.0
  0
VERTEX
  5
A8B
  8
CAMADA_1
 62
   250
 10
-85.9417
 20
-71.642
 30
0.0
  0
VERTEX
  5
A8C
  8
CAMADA_1
 62
   250
 10
-85.5994
 20
-71.26
 30
0.0
  0
VERTEX
  5
A8D
  8
CAMADA_1
 62
   250
 10
-85.1993
 20
-70.8788
 30
0.0
  0
VERTEX
  5
A8E
  8
CAMADA_1
 62
   250
 10
-85.1325
 20
-70.6334
 30
0.0
  0
VERTEX
  5
A8F
  8
CAMADA_1
 62
   250
 10
-85.1858
 20
-70.145
 30
0.0
  0
VERTEX
  5
A90
  8
CAMADA_1
 62
   250
 10
-85.3391
 20
-69.4743
 30
0.0
  0
VERTEX
  5
A91
  8
CAMADA_1
 62
   250
 10
-85.5726
 20
-68.6822
 30
0.0
  0
VERTEX
  5
A92
  8
CAMADA_1
 62
   250
 10
-85.8663
 20
-67.8295
 30
0.0
  0
VERTEX
  5
A93
  8
CAMADA_1
 62
   250
 10
-86.2003
 20
-66.977
 30
0.0
  0
VERTEX
  5
A94
  8
CAMADA_1
 62
   250
 10
-86.5546
 20
-66.1854
 30
0.0
  0
VERTEX
  5
A95
  8
CAMADA_1
 62
   250
 10
-86.9093
 20
-65.5155
 30
0.0
  0
VERTEX
  5
A96
  8
CAMADA_1
 62
   250
 10
-87.3784
 20
-64.3488
 30
0.0
  0
VERTEX
  5
A97
  8
CAMADA_1
 62
   250
 10
-87.7297
 20
-63.1455
 30
0.0
  0
VERTEX
  5
A98
  8
CAMADA_1
 62
   250
 10
-87.9673
 20
-61.9065
 30
0.0
  0
VERTEX
  5
A99
  8
CAMADA_1
 62
   250
 10
-88.0956
 20
-60.6326
 30
0.0
  0
VERTEX
  5
A9A
  8
CAMADA_1
 62
   250
 10
-88.1189
 20
-59.3245
 30
0.0
  0
VERTEX
  5
A9B
  8
CAMADA_1
 62
   250
 10
-88.0416
 20
-57.9831
 30
0.0
  0
VERTEX
  5
A9C
  8
CAMADA_1
 62
   250
 10
-87.868
 20
-56.6092
 30
0.0
  0
VERTEX
  5
A9D
  8
CAMADA_1
 62
   250
 10
-87.6023
 20
-55.2035
 30
0.0
  0
VERTEX
  5
A9E
  8
CAMADA_1
 62
   250
 10
-87.4214
 20
-54.7324
 30
0.0
  0
VERTEX
  5
A9F
  8
CAMADA_1
 62
   250
 10
-87.2064
 20
-54.3151
 30
0.0
  0
VERTEX
  5
AA0
  8
CAMADA_1
 62
   250
 10
-86.9563
 20
-53.9533
 30
0.0
  0
VERTEX
  5
AA1
  8
CAMADA_1
 62
   250
 10
-86.67
 20
-53.6482
 30
0.0
  0
VERTEX
  5
AA2
  8
CAMADA_1
 62
   250
 10
-86.3464
 20
-53.4014
 30
0.0
  0
VERTEX
  5
AA3
  8
CAMADA_1
 62
   250
 10
-85.9844
 20
-53.2143
 30
0.0
  0
VERTEX
  5
AA4
  8
CAMADA_1
 62
   250
 10
-85.5828
 20
-53.0884
 30
0.0
  0
VERTEX
  5
AA5
  8
CAMADA_1
 62
   250
 10
-85.1405
 20
-53.0251
 30
0.0
  0
VERTEX
  5
AA6
  8
CAMADA_1
 62
   250
 10
-85.1389
 20
-61.7052
 30
0.0
  0
VERTEX
  5
AA7
  8
CAMADA_1
 62
   250
 10
-83.8439
 20
-61.7055
 30
0.0
  0
VERTEX
  5
AA8
  8
CAMADA_1
 62
   250
 10
-83.7571
 20
-54.0275
 30
0.0
  0
VERTEX
  5
AA9
  8
CAMADA_1
 62
   250
 10
-83.69
 20
-53.8046
 30
0.0
  0
VERTEX
  5
AAA
  8
CAMADA_1
 62
   250
 10
-83.5804
 20
-53.6562
 30
0.0
  0
VERTEX
  5
AAB
  8
CAMADA_1
 62
   250
 10
-83.4417
 20
-53.5688
 30
0.0
  0
VERTEX
  5
AAC
  8
CAMADA_1
 62
   250
 10
-83.2871
 20
-53.5288
 30
0.0
  0
VERTEX
  5
AAD
  8
CAMADA_1
 62
   250
 10
-83.1298
 20
-53.5229
 30
0.0
  0
VERTEX
  5
AAE
  8
CAMADA_1
 62
   250
 10
-82.9831
 20
-53.5375
 30
0.0
  0
VERTEX
  5
AAF
  8
CAMADA_1
 62
   250
 10
-82.8601
 20
-53.5592
 30
0.0
  0
VERTEX
  5
AB0
  8
CAMADA_1
 62
   250
 10
-82.7742
 20
-53.5746
 30
0.0
  0
VERTEX
  5
AB1
  8
CAMADA_1
 62
   250
 10
-81.4783
 20
-54.0051
 30
0.0
  0
VERTEX
  5
AB2
  8
CAMADA_1
 62
   250
 10
-80.2126
 20
-54.4268
 30
0.0
  0
VERTEX
  5
AB3
  8
CAMADA_1
 62
   250
 10
-78.9502
 20
-54.8248
 30
0.0
  0
VERTEX
  5
AB4
  8
CAMADA_1
 62
   250
 10
-77.6642
 20
-55.1841
 30
0.0
  0
VERTEX
  5
AB5
  8
CAMADA_1
 62
   250
 10
-76.3274
 20
-55.49
 30
0.0
  0
VERTEX
  5
AB6
  8
CAMADA_1
 62
   250
 10
-74.913
 20
-55.7274
 30
0.0
  0
VERTEX
  5
AB7
  8
CAMADA_1
 62
   250
 10
-73.394
 20
-55.8815
 30
0.0
  0
VERTEX
  5
AB8
  8
CAMADA_1
 62
   250
 10
-71.7434
 20
-55.9374
 30
0.0
  0
VERTEX
  5
AB9
  8
CAMADA_1
 62
   250
 10
-70.6845
 20
-55.8988
 30
0.0
  0
VERTEX
  5
ABA
  8
CAMADA_1
 62
   250
 10
-69.6112
 20
-55.84
 30
0.0
  0
VERTEX
  5
ABB
  8
CAMADA_1
 62
   250
 10
-68.5289
 20
-55.7606
 30
0.0
  0
VERTEX
  5
ABC
  8
CAMADA_1
 62
   250
 10
-67.4426
 20
-55.6603
 30
0.0
  0
VERTEX
  5
ABD
  8
CAMADA_1
 62
   250
 10
-66.3577
 20
-55.5386
 30
0.0
  0
VERTEX
  5
ABE
  8
CAMADA_1
 62
   250
 10
-65.2793
 20
-55.3951
 30
0.0
  0
VERTEX
  5
ABF
  8
CAMADA_1
 62
   250
 10
-64.2127
 20
-55.2294
 30
0.0
  0
VERTEX
  5
AC0
  8
CAMADA_1
 62
   250
 10
-63.1631
 20
-55.041
 30
0.0
  0
VERTEX
  5
AC1
  8
CAMADA_1
 62
   250
 10
-62.4217
 20
-54.8831
 30
0.0
  0
VERTEX
  5
AC2
  8
CAMADA_1
 62
   250
 10
-61.641
 20
-54.687
 30
0.0
  0
VERTEX
  5
AC3
  8
CAMADA_1
 62
   250
 10
-60.8424
 20
-54.4577
 30
0.0
  0
VERTEX
  5
AC4
  8
CAMADA_1
 62
   250
 10
-60.047
 20
-54.2
 30
0.0
  0
VERTEX
  5
AC5
  8
CAMADA_1
 62
   250
 10
-59.2761
 20
-53.9185
 30
0.0
  0
VERTEX
  5
AC6
  8
CAMADA_1
 62
   250
 10
-58.551
 20
-53.6182
 30
0.0
  0
VERTEX
  5
AC7
  8
CAMADA_1
 62
   250
 10
-57.8927
 20
-53.3037
 30
0.0
  0
VERTEX
  5
AC8
  8
CAMADA_1
 62
   250
 10
-57.3227
 20
-52.98
 30
0.0
  0
VERTEX
  5
AC9
  8
CAMADA_1
 62
   250
 10
-56.5154
 20
-52.4336
 30
0.0
  0
VERTEX
  5
ACA
  8
CAMADA_1
 62
   250
 10
-55.8537
 20
-51.8911
 30
0.0
  0
VERTEX
  5
ACB
  8
CAMADA_1
 62
   250
 10
-55.3274
 20
-51.3478
 30
0.0
  0
VERTEX
  5
ACC
  8
CAMADA_1
 62
   250
 10
-54.9263
 20
-50.799
 30
0.0
  0
VERTEX
  5
ACD
  8
CAMADA_1
 62
   250
 10
-54.6405
 20
-50.2401
 30
0.0
  0
VERTEX
  5
ACE
  8
CAMADA_1
 62
   250
 10
-54.4596
 20
-49.6662
 30
0.0
  0
VERTEX
  5
ACF
  8
CAMADA_1
 62
   250
 10
-54.3737
 20
-49.0729
 30
0.0
  0
VERTEX
  5
AD0
  8
CAMADA_1
 62
   250
 10
-54.3724
 20
-48.4554
 30
0.0
  0
VERTEX
  5
AD1
  8
CAMADA_1
 62
   250
 10
-54.4696
 20
-48.0205
 30
0.0
  0
VERTEX
  5
AD2
  8
CAMADA_1
 62
   250
 10
-54.6666
 20
-47.6376
 30
0.0
  0
VERTEX
  5
AD3
  8
CAMADA_1
 62
   250
 10
-54.9528
 20
-47.3073
 30
0.0
  0
VERTEX
  5
AD4
  8
CAMADA_1
 62
   250
 10
-55.3176
 20
-47.03
 30
0.0
  0
VERTEX
  5
AD5
  8
CAMADA_1
 62
   250
 10
-55.7505
 20
-46.8061
 30
0.0
  0
VERTEX
  5
AD6
  8
CAMADA_1
 62
   250
 10
-56.2408
 20
-46.6362
 30
0.0
  0
VERTEX
  5
AD7
  8
CAMADA_1
 62
   250
 10
-56.7781
 20
-46.5207
 30
0.0
  0
VERTEX
  5
AD8
  8
CAMADA_1
 62
   250
 10
-57.3516
 20
-46.4601
 30
0.0
  0
VERTEX
  5
AD9
  8
CAMADA_1
 62
   250
 10
-58.1406
 20
-46.3557
 30
0.0
  0
VERTEX
  5
ADA
  8
CAMADA_1
 62
   250
 10
-58.8918
 20
-46.2336
 30
0.0
  0
VERTEX
  5
ADB
  8
CAMADA_1
 62
   250
 10
-59.6079
 20
-46.0897
 30
0.0
  0
VERTEX
  5
ADC
  8
CAMADA_1
 62
   250
 10
-60.2922
 20
-45.9201
 30
0.0
  0
VERTEX
  5
ADD
  8
CAMADA_1
 62
   250
 10
-60.9476
 20
-45.7209
 30
0.0
  0
VERTEX
  5
ADE
  8
CAMADA_1
 62
   250
 10
-61.5773
 20
-45.4881
 30
0.0
  0
VERTEX
  5
ADF
  8
CAMADA_1
 62
   250
 10
-62.1841
 20
-45.2177
 30
0.0
  0
VERTEX
  5
AE0
  8
CAMADA_1
 62
   250
 10
-62.7712
 20
-44.9058
 30
0.0
  0
VERTEX
  5
AE1
  8
CAMADA_1
 62
   250
 10
-63.5406
 20
-44.3394
 30
0.0
  0
VERTEX
  5
AE2
  8
CAMADA_1
 62
   250
 10
-64.173
 20
-43.7243
 30
0.0
  0
VERTEX
  5
AE3
  8
CAMADA_1
 62
   250
 10
-64.6819
 20
-43.0762
 30
0.0
  0
VERTEX
  5
AE4
  8
CAMADA_1
 62
   250
 10
-65.0805
 20
-42.411
 30
0.0
  0
VERTEX
  5
AE5
  8
CAMADA_1
 62
   250
 10
-65.3822
 20
-41.7445
 30
0.0
  0
VERTEX
  5
AE6
  8
CAMADA_1
 62
   250
 10
-65.6005
 20
-41.0927
 30
0.0
  0
VERTEX
  5
AE7
  8
CAMADA_1
 62
   250
 10
-65.7487
 20
-40.4711
 30
0.0
  0
VERTEX
  5
AE8
  8
CAMADA_1
 62
   250
 10
-65.8401
 20
-39.8959
 30
0.0
  0
VERTEX
  5
AE9
  8
CAMADA_1
 62
   250
 10
-65.9399
 20
-38.8535
 30
0.0
  0
VERTEX
  5
AEA
  8
CAMADA_1
 62
   250
 10
-65.98
 20
-37.7424
 30
0.0
  0
VERTEX
  5
AEB
  8
CAMADA_1
 62
   250
 10
-65.97
 20
-36.6103
 30
0.0
  0
VERTEX
  5
AEC
  8
CAMADA_1
 62
   250
 10
-65.919
 20
-35.5052
 30
0.0
  0
VERTEX
  5
AED
  8
CAMADA_1
 62
   250
 10
-65.8365
 20
-34.4749
 30
0.0
  0
VERTEX
  5
AEE
  8
CAMADA_1
 62
   250
 10
-65.7319
 20
-33.5672
 30
0.0
  0
VERTEX
  5
AEF
  8
CAMADA_1
 62
   250
 10
-65.6144
 20
-32.8301
 30
0.0
  0
VERTEX
  5
AF0
  8
CAMADA_1
 62
   250
 10
-65.4935
 20
-32.3112
 30
0.0
  0
VERTEX
  5
AF1
  8
CAMADA_1
 62
   250
 10
-65.1266
 20
-31.0149
 30
0.0
  0
VERTEX
  5
AF2
  8
CAMADA_1
 62
   250
 10
-64.7018
 20
-29.8524
 30
0.0
  0
VERTEX
  5
AF3
  8
CAMADA_1
 62
   250
 10
-64.1842
 20
-28.8269
 30
0.0
  0
VERTEX
  5
AF4
  8
CAMADA_1
 62
   250
 10
-63.5392
 20
-27.9417
 30
0.0
  0
VERTEX
  5
AF5
  8
CAMADA_1
 62
   250
 10
-62.7321
 20
-27.1999
 30
0.0
  0
VERTEX
  5
AF6
  8
CAMADA_1
 62
   250
 10
-61.7283
 20
-26.6046
 30
0.0
  0
VERTEX
  5
AF7
  8
CAMADA_1
 62
   250
 10
-60.4929
 20
-26.1591
 30
0.0
  0
VERTEX
  5
AF8
  8
CAMADA_1
 62
   250
 10
-58.9912
 20
-25.8666
 30
0.0
  0
VERTEX
  5
AF9
  8
CAMADA_1
 62
   250
 10
-58.0912
 20
-25.7077
 30
0.0
  0
VERTEX
  5
AFA
  8
CAMADA_1
 62
   250
 10
-57.198
 20
-25.5808
 30
0.0
  0
VERTEX
  5
AFB
  8
CAMADA_1
 62
   250
 10
-56.3093
 20
-25.4703
 30
0.0
  0
VERTEX
  5
AFC
  8
CAMADA_1
 62
   250
 10
-55.4229
 20
-25.3607
 30
0.0
  0
VERTEX
  5
AFD
  8
CAMADA_1
 62
   250
 10
-54.5364
 20
-25.2362
 30
0.0
  0
VERTEX
  5
AFE
  8
CAMADA_1
 62
   250
 10
-53.6477
 20
-25.0814
 30
0.0
  0
VERTEX
  5
AFF
  8
CAMADA_1
 62
   250
 10
-52.7545
 20
-24.8806
 30
0.0
  0
VERTEX
  5
B00
  8
CAMADA_1
 62
   250
 10
-51.8545
 20
-24.6181
 30
0.0
  0
VERTEX
  5
B01
  8
CAMADA_1
 62
   250
 10
-51.4618
 20
-24.4873
 30
0.0
  0
VERTEX
  5
B02
  8
CAMADA_1
 62
   250
 10
-51.0791
 20
-24.3247
 30
0.0
  0
VERTEX
  5
B03
  8
CAMADA_1
 62
   250
 10
-50.7175
 20
-24.1247
 30
0.0
  0
VERTEX
  5
B04
  8
CAMADA_1
 62
   250
 10
-50.3878
 20
-23.8814
 30
0.0
  0
VERTEX
  5
B05
  8
CAMADA_1
 62
   250
 10
-50.101
 20
-23.5894
 30
0.0
  0
VERTEX
  5
B06
  8
CAMADA_1
 62
   250
 10
-49.8681
 20
-23.2428
 30
0.0
  0
VERTEX
  5
B07
  8
CAMADA_1
 62
   250
 10
-49.7
 20
-22.8361
 30
0.0
  0
VERTEX
  5
B08
  8
CAMADA_1
 62
   250
 10
-49.6076
 20
-22.3636
 30
0.0
  0
VERTEX
  5
B09
  8
CAMADA_1
 62
   250
 10
-45.9883
 20
-22.3384
 30
0.0
  0
VERTEX
  5
B0A
  8
CAMADA_1
 62
   250
 10
-45.9832
 20
-17.0909
 30
0.0
  0
VERTEX
  5
B0B
  8
CAMADA_1
 62
   250
 10
-42.8133
 20
-17.0987
 30
0.0
  0
VERTEX
  5
B0C
  8
CAMADA_1
 62
   250
 10
-41.974
 20
-16.8821
 30
0.0
  0
VERTEX
  5
B0D
  8
CAMADA_1
 62
   250
 10
-41.1663
 20
-16.4767
 30
0.0
  0
VERTEX
  5
B0E
  8
CAMADA_1
 62
   250
 10
-40.4109
 20
-15.9177
 30
0.0
  0
VERTEX
  5
B0F
  8
CAMADA_1
 62
   250
 10
-39.728
 20
-15.2398
 30
0.0
  0
VERTEX
  5
B10
  8
CAMADA_1
 62
   250
 10
-39.1383
 20
-14.4781
 30
0.0
  0
VERTEX
  5
B11
  8
CAMADA_1
 62
   250
 10
-38.662
 20
-13.6675
 30
0.0
  0
VERTEX
  5
B12
  8
CAMADA_1
 62
   250
 10
-38.3196
 20
-12.8429
 30
0.0
  0
VERTEX
  5
B13
  8
CAMADA_1
 62
   250
 10
-38.1316
 20
-12.0394
 30
0.0
  0
VERTEX
  5
B14
  8
CAMADA_1
 62
   250
 10
-38.0868
 20
-1.0646
 30
0.0
  0
VERTEX
  5
B15
  8
CAMADA_1
 62
   250
 10
-33.446
 20
2.5835
 30
0.0
  0
VERTEX
  5
B16
  8
CAMADA_1
 62
   250
 10
-33.4195
 20
15.686
 30
0.0
  0
VERTEX
  5
B17
  8
CAMADA_1
 62
   250
 10
-30.499
 20
15.7261
 30
0.0
  0
VERTEX
  5
B18
  8
CAMADA_1
 62
   250
 10
-30.488
 20
-3.3428
 30
0.0
  0
VERTEX
  5
B19
  8
CAMADA_1
 62
   250
 10
-30.488
 20
-3.3428
 30
0.0
  0
SEQEND
  5
B1A
  8
CAMADA_1
 62
   250
  0
POLYLINE
  5
79
  8
CAMADA_1
 62
   250
 66
     1
 10
0.0
 20
0.0
 30
0.0
 70
     1
  0
VERTEX
  5
B1B
  8
CAMADA_1
 62
   250
 10
-46.5135
 20
-25.4754
 30
0.0
  0
VERTEX
  5
B1C
  8
CAMADA_1
 62
   250
 10
-48.0535
 20
-25.4754
 30
0.0
  0
VERTEX
  5
B1D
  8
CAMADA_1
 62
   250
 10
-48.0535
 20
-30.555
 30
0.0
  0
VERTEX
  5
B1E
  8
CAMADA_1
 62
   250
 10
-46.5135
 20
-30.555
 30
0.0
  0
VERTEX
  5
B1F
  8
CAMADA_1
 62
   250
 10
-46.5135
 20
-25.4754
 30
0.0
  0
VERTEX
  5
B20
  8
CAMADA_1
 62
   250
 10
-46.5135
 20
-25.4754
 30
0.0
  0
SEQEND
  5
B21
  8
CAMADA_1
 62
   250
  0
POLYLINE
  5
7A
  8
CAMADA_1
 62
   250
 66
     1
 10
0.0
 20
0.0
 30
0.0
 70
     1
  0
VERTEX
  5
B22
  8
CAMADA_1
 62
   250
 10
-32.1055
 20
-9.7272
 30
0.0
  0
VERTEX
  5
B23
  8
CAMADA_1
 62
   250
 10
-35.0187
 20
-9.7272
 30
0.0
  0
VERTEX
  5
B24
  8
CAMADA_1
 62
   250
 10
-34.9886
 20
-9.3094
 30
0.0
  0
VERTEX
  5
B25
  8
CAMADA_1
 62
   250
 10
-34.9242
 20
-8.7562
 30
0.0
  0
VERTEX
  5
B26
  8
CAMADA_1
 62
   250
 10
-34.7819
 20
-8.1253
 30
0.0
  0
VERTEX
  5
B27
  8
CAMADA_1
 62
   250
 10
-34.5182
 20
-7.4747
 30
0.0
  0
VERTEX
  5
B28
  8
CAMADA_1
 62
   250
 10
-34.0894
 20
-6.8621
 30
0.0
  0
VERTEX
  5
B29
  8
CAMADA_1
 62
   250
 10
-33.452
 20
-6.3454
 30
0.0
  0
VERTEX
  5
B2A
  8
CAMADA_1
 62
   250
 10
-32.5625
 20
-5.9824
 30
0.0
  0
VERTEX
  5
B2B
  8
CAMADA_1
 62
   250
 10
-31.3773
 20
-5.8309
 30
0.0
  0
VERTEX
  5
B2C
  8
CAMADA_1
 62
   250
 10
-30.5654
 20
-5.909
 30
0.0
  0
VERTEX
  5
B2D
  8
CAMADA_1
 62
   250
 10
-29.8515
 20
-6.0937
 30
0.0
  0
VERTEX
  5
B2E
  8
CAMADA_1
 62
   250
 10
-29.2396
 20
-6.3903
 30
0.0
  0
VERTEX
  5
B2F
  8
CAMADA_1
 62
   250
 10
-28.7335
 20
-6.8038
 30
0.0
  0
VERTEX
  5
B30
  8
CAMADA_1
 62
   250
 10
-28.3371
 20
-7.3393
 30
0.0
  0
VERTEX
  5
B31
  8
CAMADA_1
 62
   250
 10
-28.0542
 20
-8.002
 30
0.0
  0
VERTEX
  5
B32
  8
CAMADA_1
 62
   250
 10
-27.8887
 20
-8.7969
 30
0.0
  0
VERTEX
  5
B33
  8
CAMADA_1
 62
   250
 10
-27.8445
 20
-9.729
 30
0.0
  0
VERTEX
  5
B34
  8
CAMADA_1
 62
   250
 10
-30.7218
 20
-9.729
 30
0.0
  0
VERTEX
  5
B35
  8
CAMADA_1
 62
   250
 10
-30.7218
 20
-7.6516
 30
0.0
  0
VERTEX
  5
B36
  8
CAMADA_1
 62
   250
 10
-32.0691
 20
-7.6516
 30
0.0
  0
VERTEX
  5
B37
  8
CAMADA_1
 62
   250
 10
-32.1055
 20
-9.7272
 30
0.0
  0
VERTEX
  5
B38
  8
CAMADA_1
 62
   250
 10
-32.1055
 20
-9.7272
 30
0.0
  0
SEQEND
  5
B39
  8
CAMADA_1
 62
   250
  0
POLYLINE
  5
7B
  8
CAMADA_1
 62
   250
 66
     1
 10
0.0
 20
0.0
 30
0.0
 70
     1
  0
VERTEX
  5
B3A
  8
CAMADA_1
 62
   250
 10
-32.724
 20
-37.7443
 30
0.0
  0
VERTEX
  5
B3B
  8
CAMADA_1
 62
   250
 10
-32.7194
 20
-38.985
 30
0.0
  0
VERTEX
  5
B3C
  8
CAMADA_1
 62
   250
 10
-32.7316
 20
-39.1497
 30
0.0
  0
VERTEX
  5
B3D
  8
CAMADA_1
 62
   250
 10
-32.7717
 20
-39.3072
 30
0.0
  0
VERTEX
  5
B3E
  8
CAMADA_1
 62
   250
 10
-32.8397
 20
-39.4575
 30
0.0
  0
VERTEX
  5
B3F
  8
CAMADA_1
 62
   250
 10
-32.9355
 20
-39.6005
 30
0.0
  0
VERTEX
  5
B40
  8
CAMADA_1
 62
   250
 10
-33.0592
 20
-39.7362
 30
0.0
  0
VERTEX
  5
B41
  8
CAMADA_1
 62
   250
 10
-33.2108
 20
-39.8648
 30
0.0
  0
VERTEX
  5
B42
  8
CAMADA_1
 62
   250
 10
-33.3903
 20
-39.9861
 30
0.0
  0
VERTEX
  5
B43
  8
CAMADA_1
 62
   250
 10
-33.5977
 20
-40.1001
 30
0.0
  0
VERTEX
  5
B44
  8
CAMADA_1
 62
   250
 10
-34.0251
 20
-40.2193
 30
0.0
  0
VERTEX
  5
B45
  8
CAMADA_1
 62
   250
 10
-34.4507
 20
-40.3005
 30
0.0
  0
VERTEX
  5
B46
  8
CAMADA_1
 62
   250
 10
-34.8749
 20
-40.343
 30
0.0
  0
VERTEX
  5
B47
  8
CAMADA_1
 62
   250
 10
-35.2984
 20
-40.3463
 30
0.0
  0
VERTEX
  5
B48
  8
CAMADA_1
 62
   250
 10
-35.722
 20
-40.3098
 30
0.0
  0
VERTEX
  5
B49
  8
CAMADA_1
 62
   250
 10
-36.1462
 20
-40.2328
 30
0.0
  0
VERTEX
  5
B4A
  8
CAMADA_1
 62
   250
 10
-36.5716
 20
-40.1149
 30
0.0
  0
VERTEX
  5
B4B
  8
CAMADA_1
 62
   250
 10
-36.9991
 20
-39.9553
 30
0.0
  0
VERTEX
  5
B4C
  8
CAMADA_1
 62
   250
 10
-37.1114
 20
-39.8917
 30
0.0
  0
VERTEX
  5
B4D
  8
CAMADA_1
 62
   250
 10
-37.2147
 20
-39.8164
 30
0.0
  0
VERTEX
  5
B4E
  8
CAMADA_1
 62
   250
 10
-37.3087
 20
-39.7291
 30
0.0
  0
VERTEX
  5
B4F
  8
CAMADA_1
 62
   250
 10
-37.3929
 20
-39.6295
 30
0.0
  0
VERTEX
  5
B50
  8
CAMADA_1
 62
   250
 10
-37.4672
 20
-39.5171
 30
0.0
  0
VERTEX
  5
B51
  8
CAMADA_1
 62
   250
 10
-37.531
 20
-39.3919
 30
0.0
  0
VERTEX
  5
B52
  8
CAMADA_1
 62
   250
 10
-37.5842
 20
-39.2532
 30
0.0
  0
VERTEX
  5
B53
  8
CAMADA_1
 62
   250
 10
-37.6264
 20
-39.1008
 30
0.0
  0
VERTEX
  5
B54
  8
CAMADA_1
 62
   250
 10
-37.5986
 20
-26.7766
 30
0.0
  0
VERTEX
  5
B55
  8
CAMADA_1
 62
   250
 10
-37.582
 20
-26.6864
 30
0.0
  0
VERTEX
  5
B56
  8
CAMADA_1
 62
   250
 10
-37.5563
 20
-26.5949
 30
0.0
  0
VERTEX
  5
B57
  8
CAMADA_1
 62
   250
 10
-37.5213
 20
-26.5041
 30
0.0
  0
VERTEX
  5
B58
  8
CAMADA_1
 62
   250
 10
-37.4766
 20
-26.4164
 30
0.0
  0
VERTEX
  5
B59
  8
CAMADA_1
 62
   250
 10
-37.4219
 20
-26.3338
 30
0.0
  0
VERTEX
  5
B5A
  8
CAMADA_1
 62
   250
 10
-37.3567
 20
-26.2586
 30
0.0
  0
VERTEX
  5
B5B
  8
CAMADA_1
 62
   250
 10
-37.281
 20
-26.1931
 30
0.0
  0
VERTEX
  5
B5C
  8
CAMADA_1
 62
   250
 10
-37.1943
 20
-26.1394
 30
0.0
  0
VERTEX
  5
B5D
  8
CAMADA_1
 62
   250
 10
-36.8551
 20
-25.9553
 30
0.0
  0
VERTEX
  5
B5E
  8
CAMADA_1
 62
   250
 10
-36.4712
 20
-25.8143
 30
0.0
  0
VERTEX
  5
B5F
  8
CAMADA_1
 62
   250
 10
-36.0455
 20
-25.7187
 30
0.0
  0
VERTEX
  5
B60
  8
CAMADA_1
 62
   250
 10
-35.5807
 20
-25.6705
 30
0.0
  0
VERTEX
  5
B61
  8
CAMADA_1
 62
   250
 10
-35.0797
 20
-25.6719
 30
0.0
  0
VERTEX
  5
B62
  8
CAMADA_1
 62
   250
 10
-34.5455
 20
-25.7249
 30
0.0
  0
VERTEX
  5
B63
  8
CAMADA_1
 62
   250
 10
-33.9808
 20
-25.8318
 30
0.0
  0
VERTEX
  5
B64
  8
CAMADA_1
 62
   250
 10
-33.3886
 20
-25.9945
 30
0.0
  0
VERTEX
  5
B65
  8
CAMADA_1
 62
   250
 10
-33.2701
 20
-26.0588
 30
0.0
  0
VERTEX
  5
B66
  8
CAMADA_1
 62
   250
 10
-33.162
 20
-26.1321
 30
0.0
  0
VERTEX
  5
B67
  8
CAMADA_1
 62
   250
 10
-33.0644
 20
-26.2145
 30
0.0
  0
VERTEX
  5
B68
  8
CAMADA_1
 62
   250
 10
-32.9773
 20
-26.3059
 30
0.0
  0
VERTEX
  5
B69
  8
CAMADA_1
 62
   250
 10
-32.9006
 20
-26.4064
 30
0.0
  0
VERTEX
  5
B6A
  8
CAMADA_1
 62
   250
 10
-32.8344
 20
-26.5159
 30
0.0
  0
VERTEX
  5
B6B
  8
CAMADA_1
 62
   250
 10
-32.7787
 20
-26.6345
 30
0.0
  0
VERTEX
  5
B6C
  8
CAMADA_1
 62
   250
 10
-32.7334
 20
-26.7621
 30
0.0
  0
VERTEX
  5
B6D
  8
CAMADA_1
 62
   250
 10
-32.7225
 20
-28.1761
 30
0.0
  0
VERTEX
  5
B6E
  8
CAMADA_1
 62
   250
 10
-35.1685
 20
-28.1798
 30
0.0
  0
VERTEX
  5
B6F
  8
CAMADA_1
 62
   250
 10
-35.1472
 20
-29.5049
 30
0.0
  0
VERTEX
  5
B70
  8
CAMADA_1
 62
   250
 10
-32.7258
 20
-29.5159
 30
0.0
  0
VERTEX
  5
B71
  8
CAMADA_1
 62
   250
 10
-32.7284
 20
-36.428
 30
0.0
  0
VERTEX
  5
B72
  8
CAMADA_1
 62
   250
 10
-35.1588
 20
-36.428
 30
0.0
  0
VERTEX
  5
B73
  8
CAMADA_1
 62
   250
 10
-35.1587
 20
-37.7681
 30
0.0
  0
VERTEX
  5
B74
  8
CAMADA_1
 62
   250
 10
-32.724
 20
-37.7443
 30
0.0
  0
VERTEX
  5
B75
  8
CAMADA_1
 62
   250
 10
-32.724
 20
-37.7443
 30
0.0
  0
SEQEND
  5
B76
  8
CAMADA_1
 62
   250
  0
POLYLINE
  5
7C
  8
CAMADA_1
 62
   250
 66
     1
 10
0.0
 20
0.0
 30
0.0
 70
     1
  0
VERTEX
  5
B77
  8
CAMADA_1
 62
   250
 10
-114.4484
 20
-18.5764
 30
0.0
  0
VERTEX
  5
B78
  8
CAMADA_1
 62
   250
 10
-114.4597
 20
-9.182
 30
0.0
  0
VERTEX
  5
B79
  8
CAMADA_1
 62
   250
 10
-114.3413
 20
-8.6136
 30
0.0
  0
VERTEX
  5
B7A
  8
CAMADA_1
 62
   250
 10
-114.0635
 20
-8.1561
 30
0.0
  0
VERTEX
  5
B7B
  8
CAMADA_1
 62
   250
 10
-113.6684
 20
-7.7957
 30
0.0
  0
VERTEX
  5
B7C
  8
CAMADA_1
 62
   250
 10
-113.1983
 20
-7.519
 30
0.0
  0
VERTEX
  5
B7D
  8
CAMADA_1
 62
   250
 10
-112.6954
 20
-7.3124
 30
0.0
  0
VERTEX
  5
B7E
  8
CAMADA_1
 62
   250
 10
-112.2018
 20
-7.1623
 30
0.0
  0
VERTEX
  5
B7F
  8
CAMADA_1
 62
   250
 10
-111.7597
 20
-7.0552
 30
0.0
  0
VERTEX
  5
B80
  8
CAMADA_1
 62
   250
 10
-111.4115
 20
-6.9775
 30
0.0
  0
VERTEX
  5
B81
  8
CAMADA_1
 62
   250
 10
-111.0681
 20
-6.9627
 30
0.0
  0
VERTEX
  5
B82
  8
CAMADA_1
 62
   250
 10
-110.7246
 20
-6.9505
 30
0.0
  0
VERTEX
  5
B83
  8
CAMADA_1
 62
   250
 10
-110.3812
 20
-6.9419
 30
0.0
  0
VERTEX
  5
B84
  8
CAMADA_1
 62
   250
 10
-110.0378
 20
-6.9379
 30
0.0
  0
VERTEX
  5
B85
  8
CAMADA_1
 62
   250
 10
-109.6944
 20
-6.9396
 30
0.0
  0
VERTEX
  5
B86
  8
CAMADA_1
 62
   250
 10
-109.351
 20
-6.9479
 30
0.0
  0
VERTEX
  5
B87
  8
CAMADA_1
 62
   250
 10
-109.0075
 20
-6.9639
 30
0.0
  0
VERTEX
  5
B88
  8
CAMADA_1
 62
   250
 10
-108.6641
 20
-6.9887
 30
0.0
  0
VERTEX
  5
B89
  8
CAMADA_1
 62
   250
 10
-108.0311
 20
-7.1174
 30
0.0
  0
VERTEX
  5
B8A
  8
CAMADA_1
 62
   250
 10
-107.4499
 20
-7.2985
 30
0.0
  0
VERTEX
  5
B8B
  8
CAMADA_1
 62
   250
 10
-106.9307
 20
-7.5233
 30
0.0
  0
VERTEX
  5
B8C
  8
CAMADA_1
 62
   250
 10
-106.4839
 20
-7.7832
 30
0.0
  0
VERTEX
  5
B8D
  8
CAMADA_1
 62
   250
 10
-106.1199
 20
-8.0697
 30
0.0
  0
VERTEX
  5
B8E
  8
CAMADA_1
 62
   250
 10
-105.8488
 20
-8.374
 30
0.0
  0
VERTEX
  5
B8F
  8
CAMADA_1
 62
   250
 10
-105.6812
 20
-8.6877
 30
0.0
  0
VERTEX
  5
B90
  8
CAMADA_1
 62
   250
 10
-105.6272
 20
-9.002
 30
0.0
  0
VERTEX
  5
B91
  8
CAMADA_1
 62
   250
 10
-105.6084
 20
-18.727
 30
0.0
  0
VERTEX
  5
B92
  8
CAMADA_1
 62
   250
 10
-105.6609
 20
-19.135
 30
0.0
  0
VERTEX
  5
B93
  8
CAMADA_1
 62
   250
 10
-105.8239
 20
-19.5053
 30
0.0
  0
VERTEX
  5
B94
  8
CAMADA_1
 62
   250
 10
-106.0886
 20
-19.8373
 30
0.0
  0
VERTEX
  5
B95
  8
CAMADA_1
 62
   250
 10
-106.4465
 20
-20.1301
 30
0.0
  0
VERTEX
  5
B96
  8
CAMADA_1
 62
   250
 10
-106.8886
 20
-20.3831
 30
0.0
  0
VERTEX
  5
B97
  8
CAMADA_1
 62
   250
 10
-107.4064
 20
-20.5954
 30
0.0
  0
VERTEX
  5
B98
  8
CAMADA_1
 62
   250
 10
-107.9911
 20
-20.7665
 30
0.0
  0
VERTEX
  5
B99
  8
CAMADA_1
 62
   250
 10
-108.634
 20
-20.8955
 30
0.0
  0
VERTEX
  5
B9A
  8
CAMADA_1
 62
   250
 10
-108.9689
 20
-20.9252
 30
0.0
  0
VERTEX
  5
B9B
  8
CAMADA_1
 62
   250
 10
-109.3017
 20
-20.9491
 30
0.0
  0
VERTEX
  5
B9C
  8
CAMADA_1
 62
   250
 10
-109.6331
 20
-20.966
 30
0.0
  0
VERTEX
  5
B9D
  8
CAMADA_1
 62
   250
 10
-109.9638
 20
-20.9747
 30
0.0
  0
VERTEX
  5
B9E
  8
CAMADA_1
 62
   250
 10
-110.2945
 20
-20.974
 30
0.0
  0
VERTEX
  5
B9F
  8
CAMADA_1
 62
   250
 10
-110.6259
 20
-20.9628
 30
0.0
  0
VERTEX
  5
BA0
  8
CAMADA_1
 62
   250
 10
-110.9587
 20
-20.9397
 30
0.0
  0
VERTEX
  5
BA1
  8
CAMADA_1
 62
   250
 10
-111.2936
 20
-20.9036
 30
0.0
  0
VERTEX
  5
BA2
  8
CAMADA_1
 62
   250
 10
-111.7965
 20
-20.8153
 30
0.0
  0
VERTEX
  5
BA3
  8
CAMADA_1
 62
   250
 10
-112.3261
 20
-20.6908
 30
0.0
  0
VERTEX
  5
BA4
  8
CAMADA_1
 62
   250
 10
-112.8536
 20
-20.5194
 30
0.0
  0
VERTEX
  5
BA5
  8
CAMADA_1
 62
   250
 10
-113.3501
 20
-20.2901
 30
0.0
  0
VERTEX
  5
BA6
  8
CAMADA_1
 62
   250
 10
-113.7867
 20
-19.992
 30
0.0
  0
VERTEX
  5
BA7
  8
CAMADA_1
 62
   250
 10
-114.1346
 20
-19.6143
 30
0.0
  0
VERTEX
  5
BA8
  8
CAMADA_1
 62
   250
 10
-114.3648
 20
-19.1461
 30
0.0
  0
VERTEX
  5
BA9
  8
CAMADA_1
 62
   250
 10
-114.4484
 20
-18.5764
 30
0.0
  0
VERTEX
  5
BAA
  8
CAMADA_1
 62
   250
 10
-114.4484
 20
-18.5764
 30
0.0
  0
SEQEND
  5
BAB
  8
CAMADA_1
 62
   250
  0
POLYLINE
  5
7D
  8
CAMADA_1
 62
   250
 66
     1
 10
0.0
 20
0.0
 30
0.0
 70
     1
  0
VERTEX
  5
BAC
  8
CAMADA_1
 62
   250
 10
-55.2407
 20
32.9167
 30
0.0
  0
VERTEX
  5
BAD
  8
CAMADA_1
 62
   250
 10
-53.6767
 20
32.9167
 30
0.0
  0
VERTEX
  5
BAE
  8
CAMADA_1
 62
   250
 10
-53.6767
 20
27.8406
 30
0.0
  0
VERTEX
  5
BAF
  8
CAMADA_1
 62
   250
 10
-55.2407
 20
27.8406
 30
0.0
  0
VERTEX
  5
BB0
  8
CAMADA_1
 62
   250
 10
-55.2407
 20
32.9167
 30
0.0
  0
VERTEX
  5
BB1
  8
CAMADA_1
 62
   250
 10
-55.2407
 20
32.9167
 30
0.0
  0
SEQEND
  5
BB2
  8
CAMADA_1
 62
   250
  0
POLYLINE
  5
7E
  8
CAMADA_1
 62
   250
 66
     1
 10
0.0
 20
0.0
 30
0.0
 70
     1
  0
VERTEX
  5
BB3
  8
CAMADA_1
 62
   250
 10
-59.2214
 20
50.9081
 30
0.0
  0
VERTEX
  5
BB4
  8
CAMADA_1
 62
   250
 10
-60.5642
 20
51.694
 30
0.0
  0
VERTEX
  5
BB5
  8
CAMADA_1
 62
   250
 10
-57.9881
 20
56.0674
 30
0.0
  0
VERTEX
  5
BB6
  8
CAMADA_1
 62
   250
 10
-56.6401
 20
55.2886
 30
0.0
  0
VERTEX
  5
BB7
  8
CAMADA_1
 62
   250
 10
-59.2214
 20
50.9081
 30
0.0
  0
VERTEX
  5
BB8
  8
CAMADA_1
 62
   250
 10
-59.2214
 20
50.9081
 30
0.0
  0
SEQEND
  5
BB9
  8
CAMADA_1
 62
   250
  0
POLYLINE
  5
7F
  8
CAMADA_1
 62
   250
 66
     1
 10
0.0
 20
0.0
 30
0.0
 70
     1
  0
VERTEX
  5
BBA
  8
CAMADA_1
 62
   250
 10
-17.9341
 20
72.3911
 30
0.0
  0
VERTEX
  5
BBB
  8
CAMADA_1
 62
   250
 10
-18.6072
 20
72.2211
 30
0.0
  0
VERTEX
  5
BBC
  8
CAMADA_1
 62
   250
 10
-19.2513
 20
72.1343
 30
0.0
  0
VERTEX
  5
BBD
  8
CAMADA_1
 62
   250
 10
-19.8675
 20
72.1283
 30
0.0
  0
VERTEX
  5
BBE
  8
CAMADA_1
 62
   250
 10
-20.4571
 20
72.201
 30
0.0
  0
VERTEX
  5
BBF
  8
CAMADA_1
 62
   250
 10
-21.0212
 20
72.3501
 30
0.0
  0
VERTEX
  5
BC0
  8
CAMADA_1
 62
   250
 10
-21.561
 20
72.5733
 30
0.0
  0
VERTEX
  5
BC1
  8
CAMADA_1
 62
   250
 10
-22.0778
 20
72.8682
 30
0.0
  0
VERTEX
  5
BC2
  8
CAMADA_1
 62
   250
 10
-22.5728
 20
73.2327
 30
0.0
  0
VERTEX
  5
BC3
  8
CAMADA_1
 62
   250
 10
-22.9912
 20
73.6507
 30
0.0
  0
VERTEX
  5
BC4
  8
CAMADA_1
 62
   250
 10
-23.3452
 20
74.0983
 30
0.0
  0
VERTEX
  5
BC5
  8
CAMADA_1
 62
   250
 10
-23.6362
 20
74.5751
 30
0.0
  0
VERTEX
  5
BC6
  8
CAMADA_1
 62
   250
 10
-23.8657
 20
75.0803
 30
0.0
  0
VERTEX
  5
BC7
  8
CAMADA_1
 62
   250
 10
-24.035
 20
75.6132
 30
0.0
  0
VERTEX
  5
BC8
  8
CAMADA_1
 62
   250
 10
-24.1456
 20
76.1732
 30
0.0
  0
VERTEX
  5
BC9
  8
CAMADA_1
 62
   250
 10
-24.1989
 20
76.7597
 30
0.0
  0
VERTEX
  5
BCA
  8
CAMADA_1
 62
   250
 10
-24.1962
 20
77.372
 30
0.0
  0
VERTEX
  5
BCB
  8
CAMADA_1
 62
   250
 10
-29.076
 20
76.7772
 30
0.0
  0
VERTEX
  5
BCC
  8
CAMADA_1
 62
   250
 10
-33.6735
 20
75.9663
 30
0.0
  0
VERTEX
  5
BCD
  8
CAMADA_1
 62
   250
 10
-37.9838
 20
74.9281
 30
0.0
  0
VERTEX
  5
BCE
  8
CAMADA_1
 62
   250
 10
-42.0019
 20
73.6512
 30
0.0
  0
VERTEX
  5
BCF
  8
CAMADA_1
 62
   250
 10
-45.7231
 20
72.1242
 30
0.0
  0
VERTEX
  5
BD0
  8
CAMADA_1
 62
   250
 10
-49.1424
 20
70.3358
 30
0.0
  0
VERTEX
  5
BD1
  8
CAMADA_1
 62
   250
 10
-52.2551
 20
68.2746
 30
0.0
  0
VERTEX
  5
BD2
  8
CAMADA_1
 62
   250
 10
-55.0562
 20
65.9292
 30
0.0
  0
VERTEX
  5
BD3
  8
CAMADA_1
 62
   250
 10
-55.7865
 20
65.265
 30
0.0
  0
VERTEX
  5
BD4
  8
CAMADA_1
 62
   250
 10
-56.4607
 20
64.7006
 30
0.0
  0
VERTEX
  5
BD5
  8
CAMADA_1
 62
   250
 10
-57.0903
 20
64.2267
 30
0.0
  0
VERTEX
  5
BD6
  8
CAMADA_1
 62
   250
 10
-57.6866
 20
63.834
 30
0.0
  0
VERTEX
  5
BD7
  8
CAMADA_1
 62
   250
 10
-58.2612
 20
63.5134
 30
0.0
  0
VERTEX
  5
BD8
  8
CAMADA_1
 62
   250
 10
-58.8255
 20
63.2554
 30
0.0
  0
VERTEX
  5
BD9
  8
CAMADA_1
 62
   250
 10
-59.3909
 20
63.0509
 30
0.0
  0
VERTEX
  5
BDA
  8
CAMADA_1
 62
   250
 10
-59.969
 20
62.8907
 30
0.0
  0
VERTEX
  5
BDB
  8
CAMADA_1
 62
   250
 10
-60.5062
 20
62.8037
 30
0.0
  0
VERTEX
  5
BDC
  8
CAMADA_1
 62
   250
 10
-61.0257
 20
62.7241
 30
0.0
  0
VERTEX
  5
BDD
  8
CAMADA_1
 62
   250
 10
-61.5467
 20
62.649
 30
0.0
  0
VERTEX
  5
BDE
  8
CAMADA_1
 62
   250
 10
-62.0886
 20
62.5757
 30
0.0
  0
VERTEX
  5
BDF
  8
CAMADA_1
 62
   250
 10
-62.6705
 20
62.501
 30
0.0
  0
VERTEX
  5
BE0
  8
CAMADA_1
 62
   250
 10
-63.3118
 20
62.4223
 30
0.0
  0
VERTEX
  5
BE1
  8
CAMADA_1
 62
   250
 10
-64.0317
 20
62.3367
 30
0.0
  0
VERTEX
  5
BE2
  8
CAMADA_1
 62
   250
 10
-64.8494
 20
62.2412
 30
0.0
  0
VERTEX
  5
BE3
  8
CAMADA_1
 62
   250
 10
-64.9927
 20
62.2123
 30
0.0
  0
VERTEX
  5
BE4
  8
CAMADA_1
 62
   250
 10
-65.118
 20
62.1712
 30
0.0
  0
VERTEX
  5
BE5
  8
CAMADA_1
 62
   250
 10
-65.227
 20
62.1178
 30
0.0
  0
VERTEX
  5
BE6
  8
CAMADA_1
 62
   250
 10
-65.3214
 20
62.0519
 30
0.0
  0
VERTEX
  5
BE7
  8
CAMADA_1
 62
   250
 10
-65.403
 20
61.9736
 30
0.0
  0
VERTEX
  5
BE8
  8
CAMADA_1
 62
   250
 10
-65.4734
 20
61.8827
 30
0.0
  0
VERTEX
  5
BE9
  8
CAMADA_1
 62
   250
 10
-65.5345
 20
61.7792
 30
0.0
  0
VERTEX
  5
BEA
  8
CAMADA_1
 62
   250
 10
-65.5879
 20
61.6629
 30
0.0
  0
VERTEX
  5
BEB
  8
CAMADA_1
 62
   250
 10
-65.8394
 20
60.6796
 30
0.0
  0
VERTEX
  5
BEC
  8
CAMADA_1
 62
   250
 10
-66.119
 20
59.7444
 30
0.0
  0
VERTEX
  5
BED
  8
CAMADA_1
 62
   250
 10
-66.4337
 20
58.857
 30
0.0
  0
VERTEX
  5
BEE
  8
CAMADA_1
 62
   250
 10
-66.7901
 20
58.0165
 30
0.0
  0
VERTEX
  5
BEF
  8
CAMADA_1
 62
   250
 10
-67.195
 20
57.2225
 30
0.0
  0
VERTEX
  5
BF0
  8
CAMADA_1
 62
   250
 10
-67.6553
 20
56.4744
 30
0.0
  0
VERTEX
  5
BF1
  8
CAMADA_1
 62
   250
 10
-68.1776
 20
55.7716
 30
0.0
  0
VERTEX
  5
BF2
  8
CAMADA_1
 62
   250
 10
-68.7687
 20
55.1135
 30
0.0
  0
VERTEX
  5
BF3
  8
CAMADA_1
 62
   250
 10
-69.4172
 20
54.5018
 30
0.0
  0
VERTEX
  5
BF4
  8
CAMADA_1
 62
   250
 10
-70.0984
 20
53.9455
 30
0.0
  0
VERTEX
  5
BF5
  8
CAMADA_1
 62
   250
 10
-70.8149
 20
53.4389
 30
0.0
  0
VERTEX
  5
BF6
  8
CAMADA_1
 62
   250
 10
-71.5691
 20
52.9764
 30
0.0
  0
VERTEX
  5
BF7
  8
CAMADA_1
 62
   250
 10
-72.3634
 20
52.5524
 30
0.0
  0
VERTEX
  5
BF8
  8
CAMADA_1
 62
   250
 10
-73.2004
 20
52.1615
 30
0.0
  0
VERTEX
  5
BF9
  8
CAMADA_1
 62
   250
 10
-74.0825
 20
51.7981
 30
0.0
  0
VERTEX
  5
BFA
  8
CAMADA_1
 62
   250
 10
-75.0122
 20
51.4566
 30
0.0
  0
VERTEX
  5
BFB
  8
CAMADA_1
 62
   250
 10
-75.1854
 20
51.4045
 30
0.0
  0
VERTEX
  5
BFC
  8
CAMADA_1
 62
   250
 10
-75.3344
 20
51.335
 30
0.0
  0
VERTEX
  5
BFD
  8
CAMADA_1
 62
   250
 10
-75.4591
 20
51.2481
 30
0.0
  0
VERTEX
  5
BFE
  8
CAMADA_1
 62
   250
 10
-75.5596
 20
51.1441
 30
0.0
  0
VERTEX
  5
BFF
  8
CAMADA_1
 62
   250
 10
-75.6357
 20
51.0233
 30
0.0
  0
VERTEX
  5
C00
  8
CAMADA_1
 62
   250
 10
-75.6872
 20
50.8858
 30
0.0
  0
VERTEX
  5
C01
  8
CAMADA_1
 62
   250
 10
-75.7143
 20
50.7318
 30
0.0
  0
VERTEX
  5
C02
  8
CAMADA_1
 62
   250
 10
-75.7166
 20
50.5615
 30
0.0
  0
VERTEX
  5
C03
  8
CAMADA_1
 62
   250
 10
-75.8726
 20
49.7753
 30
0.0
  0
VERTEX
  5
C04
  8
CAMADA_1
 62
   250
 10
-76.1002
 20
49.0333
 30
0.0
  0
VERTEX
  5
C05
  8
CAMADA_1
 62
   250
 10
-76.4057
 20
48.3537
 30
0.0
  0
VERTEX
  5
C06
  8
CAMADA_1
 62
   250
 10
-76.7955
 20
47.7544
 30
0.0
  0
VERTEX
  5
C07
  8
CAMADA_1
 62
   250
 10
-77.2759
 20
47.2535
 30
0.0
  0
VERTEX
  5
C08
  8
CAMADA_1
 62
   250
 10
-77.8531
 20
46.869
 30
0.0
  0
VERTEX
  5
C09
  8
CAMADA_1
 62
   250
 10
-78.5334
 20
46.6188
 30
0.0
  0
VERTEX
  5
C0A
  8
CAMADA_1
 62
   250
 10
-79.3232
 20
46.5212
 30
0.0
  0
VERTEX
  5
C0B
  8
CAMADA_1
 62
   250
 10
-79.5665
 20
46.4605
 30
0.0
  0
VERTEX
  5
C0C
  8
CAMADA_1
 62
   250
 10
-79.769
 20
46.3781
 30
0.0
  0
VERTEX
  5
C0D
  8
CAMADA_1
 62
   250
 10
-79.9323
 20
46.2748
 30
0.0
  0
VERTEX
  5
C0E
  8
CAMADA_1
 62
   250
 10
-80.0582
 20
46.1516
 30
0.0
  0
VERTEX
  5
C0F
  8
CAMADA_1
 62
   250
 10
-80.1484
 20
46.0092
 30
0.0
  0
VERTEX
  5
C10
  8
CAMADA_1
 62
   250
 10
-80.2045
 20
45.8487
 30
0.0
  0
VERTEX
  5
C11
  8
CAMADA_1
 62
   250
 10
-80.2282
 20
45.6709
 30
0.0
  0
VERTEX
  5
C12
  8
CAMADA_1
 62
   250
 10
-80.2211
 20
45.4767
 30
0.0
  0
VERTEX
  5
C13
  8
CAMADA_1
 62
   250
 10
-80.3105
 20
19.6057
 30
0.0
  0
VERTEX
  5
C14
  8
CAMADA_1
 62
   250
 10
-79.9627
 20
19.5992
 30
0.0
  0
VERTEX
  5
C15
  8
CAMADA_1
 62
   250
 10
-79.7214
 20
19.6452
 30
0.0
  0
VERTEX
  5
C16
  8
CAMADA_1
 62
   250
 10
-79.5048
 20
19.718
 30
0.0
  0
VERTEX
  5
C17
  8
CAMADA_1
 62
   250
 10
-79.313
 20
19.8175
 30
0.0
  0
VERTEX
  5
C18
  8
CAMADA_1
 62
   250
 10
-79.1461
 20
19.9437
 30
0.0
  0
VERTEX
  5
C19
  8
CAMADA_1
 62
   250
 10
-79.0039
 20
20.0966
 30
0.0
  0
VERTEX
  5
C1A
  8
CAMADA_1
 62
   250
 10
-78.8865
 20
20.2762
 30
0.0
  0
VERTEX
  5
C1B
  8
CAMADA_1
 62
   250
 10
-78.7939
 20
20.4825
 30
0.0
  0
VERTEX
  5
C1C
  8
CAMADA_1
 62
   250
 10
-78.7261
 20
20.7155
 30
0.0
  0
VERTEX
  5
C1D
  8
CAMADA_1
 62
   250
 10
-78.56
 20
21.3157
 30
0.0
  0
VERTEX
  5
C1E
  8
CAMADA_1
 62
   250
 10
-78.3305
 20
21.7792
 30
0.0
  0
VERTEX
  5
C1F
  8
CAMADA_1
 62
   250
 10
-78.0533
 20
22.0948
 30
0.0
  0
VERTEX
  5
C20
  8
CAMADA_1
 62
   250
 10
-77.7441
 20
22.2511
 30
0.0
  0
VERTEX
  5
C21
  8
CAMADA_1
 62
   250
 10
-77.4187
 20
22.237
 30
0.0
  0
VERTEX
  5
C22
  8
CAMADA_1
 62
   250
 10
-77.0928
 20
22.0411
 30
0.0
  0
VERTEX
  5
C23
  8
CAMADA_1
 62
   250
 10
-76.7822
 20
21.6523
 30
0.0
  0
VERTEX
  5
C24
  8
CAMADA_1
 62
   250
 10
-76.5026
 20
21.0591
 30
0.0
  0
VERTEX
  5
C25
  8
CAMADA_1
 62
   250
 10
-76.4111
 20
20.854
 30
0.0
  0
VERTEX
  5
C26
  8
CAMADA_1
 62
   250
 10
-76.3302
 20
20.6408
 30
0.0
  0
VERTEX
  5
C27
  8
CAMADA_1
 62
   250
 10
-76.2537
 20
20.4244
 30
0.0
  0
VERTEX
  5
C28
  8
CAMADA_1
 62
   250
 10
-76.175
 20
20.2096
 30
0.0
  0
VERTEX
  5
C29
  8
CAMADA_1
 62
   250
 10
-76.0877
 20
20.0012
 30
0.0
  0
VERTEX
  5
C2A
  8
CAMADA_1
 62
   250
 10
-75.9854
 20
19.8041
 30
0.0
  0
VERTEX
  5
C2B
  8
CAMADA_1
 62
   250
 10
-75.8616
 20
19.6231
 30
0.0
  0
VERTEX
  5
C2C
  8
CAMADA_1
 62
   250
 10
-75.71
 20
19.463
 30
0.0
  0
VERTEX
  5
C2D
  8
CAMADA_1
 62
   250
 10
-73.9581
 20
19.4863
 30
0.0
  0
VERTEX
  5
C2E
  8
CAMADA_1
 62
   250
 10
-73.934
 20
24.75
 30
0.0
  0
VERTEX
  5
C2F
  8
CAMADA_1
 62
   250
 10
-75.4263
 20
24.7504
 30
0.0
  0
VERTEX
  5
C30
  8
CAMADA_1
 62
   250
 10
-75.3467
 20
42.8681
 30
0.0
  0
VERTEX
  5
C31
  8
CAMADA_1
 62
   250
 10
-77.5605
 20
42.8682
 30
0.0
  0
VERTEX
  5
C32
  8
CAMADA_1
 62
   250
 10
-77.5497
 20
44.4204
 30
0.0
  0
VERTEX
  5
C33
  8
CAMADA_1
 62
   250
 10
-72.3227
 20
44.4085
 30
0.0
  0
VERTEX
  5
C34
  8
CAMADA_1
 62
   250
 10
-72.2456
 20
44.8175
 30
0.0
  0
VERTEX
  5
C35
  8
CAMADA_1
 62
   250
 10
-72.0967
 20
45.1933
 30
0.0
  0
VERTEX
  5
C36
  8
CAMADA_1
 62
   250
 10
-71.8751
 20
45.5357
 30
0.0
  0
VERTEX
  5
C37
  8
CAMADA_1
 62
   250
 10
-71.58
 20
45.8441
 30
0.0
  0
VERTEX
  5
C38
  8
CAMADA_1
 62
   250
 10
-71.2105
 20
46.1181
 30
0.0
  0
VERTEX
  5
C39
  8
CAMADA_1
 62
   250
 10
-70.7659
 20
46.3574
 30
0.0
  0
VERTEX
  5
C3A
  8
CAMADA_1
 62
   250
 10
-70.245
 20
46.5616
 30
0.0
  0
VERTEX
  5
C3B
  8
CAMADA_1
 62
   250
 10
-69.6472
 20
46.7302
 30
0.0
  0
VERTEX
  5
C3C
  8
CAMADA_1
 62
   250
 10
-69.0762
 20
46.8203
 30
0.0
  0
VERTEX
  5
C3D
  8
CAMADA_1
 62
   250
 10
-68.5
 20
46.8898
 30
0.0
  0
VERTEX
  5
C3E
  8
CAMADA_1
 62
   250
 10
-67.9185
 20
46.9381
 30
0.0
  0
VERTEX
  5
C3F
  8
CAMADA_1
 62
   250
 10
-67.3315
 20
46.9643
 30
0.0
  0
VERTEX
  5
C40
  8
CAMADA_1
 62
   250
 10
-66.7389
 20
46.9676
 30
0.0
  0
VERTEX
  5
C41
  8
CAMADA_1
 62
   250
 10
-66.1402
 20
46.9472
 30
0.0
  0
VERTEX
  5
C42
  8
CAMADA_1
 62
   250
 10
-65.5355
 20
46.9023
 30
0.0
  0
VERTEX
  5
C43
  8
CAMADA_1
 62
   250
 10
-64.9244
 20
46.8321
 30
0.0
  0
VERTEX
  5
C44
  8
CAMADA_1
 62
   250
 10
-64.6815
 20
46.7854
 30
0.0
  0
VERTEX
  5
C45
  8
CAMADA_1
 62
   250
 10
-64.2937
 20
46.703
 30
0.0
  0
VERTEX
  5
C46
  8
CAMADA_1
 62
   250
 10
-63.8136
 20
46.5653
 30
0.0
  0
VERTEX
  5
C47
  8
CAMADA_1
 62
   250
 10
-63.2939
 20
46.3522
 30
0.0
  0
VERTEX
  5
C48
  8
CAMADA_1
 62
   250
 10
-62.787
 20
46.044
 30
0.0
  0
VERTEX
  5
C49
  8
CAMADA_1
 62
   250
 10
-62.3456
 20
45.6209
 30
0.0
  0
VERTEX
  5
C4A
  8
CAMADA_1
 62
   250
 10
-62.0222
 20
45.0629
 30
0.0
  0
VERTEX
  5
C4B
  8
CAMADA_1
 62
   250
 10
-61.8694
 20
44.3502
 30
0.0
  0
VERTEX
  5
C4C
  8
CAMADA_1
 62
   250
 10
-52.4871
 20
44.3588
 30
0.0
  0
VERTEX
  5
C4D
  8
CAMADA_1
 62
   250
 10
-52.5635
 20
42.8716
 30
0.0
  0
VERTEX
  5
C4E
  8
CAMADA_1
 62
   250
 10
-57.3569
 20
42.8797
 30
0.0
  0
VERTEX
  5
C4F
  8
CAMADA_1
 62
   250
 10
-57.4446
 20
24.7062
 30
0.0
  0
VERTEX
  5
C50
  8
CAMADA_1
 62
   250
 10
-52.1469
 20
24.7054
 30
0.0
  0
VERTEX
  5
C51
  8
CAMADA_1
 62
   250
 10
-52.053
 20
25.2057
 30
0.0
  0
VERTEX
  5
C52
  8
CAMADA_1
 62
   250
 10
-51.9186
 20
25.6813
 30
0.0
  0
VERTEX
  5
C53
  8
CAMADA_1
 62
   250
 10
-51.7429
 20
26.1231
 30
0.0
  0
VERTEX
  5
C54
  8
CAMADA_1
 62
   250
 10
-51.5253
 20
26.5221
 30
0.0
  0
VERTEX
  5
C55
  8
CAMADA_1
 62
   250
 10
-51.2649
 20
26.8692
 30
0.0
  0
VERTEX
  5
C56
  8
CAMADA_1
 62
   250
 10
-50.9612
 20
27.1553
 30
0.0
  0
VERTEX
  5
C57
  8
CAMADA_1
 62
   250
 10
-50.6134
 20
27.3713
 30
0.0
  0
VERTEX
  5
C58
  8
CAMADA_1
 62
   250
 10
-50.2208
 20
27.5082
 30
0.0
  0
VERTEX
  5
C59
  8
CAMADA_1
 62
   250
 10
-49.9841
 20
27.6015
 30
0.0
  0
VERTEX
  5
C5A
  8
CAMADA_1
 62
   250
 10
-49.7807
 20
27.7273
 30
0.0
  0
VERTEX
  5
C5B
  8
CAMADA_1
 62
   250
 10
-49.6208
 20
27.8899
 30
0.0
  0
VERTEX
  5
C5C
  8
CAMADA_1
 62
   250
 10
-49.5146
 20
28.0937
 30
0.0
  0
VERTEX
  5
C5D
  8
CAMADA_1
 62
   250
 10
-49.4721
 20
28.343
 30
0.0
  0
VERTEX
  5
C5E
  8
CAMADA_1
 62
   250
 10
-49.5035
 20
28.6421
 30
0.0
  0
VERTEX
  5
C5F
  8
CAMADA_1
 62
   250
 10
-49.619
 20
28.9955
 30
0.0
  0
VERTEX
  5
C60
  8
CAMADA_1
 62
   250
 10
-49.8287
 20
29.4074
 30
0.0
  0
VERTEX
  5
C61
  8
CAMADA_1
 62
   250
 10
-50.1959
 20
30.2746
 30
0.0
  0
VERTEX
  5
C62
  8
CAMADA_1
 62
   250
 10
-50.5
 20
31.2275
 30
0.0
  0
VERTEX
  5
C63
  8
CAMADA_1
 62
   250
 10
-50.7457
 20
32.2614
 30
0.0
  0
VERTEX
  5
C64
  8
CAMADA_1
 62
   250
 10
-50.9373
 20
33.3715
 30
0.0
  0
VERTEX
  5
C65
  8
CAMADA_1
 62
   250
 10
-51.0795
 20
34.5527
 30
0.0
  0
VERTEX
  5
C66
  8
CAMADA_1
 62
   250
 10
-51.1766
 20
35.8006
 30
0.0
  0
VERTEX
  5
C67
  8
CAMADA_1
 62
   250
 10
-51.2333
 20
37.11
 30
0.0
  0
VERTEX
  5
C68
  8
CAMADA_1
 62
   250
 10
-51.2542
 20
38.4763
 30
0.0
  0
VERTEX
  5
C69
  8
CAMADA_1
 62
   250
 10
-51.251
 20
39.1398
 30
0.0
  0
VERTEX
  5
C6A
  8
CAMADA_1
 62
   250
 10
-51.2342
 20
39.8155
 30
0.0
  0
VERTEX
  5
C6B
  8
CAMADA_1
 62
   250
 10
-51.1986
 20
40.5013
 30
0.0
  0
VERTEX
  5
C6C
  8
CAMADA_1
 62
   250
 10
-51.1392
 20
41.195
 30
0.0
  0
VERTEX
  5
C6D
  8
CAMADA_1
 62
   250
 10
-51.051
 20
41.8941
 30
0.0
  0
VERTEX
  5
C6E
  8
CAMADA_1
 62
   250
 10
-50.9289
 20
42.5967
 30
0.0
  0
VERTEX
  5
C6F
  8
CAMADA_1
 62
   250
 10
-50.7678
 20
43.3002
 30
0.0
  0
VERTEX
  5
C70
  8
CAMADA_1
 62
   250
 10
-50.5627
 20
44.0027
 30
0.0
  0
VERTEX
  5
C71
  8
CAMADA_1
 62
   250
 10
-50.3806
 20
44.4464
 30
0.0
  0
VERTEX
  5
C72
  8
CAMADA_1
 62
   250
 10
-50.1651
 20
44.8997
 30
0.0
  0
VERTEX
  5
C73
  8
CAMADA_1
 62
   250
 10
-49.9046
 20
45.3524
 30
0.0
  0
VERTEX
  5
C74
  8
CAMADA_1
 62
   250
 10
-49.5876
 20
45.7945
 30
0.0
  0
VERTEX
  5
C75
  8
CAMADA_1
 62
   250
 10
-49.2025
 20
46.2157
 30
0.0
  0
VERTEX
  5
C76
  8
CAMADA_1
 62
   250
 10
-48.7379
 20
46.6059
 30
0.0
  0
VERTEX
  5
C77
  8
CAMADA_1
 62
   250
 10
-48.1822
 20
46.9549
 30
0.0
  0
VERTEX
  5
C78
  8
CAMADA_1
 62
   250
 10
-47.5238
 20
47.2526
 30
0.0
  0
VERTEX
  5
C79
  8
CAMADA_1
 62
   250
 10
-47.2895
 20
47.3743
 30
0.0
  0
VERTEX
  5
C7A
  8
CAMADA_1
 62
   250
 10
-47.0933
 20
47.5152
 30
0.0
  0
VERTEX
  5
C7B
  8
CAMADA_1
 62
   250
 10
-46.9351
 20
47.6747
 30
0.0
  0
VERTEX
  5
C7C
  8
CAMADA_1
 62
   250
 10
-46.8149
 20
47.8523
 30
0.0
  0
VERTEX
  5
C7D
  8
CAMADA_1
 62
   250
 10
-46.7327
 20
48.0475
 30
0.0
  0
VERTEX
  5
C7E
  8
CAMADA_1
 62
   250
 10
-46.6886
 20
48.2597
 30
0.0
  0
VERTEX
  5
C7F
  8
CAMADA_1
 62
   250
 10
-46.6825
 20
48.4883
 30
0.0
  0
VERTEX
  5
C80
  8
CAMADA_1
 62
   250
 10
-46.7145
 20
48.7329
 30
0.0
  0
VERTEX
  5
C81
  8
CAMADA_1
 62
   250
 10
-47.0385
 20
49.7243
 30
0.0
  0
VERTEX
  5
C82
  8
CAMADA_1
 62
   250
 10
-47.3162
 20
50.6638
 30
0.0
  0
VERTEX
  5
C83
  8
CAMADA_1
 62
   250
 10
-47.5264
 20
51.5524
 30
0.0
  0
VERTEX
  5
C84
  8
CAMADA_1
 62
   250
 10
-47.6483
 20
52.3911
 30
0.0
  0
VERTEX
  5
C85
  8
CAMADA_1
 62
   250
 10
-47.661
 20
53.1809
 30
0.0
  0
VERTEX
  5
C86
  8
CAMADA_1
 62
   250
 10
-47.5435
 20
53.9229
 30
0.0
  0
VERTEX
  5
C87
  8
CAMADA_1
 62
   250
 10
-47.2748
 20
54.6181
 30
0.0
  0
VERTEX
  5
C88
  8
CAMADA_1
 62
   250
 10
-46.8341
 20
55.2675
 30
0.0
  0
VERTEX
  5
C89
  8
CAMADA_1
 62
   250
 10
-46.3897
 20
55.6646
 30
0.0
  0
VERTEX
  5
C8A
  8
CAMADA_1
 62
   250
 10
-45.9319
 20
56.0422
 30
0.0
  0
VERTEX
  5
C8B
  8
CAMADA_1
 62
   250
 10
-45.4528
 20
56.3995
 30
0.0
  0
VERTEX
  5
C8C
  8
CAMADA_1
 62
   250
 10
-44.9445
 20
56.7362
 30
0.0
  0
VERTEX
  5
C8D
  8
CAMADA_1
 62
   250
 10
-44.399
 20
57.0517
 30
0.0
  0
VERTEX
  5
C8E
  8
CAMADA_1
 62
   250
 10
-43.8082
 20
57.3454
 30
0.0
  0
VERTEX
  5
C8F
  8
CAMADA_1
 62
   250
 10
-43.1642
 20
57.617
 30
0.0
  0
VERTEX
  5
C90
  8
CAMADA_1
 62
   250
 10
-42.4591
 20
57.8658
 30
0.0
  0
VERTEX
  5
C91
  8
CAMADA_1
 62
   250
 10
-41.2069
 20
58.2742
 30
0.0
  0
VERTEX
  5
C92
  8
CAMADA_1
 62
   250
 10
-39.9294
 20
58.6173
 30
0.0
  0
VERTEX
  5
C93
  8
CAMADA_1
 62
   250
 10
-38.6368
 20
58.9041
 30
0.0
  0
VERTEX
  5
C94
  8
CAMADA_1
 62
   250
 10
-37.3391
 20
59.1436
 30
0.0
  0
VERTEX
  5
C95
  8
CAMADA_1
 62
   250
 10
-36.0466
 20
59.3446
 30
0.0
  0
VERTEX
  5
C96
  8
CAMADA_1
 62
   250
 10
-34.7694
 20
59.5163
 30
0.0
  0
VERTEX
  5
C97
  8
CAMADA_1
 62
   250
 10
-33.5175
 20
59.6674
 30
0.0
  0
VERTEX
  5
C98
  8
CAMADA_1
 62
   250
 10
-32.3011
 20
59.8071
 30
0.0
  0
VERTEX
  5
C99
  8
CAMADA_1
 62
   250
 10
-31.4082
 20
59.8924
 30
0.0
  0
VERTEX
  5
C9A
  8
CAMADA_1
 62
   250
 10
-30.5253
 20
59.9437
 30
0.0
  0
VERTEX
  5
C9B
  8
CAMADA_1
 62
   250
 10
-29.6528
 20
59.9629
 30
0.0
  0
VERTEX
  5
C9C
  8
CAMADA_1
 62
   250
 10
-28.791
 20
59.9514
 30
0.0
  0
VERTEX
  5
C9D
  8
CAMADA_1
 62
   250
 10
-27.9403
 20
59.9111
 30
0.0
  0
VERTEX
  5
C9E
  8
CAMADA_1
 62
   250
 10
-27.101
 20
59.8436
 30
0.0
  0
VERTEX
  5
C9F
  8
CAMADA_1
 62
   250
 10
-26.2737
 20
59.7508
 30
0.0
  0
VERTEX
  5
CA0
  8
CAMADA_1
 62
   250
 10
-25.4584
 20
59.6343
 30
0.0
  0
VERTEX
  5
CA1
  8
CAMADA_1
 62
   250
 10
-24.5997
 20
59.4806
 30
0.0
  0
VERTEX
  5
CA2
  8
CAMADA_1
 62
   250
 10
-23.763
 20
59.2965
 30
0.0
  0
VERTEX
  5
CA3
  8
CAMADA_1
 62
   250
 10
-22.9437
 20
59.0854
 30
0.0
  0
VERTEX
  5
CA4
  8
CAMADA_1
 62
   250
 10
-22.1375
 20
58.8502
 30
0.0
  0
VERTEX
  5
CA5
  8
CAMADA_1
 62
   250
 10
-21.3398
 20
58.5941
 30
0.0
  0
VERTEX
  5
CA6
  8
CAMADA_1
 62
   250
 10
-20.5463
 20
58.3202
 30
0.0
  0
VERTEX
  5
CA7
  8
CAMADA_1
 62
   250
 10
-19.7525
 20
58.0316
 30
0.0
  0
VERTEX
  5
CA8
  8
CAMADA_1
 62
   250
 10
-18.954
 20
57.7315
 30
0.0
  0
VERTEX
  5
CA9
  8
CAMADA_1
 62
   250
 10
-18.7671
 20
57.6687
 30
0.0
  0
VERTEX
  5
CAA
  8
CAMADA_1
 62
   250
 10
-18.5864
 20
57.6388
 30
0.0
  0
VERTEX
  5
CAB
  8
CAMADA_1
 62
   250
 10
-18.4181
 20
57.6439
 30
0.0
  0
VERTEX
  5
CAC
  8
CAMADA_1
 62
   250
 10
-18.2684
 20
57.686
 30
0.0
  0
VERTEX
  5
CAD
  8
CAMADA_1
 62
   250
 10
-18.1436
 20
57.7674
 30
0.0
  0
VERTEX
  5
CAE
  8
CAMADA_1
 62
   250
 10
-18.0496
 20
57.8902
 30
0.0
  0
VERTEX
  5
CAF
  8
CAMADA_1
 62
   250
 10
-17.9929
 20
58.0564
 30
0.0
  0
VERTEX
  5
CB0
  8
CAMADA_1
 62
   250
 10
-17.9795
 20
58.2683
 30
0.0
  0
VERTEX
  5
CB1
  8
CAMADA_1
 62
   250
 10
-17.9341
 20
72.3911
 30
0.0
  0
VERTEX
  5
CB2
  8
CAMADA_1
 62
   250
 10
-17.9341
 20
72.3911
 30
0.0
  0
SEQEND
  5
CB3
  8
CAMADA_1
 62
   250
  0
POLYLINE
  5
80
  8
CAMADA_1
 62
   250
 66
     1
 10
0.0
 20
0.0
 30
0.0
 70
     1
  0
VERTEX
  5
CB4
  8
CAMADA_1
 62
   250
 10
-38.155
 20
66.5738
 30
0.0
  0
VERTEX
  5
CB5
  8
CAMADA_1
 62
   250
 10
-38.2913
 20
68.1071
 30
0.0
  0
VERTEX
  5
CB6
  8
CAMADA_1
 62
   250
 10
-29.3642
 20
69.0839
 30
0.0
  0
VERTEX
  5
CB7
  8
CAMADA_1
 62
   250
 10
-29.2165
 20
67.5279
 30
0.0
  0
VERTEX
  5
CB8
  8
CAMADA_1
 62
   250
 10
-38.155
 20
66.5738
 30
0.0
  0
VERTEX
  5
CB9
  8
CAMADA_1
 62
   250
 10
-38.155
 20
66.5738
 30
0.0
  0
SEQEND
  5
CBA
  8
CAMADA_1
 62
   250
  0
POLYLINE
  5
81
  8
CAMADA_1
 62
   250
 66
     1
 10
0.0
 20
0.0
 30
0.0
 70
     1
  0
VERTEX
  5
CBB
  8
CAMADA_1
 62
   250
 10
-110.5465
 20
0.197
 30
0.0
  0
VERTEX
  5
CBC
  8
CAMADA_1
 62
   250
 10
-113.4597
 20
0.197
 30
0.0
  0
VERTEX
  5
CBD
  8
CAMADA_1
 62
   250
 10
-113.4296
 20
0.6148
 30
0.0
  0
VERTEX
  5
CBE
  8
CAMADA_1
 62
   250
 10
-113.3652
 20
1.168
 30
0.0
  0
VERTEX
  5
CBF
  8
CAMADA_1
 62
   250
 10
-113.2229
 20
1.7989
 30
0.0
  0
VERTEX
  5
CC0
  8
CAMADA_1
 62
   250
 10
-112.9592
 20
2.4495
 30
0.0
  0
VERTEX
  5
CC1
  8
CAMADA_1
 62
   250
 10
-112.5304
 20
3.0621
 30
0.0
  0
VERTEX
  5
CC2
  8
CAMADA_1
 62
   250
 10
-111.893
 20
3.5788
 30
0.0
  0
VERTEX
  5
CC3
  8
CAMADA_1
 62
   250
 10
-111.0035
 20
3.9418
 30
0.0
  0
VERTEX
  5
CC4
  8
CAMADA_1
 62
   250
 10
-109.8183
 20
4.0933
 30
0.0
  0
VERTEX
  5
CC5
  8
CAMADA_1
 62
   250
 10
-109.0064
 20
4.0152
 30
0.0
  0
VERTEX
  5
CC6
  8
CAMADA_1
 62
   250
 10
-108.2925
 20
3.8305
 30
0.0
  0
VERTEX
  5
CC7
  8
CAMADA_1
 62
   250
 10
-107.6806
 20
3.5339
 30
0.0
  0
VERTEX
  5
CC8
  8
CAMADA_1
 62
   250
 10
-107.1745
 20
3.1203
 30
0.0
  0
VERTEX
  5
CC9
  8
CAMADA_1
 62
   250
 10
-106.7781
 20
2.5848
 30
0.0
  0
VERTEX
  5
CCA
  8
CAMADA_1
 62
   250
 10
-106.4952
 20
1.9222
 30
0.0
  0
VERTEX
  5
CCB
  8
CAMADA_1
 62
   250
 10
-106.3297
 20
1.1273
 30
0.0
  0
VERTEX
  5
CCC
  8
CAMADA_1
 62
   250
 10
-106.2855
 20
0.1952
 30
0.0
  0
VERTEX
  5
CCD
  8
CAMADA_1
 62
   250
 10
-109.1628
 20
0.1952
 30
0.0
  0
VERTEX
  5
CCE
  8
CAMADA_1
 62
   250
 10
-109.1628
 20
2.2726
 30
0.0
  0
VERTEX
  5
CCF
  8
CAMADA_1
 62
   250
 10
-110.5101
 20
2.2726
 30
0.0
  0
VERTEX
  5
CD0
  8
CAMADA_1
 62
   250
 10
-110.5465
 20
0.197
 30
0.0
  0
VERTEX
  5
CD1
  8
CAMADA_1
 62
   250
 10
-110.5465
 20
0.197
 30
0.0
  0
SEQEND
  5
CD2
  8
CAMADA_1
 62
   250
  0
ENDSEC
  0
EOF
