  0
SECTION
  2
HEADER
  9
$ACADVER
  1
AC1009
  9
$DWGCODEPAGE
  3
ansi_1250
  9
$INSBASE
 10
0.0
 20
0.0
 30
0.0
  9
$EXTMIN
 10
-14.338
 20
-12.1568
 30
0.0
  9
$EXTMAX
 10
355.6617
 20
301.5585
 30
0.0
  9
$LIMMIN
 10
0.0
 20
0.0
  9
$LIMMAX
 10
12.0
 20
9.0
  9
$ORTHOMODE
 70
     0
  9
$REGENMODE
 70
     1
  9
$FILLMODE
 70
     1
  9
$QTEXTMODE
 70
     0
  9
$MIRRTEXT
 70
     1
  9
$DRAGMODE
 70
     2
  9
$LTSCALE
 40
1.0
  9
$OSMODE
 70
    37
  9
$ATTMODE
 70
     1
  9
$TEXTSIZE
 40
0.2
  9
$TRACEWID
 40
0.05
  9
$TEXTSTYLE
  7
STANDARD
  9
$CLAYER
  8
0
  9
$CELTYPE
  6
BYLAYER
  9
$CECOLOR
 62
   256
  9
$DIMSCALE
 40
1.0
  9
$DIMASZ
 40
0.18
  9
$DIMEXO
 40
0.0625
  9
$DIMDLI
 40
0.38
  9
$DIMRND
 40
0.0
  9
$DIMDLE
 40
0.0
  9
$DIMEXE
 40
0.18
  9
$DIMTP
 40
0.0
  9
$DIMTM
 40
0.0
  9
$DIMTXT
 40
0.18
  9
$DIMCEN
 40
0.09
  9
$DIMTSZ
 40
0.0
  9
$DIMTOL
 70
     0
  9
$DIMLIM
 70
     0
  9
$DIMTIH
 70
     1
  9
$DIMTOH
 70
     1
  9
$DIMSE1
 70
     0
  9
$DIMSE2
 70
     0
  9
$DIMTAD
 70
     0
  9
$DIMZIN
 70
     0
  9
$DIMBLK
  1

  9
$DIMASO
 70
     1
  9
$DIMSHO
 70
     1
  9
$DIMPOST
  1

  9
$DIMAPOST
  1

  9
$DIMALT
 70
     0
  9
$DIMALTD
 70
     2
  9
$DIMALTF
 40
25.4
  9
$DIMLFAC
 40
1.0
  9
$DIMTOFL
 70
     0
  9
$DIMTVP
 40
0.0
  9
$DIMTIX
 70
     0
  9
$DIMSOXD
 70
     0
  9
$DIMSAH
 70
     0
  9
$DIMBLK1
  1

  9
$DIMBLK2
  1

  9
$DIMSTYLE
  2
STANDARD
  9
$DIMCLRD
 70
     0
  9
$DIMCLRE
 70
     0
  9
$DIMCLRT
 70
     0
  9
$DIMTFAC
 40
1.0
  9
$DIMGAP
 40
0.09
  9
$LUNITS
 70
     2
  9
$LUPREC
 70
     4
  9
$SKETCHINC
 40
0.1
  9
$FILLETRAD
 40
0.5
  9
$AUNITS
 70
     0
  9
$AUPREC
 70
     0
  9
$MENU
  1
.
  9
$ELEVATION
 40
0.0
  9
$PELEVATION
 40
0.0
  9
$THICKNESS
 40
0.0
  9
$LIMCHECK
 70
     0
  9
$CHAMFERA
 40
0.5
  9
$CHAMFERB
 40
0.5
  9
$SKPOLY
 70
     0
  9
$TDCREATE
 40
2455622.232005741
  9
$TDUPDATE
 40
2455622.232005752
  9
$TDINDWG
 40
0.0000000116
  9
$TDUSRTIMER
 40
0.0000000116
  9
$USRTIMER
 70
     1
  9
$ANGBASE
 50
0.0
  9
$ANGDIR
 70
     0
  9
$PDMODE
 70
     0
  9
$PDSIZE
 40
0.0
  9
$PLINEWID
 40
0.0
  9
$COORDS
 70
     1
  9
$SPLFRAME
 70
     0
  9
$SPLINETYPE
 70
     6
  9
$SPLINESEGS
 70
     8
  9
$ATTDIA
 70
     0
  9
$ATTREQ
 70
     1
  9
$HANDLING
 70
     1
  9
$HANDSEED
  5
3F9
  9
$SURFTAB1
 70
     6
  9
$SURFTAB2
 70
     6
  9
$SURFTYPE
 70
     6
  9
$SURFU
 70
     6
  9
$SURFV
 70
     6
  9
$UCSNAME
  2

  9
$UCSORG
 10
0.0
 20
0.0
 30
0.0
  9
$UCSXDIR
 10
1.0
 20
0.0
 30
0.0
  9
$UCSYDIR
 10
0.0
 20
1.0
 30
0.0
  9
$PUCSNAME
  2

  9
$PUCSORG
 10
0.0
 20
0.0
 30
0.0
  9
$PUCSXDIR
 10
1.0
 20
0.0
 30
0.0
  9
$PUCSYDIR
 10
0.0
 20
1.0
 30
0.0
  9
$USERI1
 70
     0
  9
$USERI2
 70
     0
  9
$USERI3
 70
     0
  9
$USERI4
 70
     0
  9
$USERI5
 70
     0
  9
$USERR1
 40
0.0
  9
$USERR2
 40
0.0
  9
$USERR3
 40
0.0
  9
$USERR4
 40
0.0
  9
$USERR5
 40
0.0
  9
$WORLDVIEW
 70
     1
  9
$SHADEDGE
 70
     3
  9
$SHADEDIF
 70
    70
  9
$TILEMODE
 70
     0
  9
$MAXACTVP
 70
    64
  9
$PLIMCHECK
 70
     0
  9
$PEXTMIN
 10
0.0
 20
0.0
 30
0.0
  9
$PEXTMAX
 10
0.0
 20
0.0
 30
0.0
  9
$PLIMMIN
 10
0.0
 20
0.0
  9
$PLIMMAX
 10
12.0
 20
9.0
  9
$UNITMODE
 70
     0
  9
$VISRETAIN
 70
     1
  9
$PLINEGEN
 70
     0
  9
$PSLTSCALE
 70
     1
  0
ENDSEC
  0
SECTION
  2
TABLES
  0
TABLE
  2
VPORT
 70
     1
  0
VPORT
  2
*ACTIVE
 70
     0
 10
0.0
 20
0.0
 11
1.0
 21
1.0
 12
0.0
 22
0.0
 13
0.0
 23
0.0
 14
0.5
 24
0.5
 15
0.5
 25
0.5
 16
0.0
 26
0.0
 36
1.0
 17
170.66185
 27
144.70085
 37
0.0
 40
319.989606
 41
1.179412352537476
 42
50.0
 43
0.0
 44
0.0
 50
0.0
 51
0.0
 71
     0
 72
   100
 73
     1
 74
     3
 75
     0
 76
     0
 77
     0
 78
     0
  0
ENDTAB
  0
TABLE
  2
LTYPE
 70
     1
  0
LTYPE
  2
CONTINUOUS
 70
     0
  3
Solid line
 72
    65
 73
     0
 40
0.0
  0
ENDTAB
  0
TABLE
  2
LAYER
 70
     2
  0
LAYER
  2
0
 70
     0
 62
     7
  6
CONTINUOUS
  0
LAYER
  2
WHITE
 70
     0
 62
     7
  6
CONTINUOUS
  0
ENDTAB
  0
TABLE
  2
STYLE
 70
     1
  0
STYLE
  2
STANDARD
 70
     0
 40
0.0
 41
1.0
 50
0.0
 71
     0
 42
0.2
  3
txt
  4

  0
ENDTAB
  0
TABLE
  2
VIEW
 70
     0
  0
ENDTAB
  0
TABLE
  2
UCS
 70
     0
  0
ENDTAB
  0
TABLE
  2
APPID
 70
     1
  0
APPID
  2
ACAD
 70
     0
  0
ENDTAB
  0
TABLE
  2
DIMSTYLE
 70
     1
  0
DIMSTYLE
  2
STANDARD
 70
     0
  3

  4

  5

  6

  7

 40
1.0
 41
0.18
 42
0.0625
 43
0.38
 44
0.18
 45
0.0
 46
0.0
 47
0.0
 48
0.0
140
0.18
141
0.09
142
0.0
143
25.4
144
1.0
145
0.0
146
1.0
147
0.09
 71
     0
 72
     0
 73
     1
 74
     1
 75
     0
 76
     0
 77
     0
 78
     0
170
     0
171
     2
172
     0
173
     0
174
     0
175
     0
176
     0
177
     0
178
     0
  0
ENDTAB
  0
ENDSEC
  0
SECTION
  2
BLOCKS
  0
BLOCK
  8
0
  2
$MODEL_SPACE
 70
     0
 10
0.0
 20
0.0
 30
0.0
  3
$MODEL_SPACE
  1

  0
ENDBLK
  5
21
  8
0
  0
BLOCK
 67
     1
  8
0
  2
$PAPER_SPACE
 70
     0
 10
0.0
 20
0.0
 30
0.0
  3
$PAPER_SPACE
  1

  0
ENDBLK
  5
3D3
 67
     1
  8
0
  0
ENDSEC
  0
SECTION
  2
ENTITIES
  0
ARC
  5
3C
  8
WHITE
 10
244.5378677559473
 20
233.9720860924643
 30
0.0
 40
51.53999889540116
 50
225.3689999284725
 51
249.4828733445513
  0
LINE
  5
3D
  8
WHITE
 10
226.47375
 20
185.7014
 30
0.0
 11
229.3925
 21
184.71095
 31
0.0
  0
ARC
  5
3E
  8
WHITE
 10
240.7816656155363
 20
244.7768075088227
 30
0.0
 40
61.13608044099898
 50
259.2635290814604
 51
278.5826355603742
  0
ARC
  5
3F
  8
WHITE
 10
249.715979688748
 20
185.3160989270398
 30
0.0
 40
1.008684564774396
 50
280.8209150145382
 51
64.31291673884665
  0
ARC
  5
40
  8
WHITE
 10
-11.04324986563802
 20
-403.7644652595146
 30
0.0
 40
645.2218785328996
 50
66.12037263647666
 51
68.20573851798122
  0
ARC
  5
41
  8
WHITE
 10
200.8568578210481
 20
126.0864215151099
 30
0.0
 40
74.56996365446068
 50
68.23172712616402
 51
83.18493977560645
  0
ARC
  5
42
  8
WHITE
 10
209.5154297398468
 20
198.4698796241214
 30
0.0
 40
1.67049171321803
 50
83.4597738974276
 51
224.7489790874649
  0
ARC
  5
43
  8
WHITE
 10
83.98973003340598
 20
257.1708663608651
 30
0.0
 40
0.5507278767325126
 50
176.9155314037562
 51
271.7657747797321
  0
LINE
  5
44
  8
WHITE
 10
83.4398
 20
257.2005
 30
0.0
 11
83.9858
 21
267.31265
 31
0.0
  0
ARC
  5
45
  8
WHITE
 10
83.71024017521974
 20
267.3399782810903
 30
0.0
 40
0.2769116320783256
 50
354.3362867404087
 51
84.2569487916517
  0
LINE
  5
46
  8
WHITE
 10
83.73795
 20
267.6155
 30
0.0
 11
81.2323
 21
267.7532
 31
0.0
  0
ARC
  5
47
  8
WHITE
 10
81.20483203176035
 20
267.4778164095659
 30
0.0
 40
0.2767500879125283
 50
84.30390760053821
 51
174.3006572676495
  0
LINE
  5
48
  8
WHITE
 10
80.92945
 20
267.5053
 30
0.0
 11
80.3237
 21
257.2627
 31
0.0
  0
ARC
  5
49
  8
WHITE
 10
80.04829262737397
 20
257.2903184934382
 30
0.0
 40
0.2767887318453797
 50
275.7034918114267
 51
354.2733910698563
  0
ARC
  5
4A
  8
WHITE
 10
81.27921526292869
 20
249.5942963047754
 30
0.0
 40
7.517550631464394
 50
99.21158419347033
 51
145.7796005072003
  0
ARC
  5
4B
  8
WHITE
 10
71.91091857943601
 20
254.8447155807604
 30
0.0
 40
3.313939478517804
 50
206.7561297492495
 51
342.0245043508841
  0
LINE
  5
4C
  8
WHITE
 10
68.9518
 20
253.3528
 30
0.0
 11
68.97975
 21
253.6008
 31
0.0
  0
LINE
  5
4D
  8
WHITE
 10
68.97975
 20
253.6008
 30
0.0
 11
75.91825
 21
264.7796
 31
0.0
  0
ARC
  5
4E
  8
WHITE
 10
75.68700142566313
 20
264.9309919993536
 30
0.0
 40
0.2763972514355441
 50
326.7883484410376
 51
57.57605398038746
  0
LINE
  5
4F
  8
WHITE
 10
75.8352
 20
265.1643
 30
0.0
 11
73.7155
 21
266.4866
 31
0.0
  0
ARC
  5
50
  8
WHITE
 10
73.5633921042037
 20
266.2559029423715
 30
0.0
 40
0.2763294127703433
 50
56.60152092962092
 51
147.5920543066819
  0
LINE
  5
51
  8
WHITE
 10
73.3301
 20
266.404
 30
0.0
 11
66.96975
 21
256.1613
 31
0.0
  0
ARC
  5
52
  8
WHITE
 10
61.70256023848061
 20
263.821465913637
 30
0.0
 40
9.296312699576202
 50
230.9508041162568
 51
304.512716532996
  0
ARC
  5
53
  8
WHITE
 10
56.03055405662357
 20
256.8084026626248
 30
0.0
 40
0.2769540566363954
 50
131.7736931607629
 51
228.2124354485615
  0
LINE
  5
54
  8
WHITE
 10
55.84605
 20
257.01495
 30
0.0
 11
67.07985
 21
266.6243
 31
0.0
  0
ARC
  5
55
  8
WHITE
 10
66.89819108277932
 20
266.8307612814541
 30
0.0
 40
0.2750022235282018
 50
311.3435525512925
 51
40.5655333333636
  0
LINE
  5
56
  8
WHITE
 10
67.1071
 20
267.0096
 30
0.0
 11
65.4828
 21
268.90955
 31
0.0
  0
ARC
  5
57
  8
WHITE
 10
65.26267137605271
 20
268.7447495902474
 30
0.0
 40
0.2749832470088647
 50
36.82054805648477
 51
126.9171653799289
  0
LINE
  5
58
  8
WHITE
 10
65.0975
 20
268.9646
 30
0.0
 11
53.8635
 21
259.3554
 31
0.0
  0
ARC
  5
59
  8
WHITE
 10
53.66254153382778
 20
259.5450492554448
 30
0.0
 40
0.2763171098883662
 50
209.3533967283794
 51
316.6584133951375
  0
ARC
  5
5A
  8
WHITE
 10
61.46979570392536
 20
264.0624744643133
 30
0.0
 40
9.296294167043124
 50
136.3453408936468
 51
210.0336493275022
  0
LINE
  5
5B
  8
WHITE
 10
54.7438
 20
270.4798
 30
0.0
 11
65.8408
 21
275.1598
 31
0.0
  0
ARC
  5
5C
  8
WHITE
 10
65.75001477301826
 20
275.4186107391056
 30
0.0
 40
0.2742716830344072
 50
289.3297704257415
 51
21.15651113365713
  0
LINE
  5
5D
  8
WHITE
 10
66.0058
 20
275.5176
 30
0.0
 11
65.0148
 21
277.83055
 31
0.0
  0
ARC
  5
5E
  8
WHITE
 10
64.7559883499426
 20
277.7396852704423
 30
0.0
 40
0.2742988685412867
 50
19.34537788032986
 51
111.1541095204181
  0
LINE
  5
5F
  8
WHITE
 10
64.657
 20
277.9955
 30
0.0
 11
52.5419
 21
272.84695
 31
0.0
  0
ARC
  5
60
  8
WHITE
 10
52.45056243786827
 20
273.1060429580945
 30
0.0
 40
0.2747211516980628
 50
227.9331413431929
 51
289.418988929321
  0
ARC
  5
61
  8
WHITE
 10
54.22729442325844
 20
275.5759892394368
 30
0.0
 40
3.315780215131459
 50
99.18010700910095
 51
233.7469660810348
  0
ARC
  5
62
  8
WHITE
 10
50.49061062229996
 20
285.6474456474745
 30
0.0
 40
7.516917944748762
 50
295.2601737147421
 51
341.8838294705323
  0
ARC
  5
63
  8
WHITE
 10
57.8880877109953
 20
283.1997763484455
 30
0.0
 40
0.2761798781434964
 50
85.23077944783138
 51
156.4553856791057
  0
LINE
  5
64
  8
WHITE
 10
57.91105
 20
283.475
 30
0.0
 11
68.1261
 21
282.51135
 31
0.0
  0
ARC
  5
65
  8
WHITE
 10
68.15372127700459
 20
282.7866073388957
 30
0.0
 40
0.2766397252010391
 50
264.2697168130797
 51
354.3142470480752
  0
LINE
  5
66
  8
WHITE
 10
68.429
 20
282.7592
 30
0.0
 11
68.6769
 21
285.23725
 31
0.0
  0
ARC
  5
67
  8
WHITE
 10
68.40134017521892
 20
285.2645782810897
 30
0.0
 40
0.2769116320790729
 50
354.3362867405777
 51
84.25694879149496
  0
LINE
  5
68
  8
WHITE
 10
68.42905
 20
285.5401
 30
0.0
 11
58.4055
 21
286.5992
 31
0.0
  0
ARC
  5
69
  8
WHITE
 10
58.46338348006607
 20
287.1468952919408
 30
0.0
 40
0.5507455220686401
 50
163.3605766527368
 51
263.9670588339966
  0
LINE
  5
6A
  8
WHITE
 10
57.9357
 20
287.3046
 30
0.0
 11
58.4616
 21
289.0645
 31
0.0
  0
ARC
  5
6B
  8
WHITE
 10
60.58149995199382
 20
288.1339717038587
 30
0.0
 40
2.315136867743033
 50
94.76707625478168
 51
156.3009681453171
  0
LINE
  5
6C
  8
WHITE
 10
60.3891
 20
290.4411
 30
0.0
 11
70.4941
 21
291.2947
 31
0.0
  0
ARC
  5
6D
  8
WHITE
 10
74.22195574514132
 20
249.21622410647
 30
0.0
 40
42.2432839866761
 50
86.42708942322886
 51
95.06278353117176
  0
ARC
  5
6E
  8
WHITE
 10
76.48573978936257
 20
275.6700791023787
 30
0.0
 40
15.71164898646229
 50
50.05278754744324
 51
88.65511608394864
  0
ARC
  5
6F
  8
WHITE
 10
86.39232909049866
 20
287.5087030123611
 30
0.0
 40
0.2749709095178204
 50
311.3387449426128
 51
48.67512980717176
  0
LINE
  5
70
  8
WHITE
 10
86.57395
 20
287.30225
 30
0.0
 11
78.31375
 21
280.2536
 31
0.0
  0
ARC
  5
71
  8
WHITE
 10
78.4802719555023
 20
280.0350258873699
 30
0.0
 40
0.2747802838202745
 50
127.3021732943495
 51
225.0521845321894
  0
LINE
  5
72
  8
WHITE
 10
78.28614999999999
 20
279.84055
 30
0.0
 11
79.9107
 21
277.9408
 31
0.0
  0
ARC
  5
73
  8
WHITE
 10
80.11724163135058
 20
278.1224447284446
 30
0.0
 40
0.2750531818624395
 50
221.3302772211134
 51
310.534420612615
  0
LINE
  5
74
  8
WHITE
 10
80.296
 20
277.9134
 30
0.0
 11
88.5563
 21
284.98945
 31
0.0
  0
ARC
  5
75
  8
WHITE
 10
88.74631563124797
 20
284.7911485840283
 30
0.0
 40
0.2746441182602742
 50
24.76584741258891
 51
133.7776265078735
  0
ARC
  5
76
  8
WHITE
 10
75.49636401142409
 20
276.8650618115437
 30
0.0
 40
15.7127965524381
 50
352.1508970041472
 51
30.78095302174159
  0
ARC
  5
77
  8
WHITE
 10
48.9789740741283
 20
278.7318698056384
 30
0.0
 40
42.27384511115707
 50
345.9499163269601
 51
354.5533031357749
  0
LINE
  5
78
  8
WHITE
 10
89.98815
 20
268.46905
 30
0.0
 11
87.5651
 21
258.6118
 31
0.0
  0
ARC
  5
79
  8
WHITE
 10
85.32089470772222
 20
259.1682043095435
 30
0.0
 40
2.312151195221913
 50
284.8327091433028
 51
346.0754727295192
  0
LINE
  5
7A
  8
WHITE
 10
85.9128
 20
256.9331
 30
0.0
 11
84.2337
 21
256.6273
 31
0.0
  0
LINE
  5
7B
  8
WHITE
 10
84.2337
 20
256.6273
 30
0.0
 11
84.0067
 21
256.6204
 31
0.0
  0
ARC
  5
7C
  8
WHITE
 10
204.2148624779389
 20
65.11067405683363
 30
0.0
 40
3.492929128064191
 50
16.83184508595082
 51
124.3487801129705
  0
LINE
  5
7D
  8
WHITE
 10
202.24405
 20
67.9945
 30
0.0
 11
199.4355
 21
66.06705
 31
0.0
  0
ARC
  5
7E
  8
WHITE
 10
200.2991862252073
 20
64.79170896398011
 30
0.0
 40
1.54027551229286
 50
124.1066357659989
 51
200.595067978996
  0
ARC
  5
7F
  8
WHITE
 10
214.5771124904412
 20
70.2157981936752
 30
0.0
 40
16.81377036875369
 50
200.782544914097
 51
248.8908360794035
  0
ARC
  5
80
  8
WHITE
 10
209.0909100204169
 20
55.96243916367379
 30
0.0
 40
1.541110843343616
 50
248.3244350871962
 51
17.66535595431775
  0
LINE
  5
81
  8
WHITE
 10
210.55935
 20
56.4301
 30
0.0
 11
207.55815
 21
66.1221
 31
0.0
  0
LINE
  5
82
  8
WHITE
 10
266.2331
 20
134.5715
 30
0.0
 11
266.0403
 21
133.7454
 31
0.0
  0
LINE
  5
83
  8
WHITE
 10
266.0403
 20
133.7454
 30
0.0
 11
262.95645
 21
133.4702
 31
0.0
  0
ARC
  5
84
  8
WHITE
 10
262.9314779864638
 20
133.7469580194425
 30
0.0
 40
0.2778823542180828
 50
180.3212453212938
 51
275.1558646582511
  0
LINE
  5
85
  8
WHITE
 10
262.6536
 20
133.7454
 30
0.0
 11
262.3507
 21
141.6752
 31
0.0
  0
ARC
  5
86
  8
WHITE
 10
262.0753625964301
 20
141.6476542945885
 30
0.0
 40
0.2767118567955204
 50
5.713058318756033
 51
95.69576418440705
  0
LINE
  5
87
  8
WHITE
 10
262.0479
 20
141.923
 30
0.0
 11
259.5697
 21
141.7027
 31
0.0
  0
ARC
  5
88
  8
WHITE
 10
259.5971105519868
 20
141.4275513675994
 30
0.0
 40
0.2765105934176029
 50
95.68908606272613
 51
180.0313648924773
  0
LINE
  5
89
  8
WHITE
 10
259.3206
 20
141.4274
 30
0.0
 11
259.6248
 21
133.4427
 31
0.0
  0
ARC
  5
8A
  8
WHITE
 10
259.3494854146353
 20
133.4150755834407
 30
0.0
 40
0.2766969990888522
 50
275.7068899340501
 51
5.729746471517315
  0
LINE
  5
8B
  8
WHITE
 10
259.377
 20
133.13975
 30
0.0
 11
251.4198
 21
132.4238
 31
0.0
  0
ARC
  5
8C
  8
WHITE
 10
251.3922745832016
 20
132.6992856161391
 30
0.0
 40
0.2768573157232386
 50
185.7287469057117
 51
275.7058270757418
  0
LINE
  5
8D
  8
WHITE
 10
251.1168
 20
132.67165
 30
0.0
 11
250.814
 21
140.6014
 31
0.0
  0
ARC
  5
8E
  8
WHITE
 10
250.5386637948775
 20
140.6014369236822
 30
0.0
 40
0.2753362075983061
 50
359.9923164077175
 51
95.72456712426448
  0
LINE
  5
8F
  8
WHITE
 10
250.5112
 20
140.8754
 30
0.0
 11
248.0331
 21
140.65655
 31
0.0
  0
ARC
  5
90
  8
WHITE
 10
248.0577421553147
 20
140.3812970304296
 30
0.0
 40
0.2763538186381055
 50
95.11579410287858
 51
185.7936933534489
  0
LINE
  5
91
  8
WHITE
 10
247.7828
 20
140.3534
 30
0.0
 11
248.0944
 21
132.6447
 31
0.0
  0
ARC
  5
92
  8
WHITE
 10
247.5441772963907
 20
132.622458721286
 30
0.0
 40
0.5506720421865813
 50
275.1387664479878
 51
2.314768187562751
  0
LINE
  5
93
  8
WHITE
 10
247.5935
 20
132.074
 30
0.0
 11
245.6651
 21
131.9007
 31
0.0
  0
ARC
  5
94
  8
WHITE
 10
245.2794041592877
 20
136.1244498358651
 30
0.0
 40
4.241323373372166
 50
205.5361215331354
 51
275.2175497960573
  0
ARC
  5
95
  8
WHITE
 10
222.0132972656367
 20
124.9776387228691
 30
0.0
 40
21.5571898839
 50
25.61151437752161
 51
58.76364995276077
  0
ARC
  5
96
  8
WHITE
 10
196.0677278640165
 20
63.84463740065964
 30
0.0
 40
87.80000871773811
 50
64.98661740796372
 51
83.566312743829
  0
ARC
  5
97
  8
WHITE
 10
239.902238872681
 20
453.3026315178177
 30
0.0
 40
304.1170685547845
 50
255.5952734393925
 51
263.5816796188458
  0
LINE
  5
98
  8
WHITE
 10
164.2471
 20
158.7462
 30
0.0
 11
164.054
 21
158.9112
 31
0.0
  0
ARC
  5
99
  8
WHITE
 10
170.2403960924204
 20
161.4907327131885
 30
0.0
 40
6.702647658255914
 50
175.4469756633824
 51
202.6346021614254
  0
ARC
  5
9A
  8
WHITE
 10
163.8334896828056
 20
162.0009446733972
 30
0.0
 40
0.2754580715902159
 50
78.32104532598778
 51
175.4492692412702
  0
LINE
  5
9B
  8
WHITE
 10
163.88925
 20
162.2707
 30
0.0
 11
198.8574
 21
155.8828
 31
0.0
  0
ARC
  5
9C
  8
WHITE
 10
198.8904417108907
 20
156.1553873957534
 30
0.0
 40
0.2745826705788228
 50
263.0886041716382
 51
349.0224142297973
  0
LINE
  5
9D
  8
WHITE
 10
199.16
 20
156.1031
 30
0.0
 11
199.6007
 21
158.526
 31
0.0
  0
ARC
  5
9E
  8
WHITE
 10
199.3339301739714
 20
158.5868329105759
 30
0.0
 40
0.2736179509616387
 50
347.1542000289801
 51
80.18991630342337
  0
LINE
  5
9F
  8
WHITE
 10
199.38055
 20
158.85645
 30
0.0
 11
163.66895
 21
165.4095
 31
0.0
  0
ARC
  5
A0
  8
WHITE
 10
174.0789413547762
 20
211.7392812277076
 30
0.0
 40
47.48490864068039
 50
229.4106670769052
 51
257.3363435661586
  0
ARC
  5
A1
  8
WHITE
 10
142.9991986794002
 20
175.4731679958415
 30
0.0
 40
0.2768662305951451
 50
48.21082880633516
 51
121.9468012048896
  0
LINE
  5
A2
  8
WHITE
 10
142.8527
 20
175.7081
 30
0.0
 11
137.5117
 21
171.7147
 31
0.0
  0
ARC
  5
A3
  8
WHITE
 10
130.1929602382788
 20
181.4979151494259
 30
0.0
 40
12.21782510759408
 50
224.3717886432564
 51
306.7998488996034
  0
ARC
  5
A4
  8
WHITE
 10
121.659267395366
 20
173.1479605245216
 30
0.0
 40
0.2785783322889896
 50
128.2110494581933
 51
224.1700087124222
  0
LINE
  5
A5
  8
WHITE
 10
121.48695
 20
173.36685
 30
0.0
 11
135.364
 21
183.7471
 31
0.0
  0
ARC
  5
A6
  8
WHITE
 10
135.1992823372095
 20
183.9672881894649
 30
0.0
 40
0.2749813579408289
 50
306.7993078912878
 51
36.92799967198056
  0
LINE
  5
A7
  8
WHITE
 10
135.4191
 20
184.1325
 30
0.0
 11
133.95985
 21
186.1151
 31
0.0
  0
ARC
  5
A8
  8
WHITE
 10
133.7395440073066
 20
185.9496579666974
 30
0.0
 40
0.2755100666036098
 50
36.90525773601232
 51
126.8407799459986
  0
LINE
  5
A9
  8
WHITE
 10
133.57435
 20
186.17015
 30
0.0
 11
119.66975
 21
175.7899
 31
0.0
  0
ARC
  5
AA
  8
WHITE
 10
119.4981811444449
 20
176.0058711193762
 30
0.0
 40
0.2758249383233534
 50
208.9402936227034
 51
308.4638564255541
  0
ARC
  5
AB
  8
WHITE
 10
130.8934181721471
 20
182.0102075138125
 30
0.0
 40
13.15612266440823
 50
107.744906297291
 51
207.8096878526755
  0
ARC
  5
AC
  8
WHITE
 10
113.8170980240236
 20
221.1575943484664
 30
0.0
 40
29.65149443422072
 50
296.1468053227507
 51
327.4316804794156
  0
ARC
  5
AD
  8
WHITE
 10
163.3965960527598
 20
189.4303980892653
 30
0.0
 40
29.21058220114195
 50
123.2127892701182
 51
147.3351485245328
  0
ARC
  5
AE
  8
WHITE
 10
148.1609648129467
 20
212.099125592649
 30
0.0
 40
1.928100064258293
 50
329.3380855118414
 51
113.3586885880306
  0
ARC
  5
AF
  8
WHITE
 10
158.9741963042181
 20
205.3992898010338
 30
0.0
 40
10.79293866057198
 50
148.0176880374125
 51
164.369269740474
  0
ARC
  5
B0
  8
WHITE
 10
184.2181932923411
 20
202.8363294202329
 30
0.0
 40
36.05528851406277
 50
171.272319108063
 51
189.5520303895032
  0
ARC
  5
B1
  8
WHITE
 10
137.517261825358
 20
195.7213790340455
 30
0.0
 40
11.20285855937563
 50
324.3928433458458
 51
5.798465820468916
  0
ARC
  5
B2
  8
WHITE
 10
152.7243097079956
 20
184.8374781638017
 30
0.0
 40
7.497773537073582
 50
144.4310491497629
 51
249.2412907808495
  0
ARC
  5
B3
  8
WHITE
 10
237.0210275383395
 20
407.752997056671
 30
0.0
 40
245.819539566676
 50
249.2842633186873
 51
255.9720855406657
  0
ARC
  5
B4
  8
WHITE
 10
284.0508981196739
 20
645.0060179327456
 30
0.0
 40
487.5417264988999
 50
257.3685365060963
 51
267.2383922533512
  0
ARC
  5
B5
  8
WHITE
 10
260.3433030374009
 20
153.7963131070979
 30
0.0
 40
4.239774414064482
 50
22.84337242341338
 51
87.05812948760874
  0
ARC
  5
B6
  8
WHITE
 10
232.5166738434534
 20
141.8982541586114
 30
0.0
 40
34.50331461281059
 50
347.7399380709199
 51
23.11275508147913
  0
ARC
  5
B7
  8
WHITE
 10
117.3751804316205
 20
43.07659601316372
 30
0.0
 40
0.550736572618538
 50
334.7995647590674
 51
62.88430070136825
  0
LINE
  5
B8
  8
WHITE
 10
117.8735
 20
42.8421
 30
0.0
 11
116.3381
 21
39.5794
 31
0.0
  0
ARC
  5
B9
  8
WHITE
 10
116.5803382409726
 20
39.44724527424885
 30
0.0
 40
0.2759424522031239
 50
151.3850240584116
 51
247.5585029230961
  0
LINE
  5
BA
  8
WHITE
 10
116.475
 20
39.1922
 30
0.0
 11
118.7336
 21
38.1751
 31
0.0
  0
ARC
  5
BB
  8
WHITE
 10
118.8409105429969
 20
38.4284032332185
 30
0.0
 40
0.2750964932477941
 50
247.040318441018
 51
335.2313284396104
  0
LINE
  5
BC
  8
WHITE
 10
119.0907
 20
38.31315
 30
0.0
 11
120.74355
 21
41.8371
 31
0.0
  0
ARC
  5
BD
  8
WHITE
 10
120.9804164488753
 20
41.6994717422506
 30
0.0
 40
0.2739475350024618
 50
63.95511395616913
 51
149.8418116089501
  0
ARC
  5
BE
  8
WHITE
 10
181.9920412442345
 20
180.0866443324293
 30
0.0
 40
150.9659020036512
 50
246.2125423794061
 51
249.5410934640402
  0
ARC
  5
BF
  8
WHITE
 10
129.1301866982396
 20
38.38441027198402
 30
0.0
 40
0.2753031630296502
 50
339.0556224916513
 51
70.05445705614005
  0
LINE
  5
C0
  8
WHITE
 10
129.3873
 20
38.286
 30
0.0
 11
128.04005
 21
34.6509
 31
0.0
  0
ARC
  5
C1
  8
WHITE
 10
128.2981972246675
 20
34.552919686107
 30
0.0
 40
0.276116155836832
 50
159.2156384043949
 51
250.3397171978364
  0
LINE
  5
C2
  8
WHITE
 10
128.2053
 20
34.2929
 30
0.0
 11
130.51815
 21
33.4668
 31
0.0
  0
ARC
  5
C3
  8
WHITE
 10
130.6169143526327
 20
33.72317024190702
 30
0.0
 40
0.2747364160180041
 50
248.9312648940284
 51
340.6301813511674
  0
LINE
  5
C4
  8
WHITE
 10
130.8761
 20
33.63205
 30
0.0
 11
132.2252
 21
37.2665
 31
0.0
  0
ARC
  5
C5
  8
WHITE
 10
132.4839261927399
 20
37.17319754711498
 30
0.0
 40
0.2750356168281977
 50
69.02011331813947
 51
160.1695619276377
  0
ARC
  5
C6
  8
WHITE
 10
182.1571547952478
 20
179.85871056076
 30
0.0
 40
150.8097937967216
 50
250.8086718644988
 51
253.8394942961576
  0
ARC
  5
C7
  8
WHITE
 10
140.0831003222293
 20
34.75198798578646
 30
0.0
 40
0.2746419143693437
 50
344.4581850718584
 51
68.80393514903548
  0
LINE
  5
C8
  8
WHITE
 10
140.3477
 20
34.6784
 30
0.0
 11
139.2738
 21
30.93375
 31
0.0
  0
ARC
  5
C9
  8
WHITE
 10
139.5409430965286
 20
30.8678015896964
 30
0.0
 40
0.2751629096452599
 50
166.1329108536238
 51
254.3034843746875
  0
LINE
  5
CA
  8
WHITE
 10
139.4665
 20
30.6029
 30
0.0
 11
141.862
 21
29.94255
 31
0.0
  0
ARC
  5
CB
  8
WHITE
 10
141.9276433372946
 20
30.20957880730405
 30
0.0
 40
0.2749789658526643
 50
256.1889170202194
 51
344.3282700836834
  0
LINE
  5
CC
  8
WHITE
 10
142.1924
 20
30.1353
 30
0.0
 11
143.2663
 21
33.85235
 31
0.0
  0
ARC
  5
CD
  8
WHITE
 10
143.5325451818843
 20
33.78659560922515
 30
0.0
 40
0.2742446659149311
 50
70.43126363867857
 51
166.1273036166227
  0
ARC
  5
CE
  8
WHITE
 10
182.3523228846886
 20
179.9766466829769
 30
0.0
 40
150.9831034075256
 50
255.1372174510489
 51
258.2726123207536
  0
ARC
  5
CF
  8
WHITE
 10
151.6091062589504
 20
31.87542302918635
 30
0.0
 40
0.2753451185044521
 50
353.1746267990496
 51
78.45779149570153
  0
LINE
  5
D0
  8
WHITE
 10
151.8825
 20
31.8427
 30
0.0
 11
151.1135
 21
28.0428
 31
0.0
  0
ARC
  5
D1
  8
WHITE
 10
151.3805973650064
 20
27.9766023784362
 30
0.0
 40
0.2751783557877599
 50
166.0802519834126
 51
254.2926507641291
  0
LINE
  5
D2
  8
WHITE
 10
151.3061
 20
27.7117
 30
0.0
 11
153.7568
 21
27.2442
 31
0.0
  0
ARC
  5
D3
  8
WHITE
 10
153.7953260974841
 20
27.51671603943915
 30
0.0
 40
0.2752258198987856
 50
261.9533137524945
 51
343.1962974817963
  0
LINE
  5
D4
  8
WHITE
 10
154.0588
 20
27.43715
 30
0.0
 11
154.8581
 21
31.2642
 31
0.0
  0
ARC
  5
D5
  8
WHITE
 10
155.1280977571484
 20
31.21435382813727
 30
0.0
 40
0.2745604299867854
 50
77.39813095627882
 51
169.540002237894
  0
ARC
  5
D6
  8
WHITE
 10
182.267731698118
 20
179.9535677147073
 30
0.0
 40
150.9206056363886
 50
259.6634210105267
 51
262.8158172571237
  0
ARC
  5
D7
  8
WHITE
 10
163.3414683163035
 20
29.94835034098427
 30
0.0
 40
0.2744654213657201
 50
353.0207330006272
 51
79.0295132763357
  0
LINE
  5
D8
  8
WHITE
 10
163.6139
 20
29.915
 30
0.0
 11
163.14585
 21
26.0603
 31
0.0
  0
ARC
  5
D9
  8
WHITE
 10
163.4184955176755
 20
26.02999281961816
 30
0.0
 40
0.2743248138452922
 50
173.657061097712
 51
264.7931310777616
  0
LINE
  5
DA
  8
WHITE
 10
163.3936
 20
25.7568
 30
0.0
 11
165.8442
 21
25.482
 31
0.0
  0
ARC
  5
DB
  8
WHITE
 10
165.8771806928804
 20
25.7546474697568
 30
0.0
 40
0.2746349738610476
 50
263.1027497082288
 51
349.0330154727067
  0
LINE
  5
DC
  8
WHITE
 10
166.1468
 20
25.7024
 30
0.0
 11
166.6426
 21
29.557
 31
0.0
  0
ARC
  5
DD
  8
WHITE
 10
166.9152755874762
 20
29.53222450294508
 30
0.0
 40
0.2737988335617985
 50
83.66225284107468
 51
174.8083204927864
  0
ARC
  5
DE
  8
WHITE
 10
182.1015493182243
 20
179.9917476179724
 30
0.0
 40
150.9501912360345
 50
264.237547269813
 51
267.3816487837555
  0
ARC
  5
DF
  8
WHITE
 10
175.2058158478018
 20
28.92388975573148
 30
0.0
 40
0.275260268646752
 50
354.268417390275
 51
90.02411386989807
  0
LINE
  5
E0
  8
WHITE
 10
175.4797
 20
28.8964
 30
0.0
 11
175.31585
 21
25.0414
 31
0.0
  0
ARC
  5
E1
  8
WHITE
 10
175.5911957054114
 20
25.0139374035698
 30
0.0
 40
0.2767118567954109
 50
174.3042358155701
 51
264.2869416812594
  0
LINE
  5
E2
  8
WHITE
 10
175.56365
 20
24.7386
 30
0.0
 11
178.0417
 21
24.6561
 31
0.0
  0
ARC
  5
E3
  8
WHITE
 10
178.0679102848457
 20
24.9314952832709
 30
0.0
 40
0.2766397315635557
 50
264.5633456850973
 51
359.980265562875
  0
LINE
  5
E4
  8
WHITE
 10
178.34455
 20
24.9314
 30
0.0
 11
178.5098
 21
28.81365
 31
0.0
  0
ARC
  5
E5
  8
WHITE
 10
178.7837877808086
 20
28.78602689774088
 30
0.0
 40
0.2753767234368898
 50
89.70616777962347
 51
174.2429648693137
  0
ARC
  5
E6
  8
WHITE
 10
182.060365109618
 20
179.9572472349697
 30
0.0
 40
150.9313864617117
 50
268.7566014436885
 51
271.9868594525644
  0
ARC
  5
E7
  8
WHITE
 10
187.2931009769599
 20
28.84120097625068
 30
0.0
 40
0.2753990415517827
 50
359.9789922539601
 51
89.97939861242011
  0
LINE
  5
E8
  8
WHITE
 10
187.5685
 20
28.8411
 30
0.0
 11
187.7061
 21
24.9864
 31
0.0
  0
ARC
  5
E9
  8
WHITE
 10
187.9814990014793
 20
24.98639900147929
 30
0.0
 40
0.2753990014811248
 50
179.9997922613291
 51
270.0002077386694
  0
LINE
  5
EA
  8
WHITE
 10
187.9815
 20
24.711
 30
0.0
 11
190.4596
 21
24.82125
 31
0.0
  0
ARC
  5
EB
  8
WHITE
 10
190.4596076955223
 20
25.09654230447772
 30
0.0
 40
0.2752923045852837
 50
269.9983983535319
 51
0.0016016464695763
  0
LINE
  5
EC
  8
WHITE
 10
190.7349
 20
25.09655
 30
0.0
 11
190.5971
 21
29.00635
 31
0.0
  0
ARC
  5
ED
  8
WHITE
 10
190.8740933146537
 20
29.00634937512735
 30
0.0
 40
0.2769933146543564
 50
96.04984235222516
 51
179.9998707457424
  0
ARC
  5
EE
  8
WHITE
 10
182.2584429932579
 20
179.9205957784495
 30
0.0
 40
150.8833126542165
 50
273.2623466912484
 51
280.4491633835726
  0
ARC
  5
EF
  8
WHITE
 10
210.4216644963658
 20
27.25352040859347
 30
0.0
 40
4.359739248258928
 50
356.2561923627543
 51
100.5543385404157
  0
LINE
  5
F0
  8
WHITE
 10
214.7721
 20
26.96885
 30
0.0
 11
206.9249
 21
26.9413
 31
0.0
  0
LINE
  5
F1
  8
WHITE
 10
206.9249
 20
26.9413
 30
0.0
 11
206.677
 21
23.9126
 31
0.0
  0
LINE
  5
F2
  8
WHITE
 10
206.677
 20
23.9126
 30
0.0
 11
214.5243
 21
23.9401
 31
0.0
  0
LINE
  5
F3
  8
WHITE
 10
214.5243
 20
23.9401
 30
0.0
 11
213.7807
 21
14.55105
 31
0.0
  0
ARC
  5
F4
  8
WHITE
 10
213.5053988309296
 20
14.57857360262925
 30
0.0
 40
0.2766736026317212
 50
270.0002421004365
 51
354.2907491962039
  0
LINE
  5
F5
  8
WHITE
 10
213.5054
 20
14.3019
 30
0.0
 11
206.209
 21
14.4685
 31
0.0
  0
ARC
  5
F6
  8
WHITE
 10
206.1790826083265
 20
14.19599369097234
 30
0.0
 40
0.2741436462594464
 50
83.73481358596368
 51
174.8398804374673
  0
LINE
  5
F7
  8
WHITE
 10
205.90605
 20
14.22065
 30
0.0
 11
205.71335
 21
11.7426
 31
0.0
  0
ARC
  5
F8
  8
WHITE
 10
205.9886423116451
 20
11.74254231443734
 30
0.0
 40
0.2752923176889328
 50
179.9879940736054
 51
269.991193801846
  0
LINE
  5
F9
  8
WHITE
 10
205.9886
 20
11.46725
 30
0.0
 11
213.2302
 21
11.27455
 31
0.0
  0
ARC
  5
FA
  8
WHITE
 10
213.2302158856617
 20
10.9992897682337
 30
0.0
 40
0.2752602322246901
 50
354.2684140139096
 51
90.0033066213915
  0
ARC
  5
FB
  8
WHITE
 10
208.4076229060892
 20
11.46443443666308
 30
0.0
 40
5.120231191747515
 50
270.3522333123298
 51
354.478842214702
  0
LINE
  5
FC
  8
WHITE
 10
208.4391
 20
6.3443
 30
0.0
 11
202.5469
 21
6.3185
 31
0.0
  0
ARC
  5
FD
  8
WHITE
 10
201.6655590312846
 20
13.98968188201165
 30
0.0
 40
7.721644473170211
 50
225.0898408974507
 51
276.5539678109245
  0
LINE
  5
FE
  8
WHITE
 10
196.2141
 20
8.5211
 30
0.0
 11
195.4707
 21
13.1193
 31
0.0
  0
ARC
  5
FF
  8
WHITE
 10
191.6323193931319
 20
12.89884312442161
 30
0.0
 40
3.844706349927277
 50
3.287164063347525
 51
73.61459237841771
  0
ARC
  5
100
  8
WHITE
 10
173.7389980355366
 20
147.8647398059871
 30
0.0
 40
132.6420020563222
 50
242.4154091637913
 51
278.2258869356384
  0
ARC
  5
101
  8
WHITE
 10
111.595234895283
 20
28.94111622430963
 30
0.0
 40
1.539540951866041
 50
61.99602063655672
 51
175.5189347198708
  0
LINE
  5
102
  8
WHITE
 10
110.0604
 20
29.0614
 30
0.0
 11
109.6473
 21
23.9126
 31
0.0
  0
ARC
  5
103
  8
WHITE
 10
107.065276213144
 20
24.11066403209925
 30
0.0
 40
2.589609274910358
 50
201.9744528910371
 51
355.6134978959169
  0
ARC
  5
104
  8
WHITE
 10
143.57624175895
 20
39.27639646578596
 30
0.0
 40
42.12491147953751
 50
172.3372658260339
 51
202.5209668967343
  0
ARC
  5
105
  8
WHITE
 10
106.9351145910537
 20
42.88894661183046
 30
0.0
 40
5.4868533966281
 50
66.4942185047271
 51
158.5727663162467
  0
LINE
  5
106
  8
WHITE
 10
109.1235
 20
47.9205
 30
0.0
 11
117.6262
 21
43.5668
 31
0.0
  0
ARC
  5
107
  8
WHITE
 10
20.87273124826318
 20
31.35410139117527
 30
0.0
 40
0.5505204366570559
 50
152.5707806236742
 51
241.6957445346082
  0
LINE
  5
108
  8
WHITE
 10
20.3841
 20
31.6077
 30
0.0
 11
24.73265
 21
39.9925
 31
0.0
  0
ARC
  5
109
  8
WHITE
 10
24.49597435562149
 20
40.13288134925537
 30
0.0
 40
0.2751768228989172
 50
329.3262042074753
 51
62.69627034470079
  0
LINE
  5
10A
  8
WHITE
 10
24.6222
 20
40.3774
 30
0.0
 11
22.41975
 21
41.5068
 31
0.0
  0
ARC
  5
10B
  8
WHITE
 10
22.29994053524362
 20
41.2596733042494
 30
0.0
 40
0.2746377825387794
 50
64.13543393174166
 51
150.0823997551807
  0
LINE
  5
10C
  8
WHITE
 10
22.0619
 20
41.39665
 30
0.0
 11
17.5462
 21
32.7511
 31
0.0
  0
ARC
  5
10D
  8
WHITE
 10
17.30672009635691
 20
32.88845065753281
 30
0.0
 40
0.276072141610851
 50
244.4383661908591
 51
330.1641207725588
  0
ARC
  5
10E
  8
WHITE
 10
19.15443699577377
 20
37.09680025484727
 30
0.0
 40
4.872049342920995
 50
184.4840002679647
 51
246.1904317773671
  0
LINE
  5
10F
  8
WHITE
 10
14.2973
 20
36.7159
 30
0.0
 11
21.814
 21
51.14365
 31
0.0
  0
ARC
  5
110
  8
WHITE
 10
33.87631087232602
 20
44.84645315774307
 30
0.0
 40
13.60713164670517
 50
87.45846579762343
 51
152.4329380014652
  0
ARC
  5
111
  8
WHITE
 10
23.73663481605879
 20
-186.0063472608012
 30
0.0
 40
244.6825043138015
 50
75.82506130402456
 51
87.48355431910893
  0
ARC
  5
112
  8
WHITE
 10
83.87552740784919
 20
51.90080737610614
 30
0.0
 40
0.7096444342519663
 50
251.9205879944255
 51
71.91675035763201
  0
ARC
  5
113
  8
WHITE
 10
18.60731434472412
 20
-108.9905323837996
 30
0.0
 40
174.3338528813833
 50
67.9355167857366
 51
83.11086912395471
  0
ARC
  5
114
  8
WHITE
 10
53.52715660457928
 20
128.0839763521427
 30
0.0
 40
65.51457116653063
 50
233.3661795571278
 51
257.6533056362198
  0
ARC
  5
115
  8
WHITE
 10
16.16686789739573
 20
77.79444089122813
 30
0.0
 40
2.866255631456752
 50
103.8384957847297
 51
232.8192643014877
  0
ARC
  5
116
  8
WHITE
 10
59.66488538491353
 20
-98.91686527821484
 30
0.0
 40
184.8524178475769
 50
82.62049167047702
 51
103.8287584212428
  0
ARC
  5
117
  8
WHITE
 10
83.28592712536494
 20
83.4765982907395
 30
0.0
 40
0.9357824310301267
 50
293.2019289540468
 51
82.53527624664385
  0
ARC
  5
118
  8
WHITE
 10
79.3172614198693
 20
92.60098081107766
 30
0.0
 40
10.88587906535197
 50
264.7109608961673
 51
293.4805131854128
  0
LINE
  5
119
  8
WHITE
 10
78.3138
 20
81.76145
 30
0.0
 11
69.8609
 21
82.5048
 31
0.0
  0
ARC
  5
11A
  8
WHITE
 10
69.83879582894693
 20
82.22943584349305
 30
0.0
 40
0.276249910528002
 50
85.41056489289194
 51
203.4958044786336
  0
LINE
  5
11B
  8
WHITE
 10
69.58545000000001
 20
82.1193
 30
0.0
 11
70.85204999999999
 21
79.063
 31
0.0
  0
ARC
  5
11C
  8
WHITE
 10
69.72309716995979
 20
78.6803962460629
 30
0.0
 40
1.192023542125974
 50
224.1570412379923
 51
18.72159436120587
  0
ARC
  5
11D
  8
WHITE
 10
57.33399301475773
 20
68.10954059397915
 30
0.0
 40
15.09660755880474
 50
40.18130932569795
 51
102.2198252192194
  0
ARC
  5
11E
  8
WHITE
 10
67.53923507929812
 20
-54.77232603233299
 30
0.0
 40
138.2872473928178
 50
95.56093651700584
 51
107.732551790515
  0
ARC
  5
11F
  8
WHITE
 10
25.75298928592832
 20
76.31052791238426
 30
0.0
 40
0.7160470389353124
 50
117.6675166931812
 51
254.2395945277532
  0
ARC
  5
120
  8
WHITE
 10
65.2860261254576
 20
211.8992281229745
 30
0.0
 40
141.9504236343234
 50
253.7476123557979
 51
266.6099624713583
  0
ARC
  5
121
  8
WHITE
 10
51.62799156978537
 20
8.141204596609805
 30
0.0
 40
62.2788680297791
 50
47.80619604316881
 51
85.15130082447706
  0
ARC
  5
122
  8
WHITE
 10
89.76483563703593
 20
50.21841519412691
 30
0.0
 40
5.490575983591055
 50
268.5907212109138
 51
47.74318601225377
  0
ARC
  5
123
  8
WHITE
 10
700.399235402403
 20
4552.299726927313
 30
0.0
 40
4548.76122190463
 50
261.7904315414
 51
262.2834979846962
  0
ARC
  5
124
  8
WHITE
 10
47.91030416848766
 20
29.82683257832426
 30
0.0
 40
20.53883056095255
 50
81.73611664041357
 51
152.5207835536686
  0
LINE
  5
125
  8
WHITE
 10
29.6887
 20
39.304
 30
0.0
 11
25.3383
 21
30.9612
 31
0.0
  0
ARC
  5
126
  8
WHITE
 10
22.8823662485065
 20
35.16861094735739
 30
0.0
 40
4.871746860384658
 50
245.3475821204063
 51
300.2727998598193
  0
LINE
  5
127
  8
WHITE
 10
20.8503
 20
30.7409
 30
0.0
 11
20.6117
 21
30.8694
 31
0.0
  0
ARC
  5
128
  8
WHITE
 10
199.0532674235132
 20
377.4905838243016
 30
0.0
 40
180.0010559049861
 50
229.8173334965159
 51
240.0869466267798
  0
ARC
  5
129
  8
WHITE
 10
60.41385272518448
 20
209.5794586974921
 30
0.0
 40
37.81302273719776
 50
53.48887846523849
 51
75.73210338836361
  0
ARC
  5
12A
  8
WHITE
 10
69.59739200944993
 20
245.6923716644141
 30
0.0
 40
0.5507109903628409
 50
75.73404117579341
 51
136.306936069587
  0
LINE
  5
12B
  8
WHITE
 10
69.1992
 20
246.0728
 30
0.0
 11
68.8418
 21
245.6988
 31
0.0
  0
ARC
  5
12C
  8
WHITE
 10
155.3250243760208
 20
164.9722641602471
 30
0.0
 40
118.3052056638255
 50
136.9717971827497
 51
164.0340545758737
  0
ARC
  5
12D
  8
WHITE
 10
41.31361491445691
 20
197.5691588521852
 30
0.0
 40
0.2753661042246885
 50
268.8316165514714
 51
348.4448555464596
  0
ARC
  5
12E
  8
WHITE
 10
44.49916638693478
 20
251.9425771594797
 30
0.0
 40
54.7418206041812
 50
240.1722463135646
 51
266.658056312556
  0
ARC
  5
12F
  8
WHITE
 10
25.32144327633464
 20
218.5501571515277
 30
0.0
 40
16.23420910248775
 50
191.6461792312243
 51
240.2708892556791
  0
ARC
  5
130
  8
WHITE
 10
8.179202201164166
 20
215.0035963976823
 30
0.0
 40
1.271124657401548
 50
12.2361320027999
 51
172.7823062357583
  0
LINE
  5
131
  8
WHITE
 10
6.91815
 20
215.1633
 30
0.0
 11
6.3399
 21
210.3724
 31
0.0
  0
ARC
  5
132
  8
WHITE
 10
6.066826243014445
 20
210.4029468137151
 30
0.0
 40
0.2747769724382922
 50
245.8596907791253
 51
353.6172645323434
  0
LINE
  5
133
  8
WHITE
 10
5.95445
 20
210.1522
 30
0.0
 11
-8.5284
 21
216.9531
 31
0.0
  0
ARC
  5
134
  8
WHITE
 10
-9.396140309573715
 20
215.3415447821244
 30
0.0
 40
1.830323322563851
 50
61.69980077477024
 51
241.6991117232016
  0
ARC
  5
135
  8
WHITE
 10
96.54342615610864
 20
389.1741554623061
 30
0.0
 40
205.3982877399401
 50
238.6676777885811
 51
254.1687084840651
  0
ARC
  5
136
  8
WHITE
 10
28.96091142998695
 20
218.873616946875
 30
0.0
 40
29.64851529937527
 50
292.9246333719996
 51
331.505127580937
  0
ARC
  5
137
  8
WHITE
 10
-306.90070783542
 20
401.061994812741
 30
0.0
 40
411.7422621404873
 50
331.521110153689
 51
336.7975077061552
  0
ARC
  5
138
  8
WHITE
 10
71.7991431826655
 20
238.7516005743249
 30
0.0
 40
0.2756380087443284
 50
55.99448399393636
 51
160.6345532969078
  0
ARC
  5
139
  8
WHITE
 10
12.46392775109075
 20
145.3339632218627
 30
0.0
 40
110.9440595256857
 50
44.12049640433934
 51
57.57395656088875
  0
ARC
  5
13A
  8
WHITE
 10
148.3514110743558
 20
284.655509866876
 30
0.0
 40
83.7731077218911
 50
227.8266392727263
 51
252.3859031700476
  0
ARC
  5
13B
  8
WHITE
 10
123.5933108149773
 20
212.4484139040364
 30
0.0
 40
7.661321281243024
 50
265.5681837300352
 51
311.8097295824306
  0
LINE
  5
13C
  8
WHITE
 10
128.7008
 20
206.73795
 30
0.0
 11
142.4127
 21
217.0357
 31
0.0
  0
ARC
  5
13D
  8
WHITE
 10
141.0346859024849
 20
218.8924867069873
 30
0.0
 40
2.312267226813299
 50
306.5809542372853
 51
37.02036055404113
  0
LINE
  5
13E
  8
WHITE
 10
142.88085
 20
220.2847
 30
0.0
 11
142.1709
 21
221.2
 31
0.0
  0
ARC
  5
13F
  8
WHITE
 10
141.7357636953014
 20
220.8627360507738
 30
0.0
 40
0.5505366246803002
 50
37.77842465868974
 51
127.6205517921163
  0
LINE
  5
140
  8
WHITE
 10
141.3997
 20
221.2988
 30
0.0
 11
134.4003
 21
215.9067
 31
0.0
  0
ARC
  5
141
  8
WHITE
 10
134.2351419217648
 20
216.1268934963364
 30
0.0
 40
0.2752496442053529
 50
216.8552523905006
 51
306.8720551727526
  0
LINE
  5
142
  8
WHITE
 10
134.0149
 20
215.9618
 30
0.0
 11
132.4731
 21
217.9442
 31
0.0
  0
ARC
  5
143
  8
WHITE
 10
132.6931200334382
 20
218.1094828097559
 30
0.0
 40
0.2751857959905244
 50
126.8461021385097
 51
216.91450149851
  0
LINE
  5
144
  8
WHITE
 10
132.5281
 20
218.3297
 30
0.0
 11
139.5472
 21
223.7171
 31
0.0
  0
ARC
  5
145
  8
WHITE
 10
139.211890170091
 20
224.1540320023787
 30
0.0
 40
0.5507651557027617
 50
307.5033105743192
 51
38.23577726599996
  0
LINE
  5
146
  8
WHITE
 10
139.6445
 20
224.4949
 30
0.0
 11
139.2737
 21
224.9653
 31
0.0
  0
ARC
  5
147
  8
WHITE
 10
135.7000286635129
 20
222.2036324916401
 30
0.0
 40
4.516407227870439
 50
37.69618994391823
 51
128.5388994482546
  0
LINE
  5
148
  8
WHITE
 10
132.8861
 20
225.7363
 30
0.0
 11
128.0393
 21
221.8825
 31
0.0
  0
ARC
  5
149
  8
WHITE
 10
119.559433821524
 20
232.5869019238375
 30
0.0
 40
13.65622022932836
 50
263.5172883699983
 51
308.3857356487107
  0
ARC
  5
14A
  8
WHITE
 10
121.0356740010731
 20
246.5350589468991
 30
0.0
 40
27.68207549594274
 50
244.8918776811759
 51
263.7408114698449
  0
ARC
  5
14B
  8
WHITE
 10
122.2495832808028
 20
5.054665393364467
 30
0.0
 40
0.5506585629453867
 50
260.2257669933949
 51
350.1959796070968
  0
LINE
  5
14C
  8
WHITE
 10
122.1561
 20
4.512
 30
0.0
 11
73.4402
 21
12.8991
 31
0.0
  0
ARC
  5
14D
  8
WHITE
 10
73.40730557104264
 20
12.62353046339184
 30
0.0
 40
0.2775258780057597
 50
83.19287602504156
 51
168.4494791821247
  0
LINE
  5
14E
  8
WHITE
 10
73.1354
 20
12.6791
 30
0.0
 11
72.6969
 21
10.22825
 31
0.0
  0
ARC
  5
14F
  8
WHITE
 10
72.96663640581572
 20
10.17238575461079
 30
0.0
 40
0.2754606006950701
 50
168.2990791451531
 51
265.4323931105945
  0
LINE
  5
150
  8
WHITE
 10
72.9447
 20
9.8978
 30
0.0
 11
121.9275
 21
1.4725
 31
0.0
  0
ARC
  5
151
  8
WHITE
 10
121.8722599883992
 20
1.202505472303902
 30
0.0
 40
0.2755875611624991
 50
353.184335952426
 51
78.43704647254805
  0
LINE
  5
152
  8
WHITE
 10
122.1459
 20
1.1698
 30
0.0
 11
121.10145
 21
-4.943
 31
0.0
  0
ARC
  5
153
  8
WHITE
 10
120.8287893845617
 20
-4.893399542706945
 30
0.0
 40
0.2771353758993734
 50
257.9218482356018
 51
349.6899056130952
  0
LINE
  5
154
  8
WHITE
 10
120.7708
 20
-5.1644
 30
0.0
 11
58.9849
 21
7.6952
 31
0.0
  0
ARC
  5
155
  8
WHITE
 10
57.69046914121332
 20
-43.20719655803629
 30
0.0
 40
50.91885236923319
 50
88.54330150453089
 51
117.6773114473596
  0
ARC
  5
156
  8
WHITE
 10
33.17742834874832
 20
3.548657865817504
 30
0.0
 40
1.873207079522867
 50
194.8397095745369
 51
297.3869833064925
  0
LINE
  5
157
  8
WHITE
 10
31.3667
 20
3.0689
 30
0.0
 11
30.9553
 21
4.5837
 31
0.0
  0
LINE
  5
158
  8
WHITE
 10
30.9553
 20
4.5837
 30
0.0
 11
38.7474
 21
8.10815
 31
0.0
  0
ARC
  5
159
  8
WHITE
 10
38.61759294322415
 20
8.349791989305883
 30
0.0
 40
0.2743004246889022
 50
298.2441363534365
 51
12.8722317523383
  0
LINE
  5
15A
  8
WHITE
 10
38.885
 20
8.4109
 30
0.0
 11
38.2794
 21
10.8064
 31
0.0
  0
ARC
  5
15B
  8
WHITE
 10
38.01494174465348
 20
10.7236877837417
 30
0.0
 40
0.2770911033203412
 50
17.36764498126722
 51
116.0167955154279
  0
LINE
  5
15C
  8
WHITE
 10
37.8934
 20
10.9727
 30
0.0
 11
30.212
 21
7.5023
 31
0.0
  0
LINE
  5
15D
  8
WHITE
 10
30.212
 20
7.5023
 30
0.0
 11
29.71625
 21
9.34715
 31
0.0
  0
ARC
  5
15E
  8
WHITE
 10
31.4233705746525
 20
9.782160659025847
 30
0.0
 40
1.761673899979213
 50
131.0650397462899
 51
194.2959370159037
  0
LINE
  5
15F
  8
WHITE
 10
30.2661
 20
11.1104
 30
0.0
 11
31.8639
 21
12.54105
 31
0.0
  0
ARC
  5
160
  8
WHITE
 10
30.83183725108247
 20
13.68977335554978
 30
0.0
 40
1.544253497742117
 50
311.9378953246588
 51
80.2671593133755
  0
LINE
  5
161
  8
WHITE
 10
31.0929
 20
15.2118
 30
0.0
 11
20.93295
 21
16.94655
 31
0.0
  0
ARC
  5
162
  8
WHITE
 10
21.31310985052251
 20
19.22924055701723
 30
0.0
 40
2.314130007377487
 50
170.3388527551191
 51
260.5447254520035
  0
LINE
  5
163
  8
WHITE
 10
19.0318
 20
19.6176
 30
0.0
 11
19.4185
 21
21.7649
 31
0.0
  0
ARC
  5
164
  8
WHITE
 10
21.69557180077951
 20
21.35746887141267
 30
0.0
 40
2.313234988159911
 50
80.20016010197301
 51
169.8555497506703
  0
LINE
  5
165
  8
WHITE
 10
22.0893
 20
23.63695
 30
0.0
 11
32.2495
 21
21.9026
 31
0.0
  0
ARC
  5
166
  8
WHITE
 10
32.48901105568424
 20
23.42520767199661
 30
0.0
 40
1.541330486501169
 50
261.0604446731633
 51
28.44219264217961
  0
LINE
  5
167
  8
WHITE
 10
33.8443
 20
24.1593
 30
0.0
 11
32.8277
 21
26.0327
 31
0.0
  0
ARC
  5
168
  8
WHITE
 10
34.37047745920709
 20
26.88789760915889
 30
0.0
 40
1.763951597790764
 50
145.8779387534773
 51
209.0006278135159
  0
LINE
  5
169
  8
WHITE
 10
32.9102
 20
27.8774
 30
0.0
 11
33.984
 21
29.447
 31
0.0
  0
LINE
  5
16A
  8
WHITE
 10
33.984
 20
29.447
 30
0.0
 11
40.069
 21
23.60975
 31
0.0
  0
ARC
  5
16B
  8
WHITE
 10
40.26356658766124
 20
23.80341752154907
 30
0.0
 40
0.2745237074226939
 50
224.8673156211066
 51
322.736896358735
  0
LINE
  5
16C
  8
WHITE
 10
40.48205
 20
23.6372
 30
0.0
 11
41.8587
 21
25.6747
 31
0.0
  0
ARC
  5
16D
  8
WHITE
 10
41.63562150447466
 20
25.83723836080648
 30
0.0
 40
0.2760121988237174
 50
323.9223538515913
 51
44.9681689117003
  0
LINE
  5
16E
  8
WHITE
 10
41.8309
 20
26.0323
 30
0.0
 11
35.6636
 21
31.9525
 31
0.0
  0
LINE
  5
16F
  8
WHITE
 10
35.6636
 20
31.9525
 30
0.0
 11
36.54475
 21
33.2467
 31
0.0
  0
ARC
  5
170
  8
WHITE
 10
38.10312494338237
 20
32.21130457836021
 30
0.0
 40
1.870982667828493
 50
42.13876022827414
 51
146.3996534967391
  0
ARC
  5
171
  8
WHITE
 10
76.8717121088471
 20
68.0412351528525
 30
0.0
 40
50.91915567524153
 50
222.7663588239771
 51
251.8962938959291
  0
LINE
  5
172
  8
WHITE
 10
61.0492
 20
19.6428
 30
0.0
 11
123.5795
 21
11.1094
 31
0.0
  0
ARC
  5
173
  8
WHITE
 10
123.5298594935671
 20
10.83952000165753
 30
0.0
 40
0.2744073493626719
 50
347.3443896168539
 51
79.57776730528037
  0
LINE
  5
174
  8
WHITE
 10
123.7976
 20
10.7794
 30
0.0
 11
122.7922
 21
4.9609
 31
0.0
  0
ARC
  5
175
  8
WHITE
 10
230.5121192857169
 20
253.7219433941868
 30
0.0
 40
0.5506872674045462
 50
2.201762572316936
 51
82.40537380196487
  0
LINE
  5
176
  8
WHITE
 10
231.0624
 20
253.7431
 30
0.0
 11
231.1822
 21
250.627
 31
0.0
  0
ARC
  5
177
  8
WHITE
 10
231.4575009313287
 20
250.654578849811
 30
0.0
 40
0.2766788675474673
 50
185.7206397596122
 51
270.0205155417907
  0
LINE
  5
178
  8
WHITE
 10
231.4576
 20
250.3779
 30
0.0
 11
233.9357
 21
250.3792
 31
0.0
  0
ARC
  5
179
  8
WHITE
 10
233.935568932803
 20
250.6546310479365
 30
0.0
 40
0.2754310791214899
 50
270.0272648879227
 51
359.9831402295507
  0
LINE
  5
17A
  8
WHITE
 10
234.211
 20
250.65455
 30
0.0
 11
234.07335
 21
254.09635
 31
0.0
  0
ARC
  5
17B
  8
WHITE
 10
234.3484711334888
 20
254.1019680743413
 30
0.0
 40
0.2751784890783871
 50
101.5232390188971
 51
181.1698382229044
  0
ARC
  5
17C
  8
WHITE
 10
232.2862421271739
 20
264.5482265597351
 30
0.0
 40
10.37269551776818
 50
281.1579065569284
 51
339.0681156095338
  0
ARC
  5
17D
  8
WHITE
 10
214.8056878944349
 20
268.4149687896858
 30
0.0
 40
28.20427629005651
 50
344.4257725075539
 51
33.33838646947805
  0
ARC
  5
17E
  8
WHITE
 10
239.2963853000235
 20
284.5269529081892
 30
0.0
 40
1.111083391583187
 50
47.50156385448531
 51
213.3859734850514
  0
ARC
  5
17F
  8
WHITE
 10
220.5312712310066
 20
264.2437522890444
 30
0.0
 40
28.74325761872267
 50
332.83973213921
 51
47.23701198777619
  0
ARC
  5
180
  8
WHITE
 10
232.3345298897185
 20
260.213508022766
 30
0.0
 40
16.50048294063387
 50
217.9053052566866
 51
326.5695904658119
  0
ARC
  5
181
  8
WHITE
 10
243.7768591584157
 20
265.171504727459
 30
0.0
 40
28.7443555249792
 50
137.3159118920759
 51
211.6785910002482
  0
ARC
  5
182
  8
WHITE
 10
223.5416266449611
 20
284.0119522752181
 30
0.0
 40
1.104199295024647
 50
324.1332814534181
 51
144.1335728185283
  0
ARC
  5
183
  8
WHITE
 10
249.1560704329081
 20
269.7814150894615
 30
0.0
 40
28.2059109650594
 50
151.2109322015566
 51
200.1368423913574
  0
ARC
  5
184
  8
WHITE
 10
232.0409786730157
 20
264.5285621361004
 30
0.0
 40
10.37319585829666
 50
205.4488279868236
 51
259.8816800099298
  0
LINE
  5
185
  8
WHITE
 10
230.2186
 20
254.3167
 30
0.0
 11
230.5849
 21
254.2678
 31
0.0
  0
ARC
  5
186
  8
WHITE
 10
240.1707687552385
 20
216.6165856326034
 30
0.0
 40
0.5504781905114543
 50
47.97346189830759
 51
137.9197572827324
  0
LINE
  5
187
  8
WHITE
 10
240.5393
 20
217.0255
 30
0.0
 11
246.5186
 21
211.6391
 31
0.0
  0
ARC
  5
188
  8
WHITE
 10
246.6974390724997
 20
211.8485176113631
 30
0.0
 40
0.2753890880220031
 50
229.5032376049861
 51
318.6278580681454
  0
LINE
  5
189
  8
WHITE
 10
246.9041
 20
211.6665
 30
0.0
 11
248.5837
 21
213.51135
 31
0.0
  0
ARC
  5
18A
  8
WHITE
 10
248.3743924504843
 20
213.6901229112422
 30
0.0
 40
0.2752624276545637
 50
319.4988325588188
 51
48.66289360751896
  0
LINE
  5
18B
  8
WHITE
 10
248.5562
 20
213.8968
 30
0.0
 11
242.5763
 21
219.2838
 31
0.0
  0
ARC
  5
18C
  8
WHITE
 10
242.9447708044461
 20
219.6929310949841
 30
0.0
 40
0.5505987528246447
 50
138.1473588471998
 51
227.9932325063951
  0
LINE
  5
18D
  8
WHITE
 10
242.53465
 20
220.0603
 30
0.0
 11
243.35225
 21
220.9731
 31
0.0
  0
ARC
  5
18E
  8
WHITE
 10
244.6573403225229
 20
219.7886519422943
 30
0.0
 40
1.762435233234299
 50
44.62962923638356
 51
137.7743655057814
  0
ARC
  5
18F
  8
WHITE
 10
265.7158286118733
 20
240.7310270904261
 30
0.0
 40
27.9367864319149
 50
224.8549765414525
 51
259.4819493697511
  0
ARC
  5
190
  8
WHITE
 10
270.1650199354228
 20
291.7496907251367
 30
0.0
 40
79.06478647691989
 50
263.0632625183697
 51
282.3095517526878
  0
ARC
  5
191
  8
WHITE
 10
299.6993473002546
 20
156.2302978395418
 30
0.0
 40
59.63555276583054
 50
76.88266109472212
 51
102.2744958822622
  0
ARC
  5
192
  8
WHITE
 10
312.8312914215273
 20
212.5202044699421
 30
0.0
 40
1.83421467393666
 50
0.8589162745619133
 51
77.3363906184691
  0
ARC
  5
193
  8
WHITE
 10
474.6799705590117
 20
123.0462172379902
 30
0.0
 40
183.3445123550399
 50
150.780275531619
 51
173.0946950447031
  0
LINE
  5
194
  8
WHITE
 10
292.6654
 20
145.0895
 30
0.0
 11
292.74815
 21
144.8417
 31
0.0
  0
LINE
  5
195
  8
WHITE
 10
292.74815
 20
144.8417
 30
0.0
 11
300.8707
 21
137.793
 31
0.0
  0
ARC
  5
196
  8
WHITE
 10
299.3149759053654
 20
136.5732704525704
 30
0.0
 40
1.97687066534449
 50
268.0033607729579
 51
38.09740079785013
  0
ARC
  5
197
  8
WHITE
 10
306.8220215429131
 20
152.7155707600964
 30
0.0
 40
19.63811222312576
 50
209.1093898119068
 51
247.3080472857539
  0
ARC
  5
198
  8
WHITE
 10
337.925583829828
 20
152.6010342265755
 30
0.0
 40
49.17561503435288
 50
162.1252022757994
 51
191.0662793143563
  0
ARC
  5
199
  8
WHITE
 10
498.5422864918286
 20
120.0463303467382
 30
0.0
 40
212.8211836548935
 50
155.5309540255144
 51
167.0623756119761
  0
ARC
  5
19A
  8
WHITE
 10
304.5987368774264
 20
208.3349250625183
 30
0.0
 40
0.2739933059054032
 50
329.8239590344733
 51
92.28765969996745
  0
ARC
  5
19B
  8
WHITE
 10
306.3873681904187
 20
63.34594130190692
 30
0.0
 40
145.273905124948
 50
90.70976476673823
 51
109.2943802654529
  0
ARC
  5
19C
  8
WHITE
 10
257.5345333277082
 20
210.0308780823971
 30
0.0
 40
9.608353112541224
 50
220.0611166406576
 51
275.0822725324301
  0
ARC
  5
19D
  8
WHITE
 10
246.4552187861334
 20
200.7187681374905
 30
0.0
 40
4.864608845952595
 50
40.0187844712977
 51
107.3555993980574
  0
LINE
  5
19E
  8
WHITE
 10
245.0041
 20
205.3619
 30
0.0
 11
241.5351
 21
204.2599
 31
0.0
  0
ARC
  5
19F
  8
WHITE
 10
239.9187802861783
 20
209.2848380237429
 30
0.0
 40
5.278493303940574
 50
137.4946468269889
 51
287.8308871822429
  0
LINE
  5
1A0
  8
WHITE
 10
236.0274
 20
212.8513
 30
0.0
 11
239.7622
 21
216.9855
 31
0.0
  0
ARC
  5
1A1
  8
WHITE
 10
211.6386249409887
 20
289.679468837568
 30
0.0
 40
231.1221327810256
 50
278.7076119200742
 51
283.1088936918704
  0
ARC
  5
1A2
  8
WHITE
 10
211.4857648742013
 20
289.7170773989371
 30
0.0
 40
231.1934729351484
 50
283.14367532958
 51
287.5531261246594
  0
ARC
  5
1A3
  8
WHITE
 10
320.1875480886536
 20
-69.46676375790656
 30
0.0
 40
144.1255124547867
 50
97.4374103732422
 51
105.6899739472438
  0
ARC
  5
1A4
  8
WHITE
 10
301.21455
 20
75.53875000000001
 30
0.0
 40
2.116417445826797
 50
278.6128904168411
 51
98.61289041683946
  0
ARC
  5
1A5
  8
WHITE
 10
98.55563906091257
 20
1330.290894829795
 30
0.0
 40
1268.896500773732
 50
277.3113956342689
 51
279.1757244657033
  0
ARC
  5
1A6
  8
WHITE
 10
246.5378509682208
 20
177.5390715434045
 30
0.0
 40
106.6850615462667
 50
254.8796334911986
 51
277.2697090953466
  0
ARC
  5
1A7
  8
WHITE
 10
217.071109377957
 20
69.78410457814384
 30
0.0
 40
5.037174616991924
 50
71.02108751197399
 51
251.0196590533527
  0
ARC
  5
1A8
  8
WHITE
 10
237.784605716736
 20
118.5737694509079
 30
0.0
 40
58.03036925445669
 50
247.3454397747348
 51
278.7663015235327
  0
ARC
  5
1A9
  8
WHITE
 10
106.970866903785
 20
87.0627627752048
 30
0.0
 40
0.5504689250154234
 50
324.7675508971832
 51
45.96450278207251
  0
LINE
  5
1AA
  8
WHITE
 10
107.3535
 20
87.4585
 30
0.0
 11
105.1319
 21
89.6086
 31
0.0
  0
ARC
  5
1AB
  8
WHITE
 10
105.3135875991103
 20
89.81537712477714
 30
0.0
 40
0.2752583568242409
 50
139.5254877569972
 51
228.6953936913809
  0
LINE
  5
1AC
  8
WHITE
 10
105.1042
 20
89.99405
 30
0.0
 11
106.839
 21
91.78375
 31
0.0
  0
ARC
  5
1AD
  8
WHITE
 10
107.0316246559718
 20
91.58842391861822
 30
0.0
 40
0.2743292477229051
 50
45.3840920075746
 51
134.6010375592107
  0
LINE
  5
1AE
  8
WHITE
 10
107.2243
 20
91.7837
 30
0.0
 11
109.6198
 21
89.4984
 31
0.0
  0
ARC
  5
1AF
  8
WHITE
 10
109.8146284990703
 20
89.69170286219527
 30
0.0
 40
0.2744524377426211
 50
224.7747873206219
 51
306.4535107896088
  0
ARC
  5
1B0
  8
WHITE
 10
116.4537123895243
 20
81.05351718818007
 30
0.0
 40
10.62035364810303
 50
45.83048677204211
 51
127.5731421418434
  0
ARC
  5
1B1
  8
WHITE
 10
85.76795897161874
 20
53.42257027848918
 30
0.0
 40
51.89416377415914
 50
24.1877950686842
 51
42.78448995542546
  0
ARC
  5
1B2
  8
WHITE
 10
134.1662399084403
 20
75.12858845968027
 30
0.0
 40
1.149072069696109
 50
202.7029513961041
 51
6.727536246357683
  0
ARC
  5
1B3
  8
WHITE
 10
108.5292807862113
 20
72.65204804337611
 30
0.0
 40
26.90512559287653
 50
5.569341841419426
 51
88.43987176113296
  0
ARC
  5
1B4
  8
WHITE
 10
108.9441907555265
 20
88.030813257966
 30
0.0
 40
11.52076556589325
 50
88.42024603152758
 51
183.7959487777374
  0
ARC
  5
1B5
  8
WHITE
 10
124.2953524906086
 20
89.1083531021617
 30
0.0
 40
26.90965034019422
 50
183.9213104675696
 51
266.8330208176237
  0
ARC
  5
1B6
  8
WHITE
 10
122.8416724176339
 20
63.38799059211936
 30
0.0
 40
1.148663926549459
 50
268.3550977236677
 51
66.31499758200057
  0
ARC
  5
1B7
  8
WHITE
 10
142.5843769709813
 20
112.6209318605956
 30
0.0
 40
51.89585217320766
 50
229.573692612398
 51
248.1895039044855
  0
ARC
  5
1B8
  8
WHITE
 10
116.2280868295751
 20
80.83353046709466
 30
0.0
 40
10.62097389509752
 50
147.9541189185271
 51
226.6070655592997
  0
LINE
  5
1B9
  8
WHITE
 10
107.2255
 20
86.469
 30
0.0
 11
107.4205
 21
86.7452
 31
0.0
  0
ARC
  5
1BA
  8
WHITE
 10
282.6069930179366
 20
129.8257875300438
 30
0.0
 40
33.60098458523058
 50
238.3318046086284
 51
254.6188427085598
  0
ARC
  5
1BB
  8
WHITE
 10
282.6487525139869
 20
129.8098348814333
 30
0.0
 40
33.59670903080715
 50
254.5429608947008
 51
270.8357559187228
  0
ARC
  5
1BC
  8
WHITE
 10
283.111336163947
 20
98.08349908956272
 30
0.0
 40
1.867001098843527
 50
270.8428589846949
 51
346.5392475887088
  0
ARC
  5
1BD
  8
WHITE
 10
261.7583127206964
 20
86.93933755515083
 30
0.0
 40
25.52420644951601
 50
24.80836060178917
 51
73.29299705878768
  0
ARC
  5
1BE
  8
WHITE
 10
268.7835063759755
 20
110.3312513906897
 30
0.0
 40
1.100148447600315
 50
73.5008373760341
 51
142.3803855055557
  0
ARC
  5
1BF
  8
WHITE
 10
278.9830563280461
 20
102.335373873401
 30
0.0
 40
14.06024002915863
 50
141.9426901617565
 51
184.5176593759809
  0
ARC
  5
1C0
  8
WHITE
 10
259.060488829868
 20
112.2529604247595
 30
0.0
 40
2.193181936256162
 50
346.6323559184073
 51
112.5168099374819
  0
LINE
  5
1C1
  8
WHITE
 10
258.2206
 20
114.27895
 30
0.0
 11
246.2709
 21
109.37795
 31
0.0
  0
ARC
  5
1C2
  8
WHITE
 10
253.4022371476502
 20
107.2936188866659
 30
0.0
 40
7.429697551278084
 50
163.7075335421184
 51
249.8379916981472
  0
LINE
  5
1C3
  8
WHITE
 10
250.8414
 20
100.3192
 30
0.0
 11
259.2944
 21
103.7885
 31
0.0
  0
LINE
  5
1C4
  8
WHITE
 10
259.2944
 20
103.7885
 30
0.0
 11
261.19425
 21
111.7459
 31
0.0
  0
ARC
  5
1C5
  8
WHITE
 10
83.29068336924242
 20
100.3004220270153
 30
0.0
 40
0.5508042507318425
 50
231.1269081715251
 51
321.9454521251113
  0
LINE
  5
1C6
  8
WHITE
 10
82.945
 20
99.8716
 30
0.0
 11
76.6892
 21
104.9174
 31
0.0
  0
ARC
  5
1C7
  8
WHITE
 10
76.5101935989772
 20
104.7081647939376
 30
0.0
 40
0.2753591528588265
 50
49.45211346799718
 51
138.6452186711197
  0
LINE
  5
1C8
  8
WHITE
 10
76.3035
 20
104.8901
 30
0.0
 11
74.7343
 21
102.9626
 31
0.0
  0
ARC
  5
1C9
  8
WHITE
 10
74.95472609062594
 20
102.7973465535843
 30
0.0
 40
0.2754929454285553
 50
143.1411036841013
 51
233.0962147534882
  0
LINE
  5
1CA
  8
WHITE
 10
74.7893
 20
102.57705
 30
0.0
 11
81.0291
 21
97.4975
 31
0.0
  0
ARC
  5
1CB
  8
WHITE
 10
80.68159000991413
 20
97.0704569349117
 30
0.0
 40
0.5505714964012294
 50
321.3378397954297
 51
50.86272882379106
  0
LINE
  5
1CC
  8
WHITE
 10
81.1115
 20
96.7265
 30
0.0
 11
80.3512
 21
95.77615
 31
0.0
  0
ARC
  5
1CD
  8
WHITE
 10
78.98007334826254
 20
96.88285897262007
 30
0.0
 40
1.762042293812091
 50
227.5262437535281
 51
321.0911622664322
  0
ARC
  5
1CE
  8
WHITE
 10
59.02530813356968
 20
74.88591226015721
 30
0.0
 40
27.93744374556048
 50
47.80336163457724
 51
82.38078567443632
  0
ARC
  5
1CF
  8
WHITE
 10
57.25480018882573
 20
23.70139329821146
 30
0.0
 40
79.06507664780753
 50
86.02949358006641
 51
105.3090587476086
  0
ARC
  5
1D0
  8
WHITE
 10
20.66016771081065
 20
157.4885695052548
 30
0.0
 40
59.63667755836368
 50
259.8929943343979
 51
285.2829884488413
  0
ARC
  5
1D1
  8
WHITE
 10
10.5113843654581
 20
100.5852901166026
 30
0.0
 40
1.835466276602925
 50
184.0048334460965
 51
260.0646884094627
  0
ARC
  5
1D2
  8
WHITE
 10
-155.7896226628079
 20
181.4778835804185
 30
0.0
 40
183.3432729245596
 50
333.7743437450073
 51
356.0941307911631
  0
LINE
  5
1D3
  8
WHITE
 10
27.1278
 20
168.989
 30
0.0
 11
27.0438
 21
169.2074
 31
0.0
  0
LINE
  5
1D4
  8
WHITE
 10
27.0438
 20
169.2074
 30
0.0
 11
18.56505
 21
175.84485
 31
0.0
  0
ARC
  5
1D5
  8
WHITE
 10
20.05616131469927
 20
177.1443709466296
 30
0.0
 40
1.977920029615288
 50
91.71981856471398
 51
221.0725312656921
  0
ARC
  5
1D6
  8
WHITE
 10
13.37151464472659
 20
160.6317449881451
 30
0.0
 40
19.640818427352
 50
32.04853902845419
 51
70.28618430343508
  0
ARC
  5
1D7
  8
WHITE
 10
-17.67880772721349
 20
159.0938765420107
 30
0.0
 40
49.17446281232926
 50
345.1530324459166
 51
14.07643813476489
  0
ARC
  5
1D8
  8
WHITE
 10
-179.780974548945
 20
183.1284141441879
 30
0.0
 40
212.811883036413
 50
338.5492425107811
 51
350.0873298809541
  0
ARC
  5
1D9
  8
WHITE
 10
18.54287124344523
 20
105.1925595096594
 30
0.0
 40
0.2759482120267369
 50
156.4532610188728
 51
274.5995848056985
  0
ARC
  5
1DA
  8
WHITE
 10
9.10797450740467
 20
249.8808226463231
 30
0.0
 40
145.2714708531223
 50
273.7325366779004
 51
292.3167843862737
  0
ARC
  5
1DB
  8
WHITE
 10
65.60401352196801
 20
105.9743800460627
 30
0.0
 40
9.60886195394436
 50
42.91153605176832
 51
97.97120910401578
  0
ARC
  5
1DC
  8
WHITE
 10
76.1989386371053
 20
115.8375333915675
 30
0.0
 40
4.866442284950379
 50
223.0302360134087
 51
290.4672891245795
  0
LINE
  5
1DD
  8
WHITE
 10
77.9006
 20
111.2783
 30
0.0
 11
81.2874
 21
112.5443
 31
0.0
  0
ARC
  5
1DE
  8
WHITE
 10
83.12112822934627
 20
107.5936421244244
 30
0.0
 40
5.279353428224002
 50
321.1821848265658
 51
110.3246760133309
  0
LINE
  5
1DF
  8
WHITE
 10
87.2345
 20
104.2843
 30
0.0
 11
83.8755
 21
100.154
 31
0.0
  0
LINE
  5
1E0
  8
WHITE
 10
83.8755
 20
100.154
 30
0.0
 11
83.7244
 21
99.9609
 31
0.0
  0
ARC
  5
1E1
  8
WHITE
 10
246.2642589084754
 20
11.23708255252527
 30
0.0
 40
1.737875025327247
 50
213.2861757806187
 51
239.8315378838119
  0
ARC
  5
1E2
  8
WHITE
 10
246.2765225451853
 20
11.21902209841165
 30
0.0
 40
1.728535871422225
 50
239.1792331987088
 51
314.2324927367247
  0
ARC
  5
1E3
  8
WHITE
 10
257.1762027032289
 20
2.688521487977068
 30
0.0
 40
12.1303215225101
 50
106.7642524474971
 51
143.0486661268731
  0
ARC
  5
1E4
  8
WHITE
 10
251.3586698534158
 20
21.9741097743337
 30
0.0
 40
8.013602940418972
 50
286.8190016760978
 51
45.99986297025512
  0
ARC
  5
1E5
  8
WHITE
 10
257.6119527626213
 20
28.45577265013661
 30
0.0
 40
0.9928198758923636
 50
86.65395487369494
 51
226.2496120175326
  0
ARC
  5
1E6
  8
WHITE
 10
265.618500888321
 20
225.8038326282127
 30
0.0
 40
196.5177479192205
 50
267.6819113952654
 51
287.1388834418761
  0
ARC
  5
1E7
  8
WHITE
 10
323.0134992402122
 20
39.45007294793888
 30
0.0
 40
1.527294952486346
 50
289.7700210318749
 51
99.55032044517793
  0
ARC
  5
1E8
  8
WHITE
 10
269.2898379027742
 20
301.9103600019843
 30
0.0
 40
266.3759421402152
 50
264.3585454966842
 51
281.5797866432657
  0
ARC
  5
1E9
  8
WHITE
 10
242.360989784673
 20
29.27899638792839
 30
0.0
 40
7.582126611097807
 50
84.37399884924038
 51
190.2300798688405
  0
LINE
  5
1EA
  8
WHITE
 10
234.8994
 20
27.9324
 30
0.0
 11
237.6786
 21
18.4604
 31
0.0
  0
ARC
  5
1EB
  8
WHITE
 10
225.7196888576469
 20
14.81529909343541
 30
0.0
 40
12.50209247805084
 50
352.7128184756584
 51
16.95133008530682
  0
ARC
  5
1EC
  8
WHITE
 10
240.7863775672557
 20
12.90956735232471
 30
0.0
 40
2.684708674345349
 50
173.1558844523931
 51
286.7967956381556
  0
ARC
  5
1ED
  8
WHITE
 10
241.479906153761
 20
10.60262520196237
 30
0.0
 40
0.2757893835464468
 50
287.3611574339237
 51
356.5647995321966
  0
LINE
  5
1EE
  8
WHITE
 10
241.7552
 20
10.5861
 30
0.0
 11
242.2784
 21
18.32325
 31
0.0
  0
ARC
  5
1EF
  8
WHITE
 10
242.5539459015888
 20
18.29552719616144
 30
0.0
 40
0.2769369923557345
 50
84.31064834433907
 51
174.2547776742074
  0
LINE
  5
1F0
  8
WHITE
 10
242.5814
 20
18.5711
 30
0.0
 11
245.0868
 21
18.4059
 31
0.0
  0
ARC
  5
1F1
  8
WHITE
 10
245.0592601884846
 20
18.13054922345369
 30
0.0
 40
0.2767245767237875
 50
354.2656643786354
 51
84.2884315816452
  0
LINE
  5
1F2
  8
WHITE
 10
245.3346
 20
18.1029
 30
0.0
 11
244.8115
 21
10.2833
 31
0.0
  0
ARC
  5
1F3
  8
WHITE
 10
146.1345869062206
 20
232.6230428056166
 30
0.0
 40
0.5506648980372745
 50
204.2470729691882
 51
293.1980882850881
  0
LINE
  5
1F4
  8
WHITE
 10
145.6325
 20
232.3969
 30
0.0
 11
142.8534
 21
238.5671
 31
0.0
  0
ARC
  5
1F5
  8
WHITE
 10
142.6027153024114
 20
238.4541235124139
 30
0.0
 40
0.2749663694933602
 50
24.25973977278436
 51
113.1760904582607
  0
LINE
  5
1F6
  8
WHITE
 10
142.4945
 20
238.7069
 30
0.0
 11
140.2375
 21
237.6585
 31
0.0
  0
ARC
  5
1F7
  8
WHITE
 10
140.3504145594844
 20
237.4079399973245
 30
0.0
 40
0.274827241525091
 50
114.2586503663966
 51
203.1941093576818
  0
LINE
  5
1F8
  8
WHITE
 10
140.0978
 20
237.2997
 30
0.0
 11
142.99095
 21
230.8852
 31
0.0
  0
ARC
  5
1F9
  8
WHITE
 10
142.7514692935652
 20
230.7530082556932
 30
0.0
 40
0.2735428047260092
 50
304.804111071906
 51
28.89840316482366
  0
ARC
  5
1FA
  8
WHITE
 10
140.2904142960745
 20
234.3301526346112
 30
0.0
 40
4.615515583724691
 50
260.0650563559313
 51
304.5441292820244
  0
ARC
  5
1FB
  8
WHITE
 10
139.4743709502045
 20
232.0980909172163
 30
0.0
 40
2.314325011385383
 50
203.1564073101926
 51
270.48843830195
  0
ARC
  5
1FC
  8
WHITE
 10
129.1634937996611
 20
227.7106667477512
 30
0.0
 40
8.891199976492524
 50
23.02285650500707
 51
75.2534026933299
  0
ARC
  5
1FD
  8
WHITE
 10
131.4818408333313
 20
236.5798105986417
 30
0.0
 40
0.2763673132574845
 50
184.6928178679553
 51
258.4911029394944
  0
LINE
  5
1FE
  8
WHITE
 10
131.2064
 20
236.5572
 30
0.0
 11
131.0137
 21
246.139
 31
0.0
  0
ARC
  5
1FF
  8
WHITE
 10
130.7383863359932
 20
246.1389863491919
 30
0.0
 40
0.2753136643452244
 50
0.0028408822136086
 51
90.01796746312105
  0
LINE
  5
200
  8
WHITE
 10
130.7383
 20
246.4143
 30
0.0
 11
128.2603
 21
246.3592
 31
0.0
  0
ARC
  5
201
  8
WHITE
 10
128.2587260533215
 20
246.0840868084908
 30
0.0
 40
0.2751176938157781
 50
89.6722094004734
 51
185.765342806106
  0
LINE
  5
202
  8
WHITE
 10
127.985
 20
246.05645
 30
0.0
 11
128.1778
 21
236.5022
 31
0.0
  0
ARC
  5
203
  8
WHITE
 10
127.9036860363555
 20
236.4889126804308
 30
0.0
 40
0.2744358174987758
 50
287.2352081702306
 51
2.775166504357902
  0
ARC
  5
204
  8
WHITE
 10
130.6112403451511
 20
227.7291851092857
 30
0.0
 40
8.894188955795174
 50
107.1740869717857
 51
159.4064084437743
  0
ARC
  5
205
  8
WHITE
 10
120.1239562645348
 20
231.6837069218865
 30
0.0
 40
2.313934240200108
 50
271.7073820377589
 51
339.0830715409813
  0
ARC
  5
206
  8
WHITE
 10
119.2127203017865
 20
233.8843795651841
 30
0.0
 40
4.618782602811874
 50
237.7929538503476
 51
282.2522488415649
  0
ARC
  5
207
  8
WHITE
 10
116.8970875492791
 20
230.2103511763365
 30
0.0
 40
0.2759012961166762
 50
159.3278236684656
 51
238.0288573177619
  0
LINE
  5
208
  8
WHITE
 10
116.63895
 20
230.30775
 30
0.0
 11
119.2843
 21
236.86
 31
0.0
  0
ARC
  5
209
  8
WHITE
 10
119.0245799696251
 20
236.9573403406369
 30
0.0
 40
0.2773619225727306
 50
339.4545292700045
 51
70.07545760433625
  0
LINE
  5
20A
  8
WHITE
 10
119.1191
 20
237.2181
 30
0.0
 11
116.8337
 21
238.1541
 31
0.0
  0
ARC
  5
20B
  8
WHITE
 10
116.7344785185858
 20
237.8954377649058
 30
0.0
 40
0.2770398062336198
 50
69.0134474512469
 51
160.1190132399629
  0
LINE
  5
20C
  8
WHITE
 10
116.47395
 20
237.98965
 30
0.0
 11
113.9555
 21
231.727
 31
0.0
  0
ARC
  5
20D
  8
WHITE
 10
113.44455171485
 20
231.9326785412696
 30
0.0
 40
0.5507919865397871
 50
248.0536852647895
 51
338.0731056106559
  0
LINE
  5
20E
  8
WHITE
 10
113.2387
 20
231.4218
 30
0.0
 11
112.04285
 21
231.90395
 31
0.0
  0
ARC
  5
20F
  8
WHITE
 10
113.1306809327107
 20
234.5531957709571
 30
0.0
 40
2.863892332664804
 50
158.1084655652145
 51
247.6760099905522
  0
LINE
  5
210
  8
WHITE
 10
110.4733
 20
235.621
 30
0.0
 11
113.36445
 21
242.8625
 31
0.0
  0
ARC
  5
211
  8
WHITE
 10
115.4954882146693
 20
241.9649884642245
 30
0.0
 40
2.312325848411265
 50
118.7637209354338
 51
157.1610411497458
  0
LINE
  5
212
  8
WHITE
 10
114.3828
 20
243.992
 30
0.0
 11
117.49455
 21
245.7811
 31
0.0
  0
ARC
  5
213
  8
WHITE
 10
116.2637284896314
 20
247.9810063437987
 30
0.0
 40
2.520815247468901
 50
299.226495514685
 51
83.92172840776661
  0
LINE
  5
214
  8
WHITE
 10
116.53065
 20
250.48765
 30
0.0
 11
103.6724
 21
257.2076
 31
0.0
  0
ARC
  5
215
  8
WHITE
 10
105.0136538731479
 20
259.7382443226892
 30
0.0
 40
2.864109397385713
 50
151.8404286379879
 51
242.0761914227836
  0
LINE
  5
216
  8
WHITE
 10
102.48855
 20
261.0899
 30
0.0
 11
102.7859
 21
261.6698
 31
0.0
  0
ARC
  5
217
  8
WHITE
 10
103.2759651952095
 20
261.4183356211656
 30
0.0
 40
0.5508159668875796
 50
62.40657863064411
 51
152.8365368633447
  0
LINE
  5
218
  8
WHITE
 10
103.5311
 20
261.9065
 30
0.0
 11
111.4095
 21
257.7858
 31
0.0
  0
ARC
  5
219
  8
WHITE
 10
111.5498176423719
 20
258.02286183427
 30
0.0
 40
0.2754765943383343
 50
239.3785772149077
 51
332.649755829732
  0
LINE
  5
21A
  8
WHITE
 10
111.7945
 20
257.8963
 30
0.0
 11
112.95145
 21
260.0987
 31
0.0
  0
ARC
  5
21B
  8
WHITE
 10
112.6981428047024
 20
260.2060789555968
 30
0.0
 40
0.2751268349226842
 50
337.0275218855667
 51
65.23333518438477
  0
LINE
  5
21C
  8
WHITE
 10
112.8134
 20
260.4559
 30
0.0
 11
104.9353
 21
264.6032
 31
0.0
  0
ARC
  5
21D
  8
WHITE
 10
105.1919321306661
 20
265.0904724915556
 30
0.0
 40
0.5507218277106801
 50
151.7074694327376
 51
242.225539136366
  0
LINE
  5
21E
  8
WHITE
 10
104.707
 20
265.3515
 30
0.0
 11
105.0217
 21
265.93595
 31
0.0
  0
ARC
  5
21F
  8
WHITE
 10
107.5629736986532
 20
264.6170990590679
 30
0.0
 40
2.863117150216561
 50
62.07761613512619
 51
152.5719326821506
  0
LINE
  5
220
  8
WHITE
 10
108.9037
 20
267.1469
 30
0.0
 11
118.5409
 21
262.0812
 31
0.0
  0
ARC
  5
221
  8
WHITE
 10
119.7799416560532
 20
264.4159476625601
 30
0.0
 40
2.643155476559171
 50
242.045278700566
 51
1.315962522160074
  0
LINE
  5
222
  8
WHITE
 10
122.4224
 20
264.47665
 30
0.0
 11
122.3129
 21
269.6806
 31
0.0
  0
ARC
  5
223
  8
WHITE
 10
125.175630650287
 20
269.763287037305
 30
0.0
 40
2.863924566435179
 50
91.08300425645653
 51
181.6544698015389
  0
LINE
  5
224
  8
WHITE
 10
125.1215
 20
272.6267
 30
0.0
 11
126.8615
 21
272.6476
 31
0.0
  0
ARC
  5
225
  8
WHITE
 10
126.8681307291895
 20
272.0970407616626
 30
0.0
 40
0.550599165898579
 50
1.244585561924975
 51
90.69001554084126
  0
LINE
  5
226
  8
WHITE
 10
127.4186
 20
272.109
 30
0.0
 11
127.5996
 21
263.81585
 31
0.0
  0
ARC
  5
227
  8
WHITE
 10
127.8748923116451
 20
263.8157923144373
 30
0.0
 40
0.2752923176889043
 50
179.9879940735972
 51
269.9911938018519
  0
LINE
  5
228
  8
WHITE
 10
127.87485
 20
263.5405
 30
0.0
 11
130.353
 21
263.59555
 31
0.0
  0
ARC
  5
229
  8
WHITE
 10
130.3529149956812
 20
263.8708850043188
 30
0.0
 40
0.2753350174404899
 50
270.0176889551884
 51
359.9823110448116
  0
LINE
  5
22A
  8
WHITE
 10
130.62825
 20
263.8708
 30
0.0
 11
130.4474
 21
272.1874
 31
0.0
  0
ARC
  5
22B
  8
WHITE
 10
130.9979802171934
 20
272.1993479044983
 30
0.0
 40
0.5507098401033109
 50
91.3713990106743
 51
181.2431559536323
  0
LINE
  5
22C
  8
WHITE
 10
130.9848
 20
272.7499
 30
0.0
 11
132.7484
 21
272.79185
 31
0.0
  0
ARC
  5
22D
  8
WHITE
 10
132.8034508987789
 20
269.9284009340145
 30
0.0
 40
2.863978204342616
 50
1.101360823625843
 51
91.10139749664681
  0
LINE
  5
22E
  8
WHITE
 10
135.6669
 20
269.98345
 30
0.0
 11
135.7771
 21
264.752
 31
0.0
  0
ARC
  5
22F
  8
WHITE
 10
138.4203598028491
 20
264.8125558321652
 30
0.0
 40
2.643953364597636
 50
181.3123896463104
 51
299.9815726921387
  0
LINE
  5
230
  8
WHITE
 10
139.7416
 20
262.5224
 30
0.0
 11
149.18615
 21
268.001
 31
0.0
  0
ARC
  5
231
  8
WHITE
 10
150.6173443194423
 20
265.5211289938736
 30
0.0
 40
2.863228490189007
 50
30.04291271138766
 51
119.9902974213572
  0
LINE
  5
232
  8
WHITE
 10
153.0959
 20
266.9546
 30
0.0
 11
153.4265
 21
266.3837
 31
0.0
  0
ARC
  5
233
  8
WHITE
 10
152.9497898824735
 20
266.1077759918581
 30
0.0
 40
0.550805405221512
 50
300.23539286592
 51
30.06263589726406
  0
LINE
  5
234
  8
WHITE
 10
153.22715
 20
265.6319
 30
0.0
 11
145.52415
 21
261.145
 31
0.0
  0
ARC
  5
235
  8
WHITE
 10
145.6838118441082
 20
260.9191863104757
 30
0.0
 40
0.2765569142881402
 50
125.262267250985
 51
208.6001810694558
  0
LINE
  5
236
  8
WHITE
 10
145.441
 20
260.7868
 30
0.0
 11
146.68055
 21
258.63945
 31
0.0
  0
ARC
  5
237
  8
WHITE
 10
146.9253890025489
 20
258.7667385250336
 30
0.0
 40
0.2759501871250503
 50
207.4693185397448
 51
300.6339999793442
  0
LINE
  5
238
  8
WHITE
 10
147.066
 20
258.5293
 30
0.0
 11
154.767
 21
262.9891
 31
0.0
  0
ARC
  5
239
  8
WHITE
 10
155.0429952927695
 20
262.5127199043324
 30
0.0
 40
0.5505555350545975
 50
30.06038243185943
 51
120.0862615002507
  0
LINE
  5
23A
  8
WHITE
 10
155.5195
 20
262.7885
 30
0.0
 11
155.84935
 21
262.21885
 31
0.0
  0
ARC
  5
23B
  8
WHITE
 10
153.3693852452472
 20
260.7875623757075
 30
0.0
 40
2.863356325759868
 50
300.0470677742301
 51
29.99097679521826
  0
LINE
  5
23C
  8
WHITE
 10
154.8031
 20
258.309
 30
0.0
 11
142.2752
 21
251.0125
 31
0.0
  0
ARC
  5
23D
  8
WHITE
 10
142.6710498213117
 20
248.5173223553678
 30
0.0
 40
2.526382504551625
 50
99.01461599341992
 51
242.4898694571421
  0
LINE
  5
23E
  8
WHITE
 10
141.5041
 20
246.2766
 30
0.0
 11
144.69805
 21
244.6521
 31
0.0
  0
ARC
  5
23F
  8
WHITE
 10
143.6395127831775
 20
242.5987537910094
 30
0.0
 40
2.310136726121262
 50
24.33787987316887
 51
62.72807356116057
  0
LINE
  5
240
  8
WHITE
 10
145.74435
 20
243.5508
 30
0.0
 11
148.9383
 21
236.44705
 31
0.0
  0
ARC
  5
241
  8
WHITE
 10
146.3362862682648
 20
235.2493893147332
 30
0.0
 40
2.864413827849005
 50
294.7169433911718
 51
24.71577531393209
  0
LINE
  5
242
  8
WHITE
 10
147.534
 20
232.6474
 30
0.0
 11
146.6255
 21
232.2344
 31
0.0
  0
LINE
  5
243
  8
WHITE
 10
146.6255
 20
232.2344
 30
0.0
 11
146.3515
 21
232.1169
 31
0.0
  0
ARC
  5
244
  8
WHITE
 10
157.4931361091417
 20
48.03661431173277
 30
0.0
 40
0.5506630141576321
 50
7.490527819948579
 51
95.75692803945199
  0
LINE
  5
245
  8
WHITE
 10
157.4379
 20
48.5845
 30
0.0
 11
154.4176
 21
48.2801
 31
0.0
  0
ARC
  5
246
  8
WHITE
 10
154.3900384383601
 20
48.55538031601024
 30
0.0
 40
0.2766566320599114
 50
185.7005928681921
 51
275.7175027695077
  0
LINE
  5
247
  8
WHITE
 10
154.11475
 20
48.5279
 30
0.0
 11
153.8669
 21
51.006
 31
0.0
  0
ARC
  5
248
  8
WHITE
 10
154.142263638077
 20
51.03344337368763
 30
0.0
 40
0.2767277939317808
 50
95.70605564110195
 51
185.6914353222334
  0
LINE
  5
249
  8
WHITE
 10
154.11475
 20
51.3088
 30
0.0
 11
157.4187
 21
51.6117
 31
0.0
  0
ARC
  5
24A
  8
WHITE
 10
157.3912640888003
 20
51.88695666489038
 30
0.0
 40
0.2766206080355151
 50
275.6920945966688
 51
5.735272341689835
  0
ARC
  5
24B
  8
WHITE
 10
165.7396023599356
 20
52.50090800578223
 30
0.0
 40
8.094364631744805
 50
79.06114223271463
 51
184.1538058510396
  0
ARC
  5
24C
  8
WHITE
 10
160.9285033035771
 20
-5.810154917391801
 30
0.0
 40
66.56166488927992
 50
73.05593500503278
 51
84.52815304977413
  0
ARC
  5
24D
  8
WHITE
 10
180.590082312968
 20
58.82946047301367
 30
0.0
 40
1.002518189476158
 50
254.792129477808
 51
49.91703072943925
  0
ARC
  5
24E
  8
WHITE
 10
166.1114471563085
 20
40.39531682678321
 30
0.0
 40
24.44228783258155
 50
51.77363588107561
 51
97.88009276703757
  0
ARC
  5
24F
  8
WHITE
 10
164.0192599676866
 20
45.33127402199246
 30
0.0
 40
19.31658950609781
 50
93.73660766947424
 51
159.6389110007225
  0
ARC
  5
250
  8
WHITE
 10
152.4676167537784
 20
49.62198873175124
 30
0.0
 40
6.993819453714949
 50
159.6667518444261
 51
211.2402475109873
  0
ARC
  5
251
  8
WHITE
 10
162.9999976757931
 20
56.01710099753992
 30
0.0
 40
19.31569017509393
 50
211.2563756783323
 51
277.2302117735764
  0
ARC
  5
252
  8
WHITE
 10
164.094257592152
 20
61.262623370916
 30
0.0
 40
24.44420092540201
 50
273.134809910158
 51
319.2498984356619
  0
ARC
  5
253
  8
WHITE
 10
181.8799427467828
 20
45.98651847245846
 30
0.0
 40
0.9994539923974071
 50
317.1180527832234
 51
120.4522077599081
  0
ARC
  5
254
  8
WHITE
 10
150.1264649648679
 20
105.6255151582627
 30
0.0
 40
66.56692483340757
 50
286.5297221011049
 51
297.995766201991
  0
ARC
  5
255
  8
WHITE
 10
166.0341819987695
 20
49.31825527439826
 30
0.0
 40
8.097447021432481
 50
190.721817566664
 51
291.9852030090785
  0
LINE
  5
256
  8
WHITE
 10
158.0781
 20
47.8118
 30
0.0
 11
158.0391
 21
48.1084
 31
0.0
  0
ARC
  5
257
  8
WHITE
 10
300.0624670610542
 20
238.1096148030209
 30
0.0
 40
0.5507009370431127
 50
354.6847200774824
 51
70.36692564568634
  0
LINE
  5
258
  8
WHITE
 10
300.6108
 20
238.0586
 30
0.0
 11
300.32005
 21
234.9327
 31
0.0
  0
ARC
  5
259
  8
WHITE
 10
300.5954253083089
 20
234.9051707045194
 30
0.0
 40
0.2767479404365342
 50
174.291103384996
 51
264.2815296766274
  0
LINE
  5
25A
  8
WHITE
 10
300.56785
 20
234.6298
 30
0.0
 11
303.01835
 21
234.38205
 31
0.0
  0
ARC
  5
25B
  8
WHITE
 10
303.0458527256955
 20
234.6575133595664
 30
0.0
 40
0.2768329141996532
 50
264.2983880323644
 51
354.2649755620847
  0
LINE
  5
25C
  8
WHITE
 10
303.3213
 20
234.62985
 30
0.0
 11
303.65165
 21
237.989
 31
0.0
  0
ARC
  5
25D
  8
WHITE
 10
303.9267975010409
 20
237.9643307648575
 30
0.0
 40
0.27625118731247
 50
95.73341361225509
 51
174.8766612493521
  0
ARC
  5
25E
  8
WHITE
 10
302.6447818950584
 20
248.9453306670016
 30
0.0
 40
10.77936912072862
 50
276.6827735186903
 51
316.4123513297144
  0
ARC
  5
25F
  8
WHITE
 10
290.8867743555475
 20
252.284064995644
 30
0.0
 40
22.33441115210733
 50
331.1677039674339
 51
30.26467118917209
  0
ARC
  5
260
  8
WHITE
 10
311.4299371420521
 20
264.3939821777864
 30
0.0
 40
1.515885038876679
 50
34.26693199254027
 51
214.2653017913927
  0
ARC
  5
261
  8
WHITE
 10
291.575195993968
 20
248.4380122133721
 30
0.0
 40
26.98306144627497
 50
323.6773796410421
 51
38.53293829577236
  0
ARC
  5
262
  8
WHITE
 10
302.3626113048226
 20
240.5093114024633
 30
0.0
 40
13.59528267337746
 50
205.6249268129578
 51
323.670580588384
  0
ARC
  5
263
  8
WHITE
 10
314.4339230639401
 20
246.2818375667925
 30
0.0
 40
26.97580956553291
 50
130.6032498177009
 51
205.5913443362306
  0
ARC
  5
264
  8
WHITE
 10
297.7918833771776
 20
265.5451255918982
 30
0.0
 40
1.522709774687685
 50
322.3500411359476
 51
126.9008296020668
  0
ARC
  5
265
  8
WHITE
 10
315.8554694772634
 20
249.9589679149174
 30
0.0
 40
22.33809327976125
 50
138.996858628857
 51
198.07719632737
  0
ARC
  5
266
  8
WHITE
 10
303.7009318594991
 20
248.8438584583444
 30
0.0
 40
10.78393940787971
 50
212.6396585249307
 51
249.2450070795418
  0
LINE
  5
267
  8
WHITE
 10
299.8794
 20
238.75975
 30
0.0
 11
300.2475
 21
238.6283
 31
0.0
  0
ARC
  5
268
  8
WHITE
 10
231.0293575012392
 20
223.9176414820791
 30
0.0
 40
0.5506372580744024
 50
242.6287864614191
 51
332.5837857642479
  0
LINE
  5
269
  8
WHITE
 10
230.7762
 20
223.42865
 30
0.0
 11
223.4452
 21
227.22325
 31
0.0
  0
ARC
  5
26A
  8
WHITE
 10
223.3370946514589
 20
226.9702237594833
 30
0.0
 40
0.275152766246735
 50
66.86542548498849
 51
155.2085238020327
  0
LINE
  5
26B
  8
WHITE
 10
223.0873
 20
227.0856
 30
0.0
 11
221.9309
 21
224.9103
 31
0.0
  0
ARC
  5
26C
  8
WHITE
 10
222.1722142955986
 20
224.7791270870931
 30
0.0
 40
0.2746614686132044
 50
151.4725120107823
 51
247.81442111542
  0
LINE
  5
26D
  8
WHITE
 10
222.0685
 20
224.5248
 30
0.0
 11
229.3725
 21
220.7309
 31
0.0
  0
ARC
  5
26E
  8
WHITE
 10
229.1187476584991
 20
220.2421894937483
 30
0.0
 40
0.550661610917232
 50
332.6263498240407
 51
62.56038199464588
  0
LINE
  5
26F
  8
WHITE
 10
229.60775
 20
219.989
 30
0.0
 11
229.06215
 21
218.9354
 31
0.0
  0
ARC
  5
270
  8
WHITE
 10
227.5029371589433
 20
219.7591548778828
 30
0.0
 40
1.763438908086071
 50
242.7023148318941
 51
332.1518531490987
  0
LINE
  5
271
  8
WHITE
 10
226.6942
 20
218.1921
 30
0.0
 11
214.4416
 21
224.55245
 31
0.0
  0
ARC
  5
272
  8
WHITE
 10
211.3192626510229
 20
218.5412374996619
 30
0.0
 40
6.773748315743532
 50
62.55178282268866
 51
109.8704722423968
  0
ARC
  5
273
  8
WHITE
 10
162.5904232682889
 20
352.2352004496943
 30
0.0
 40
135.5237673195496
 50
267.4751341441767
 51
290.0335748187244
  0
ARC
  5
274
  8
WHITE
 10
156.620370660426
 20
217.1196867409626
 30
0.0
 40
0.2766867935942728
 50
174.6260554275696
 51
269.9646599585377
  0
ARC
  5
275
  8
WHITE
 10
351.4555822104977
 20
189.419646407584
 30
0.0
 40
197.070816751884
 50
160.0339789524436
 51
171.9122067382519
  0
ARC
  5
276
  8
WHITE
 10
115.6889984595749
 20
271.4344967453886
 30
0.0
 40
52.64132757205743
 50
343.7591534148002
 51
5.652070268380139
  0
ARC
  5
277
  8
WHITE
 10
144.6671832317429
 20
273.6092650642659
 30
0.0
 40
23.59992163587746
 50
7.326974067900315
 51
51.8792697234839
  0
ARC
  5
278
  8
WHITE
 10
160.1168618306986
 20
293.48339255686
 30
0.0
 40
1.576837061628878
 50
56.02926946747402
 51
236.0348046758219
  0
LINE
  5
279
  8
WHITE
 10
160.99795
 20
294.7911
 30
0.0
 11
167.9092
 21
290.744
 31
0.0
  0
ARC
  5
27A
  8
WHITE
 10
161.5064861160529
 20
281.476392804219
 30
0.0
 40
11.26424823123943
 50
13.65604462974763
 51
55.36055977465091
  0
ARC
  5
27B
  8
WHITE
 10
58.80645296183543
 20
278.7126522645081
 30
0.0
 40
113.7751689973822
 50
346.7082252338721
 51
2.732065885933421
  0
ARC
  5
27C
  8
WHITE
 10
400.9278397180847
 20
198.1420283146457
 30
0.0
 40
237.7055522583946
 50
166.767242730403
 51
173.9413990249509
  0
ARC
  5
27D
  8
WHITE
 10
164.8225850274725
 20
223.2004850274725
 30
0.0
 40
0.2742655551860742
 50
173.6540471338677
 51
276.3459528661382
  0
ARC
  5
27E
  8
WHITE
 10
145.4870172254302
 20
357.4985212597293
 30
0.0
 40
135.9569399547809
 50
278.1891382702566
 51
296.5923307586137
  0
ARC
  5
27F
  8
WHITE
 10
210.3527959340616
 20
227.9336876513215
 30
0.0
 40
8.938249157965958
 50
64.16083366149594
 51
116.6280603028515
  0
ARC
  5
280
  8
WHITE
 10
220.4458061305013
 20
248.7963616740219
 30
0.0
 40
14.23760191725338
 50
244.1970543753013
 51
295.2944037808463
  0
ARC
  5
281
  8
WHITE
 10
228.9325323588423
 20
230.8574282056528
 30
0.0
 40
5.607549398987667
 50
332.5201561333814
 51
115.3791602778813
  0
LINE
  5
282
  8
WHITE
 10
233.9074
 20
228.2699
 30
0.0
 11
231.51815
 21
223.6641
 31
0.0
  0
ARC
  5
283
  8
WHITE
 10
40.56787381405871
 20
150.8218563546339
 30
0.0
 40
0.5504443480109386
 50
109.8793905721706
 51
201.4628429081865
  0
LINE
  5
284
  8
WHITE
 10
40.3807
 20
151.3395
 30
0.0
 11
48.13655
 21
154.1481
 31
0.0
  0
ARC
  5
285
  8
WHITE
 10
48.04283531982803
 20
154.4069344507588
 30
0.0
 40
0.2752775221105575
 50
289.9035065389688
 51
20.95874015373795
  0
LINE
  5
286
  8
WHITE
 10
48.2999
 20
154.5054
 30
0.0
 11
47.4481
 21
156.81895
 31
0.0
  0
ARC
  5
287
  8
WHITE
 10
47.18862285754206
 20
156.727090773089
 30
0.0
 40
0.275257161626776
 50
19.49481045069986
 51
110.9508476891251
  0
LINE
  5
288
  8
WHITE
 10
47.0902
 20
156.98415
 30
0.0
 11
39.3433
 21
154.1694
 31
0.0
  0
ARC
  5
289
  8
WHITE
 10
39.15519481946555
 20
154.6869415376644
 30
0.0
 40
0.5506657808071729
 50
200.4549421632857
 51
289.9741356150814
  0
LINE
  5
28A
  8
WHITE
 10
38.63925
 20
154.4945
 30
0.0
 11
38.2243
 21
155.6074
 31
0.0
  0
ARC
  5
28B
  8
WHITE
 10
39.88313299621151
 20
156.2027871091138
 30
0.0
 40
1.762445096738882
 50
109.3868082009071
 51
199.7440399185678
  0
LINE
  5
28C
  8
WHITE
 10
39.2981
 20
157.8653
 30
0.0
 11
52.2665
 21
162.5736
 31
0.0
  0
ARC
  5
28D
  8
WHITE
 10
49.94584018588116
 20
168.9364106619923
 30
0.0
 40
6.772800122049136
 50
290.0380473514042
 51
337.5112415494262
  0
ARC
  5
28E
  8
WHITE
 10
181.3978096181734
 20
114.4415973800141
 30
0.0
 40
135.5272532427913
 50
134.9242810966428
 51
157.4816180507899
  0
ARC
  5
28F
  8
WHITE
 10
85.87100660011544
 20
210.1886147608774
 30
0.0
 40
0.277108347826283
 50
41.54631113507134
 51
130.1580231018438
  0
ARC
  5
290
  8
WHITE
 10
-66.26871082896005
 20
85.36987636344402
 30
0.0
 40
197.0666716962541
 50
27.49169481987279
 51
39.36926465466175
  0
ARC
  5
291
  8
WHITE
 10
153.5679411145395
 20
203.6238883256487
 30
0.0
 40
52.64512526244142
 50
211.2158951789291
 51
233.0949055591653
  0
ARC
  5
292
  8
WHITE
 10
135.5825775446579
 20
180.7921033043088
 30
0.0
 40
23.59761363062023
 50
234.7252344520049
 51
279.3380343223141
  0
ARC
  5
293
  8
WHITE
 10
139.7695942399765
 20
155.9791779342499
 30
0.0
 40
1.569421204815161
 50
283.1803914958379
 51
103.189333542749
  0
LINE
  5
294
  8
WHITE
 10
140.12745
 20
154.4511
 30
0.0
 11
132.50055
 21
152.1107
 31
0.0
  0
ARC
  5
295
  8
WHITE
 10
130.0003266232719
 20
163.0959235997701
 30
0.0
 40
11.26615526568325
 50
241.0285685379323
 51
282.8220281436306
  0
ARC
  5
296
  8
WHITE
 10
197.3889736485577
 20
240.6410197155862
 30
0.0
 40
113.7782946682372
 50
214.1770075278797
 51
230.1901126685867
  0
ARC
  5
297
  8
WHITE
 10
-93.386444688376
 20
43.11235144669674
 30
0.0
 40
237.7439966001029
 50
34.19463867550115
 51
41.36936412928399
  0
ARC
  5
298
  8
WHITE
 10
84.82196476090212
 20
200.0616898671464
 30
0.0
 40
0.275451725561155
 50
40.31384874172601
 51
146.8291048798625
  0
ARC
  5
299
  8
WHITE
 10
196.8422886527435
 20
123.4931707645262
 30
0.0
 40
135.9636059312043
 50
145.648873145031
 51
164.0452889058961
  0
ARC
  5
29A
  8
WHITE
 10
57.51966384586913
 20
163.3171705100526
 30
0.0
 40
8.938931731526434
 50
291.5413863879618
 51
344.0882181357449
  0
ARC
  5
29B
  8
WHITE
 10
66.05383627922745
 20
141.7695504318162
 30
0.0
 40
14.2371867288566
 50
111.6475253901836
 51
162.722052057597
  0
ARC
  5
29C
  8
WHITE
 10
47.10345099018833
 20
147.6626298078191
 30
0.0
 40
5.608354107705299
 50
199.9365185716985
 51
342.734812956924
  0
LINE
  5
29D
  8
WHITE
 10
41.8312
 20
145.7503
 30
0.0
 11
40.1516
 21
150.3759
 31
0.0
  0
LINE
  5
29E
  8
WHITE
 10
40.1516
 20
150.3759
 30
0.0
 11
40.0556
 21
150.62045
 31
0.0
  0
ARC
  5
29F
  8
WHITE
 10
29.10463483982395
 20
224.6768361900104
 30
0.0
 40
0.5503981655821911
 50
7.439361407505212
 51
97.67784524610553
  0
LINE
  5
2A0
  8
WHITE
 10
29.6504
 20
224.7481
 30
0.0
 11
30.0191
 21
221.9366
 31
0.0
  0
ARC
  5
2A1
  8
WHITE
 10
30.28910775543435
 20
221.9891973918214
 30
0.0
 40
0.2750830304128295
 50
191.0231448894252
 51
276.8883851044317
  0
LINE
  5
2A2
  8
WHITE
 10
30.3221
 20
221.7161
 30
0.0
 11
32.8001
 21
222.0468
 31
0.0
  0
ARC
  5
2A3
  8
WHITE
 10
32.74758375267918
 20
222.3164675558271
 30
0.0
 40
0.2747335925918877
 50
281.0201001910361
 51
6.947650645031441
  0
LINE
  5
2A4
  8
WHITE
 10
33.0203
 20
222.3497
 30
0.0
 11
32.60735
 21
225.4334
 31
0.0
  0
ARC
  5
2A5
  8
WHITE
 10
32.87955697644315
 20
225.4635622821871
 30
0.0
 40
0.2738729656082436
 50
95.1023590864567
 51
186.3229468901139
  0
ARC
  5
2A6
  8
WHITE
 10
31.67637984349195
 20
235.5190148346838
 30
0.0
 40
9.853433321901013
 50
276.8710651672435
 51
16.67813064633165
  0
ARC
  5
2A7
  8
WHITE
 10
-8.424945630660472
 20
223.5909907560479
 30
0.0
 40
51.69112878204464
 50
16.58653156280541
 51
33.12512017849566
  0
ARC
  5
2A8
  8
WHITE
 10
36.00811123392801
 20
252.5404094490243
 30
0.0
 40
1.341101792979146
 50
54.20521575840903
 51
211.5544159512531
  0
ARC
  5
2A9
  8
WHITE
 10
21.79767590087937
 20
233.8230755841422
 30
0.0
 40
24.84125002674332
 50
325.0610216207153
 51
52.86996627103694
  0
ARC
  5
2AA
  8
WHITE
 10
30.78735447331096
 20
227.5453817370473
 30
0.0
 40
13.8765907901515
 50
230.2976663030753
 51
325.0519198276173
  0
ARC
  5
2AB
  8
WHITE
 10
37.8075814265256
 20
235.9693082492224
 30
0.0
 40
24.8422600070844
 50
142.4085668393153
 51
230.2515854422109
  0
ARC
  5
2AC
  8
WHITE
 10
19.19747085092742
 20
250.3215425937663
 30
0.0
 40
1.340864231577451
 50
340.9367227486671
 51
143.2534476520536
  0
ARC
  5
2AD
  8
WHITE
 10
69.69512359937458
 20
234.1208298572268
 30
0.0
 40
51.69225942317708
 50
162.2457570614626
 51
178.7947792306771
  0
ARC
  5
2AE
  8
WHITE
 10
27.86591830089588
 20
234.9987588277536
 30
0.0
 40
9.853842239093549
 50
178.7826811324416
 51
275.1632328446967
  0
LINE
  5
2AF
  8
WHITE
 10
28.7527
 20
225.1849
 30
0.0
 11
29.0311
 21
225.2223
 31
0.0
  0
ARC
  5
2B0
  8
WHITE
 10
189.8521847660514
 20
197.2054783359719
 30
0.0
 40
10.39390506703445
 50
29.03408098283552
 51
47.69972379570586
  0
ARC
  5
2B1
  8
WHITE
 10
189.8657609381936
 20
197.1816350505936
 30
0.0
 40
10.40243595614365
 50
47.84341581323422
 51
117.8405039046462
  0
ARC
  5
2B2
  8
WHITE
 10
186.5223979006678
 20
203.5164923389433
 30
0.0
 40
3.239442213594479
 50
117.8773136249691
 51
228.4438051984284
  0
ARC
  5
2B3
  8
WHITE
 10
227.2801714472824
 20
249.5492057664789
 30
0.0
 40
64.72282811941467
 50
228.4763230864434
 51
253.33060258612
  0
ARC
  5
2B4
  8
WHITE
 10
209.446570589453
 20
188.9499051702048
 30
0.0
 40
1.58304605800584
 50
242.4550549674132
 51
3.032423531138625
  0
LINE
  5
2B5
  8
WHITE
 10
211.0274
 20
189.03365
 30
0.0
 11
198.9399
 21
202.24995
 31
0.0
  0
ARC
  5
2B6
  8
WHITE
 10
191.4722273372122
 20
251.3730278053745
 30
0.0
 40
0.5507249030249541
 50
355.5606896482744
 51
74.60816920347015
  0
LINE
  5
2B7
  8
WHITE
 10
192.0213
 20
251.3304
 30
0.0
 11
191.78115
 21
248.2315
 31
0.0
  0
ARC
  5
2B8
  8
WHITE
 10
192.0564957054114
 20
248.2040374035698
 30
0.0
 40
0.2767118567954406
 50
174.3042358155678
 51
264.2869416812539
  0
LINE
  5
2B9
  8
WHITE
 10
192.02895
 20
247.9287
 30
0.0
 11
194.50705
 21
247.73595
 31
0.0
  0
ARC
  5
2BA
  8
WHITE
 10
194.5344914539082
 20
248.0112604390933
 30
0.0
 40
0.2766746668315856
 50
264.307867729748
 51
354.3039166455723
  0
LINE
  5
2BB
  8
WHITE
 10
194.8098
 20
247.9838
 30
0.0
 11
195.0578
 21
251.3154
 31
0.0
  0
ARC
  5
2BC
  8
WHITE
 10
195.3343850148328
 20
251.3157377281314
 30
0.0
 40
0.2765852210266221
 50
96.01541129771111
 51
180.0699618052272
  0
ARC
  5
2BD
  8
WHITE
 10
194.6776780590543
 20
261.4148986054817
 30
0.0
 40
9.844132681215362
 50
273.6560088453599
 51
349.7204326481066
  0
ARC
  5
2BE
  8
WHITE
 10
172.3676922782955
 20
265.3817838407124
 30
0.0
 40
32.50400469666135
 50
349.8579873868925
 51
25.54879815144903
  0
ARC
  5
2BF
  8
WHITE
 10
202.8822218597077
 20
279.9433511414444
 30
0.0
 40
1.307065115745745
 50
42.81642152381321
 51
204.5587880366801
  0
ARC
  5
2C0
  8
WHITE
 10
184.8290144384111
 20
263.4330050354739
 30
0.0
 40
25.77149940268696
 50
315.8396344221677
 51
42.46298826511262
  0
ARC
  5
2C1
  8
WHITE
 10
193.4487742958411
 20
252.5535460232475
 30
0.0
 40
12.14248042481854
 50
206.8191614089677
 51
324.3632613618993
  0
ARC
  5
2C2
  8
WHITE
 10
203.659100502435
 20
261.9462587617466
 30
0.0
 40
25.7703992565675
 50
128.5581193744192
 51
215.2441380567475
  0
ARC
  5
2C3
  8
WHITE
 10
188.5455884378707
 20
281.2174375352461
 30
0.0
 40
1.294953583256575
 50
317.1521870826664
 51
137.1506826002723
  0
ARC
  5
2C4
  8
WHITE
 10
216.3177803617236
 20
261.9745215489575
 30
0.0
 40
32.50591971082935
 50
145.6053267181819
 51
181.5594494811811
  0
ARC
  5
2C5
  8
WHITE
 10
194.3362491898933
 20
262.1059189719863
 30
0.0
 40
10.56133419799254
 50
185.5204926071371
 51
253.0532391111834
  0
LINE
  5
2C6
  8
WHITE
 10
191.2578
 20
252.0032
 30
0.0
 11
191.6184
 21
251.904
 31
0.0
  0
LINE
  5
2C7
  8
WHITE
 10
313.15085
 20
17.6899
 30
0.0
 11
312.5454
 21
18.241
 31
0.0
  0
ARC
  5
2C8
  8
WHITE
 10
311.6798061340289
 20
16.72111663308334
 30
0.0
 40
1.749084957867034
 50
60.3379096372169
 51
133.3383418279605
  0
ARC
  5
2C9
  8
WHITE
 10
300.7876124238392
 20
25.28378168892996
 30
0.0
 40
12.12776148877926
 50
286.7584465179021
 51
323.0481216147573
  0
ARC
  5
2CA
  8
WHITE
 10
306.6006613699726
 20
5.998199384956065
 30
0.0
 40
8.014861654457599
 50
106.7970989631898
 51
226.0112224142096
  0
ARC
  5
2CB
  8
WHITE
 10
300.3306646443937
 20
-0.4605175149472209
 30
0.0
 40
0.986978766026786
 50
272.5746084065783
 51
44.53541181640588
  0
ARC
  5
2CC
  8
WHITE
 10
288.5878101759078
 20
264.6724730396103
 30
0.0
 40
266.3798897357044
 50
258.4329133332598
 51
272.5361404650855
  0
ARC
  5
2CD
  8
WHITE
 10
234.8166471553442
 20
2.215850684879451
 30
0.0
 40
1.52923306431969
 50
76.46298843476679
 51
256.4632076871905
  0
ARC
  5
2CE
  8
WHITE
 10
303.648349322855
 20
239.1860208312639
 30
0.0
 40
248.2919867127155
 50
253.8196092026322
 51
272.5875918539123
  0
ARC
  5
2CF
  8
WHITE
 10
315.5716639936946
 20
-1.302709345676231
 30
0.0
 40
7.58375421062695
 50
264.5994712438625
 51
10.20262687597996
  0
LINE
  5
2D0
  8
WHITE
 10
323.0355
 20
0.0406
 30
0.0
 11
320.2821
 21
9.5123
 31
0.0
  0
ARC
  5
2D1
  8
WHITE
 10
332.2408145801169
 20
13.15584914227555
 30
0.0
 40
12.50145210609058
 50
172.7015768221613
 51
196.9447897989924
  0
ARC
  5
2D2
  8
WHITE
 10
317.1763001509469
 20
15.06669539826081
 30
0.0
 40
2.683820492918264
 50
353.0942004975942
 51
106.8198637922583
  0
ARC
  5
2D3
  8
WHITE
 10
316.4549614774134
 20
17.36499364494348
 30
0.0
 40
0.276289271514296
 50
101.5377258735483
 51
175.4315697553826
  0
LINE
  5
2D4
  8
WHITE
 10
316.17955
 20
17.387
 30
0.0
 11
315.684
 21
9.65
 31
0.0
  0
ARC
  5
2D5
  8
WHITE
 10
315.408551785943
 20
9.677664508468808
 30
0.0
 40
0.2768339640579093
 50
264.2986051923453
 51
354.2647584020833
  0
LINE
  5
2D6
  8
WHITE
 10
315.38105
 20
9.4022
 30
0.0
 11
312.87545
 21
9.567450000000001
 31
0.0
  0
ARC
  5
2D7
  8
WHITE
 10
312.9031936368657
 20
9.842962937664034
 30
0.0
 40
0.2769062805477705
 50
174.3135576982802
 51
264.2498058961629
  0
LINE
  5
2D8
  8
WHITE
 10
312.62765
 20
9.8704
 30
0.0
 11
313.15085
 21
17.6899
 31
0.0
  0
ARC
  5
2D9
  8
WHITE
 10
229.2135055185776
 20
72.1737275119366
 30
0.0
 40
24.17140956121803
 50
238.2847729589161
 51
270.4894793646023
  0
ARC
  5
2DA
  8
WHITE
 10
225.2152225090387
 20
153.7962275212958
 30
0.0
 40
105.8765546562134
 50
272.2760409850305
 51
285.9036120695148
  0
LINE
  5
2DB
  8
WHITE
 10
254.2275
 20
51.9722
 30
0.0
 11
304.83555
 21
68.0771
 31
0.0
  0
ARC
  5
2DC
  8
WHITE
 10
304.3124728240008
 20
69.77042249918854
 30
0.0
 40
1.772272783267136
 50
287.1662231153007
 51
107.1711513712355
  0
ARC
  5
2DD
  8
WHITE
 10
188.071566285642
 20
441.3213965150871
 30
0.0
 40
387.5374794721957
 50
274.3261788104851
 51
287.3733791746138
  0
ARC
  5
2DE
  8
WHITE
 10
217.4157024314374
 20
53.12569923911905
 30
0.0
 40
1.765861611029393
 50
93.58774568298375
 51
239.0164091255724
  0
ARC
  5
2DF
  8
WHITE
 10
229.5020245181389
 20
82.35257801979564
 30
0.0
 40
4.308725535287569
 50
102.9122922541998
 51
254.061151272814
  0
ARC
  5
2E0
  8
WHITE
 10
252.1656831014046
 20
162.9343400009417
 30
0.0
 40
88.0168867140688
 50
254.2800687668467
 51
276.3561586935331
  0
ARC
  5
2E1
  8
WHITE
 10
233.668378285878
 20
330.4441286353676
 30
0.0
 40
256.544838886505
 50
276.3201667360985
 51
285.3770838343993
  0
ARC
  5
2E2
  8
WHITE
 10
301.5585670618128
 20
83.86775300003453
 30
0.0
 40
0.7965857802522701
 50
279.9713176614475
 51
99.9738097138742
  0
ARC
  5
2E3
  8
WHITE
 10
237.8483173389939
 20
1101.626492903491
 30
0.0
 40
1018.959245580723
 50
271.0403001332955
 51
273.5769738986459
  0
ARC
  5
2E4
  8
WHITE
 10
256.8381524554133
 20
192.3825495537815
 30
0.0
 40
109.5484452088068
 50
255.0293842661763
 51
269.7437453229691
  0
ARC
  5
2E5
  8
WHITE
 10
139.6637383059061
 20
-101.9132780401632
 30
0.0
 40
231.2137858453098
 50
77.48384654845565
 51
86.2935926764546
  0
ARC
  5
2E6
  8
WHITE
 10
150.8017924701302
 20
70.92503430342519
 30
0.0
 40
58.01700477821421
 50
86.23613053591124
 51
117.6449680386546
  0
ARC
  5
2E7
  8
WHITE
 10
126.2475764894718
 20
117.8666183995293
 30
0.0
 40
5.041426467768829
 50
117.9790228840152
 51
289.8205502181422
  0
ARC
  5
2E8
  8
WHITE
 10
164.6260860371528
 20
12.93826105020727
 30
0.0
 40
106.6853978012781
 50
87.7038496288013
 51
110.1032110579537
  0
ARC
  5
2E9
  8
WHITE
 10
117.5669111616534
 20
-1148.641467157877
 30
0.0
 40
1269.217982852888
 50
85.8182524609769
 51
87.68204141938833
  0
ARC
  5
2EA
  8
WHITE
 10
210.3335394796459
 20
119.2983854970716
 30
0.0
 40
2.111771742395176
 50
264.1664104790804
 51
89.10569151326149
  0
ARC
  5
2EB
  8
WHITE
 10
216.6828900321535
 20
265.4290449595999
 30
0.0
 40
144.1575904971103
 50
259.2407621408902
 51
267.4887316854327
  0
LINE
  5
2EC
  8
WHITE
 10
-14.338
 20
301.5585
 30
0.0
 11
-14.338
 21
-12.1568
 31
0.0
  0
LINE
  5
2ED
  8
WHITE
 10
-14.338
 20
-12.1568
 30
0.0
 11
355.6617
 21
-12.1568
 31
0.0
  0
LINE
  5
2EE
  8
WHITE
 10
355.6617
 20
-12.1568
 30
0.0
 11
355.6617
 21
301.5585
 31
0.0
  0
LINE
  5
2EF
  8
WHITE
 10
355.6617
 20
301.5585
 30
0.0
 11
-14.338
 21
301.5585
 31
0.0
  0
LINE
  5
2F0
  8
WHITE
 10
81.0121
 20
139.3348
 30
0.0
 11
79.112
 21
140.9316
 31
0.0
  0
ARC
  5
2F1
  8
WHITE
 10
78.93321608062529
 20
140.7226739263537
 30
0.0
 40
0.2749796248383721
 50
49.4454653554027
 51
138.6475422282987
  0
LINE
  5
2F2
  8
WHITE
 10
78.7268
 20
140.90435
 30
0.0
 11
69.1141
 21
129.4063
 31
0.0
  0
ARC
  5
2F3
  8
WHITE
 10
68.69162256681466
 20
129.7594815210571
 30
0.0
 40
0.5506581229466275
 50
229.8550068561167
 51
320.1051440730036
  0
LINE
  5
2F4
  8
WHITE
 10
68.3366
 20
129.33855
 30
0.0
 11
66.9968
 21
130.4684
 31
0.0
  0
ARC
  5
2F5
  8
WHITE
 10
68.49259910282244
 20
132.2344385530179
 30
0.0
 40
2.314369703990714
 50
141.003777991787
 51
229.7360723318637
  0
ARC
  5
2F6
  8
WHITE
 10
52.5585654762055
 20
145.2049944937848
 30
0.0
 40
18.23141127121764
 50
320.8348338220265
 51
22.35124650261591
  0
ARC
  5
2F7
  8
WHITE
 10
78.27184641468621
 20
152.7964430050294
 30
0.0
 40
8.876044986409035
 50
64.55207005452597
 51
184.2535776599171
  0
ARC
  5
2F8
  8
WHITE
 10
81.98400496954417
 20
160.5576300449046
 30
0.0
 40
0.2733325343672212
 50
331.1877776296462
 51
68.13493816231986
  0
LINE
  5
2F9
  8
WHITE
 10
82.2235
 20
160.4259
 30
0.0
 11
77.679
 21
152.9925
 31
0.0
  0
ARC
  5
2FA
  8
WHITE
 10
77.91451467769288
 20
152.8512999522599
 30
0.0
 40
0.2745990110881643
 50
149.0557023966205
 51
243.152267254367
  0
LINE
  5
2FB
  8
WHITE
 10
77.7905
 20
152.6063
 30
0.0
 11
79.8823
 21
151.3107
 31
0.0
  0
ARC
  5
2FC
  8
WHITE
 10
80.02354392275478
 20
151.5462824452002
 30
0.0
 40
0.2746796938284324
 50
239.0551217158059
 51
333.1449424437571
  0
LINE
  5
2FD
  8
WHITE
 10
80.2686
 20
151.4222
 30
0.0
 11
84.8392
 21
158.9115
 31
0.0
  0
ARC
  5
2FE
  8
WHITE
 10
85.07771238636832
 20
158.773904537931
 30
0.0
 40
0.2753555331441397
 50
88.04625356610649
 51
150.0197732717204
  0
ARC
  5
2FF
  8
WHITE
 10
85.48318836426269
 20
166.7004968114471
 30
0.0
 40
7.661642066719597
 50
267.0366257694621
 51
314.3774122683594
  0
ARC
  5
300
  8
WHITE
 10
94.99932179316288
 20
157.9340025377224
 30
0.0
 40
5.302172850054808
 50
321.6417725657795
 51
141.6425315408236
  0
ARC
  5
301
  8
WHITE
 10
105.2995891698873
 20
150.0645036346839
 30
0.0
 40
7.661561540108399
 50
143.296693204991
 51
193.0201653977805
  0
LINE
  5
302
  8
WHITE
 10
97.835
 20
148.3384
 30
0.0
 11
97.72515
 21
148.0907
 31
0.0
  0
LINE
  5
303
  8
WHITE
 10
97.72515
 20
148.0907
 30
0.0
 11
91.1444
 21
142.2812
 31
0.0
  0
ARC
  5
304
  8
WHITE
 10
91.32627182653435
 20
142.0744566423463
 30
0.0
 40
0.2753546390037511
 50
131.3380410291655
 51
220.5350654503027
  0
LINE
  5
305
  8
WHITE
 10
91.117
 20
141.8955
 30
0.0
 11
92.7689
 21
140.0506
 31
0.0
  0
ARC
  5
306
  8
WHITE
 10
92.97561616836258
 20
140.2324156598185
 30
0.0
 40
0.2752971275145001
 50
221.3330017613681
 51
310.5390545865092
  0
LINE
  5
307
  8
WHITE
 10
93.15455
 20
140.0232
 30
0.0
 11
99.68
 21
145.7503
 31
0.0
  0
ARC
  5
308
  8
WHITE
 10
99.87371576969696
 20
145.5599985600422
 30
0.0
 40
0.2715519056815983
 50
36.57252450019083
 51
135.5094082358535
  0
ARC
  5
309
  8
WHITE
 10
92.88421262857366
 20
140.5406836269817
 30
0.0
 40
8.876558037184363
 50
275.6631551574305
 51
35.71016614556366
  0
ARC
  5
30A
  8
WHITE
 10
89.85335981476561
 20
113.901346031939
 30
0.0
 40
18.22965573105655
 50
77.62497392055307
 51
139.1887003219722
  0
ARC
  5
30B
  8
WHITE
 10
74.31832258834703
 20
127.3412575530268
 30
0.0
 40
2.312287799847803
 50
230.0787945151018
 51
318.7183441823016
  0
LINE
  5
30C
  8
WHITE
 10
72.83445
 20
125.5679
 30
0.0
 11
71.49895000000001
 21
126.6739
 31
0.0
  0
ARC
  5
30D
  8
WHITE
 10
71.85025585628858
 20
127.0980230132741
 30
0.0
 40
0.5507232835565554
 50
140.036810681318
 51
230.3646656675754
  0
LINE
  5
30E
  8
WHITE
 10
71.42815
 20
127.45175
 30
0.0
 11
81.06715
 21
138.9493
 31
0.0
  0
ARC
  5
30F
  8
WHITE
 10
80.8467058153939
 20
139.1145008401749
 30
0.0
 40
0.2754758721215795
 50
323.152115558257
 51
53.10184675974673
  0
LINE
  5
310
  8
WHITE
 10
323.03555
 20
61.9921
 30
0.0
 11
322.26455
 21
61.7168
 31
0.0
  0
LINE
  5
311
  8
WHITE
 10
322.26455
 20
61.7168
 30
0.0
 11
318.32725
 21
72.565
 31
0.0
  0
ARC
  5
312
  8
WHITE
 10
318.0678850991783
 20
72.47344361686334
 30
0.0
 40
0.2750504009655722
 50
19.44314436649211
 51
111.0146940706272
  0
LINE
  5
313
  8
WHITE
 10
317.96925
 20
72.7302
 30
0.0
 11
315.6565
 21
71.87675
 31
0.0
  0
ARC
  5
314
  8
WHITE
 10
315.7481127753742
 20
71.61732320564083
 30
0.0
 40
0.2751275381404727
 50
109.4499279022726
 51
200.9947164954954
  0
LINE
  5
315
  8
WHITE
 10
315.49125
 20
71.51875
 30
0.0
 11
319.31845
 21
60.9457
 31
0.0
  0
ARC
  5
316
  8
WHITE
 10
319.0624360942006
 20
60.84655223575511
 30
0.0
 40
0.274542162731765
 50
289.3384289073589
 51
21.17013601887522
  0
LINE
  5
317
  8
WHITE
 10
319.15335
 20
60.5875
 30
0.0
 11
316.37235
 21
59.5691
 31
0.0
  0
ARC
  5
318
  8
WHITE
 10
315.5981150319454
 20
61.75006320902509
 30
0.0
 40
2.314312058664394
 50
261.8718512589179
 51
289.5446996852356
  0
ARC
  5
319
  8
WHITE
 10
305.6368881433712
 20
-12.38802801550163
 30
0.0
 40
72.49006565808821
 50
82.36272995945463
 51
111.2708899087307
  0
ARC
  5
31A
  8
WHITE
 10
218.5673484447042
 20
188.3983812660579
 30
0.0
 40
146.4400426084567
 50
274.0988478350384
 51
294.5189440164899
  0
ARC
  5
31B
  8
WHITE
 10
226.3765075120739
 20
79.61158059322096
 30
0.0
 40
37.3733187024816
 50
216.4757431130222
 51
274.078322007625
  0
ARC
  5
31C
  8
WHITE
 10
204.6697869398553
 20
64.28005262143894
 30
0.0
 40
10.81977945383226
 50
137.8058702567257
 51
219.5276387885295
  0
ARC
  5
31D
  8
WHITE
 10
185.6974535427814
 20
114.8958842458497
 30
0.0
 40
44.7119271786013
 50
284.1842449621969
 51
304.6787455109913
  0
ARC
  5
31E
  8
WHITE
 10
89.17488067215794
 20
216.3426757070612
 30
0.0
 40
184.3325376005659
 50
311.4253751719483
 51
324.6661299725359
  0
ARC
  5
31F
  8
WHITE
 10
260.1314886235003
 20
95.14302030701278
 30
0.0
 40
25.22776003030176
 50
38.54827617464172
 51
144.659009643662
  0
ARC
  5
320
  8
WHITE
 10
429.2785969777955
 20
240.7700806765193
 30
0.0
 40
197.9922244828041
 50
221.0042923912756
 51
228.6611997601998
  0
LINE
  5
321
  8
WHITE
 10
298.5027
 20
92.11415
 30
0.0
 11
298.72305
 21
92.0591
 31
0.0
  0
LINE
  5
322
  8
WHITE
 10
298.72305
 20
92.0591
 30
0.0
 11
304.0371
 21
92.49965
 31
0.0
  0
ARC
  5
323
  8
WHITE
 10
305.7965686481214
 20
84.72392534706661
 30
0.0
 40
7.972303544268627
 50
36.05129370439295
 51
102.7500125610738
  0
ARC
  5
324
  8
WHITE
 10
241.6962349506452
 20
37.80304301654141
 30
0.0
 40
87.41044237649142
 50
18.12337420511195
 51
36.18989123280449
  0
ARC
  5
325
  8
WHITE
 10
322.5727659850766
 20
64.27467530135597
 30
0.0
 40
2.311907862900694
 50
290.0584268044346
 51
18.10963214428274
  0
LINE
  5
326
  8
WHITE
 10
323.3657
 20
62.103
 30
0.0
 11
323.03555
 21
61.9921
 31
0.0
  0
ARC
  5
327
  8
WHITE
 10
257.4556975040803
 20
234.7692919566191
 30
0.0
 40
0.5505468914774074
 50
318.4320783745396
 51
36.84127167204041
  0
LINE
  5
328
  8
WHITE
 10
257.8676
 20
234.404
 30
0.0
 11
255.7975
 21
232.0691
 31
0.0
  0
ARC
  5
329
  8
WHITE
 10
256.0069841708708
 20
231.8902056383172
 30
0.0
 40
0.2754756077900681
 50
139.5034829959009
 51
228.6529708225746
  0
LINE
  5
32A
  8
WHITE
 10
255.825
 20
231.6834
 30
0.0
 11
257.6699
 21
230.0591
 31
0.0
  0
ARC
  5
32B
  8
WHITE
 10
257.8641780892759
 20
230.2559653906183
 30
0.0
 40
0.2765862577858251
 50
225.37898953415
 51
322.2933456888938
  0
LINE
  5
32C
  8
WHITE
 10
258.083
 20
230.0868
 30
0.0
 11
260.2856
 21
232.5647
 31
0.0
  0
ARC
  5
32D
  8
WHITE
 10
260.4865758059331
 20
232.3777250221366
 30
0.0
 40
0.2745012147832435
 50
61.86903161443605
 51
137.0668610527767
  0
ARC
  5
32E
  8
WHITE
 10
265.434492090256
 20
240.7565566432546
 30
0.0
 40
9.456462060168516
 50
239.3664789541885
 51
291.5215105759801
  0
ARC
  5
32F
  8
WHITE
 10
255.2871051499685
 20
251.0232136489854
 30
0.0
 40
23.42729013019166
 50
305.536653072451
 51
349.4771675975803
  0
ARC
  5
330
  8
WHITE
 10
279.6970550745362
 20
246.607125741676
 30
0.0
 40
1.38351712339438
 50
354.2868829323665
 51
174.2911066404709
  0
ARC
  5
331
  8
WHITE
 10
255.6389167368207
 20
246.8606177505169
 30
0.0
 40
25.43779178649797
 50
292.7158358549195
 51
359.1187910537644
  0
ARC
  5
332
  8
WHITE
 10
260.5554873117599
 20
235.166823170738
 30
0.0
 40
12.75249563327293
 50
164.2778499148797
 51
292.6281721279208
  0
ARC
  5
333
  8
WHITE
 10
272.7560411854712
 20
231.70313557937
 30
0.0
 40
25.43517086707387
 50
97.77133565590499
 51
164.2145847811016
  0
ARC
  5
334
  8
WHITE
 10
269.6196886417132
 20
255.5555699011043
 30
0.0
 40
1.382734298682663
 50
282.6499884673494
 51
102.6575173500461
  0
ARC
  5
335
  8
WHITE
 10
276.9646889159509
 20
231.8653585478889
 30
0.0
 40
23.42465704963229
 50
107.4955341851295
 51
152.2287689202417
  0
ARC
  5
336
  8
WHITE
 10
265.4297415023167
 20
240.7354492302905
 30
0.0
 40
9.416167699153235
 50
167.4599896294615
 51
214.5071851983155
  0
LINE
  5
337
  8
WHITE
 10
257.6703
 20
235.4011
 30
0.0
 11
257.8963
 21
235.0994
 31
0.0
  0
ARC
  5
338
  8
WHITE
 10
287.6241682922247
 20
89.54244665109705
 30
0.0
 40
1.375500199349184
 50
301.4968161628207
 51
40.38164020607989
  0
LINE
  5
339
  8
WHITE
 10
288.67195
 20
90.4336
 30
0.0
 11
257.009
 21
96.21675
 31
0.0
  0
ARC
  5
33A
  8
WHITE
 10
258.0983647045166
 20
92.4332964750161
 30
0.0
 40
3.93716091049878
 50
106.0626260603483
 51
243.1594406359072
  0
ARC
  5
33B
  8
WHITE
 10
273.6976412361465
 20
168.0687846704318
 30
0.0
 40
81.03357768450103
 50
257.6172515845841
 51
280.4122545558926
  0
LINE
  5
33C
  8
WHITE
 10
235.7804
 20
91.0403
 30
0.0
 11
242.0856
 21
89.5536
 31
0.0
  0
LINE
  5
33D
  8
WHITE
 10
242.0856
 20
89.5536
 30
0.0
 11
248.36345
 21
88.09425
 31
0.0
  0
ARC
  5
33E
  8
WHITE
 10
248.5198104613819
 20
88.86527332036702
 30
0.0
 40
0.7867182179366091
 50
258.5361120277371
 51
31.65965372142767
  0
ARC
  5
33F
  8
WHITE
 10
311.9196915897662
 20
128.3098960719318
 30
0.0
 40
73.88204455862119
 50
200.7480510153903
 51
211.8904927022191
  0
ARC
  5
340
  8
WHITE
 10
241.4821075168566
 20
101.6068734308916
 30
0.0
 40
1.447374537689029
 50
21.46435148783801
 51
133.3365358700508
  0
ARC
  5
341
  8
WHITE
 10
263.4269274154631
 20
78.09322554809664
 30
0.0
 40
33.61048114858144
 50
133.0369192047984
 51
147.201823465671
  0
ARC
  5
342
  8
WHITE
 10
240.623824249817
 20
92.78913019122264
 30
0.0
 40
6.482062087797186
 50
147.2117393889179
 51
176.2285395465553
  0
ARC
  5
343
  8
WHITE
 10
236.2594004721723
 20
93.09233855603676
 30
0.0
 40
2.107202811264916
 50
176.6492760734338
 51
256.8609075734096
  0
LINE
  5
344
  8
WHITE
 10
171.0757
 20
189.47415
 30
0.0
 11
179.5285
 21
187.4367
 31
0.0
  0
LINE
  5
345
  8
WHITE
 10
179.5285
 20
187.4367
 30
0.0
 11
208.3841
 21
180.4155
 31
0.0
  0
ARC
  5
346
  8
WHITE
 10
208.1351780620795
 20
182.0040353097488
 30
0.0
 40
1.607919948721555
 50
278.9057716596199
 51
49.35168606762462
  0
ARC
  5
347
  8
WHITE
 10
212.1110858679768
 20
204.537169407669
 30
0.0
 40
21.51341952547145
 50
249.7558918846118
 51
262.1763980420998
  0
ARC
  5
348
  8
WHITE
 10
270.2307404453592
 20
327.9248879690016
 30
0.0
 40
157.8340179409773
 50
238.4759450897946
 51
245.4556948577004
  0
ARC
  5
349
  8
WHITE
 10
178.5849909297837
 20
178.5344340082325
 30
0.0
 40
17.42707936354385
 50
58.43988512042658
 51
101.4580312201966
  0
ARC
  5
34A
  8
WHITE
 10
178.8724931851987
 20
187.1505624496425
 30
0.0
 40
9.256949272899565
 50
113.8933525032252
 51
156.4389883236511
  0
ARC
  5
34B
  8
WHITE
 10
171.2876734527998
 20
190.4406247292921
 30
0.0
 40
0.9894473947876833
 50
155.509028302384
 51
257.6293976922781
  0
LINE
  5
34C
  8
WHITE
 10
158.6854
 20
102.1913
 30
0.0
 11
152.5452
 21
100.1816
 31
0.0
  0
LINE
  5
34D
  8
WHITE
 10
152.5452
 20
100.1816
 30
0.0
 11
146.43275
 21
98.1716
 31
0.0
  0
ARC
  5
34E
  8
WHITE
 10
147.073703043737
 20
96.17524905239519
 30
0.0
 40
2.096720751621043
 50
107.7998666628087
 51
188.680576172622
  0
ARC
  5
34F
  8
WHITE
 10
151.4108330620096
 20
96.83049775004973
 30
0.0
 40
6.483066897717674
 50
188.6201126394691
 51
217.4917200710361
  0
ARC
  5
350
  8
WHITE
 10
172.8828036913971
 20
113.4177128378399
 30
0.0
 40
33.61569651399763
 50
217.6487600255804
 51
231.8217403925365
  0
ARC
  5
351
  8
WHITE
 10
152.9963965780088
 20
88.1358206642832
 30
0.0
 40
1.449836538944784
 50
232.0407067691831
 51
344.0044583007306
  0
ARC
  5
352
  8
WHITE
 10
225.4814779357691
 20
67.58710948299534
 30
0.0
 40
73.89163616605681
 50
153.0375107060245
 51
164.1758572728152
  0
ARC
  5
353
  8
WHITE
 10
158.9136489058567
 20
101.436787364387
 30
0.0
 40
0.7882809653444464
 50
333.9087659839858
 51
106.8311805447963
  0
LINE
  5
354
  8
WHITE
 10
163.3384
 20
189.3916
 30
0.0
 11
165.0181
 21
188.6757
 31
0.0
  0
LINE
  5
355
  8
WHITE
 10
165.0181
 20
188.6757
 30
0.0
 11
165.789
 21
188.3449
 31
0.0
  0
ARC
  5
356
  8
WHITE
 10
277.9312194620935
 20
458.0468414639127
 30
0.0
 40
292.0873407309672
 50
247.422431228777
 51
262.6567954877207
  0
ARC
  5
357
  8
WHITE
 10
247.1934020020437
 20
233.2418197031039
 30
0.0
 40
65.22097185257614
 50
264.1968104904929
 51
297.6835783679593
  0
ARC
  5
358
  8
WHITE
 10
274.2495475589923
 20
181.6827797622429
 30
0.0
 40
6.994093538951018
 50
297.6408347755458
 51
88.90668810233164
  0
ARC
  5
359
  8
WHITE
 10
276.3692281855863
 20
298.1828247616864
 30
0.0
 40
109.5252362581872
 50
247.3925245706658
 51
268.9608903410705
  0
ARC
  5
35A
  8
WHITE
 10
84.00276667881177
 20
-163.0458557890843
 30
0.0
 40
390.2114679274342
 50
67.35119748991228
 51
74.19318509278544
  0
ARC
  5
35B
  8
WHITE
 10
186.8023637324927
 20
188.7777428059351
 30
0.0
 40
23.8888509347512
 50
81.59471329211931
 51
120.7937122274249
  0
ARC
  5
35C
  8
WHITE
 10
213.9003131029033
 20
143.1267892515245
 30
0.0
 40
76.97656811246212
 50
120.7242163721596
 51
135.0444488874396
  0
ARC
  5
35D
  8
WHITE
 10
160.6293138147066
 20
196.4623535980721
 30
0.0
 40
1.597799166088634
 50
138.7812706621542
 51
302.7571473208643
  0
LINE
  5
35E
  8
WHITE
 10
161.49385
 20
195.11865
 30
0.0
 11
170.2496
 21
201.6717
 31
0.0
  0
ARC
  5
35F
  8
WHITE
 10
170.4147785613328
 20
201.4514499131709
 30
0.0
 40
0.2753072063571544
 50
36.86099159297879
 51
126.8683985812352
  0
LINE
  5
360
  8
WHITE
 10
170.63505
 20
201.6166
 30
0.0
 11
172.1219
 21
199.6341
 31
0.0
  0
ARC
  5
361
  8
WHITE
 10
171.9015810295826
 20
199.4689598605864
 30
0.0
 40
0.2753392713931913
 50
306.8739054856366
 51
36.85340207761829
  0
LINE
  5
362
  8
WHITE
 10
172.0668
 20
199.2487
 30
0.0
 11
162.9532
 21
192.4203
 31
0.0
  0
ARC
  5
363
  8
WHITE
 10
164.0235186254941
 20
191.017581133668
 30
0.0
 40
1.764426869565094
 50
127.3447708506392
 51
247.1515317392556
  0
LINE
  5
364
  8
WHITE
 10
167.9919
 20
94.8676
 30
0.0
 11
176.8302
 21
97.263
 31
0.0
  0
LINE
  5
365
  8
WHITE
 10
176.8302
 20
97.263
 30
0.0
 11
199.05015
 21
103.3756
 31
0.0
  0
ARC
  5
366
  8
WHITE
 10
197.9259643636676
 20
104.1727898375729
 30
0.0
 40
1.378152742646977
 50
324.6585357659611
 51
64.14592769721662
  0
ARC
  5
367
  8
WHITE
 10
190.8611629237494
 20
24.7426784569728
 30
0.0
 40
81.0337279739357
 50
84.57170473266194
 51
107.369306308176
  0
ARC
  5
368
  8
WHITE
 10
168.7432908831865
 20
98.73320192693173
 30
0.0
 40
3.937952071424252
 50
121.7651552141745
 51
259.0000858992163
  0
ARC
  5
369
  8
WHITE
 10
194.1837751922599
 20
95.28480115060285
 30
0.0
 40
1.855160936154272
 50
18.92056434886297
 51
55.95036469932644
  0
ARC
  5
36A
  8
WHITE
 10
194.1918853756413
 20
95.26173121492756
 30
0.0
 40
1.869837731423896
 50
56.55208953266552
 51
94.69304111545989
  0
ARC
  5
36B
  8
WHITE
 10
196.4811901352381
 20
63.61602417955478
 30
0.0
 40
33.59815987692415
 50
94.168574886841
 51
126.7265591653279
  0
ARC
  5
36C
  8
WHITE
 10
190.4509428948519
 20
90.65755100598297
 30
0.0
 40
14.06179413360009
 50
180.4590094393716
 51
222.9695352919861
  0
ARC
  5
36D
  8
WHITE
 10
180.9490639078887
 20
81.84115033573235
 30
0.0
 40
1.100068407781348
 50
224.2960517580877
 51
292.6668663125932
  0
ARC
  5
36E
  8
WHITE
 10
171.9241723951512
 20
104.5383873726916
 30
0.0
 40
25.5255810273243
 50
291.7261582443141
 51
340.1867466492612
  0
ARC
  5
36F
  8
WHITE
 10
237.1848188677364
 20
-908.1184418272436
 30
0.0
 40
1018.707737863486
 50
91.45895994199742
 51
93.99711664474657
  0
ARC
  5
370
  8
WHITE
 10
211.3164682824855
 20
111.043773395936
 30
0.0
 40
0.7877395816269673
 50
264.9845026626475
 51
84.98717241130579
  0
ARC
  5
371
  8
WHITE
 10
164.993776501076
 20
-140.4807438446095
 30
0.0
 40
256.53874557655
 50
79.58152295546077
 51
88.641548406403
  0
ARC
  5
372
  8
WHITE
 10
169.0178055768119
 20
27.99394788539528
 30
0.0
 40
88.01601078682785
 50
88.66031556790473
 51
110.7255831656071
  0
ARC
  5
373
  8
WHITE
 10
139.4042649645001
 20
106.2906804797129
 30
0.0
 40
4.306170130114586
 50
110.8785015767017
 51
262.011260589957
  0
ARC
  5
374
  8
WHITE
 10
176.1834597754913
 20
-0.9645664782429745
 30
0.0
 40
109.5637167507184
 50
102.459471822155
 51
109.946952551832
  0
ARC
  5
375
  8
WHITE
 10
175.9540132602404
 20
-1.01684864473677
 30
0.0
 40
109.5655174726627
 50
95.12087682834591
 51
102.3364130058632
  0
ARC
  5
376
  8
WHITE
 10
226.4057999360831
 20
135.3097267913088
 30
0.0
 40
0.5504388407729602
 50
345.0471156904251
 51
75.15770617055401
  0
LINE
  5
377
  8
WHITE
 10
226.9376
 20
135.1677
 30
0.0
 11
224.106
 21
124.54915
 31
0.0
  0
ARC
  5
378
  8
WHITE
 10
224.3755644436827
 20
124.485014574081
 30
0.0
 40
0.2770890509489701
 50
166.6168729211971
 51
253.8949230188646
  0
LINE
  5
379
  8
WHITE
 10
224.2987
 20
124.2188
 30
0.0
 11
226.6942
 21
123.5579
 31
0.0
  0
ARC
  5
37A
  8
WHITE
 10
226.7520200541272
 20
123.8276924089611
 30
0.0
 40
0.2759186521282967
 50
257.9037413908861
 51
349.7089607160815
  0
LINE
  5
37B
  8
WHITE
 10
227.0235
 20
123.7784
 30
0.0
 11
229.88185
 21
134.3949
 31
0.0
  0
ARC
  5
37C
  8
WHITE
 10
230.413589181539
 20
134.2515983388237
 30
0.0
 40
0.5507103805809898
 50
74.62521720881284
 51
164.9173353545945
  0
LINE
  5
37D
  8
WHITE
 10
230.5596
 20
134.7826
 30
0.0
 11
231.1271
 21
134.6265
 31
0.0
  0
ARC
  5
37E
  8
WHITE
 10
230.5297117084347
 20
132.390745179021
 30
0.0
 40
2.314189359242231
 50
346.3775370357977
 51
75.04018667594708
  0
ARC
  5
37F
  8
WHITE
 10
147.6556762778844
 20
151.7049856451964
 30
0.0
 40
87.40902366774323
 50
328.8054020649484
 51
346.8677500907716
  0
ARC
  5
380
  8
WHITE
 10
215.6060451965867
 20
110.5566634406831
 30
0.0
 40
7.970765466985411
 50
262.199722855754
 51
328.835359239081
  0
LINE
  5
381
  8
WHITE
 10
214.52425
 20
102.65965
 30
0.0
 11
209.0725
 21
102.63215
 31
0.0
  0
ARC
  5
382
  8
WHITE
 10
352.1803921358288
 20
-34.17494198015699
 30
0.0
 40
197.9799212234088
 50
136.2894926055377
 51
143.9776879486873
  0
ARC
  5
383
  8
WHITE
 10
171.028497381381
 20
96.19506436943624
 30
0.0
 40
25.22792005899112
 50
220.3485671874062
 51
326.4625643271334
  0
ARC
  5
384
  8
WHITE
 10
11.30493995144476
 20
-39.47278960491683
 30
0.0
 40
184.3368227617081
 50
40.3437096801987
 51
53.59142362213954
  0
ARC
  5
385
  8
WHITE
 10
98.51624674155134
 20
70.07482135741938
 30
0.0
 40
44.70863054038598
 50
60.22830960744368
 51
80.70484672099592
  0
ARC
  5
386
  8
WHITE
 10
113.0890603468559
 20
122.1398946288706
 30
0.0
 40
10.8232655030859
 50
145.5212571813769
 51
227.2166877706034
  0
ARC
  5
387
  8
WHITE
 10
136.015035894196
 20
108.7117945617997
 30
0.0
 40
37.37242713189877
 50
90.87135104218441
 51
148.4494320817431
  0
ARC
  5
388
  8
WHITE
 10
137.7585227202334
 20
-0.3456163989901314
 30
0.0
 40
146.4437652377209
 50
70.48142775249843
 51
90.90453278708611
  0
ARC
  5
389
  8
WHITE
 10
206.9654706606808
 20
207.2807215676808
 30
0.0
 40
72.49221134971542
 50
253.7558889986442
 51
282.6711521348215
  0
ARC
  5
38A
  8
WHITE
 10
223.3614561264463
 20
134.2939478513753
 30
0.0
 40
2.313557559949238
 50
74.79347848771026
 51
102.3405093864668
  0
LINE
  5
38B
  8
WHITE
 10
223.9683
 20
136.5265
 30
0.0
 11
226.5468
 21
135.8418
 31
0.0
  0
ARC
  5
38C
  8
WHITE
 10
249.6990747023615
 20
259.0359332760575
 30
0.0
 40
86.58767706539835
 50
249.2822374646697
 51
272.2141141733367
  0
ARC
  5
38D
  8
WHITE
 10
254.6739646656707
 20
203.6620962875496
 30
0.0
 40
31.19179758017852
 50
267.0051280478426
 51
303.3512811330542
  0
ARC
  5
38E
  8
WHITE
 10
269.6719678561962
 20
180.8175770642599
 30
0.0
 40
3.864077031946277
 50
303.8136163845901
 51
105.2437753711998
  0
ARC
  5
38F
  8
WHITE
 10
233.4897184118236
 20
311.607776384237
 30
0.0
 40
131.8386840643238
 50
263.9722843047346
 51
285.4702031625378
  0
ARC
  5
390
  8
WHITE
 10
219.3564006682282
 20
179.2727498423849
 30
0.0
 40
1.258871940469118
 50
76.72823812531551
 51
256.7281756292473
  0
ARC
  5
391
  8
WHITE
 10
112.7010137007951
 20
121.2669206089485
 30
0.0
 40
3.494381497357995
 50
240.8066503767556
 51
347.8172588051597
  0
LINE
  5
392
  8
WHITE
 10
116.1167
 20
120.5295
 30
0.0
 11
118.2654
 21
130.4414
 31
0.0
  0
ARC
  5
393
  8
WHITE
 10
116.7648069838105
 20
130.7907651075097
 30
0.0
 40
1.540725601326151
 50
346.8939812179555
 51
115.9626582448329
  0
ARC
  5
394
  8
WHITE
 10
123.4935284708165
 20
117.0793266551951
 30
0.0
 40
16.814200482653
 50
116.1227809778139
 51
164.2954225014586
  0
ARC
  5
395
  8
WHITE
 10
108.7883449900276
 20
121.2057897593132
 30
0.0
 40
1.54103998700494
 50
164.0003073581979
 51
240.2133565035108
  0
LINE
  5
396
  8
WHITE
 10
108.0228
 20
119.86835
 30
0.0
 11
110.9966
 21
118.2164
 31
0.0
  0
LINE
  5
397
  8
WHITE
 10
173.5235
 20
79.7505
 30
0.0
 11
172.2321
 21
83.6338
 31
0.0
  0
LINE
  5
398
  8
WHITE
 10
172.2321
 20
83.6338
 30
0.0
 11
170.938
 21
87.516
 31
0.0
  0
LINE
  5
399
  8
WHITE
 10
170.938
 20
87.516
 30
0.0
 11
162.23725
 21
90.2419
 31
0.0
  0
ARC
  5
39A
  8
WHITE
 10
165.3896227072116
 20
83.51522168473997
 30
0.0
 40
7.428704789003386
 50
115.1095430547973
 51
201.2295321247649
  0
LINE
  5
39B
  8
WHITE
 10
158.46505
 20
80.82525
 30
0.0
 11
170.8002
 21
76.9705
 31
0.0
  0
ARC
  5
39C
  8
WHITE
 10
171.4418305245916
 20
79.06583418610788
 30
0.0
 40
2.19137287597525
 50
252.9744319108667
 51
18.20615274088012
  0
LINE
  5
39D
  8
WHITE
 10
328.5368
 20
100.5062
 30
0.0
 11
329.2528
 21
102.1859
 31
0.0
  0
LINE
  5
39E
  8
WHITE
 10
329.2528
 20
102.1859
 30
0.0
 11
329.5836
 21
102.9569
 31
0.0
  0
ARC
  5
39F
  8
WHITE
 10
59.88121962404675
 20
215.0997237894906
 30
0.0
 40
292.0879780270597
 50
337.4223548249345
 51
352.6566525168277
  0
ARC
  5
3A0
  8
WHITE
 10
284.6865331351712
 20
184.3608976893314
 30
0.0
 40
65.22119708961537
 50
354.1970110102367
 51
27.6836772455316
  0
ARC
  5
3A1
  8
WHITE
 10
336.2456782662008
 20
211.4172007192268
 30
0.0
 40
6.994152450717068
 50
27.64101518148468
 51
178.9063135332933
  0
ARC
  5
3A2
  8
WHITE
 10
219.7452071297006
 20
213.5367321383333
 30
0.0
 40
109.5256007511565
 50
337.3927717314147
 51
358.9609963739717
  0
ARC
  5
3A3
  8
WHITE
 10
680.9839683034886
 20
21.16680451418491
 30
0.0
 40
390.2217417453502
 50
157.3512283697189
 51
164.1930380433707
  0
ARC
  5
3A4
  8
WHITE
 10
329.1507688317029
 20
123.9701535086701
 30
0.0
 40
23.88886394184925
 50
171.5946931144036
 51
210.7939442965314
  0
ARC
  5
3A5
  8
WHITE
 10
374.7986517055053
 20
151.0655944250016
 30
0.0
 40
76.97265974972382
 50
210.7238510719168
 51
225.0447618806296
  0
ARC
  5
3A6
  8
WHITE
 10
321.466224807884
 20
97.79700539364366
 30
0.0
 40
1.597806889223043
 50
228.7777753897442
 51
32.75946023900426
  0
LINE
  5
3A7
  8
WHITE
 10
322.8099
 20
98.6616
 30
0.0
 11
316.2568
 21
107.4174
 31
0.0
  0
ARC
  5
3A8
  8
WHITE
 10
316.4769934963363
 20
107.5825580782353
 30
0.0
 40
0.2752496442053813
 50
126.8552523905054
 51
216.8720551727703
  0
LINE
  5
3A9
  8
WHITE
 10
316.3119
 20
107.8028
 30
0.0
 11
318.2943
 21
109.2897
 31
0.0
  0
ARC
  5
3AA
  8
WHITE
 10
318.459500736829
 20
109.0694051551283
 30
0.0
 40
0.2753563184782536
 50
36.86496992543582
 51
126.8665023303205
  0
LINE
  5
3AB
  8
WHITE
 10
318.6798
 20
109.2346
 30
0.0
 11
325.5082
 21
100.1209
 31
0.0
  0
ARC
  5
3AC
  8
WHITE
 10
326.9108352431323
 20
101.1912761423552
 30
0.0
 40
1.764395282072593
 50
217.3479029852357
 51
337.1525965611611
  0
ARC
  5
3AD
  8
WHITE
 10
258.8956379845055
 20
186.8664578463249
 30
0.0
 40
86.58461647640526
 50
339.281660248862
 51
2.214336084451621
  0
ARC
  5
3AE
  8
WHITE
 10
314.2670827757049
 20
191.8419789546184
 30
0.0
 40
31.19114109279267
 50
357.0043028978421
 51
33.35138367298381
  0
ARC
  5
3AF
  8
WHITE
 10
337.1110173246427
 20
206.8396480644373
 30
0.0
 40
3.864092707939077
 50
33.81381391224581
 51
195.2449447092485
  0
ARC
  5
3B0
  8
WHITE
 10
206.3195531328359
 20
170.6575092483339
 30
0.0
 40
131.8398576146064
 50
353.9722984624956
 51
15.46997595765612
  0
ARC
  5
3B1
  8
WHITE
 10
338.6557129922791
 20
156.524130075306
 30
0.0
 40
1.258829016914957
 50
166.7291525075735
 51
346.724001377003
  0
ARC
  5
3B2
  8
WHITE
 10
320.7211666022418
 20
127.0223415345953
 30
0.0
 40
10.39091990070871
 50
119.0312035173616
 51
137.7034341328448
  0
ARC
  5
3B3
  8
WHITE
 10
320.7469492341326
 20
127.0335270345866
 30
0.0
 40
10.40249465184624
 50
137.8445710827535
 51
207.8401219806879
  0
ARC
  5
3B4
  8
WHITE
 10
314.412004984542
 20
123.6897933487278
 30
0.0
 40
3.239250706953456
 50
207.8710104707593
 51
318.4503645946909
  0
ARC
  5
3B5
  8
WHITE
 10
268.3773543264365
 20
164.4491829619552
 30
0.0
 40
64.72515851113144
 50
318.4767172517019
 51
343.3300083807351
  0
ARC
  5
3B6
  8
WHITE
 10
328.9787819932858
 20
146.6143284542407
 30
0.0
 40
1.582995536531879
 50
332.4517390426147
 51
93.03749194303832
  0
LINE
  5
3B7
  8
WHITE
 10
328.8949
 20
148.1951
 30
0.0
 11
315.6786
 21
136.1077
 31
0.0
  0
LINE
  5
3B8
  8
WHITE
 10
328.4543
 20
108.2434
 30
0.0
 11
330.4919
 21
116.6963
 31
0.0
  0
LINE
  5
3B9
  8
WHITE
 10
330.4919
 20
116.6963
 30
0.0
 11
337.513
 21
145.5519
 31
0.0
  0
ARC
  5
3BA
  8
WHITE
 10
335.9244692476697
 20
145.3028629096698
 30
0.0
 40
1.607933277054443
 50
8.90985057921885
 51
139.3513821984088
  0
ARC
  5
3BB
  8
WHITE
 10
313.3846745139094
 20
149.2806144848082
 30
0.0
 40
21.52026258522966
 50
339.7577057990795
 51
352.173987106932
  0
ARC
  5
3BC
  8
WHITE
 10
190.0175147640449
 20
207.3914442347682
 30
0.0
 40
157.81842371286
 50
328.4754521767327
 51
335.4559416760231
  0
ARC
  5
3BD
  8
WHITE
 10
339.3936409345371
 20
115.7529117911305
 30
0.0
 40
17.42668678779992
 50
148.4399445031502
 51
191.4586982866225
  0
ARC
  5
3BE
  8
WHITE
 10
330.7785925679788
 20
116.0407842752283
 30
0.0
 40
9.25774706685951
 50
203.8944894061115
 51
246.4360436924181
  0
ARC
  5
3BF
  8
WHITE
 10
327.487881340705
 20
108.4552969251183
 30
0.0
 40
0.9893762337494234
 50
245.500400803621
 51
347.6330309583738
  0
ARC
  5
3C0
  8
WHITE
 10
283.956398989899
 20
181.7053597381255
 30
0.0
 40
51.53986382691534
 50
315.3692547524925
 51
339.4830047161596
  0
LINE
  5
3C1
  8
WHITE
 10
332.227
 20
163.6414
 30
0.0
 11
333.2176
 21
166.5603
 31
0.0
  0
ARC
  5
3C2
  8
WHITE
 10
273.1500741738648
 20
177.9494302599637
 30
0.0
 40
61.13771296795325
 50
349.2638528989758
 51
8.582295996554501
  0
ARC
  5
3C3
  8
WHITE
 10
332.6124472146511
 20
186.883695312325
 30
0.0
 40
1.00867603642221
 50
10.81721253723431
 51
154.3199715204195
  0
ARC
  5
3C4
  8
WHITE
 10
921.409569284431
 20
-73.75851881766748
 30
0.0
 40
644.915325299698
 50
156.1196957493833
 51
158.2060366172279
  0
ARC
  5
3C5
  8
WHITE
 10
391.8483732251395
 20
138.022660526347
 30
0.0
 40
74.5765502306793
 50
158.2320955609418
 51
173.1839991295428
  0
ARC
  5
3C6
  8
WHITE
 10
319.458690801557
 20
146.6834095591307
 30
0.0
 40
1.670640559977845
 50
173.4665665253662
 51
314.7429327726413
  0
ARC
  5
3C7
  8
WHITE
 10
141.4005724208697
 20
34.73351621652669
 30
0.0
 40
105.8711699683269
 50
79.12024121803763
 51
87.69332302432304
  0
ARC
  5
3C8
  8
WHITE
 10
141.6202925601962
 20
34.70722469438149
 30
0.0
 40
105.8888266299903
 50
87.81268854304234
 51
92.86498237169043
  0
ARC
  5
3C9
  8
WHITE
 10
138.2046280423787
 20
116.3636841543474
 30
0.0
 40
24.17299366311448
 50
94.4532509340058
 51
126.6587394853833
  0
ARC
  5
3CA
  8
WHITE
 10
124.8186273310729
 20
134.3291776155789
 30
0.0
 40
1.768932008032012
 50
126.2677049885985
 51
271.7808537031236
  0
ARC
  5
3CB
  8
WHITE
 10
129.508364239891
 20
-254.9345171707048
 30
0.0
 40
387.5233339633431
 50
77.64415670407256
 51
90.68527166732312
  0
ARC
  5
3CC
  8
WHITE
 10
212.8170130524135
 20
125.3338082751
 30
0.0
 40
1.763636216438512
 50
257.3771050773643
 51
77.37464494863984
  0
LINE
  5
3CD
  8
WHITE
 10
213.2025
 20
127.0548
 30
0.0
 11
161.3836
 21
138.7017
 31
0.0
  0
CIRCLE
  5
3CE
  8
WHITE
 10
253.0249
 20
22.50010000174226
 30
0.0
 40
2.869799999999998
  0
CIRCLE
  5
3CF
  8
WHITE
 10
304.91815
 20
5.492449999999991
 30
0.0
 40
2.869750000435589
  0
VIEWPORT
  5
3D4
 67
     1
  8
0
 10
6.0
 20
4.5
 30
0.0
 40
12.696
 41
9.522
 68
     1
 69
     1
1001
ACAD
1000
MVIEW
1002
{
1070
    16
1010
0.0
1020
0.0
1030
0.0
1020
0.0
1030
0.0
1010
0.0
1020
0.0
1030
1.0
1020
0.0
1030
1.0
1040
0.0
1040
9.522
1040
6.0
1040
4.5
1040
50.0
1040
0.0
1040
0.0
1070
     0
1070
   100
1070
     0
1070
     3
1070
     0
1070
     0
1070
     0
1070
     0
1040
0.0
1040
0.0
1040
0.0
1040
0.5
1040
0.5
1040
0.5
1040
0.5
1070
     0
1002
{
1002
}
1002
}
  0
ENDSEC
  0
EOF
