  0
SECTION
  2
HEADER
  9
$ACADVER
  1
AC1009
  9
$LIMMIN
 10
0.000000
 20
0.000000
  9
$LIMMAX
 10
46.387386
 20
25.283337
  0
ENDSEC
  0
SECTION
  2
TABLES
  0
TABLE
  2
LTYPE
 70
     4
  0
LTYPE
  2
CONTINUOUS
 70
     0
  3
Solid line
 72
    65
 73
     0
 40
0.000000
  0
LTYPE
  2
HIDDEN
 70
     0
  3
 _ _ _ _ _ _ _ _ _ _ _
 72
    65
 73
     2
 40
0.375000
 49
0.250000
 49
-0.125000
  0
LTYPE
  2
DASHED
 70
     0
  3
 ___ ___ ___ ___ ___ ___ ___ 
 72
    65
 73
     2
 40
0.750000
 49
0.500000
 49
-0.250000
  0
LTYPE
  2
CENTER
 70
     0
  3
___ _ ___ _ ___ _ ___
 72
    65
 73
     4
 40
2.000000
 49
1.250000
 49
-0.250000
 49
0.250000
 49
-0.250000
  0
LTYPE
  2
BORDER
 70
     0
  3
___ ___ . ___ ___ . ___ ___
 72
    65
 73
     6
 40
1.750000
 49
0.500000
 49
-0.250000
 49
0.500000
 49
-0.250000
 49
0.000000
 49
-0.250000
  0
LTYPE
  2
DOT
 70
     0
  3
.................
 72
    65
 73
     2
 40
0.250000
 49
0.000000
 49
-0.250000
  0
LTYPE
  2
DASHDOT
 70
     0
  3
__ . __ . __ . __
 72
    65
 73
     4
 40
1.000000
 49
0.500000
 49
-0.250000
 49
0.000000
 49
-0.250000
  0
LTYPE
  2
DIVIDE
 70
     0
  3
___ .. ___ .. ___ .. ___
 72
    65
 73
     6
 40
1.250000
 49
0.500000
 49
-0.250000
 49
0.000000
 49
-0.250000
 49
0.000000
 49
-0.250000
  0
ENDTAB
  0
TABLE
  2
LAYER
 70
     8
  0
LAYER
  2
BLACK
 70
     0
 62
     1
  6
CONTINUOUS
  0
LAYER
  2
WHITE
 70
     0
 62
     7
  6
CONTINUOUS
  0
LAYER
  2
RED
 70
     0
 62
     1
  6
CONTINUOUS
  0
LAYER
  2
YELLOW
 70
     0
 62
     2
  6
CONTINUOUS
  0
LAYER
  2
GREEN
 70
     0
 62
     3
  6
CONTINUOUS
  0
LAYER
  2
CYAN
 70
     0
 62
     4
  6
CONTINUOUS
  0
LAYER
  2
BLUE
 70
     0
 62
     5
  6
CONTINUOUS
  0
LAYER
  2
MAGENTA
 70
     0
 62
     6
  6
CONTINUOUS
  0
ENDTAB
  0
ENDSEC
  0
SECTION
  2
BLOCKS
  0
ENDSEC
  0
SECTION
  2
ENTITIES
  0
LINE
  8
WHITE
 10
7.621550
 20
0.000000
 30
0.000000
 11
8.765836
 21
0.000000
 31
0.000000
  6
CONTINUOUS
  0
ARC
  8
WHITE
 10
8.193693
 20
8.173693
 30
0.000000
 40
8.193693
 50
-85.995935
 51
-8.544417
  6
CONTINUOUS
  0
ARC
  8
WHITE
 10
16.468158
 20
6.930507
 30
0.000000
 40
0.173641
 50
27.518073
 51
171.455582
  6
CONTINUOUS
  0
ARC
  8
WHITE
 10
18.854457
 20
8.173693
 30
0.000000
 40
2.517072
 50
-152.481927
 51
-121.373020
  6
CONTINUOUS
  0
ARC
  8
WHITE
 10
17.401944
 20
5.791573
 30
0.000000
 40
0.272962
 50
-17.994132
 51
58.626980
  6
CONTINUOUS
  0
LINE
  8
WHITE
 10
17.661555
 20
5.707250
 30
0.000000
 11
17.459914
 21
5.086445
 31
0.000000
  6
CONTINUOUS
  0
ARC
  8
WHITE
 10
17.283250
 20
5.143827
 30
0.000000
 40
0.185749
 50
-89.573127
 51
-17.994132
  6
CONTINUOUS
  0
LINE
  8
WHITE
 10
17.284634
 20
4.958083
 30
0.000000
 11
17.225825
 21
4.957645
 31
0.000000
  6
CONTINUOUS
  0
ARC
  8
WHITE
 10
17.227122
 20
4.783669
 30
0.000000
 40
0.173981
 50
90.426874
 51
270.426874
  6
CONTINUOUS
  0
LINE
  8
WHITE
 10
17.228418
 20
4.609692
 30
0.000000
 11
18.420532
 21
4.618574
 31
0.000000
  6
CONTINUOUS
  0
ARC
  8
WHITE
 10
18.418671
 20
4.792546
 30
0.000000
 40
0.173981
 50
-89.386868
 51
90.426874
  6
CONTINUOUS
  0
ARC
  8
WHITE
 10
18.416229
 20
5.120295
 30
0.000000
 40
0.153777
 50
162.011962
 51
270.426875
  6
CONTINUOUS
  0
LINE
  8
WHITE
 10
18.269968
 20
5.167785
 30
0.000000
 11
18.370367
 21
5.476999
 31
0.000000
  6
CONTINUOUS
  0
ARC
  8
WHITE
 10
18.629987
 20
5.392704
 30
0.000000
 40
0.272962
 50
85.385310
 51
162.011962
  6
CONTINUOUS
  0
ARC
  8
WHITE
 10
18.854457
 20
8.173693
 30
0.000000
 40
2.517072
 50
-94.614691
 51
6.633984
  6
CONTINUOUS
  0
ARC
  8
WHITE
 10
20.984548
 20
8.421433
 30
0.000000
 40
0.372622
 50
6.633984
 51
186.633984
  6
CONTINUOUS
  0
ARC
  8
WHITE
 10
18.854457
 20
8.173693
 30
0.000000
 40
1.771827
 50
-161.058194
 51
6.633984
  6
CONTINUOUS
  0
ARC
  8
WHITE
 10
17.436758
 20
7.687150
 30
0.000000
 40
0.272962
 50
121.217961
 51
198.941806
  6
CONTINUOUS
  0
ARC
  8
WHITE
 10
17.101911
 20
8.239657
 30
0.000000
 40
0.373093
 50
-58.782039
 51
54.470963
  6
CONTINUOUS
  0
ARC
  8
WHITE
 10
17.477343
 20
8.765430
 30
0.000000
 40
0.272962
 50
156.747118
 51
234.470963
  6
CONTINUOUS
  0
ARC
  8
WHITE
 10
18.854457
 20
8.173693
 30
0.000000
 40
1.771827
 50
137.520998
 51
156.747118
  6
CONTINUOUS
  0
ARC
  8
WHITE
 10
17.749007
 20
9.185906
 30
0.000000
 40
0.272962
 50
22.008025
 51
137.520999
  6
CONTINUOUS
  0
LINE
  8
WHITE
 10
18.002079
 20
9.288195
 30
0.000000
 11
18.230818
 21
8.722272
 31
0.000000
  6
CONTINUOUS
  0
ARC
  8
WHITE
 10
17.977747
 20
8.619984
 30
0.000000
 40
0.272962
 50
-26.978441
 51
22.008025
  6
CONTINUOUS
  0
ARC
  8
WHITE
 10
18.854457
 20
8.173693
 30
0.000000
 40
0.710805
 50
153.021559
 51
210.992334
  6
CONTINUOUS
  0
ARC
  8
WHITE
 10
18.011137
 20
7.667128
 30
0.000000
 40
0.272962
 50
-17.994132
 51
30.992334
  6
CONTINUOUS
  0
LINE
  8
WHITE
 10
18.270748
 20
7.582805
 30
0.000000
 11
18.148710
 21
7.207081
 31
0.000000
  6
CONTINUOUS
  0
ARC
  8
WHITE
 10
18.503107
 20
7.091971
 30
0.000000
 40
0.372622
 50
162.005868
 51
342.005868
  6
CONTINUOUS
  0
LINE
  8
WHITE
 10
18.857504
 20
6.976861
 30
0.000000
 11
18.979541
 21
7.352584
 31
0.000000
  6
CONTINUOUS
  0
ARC
  8
WHITE
 10
19.239152
 20
7.268261
 30
0.000000
 40
0.272962
 50
113.019402
 51
162.005868
  6
CONTINUOUS
  0
ARC
  8
WHITE
 10
18.854457
 20
8.173693
 30
0.000000
 40
0.710805
 50
-66.980598
 51
1.822886
  6
CONTINUOUS
  0
ARC
  8
WHITE
 10
19.837726
 20
8.204986
 30
0.000000
 40
0.272962
 50
132.836420
 51
181.822886
  6
CONTINUOUS
  0
LINE
  8
WHITE
 10
19.652137
 20
8.405149
 30
0.000000
 11
31.997954
 21
19.852086
 31
0.000000
  6
CONTINUOUS
  0
ARC
  8
WHITE
 10
31.744605
 20
20.125329
 30
0.000000
 40
0.372622
 50
-47.163580
 51
132.836420
  6
CONTINUOUS
  0
LINE
  8
WHITE
 10
31.491256
 20
20.398572
 30
0.000000
 11
19.287713
 21
9.083550
 31
0.000000
  6
CONTINUOUS
  0
ARC
  8
WHITE
 10
19.102124
 20
9.283712
 30
0.000000
 40
0.272962
 50
-157.991975
 51
-47.163580
  6
CONTINUOUS
  0
LINE
  8
WHITE
 10
18.849052
 20
9.181423
 30
0.000000
 11
18.693018
 21
9.567465
 31
0.000000
  6
CONTINUOUS
  0
ARC
  8
WHITE
 10
18.946090
 20
9.669754
 30
0.000000
 40
0.272962
 50
86.495052
 51
202.008026
  6
CONTINUOUS
  0
ARC
  8
WHITE
 10
18.854457
 20
8.173693
 30
0.000000
 40
1.771827
 50
72.005301
 51
86.495052
  6
CONTINUOUS
  0
ARC
  8
WHITE
 10
19.517002
 20
10.215123
 30
0.000000
 40
0.374427
 50
-107.914961
 51
-22.778520
  6
CONTINUOUS
  0
LINE
  8
WHITE
 10
19.862226
 20
10.070157
 30
0.000000
 11
20.249001
 21
11.260941
 31
0.000000
  6
CONTINUOUS
  0
ARC
  8
WHITE
 10
20.425664
 20
11.203559
 30
0.000000
 40
0.185749
 50
90.426874
 51
162.005868
  6
CONTINUOUS
  0
LINE
  8
WHITE
 10
20.424280
 20
11.389303
 30
0.000000
 11
20.483089
 21
11.389741
 31
0.000000
  6
CONTINUOUS
  0
ARC
  8
WHITE
 10
20.481793
 20
11.563717
 30
0.000000
 40
0.173981
 50
-89.573126
 51
90.426874
  6
CONTINUOUS
  0
LINE
  8
WHITE
 10
20.480497
 20
11.737693
 30
0.000000
 11
19.288579
 21
11.728813
 31
0.000000
  6
CONTINUOUS
  0
ARC
  8
WHITE
 10
19.289875
 20
11.554837
 30
0.000000
 40
0.173981
 50
90.426874
 51
270.426875
  6
CONTINUOUS
  0
ARC
  8
WHITE
 10
19.292686
 20
11.227090
 30
0.000000
 40
0.153778
 50
-17.988038
 51
90.564288
  6
CONTINUOUS
  0
LINE
  8
WHITE
 10
19.438947
 20
11.179601
 30
0.000000
 11
19.338548
 21
10.870386
 31
0.000000
  6
CONTINUOUS
  0
ARC
  8
WHITE
 10
19.078928
 20
10.954682
 30
0.000000
 40
0.272962
 50
-94.614691
 51
-17.988038
  6
CONTINUOUS
  0
ARC
  8
WHITE
 10
18.854457
 20
8.173693
 30
0.000000
 40
2.517072
 50
85.385309
 51
152.481927
  6
CONTINUOUS
  0
ARC
  8
WHITE
 10
16.468158
 20
9.416879
 30
0.000000
 40
0.173641
 50
-171.455583
 51
-27.518072
  6
CONTINUOUS
  0
ARC
  8
WHITE
 10
8.193693
 20
8.173693
 30
0.000000
 40
8.193693
 50
8.544417
 51
51.703815
  6
CONTINUOUS
  0
ARC
  8
WHITE
 10
13.040620
 20
14.311807
 30
0.000000
 40
0.372622
 50
51.703815
 51
231.703815
  6
CONTINUOUS
  0
ARC
  8
WHITE
 10
8.193693
 20
8.173693
 30
0.000000
 40
7.448448
 50
5.588802
 51
51.703815
  6
CONTINUOUS
  0
ARC
  8
WHITE
 10
15.335070
 20
8.872502
 30
0.000000
 40
0.272962
 50
-89.573126
 51
5.588802
  6
CONTINUOUS
  0
LINE
  8
WHITE
 10
15.337104
 20
8.599547
 30
0.000000
 11
9.212178
 21
8.553914
 31
0.000000
  6
CONTINUOUS
  0
ARC
  8
WHITE
 10
9.210144
 20
8.826868
 30
0.000000
 40
0.272962
 50
-147.275045
 51
-89.573126
  6
CONTINUOUS
  0
ARC
  8
WHITE
 10
8.193693
 20
8.173693
 30
0.000000
 40
0.935264
 50
32.724954
 51
35.809140
  6
CONTINUOUS
  0
ARC
  8
WHITE
 10
9.173529
 20
8.880610
 30
0.000000
 40
0.272962
 50
158.107220
 51
215.809140
  6
CONTINUOUS
  0
LINE
  8
WHITE
 10
8.920252
 20
8.982390
 30
0.000000
 11
13.257073
 21
19.774501
 31
0.000000
  6
CONTINUOUS
  0
ARC
  8
WHITE
 10
13.510350
 20
19.672722
 30
0.000000
 40
0.272962
 50
22.008025
 51
158.107220
  6
CONTINUOUS
  0
LINE
  8
WHITE
 10
13.763422
 20
19.775011
 30
0.000000
 11
17.163690
 21
11.362444
 31
0.000000
  6
CONTINUOUS
  0
ARC
  8
WHITE
 10
17.509160
 20
11.502079
 30
0.000000
 40
0.372622
 50
-157.991975
 51
22.008025
  6
CONTINUOUS
  0
LINE
  8
WHITE
 10
17.854630
 20
11.641714
 30
0.000000
 11
14.214830
 21
20.646903
 31
0.000000
  6
CONTINUOUS
  0
ARC
  8
WHITE
 10
14.467901
 20
20.749192
 30
0.000000
 40
0.272962
 50
90.426874
 51
202.008025
  6
CONTINUOUS
  0
LINE
  8
WHITE
 10
14.465868
 20
21.022147
 30
0.000000
 11
32.319240
 21
21.155163
 31
0.000000
  6
CONTINUOUS
  0
ARC
  8
WHITE
 10
32.321273
 20
20.882209
 30
0.000000
 40
0.272962
 50
15.238344
 51
90.426874
  6
CONTINUOUS
  0
LINE
  8
WHITE
 10
32.584638
 20
20.953953
 30
0.000000
 11
35.450040
 21
10.435349
 31
0.000000
  6
CONTINUOUS
  0
ARC
  8
WHITE
 10
35.761647
 20
10.520235
 30
0.000000
 40
0.322962
 50
-164.761656
 51
-134.816868
  6
CONTINUOUS
  0
LINE
  8
WHITE
 10
35.534009
 20
10.291137
 30
0.000000
 11
37.206588
 21
8.629217
 31
0.000000
  6
CONTINUOUS
  0
ARC
  8
WHITE
 10
37.014192
 20
8.435588
 30
0.000000
 40
0.272962
 50
-12.518788
 51
45.183131
  6
CONTINUOUS
  0
ARC
  8
WHITE
 10
38.193693
 20
8.173693
 30
0.000000
 40
0.935264
 50
167.481212
 51
462.885052
  6
CONTINUOUS
  0
ARC
  8
WHITE
 10
37.924263
 20
9.351495
 30
0.000000
 40
0.272962
 50
-134.816868
 51
-77.114948
  6
CONTINUOUS
  0
LINE
  8
WHITE
 10
37.731868
 20
9.157866
 30
0.000000
 11
36.191182
 21
10.688734
 31
0.000000
  6
CONTINUOUS
  0
ARC
  8
WHITE
 10
36.383578
 20
10.882363
 30
0.000000
 40
0.272962
 50
-164.761656
 51
-134.816868
  6
CONTINUOUS
  0
LINE
  8
WHITE
 10
36.120213
 20
10.810619
 30
0.000000
 11
35.065898
 21
14.680904
 31
0.000000
  6
CONTINUOUS
  0
ARC
  8
WHITE
 10
35.329263
 20
14.752648
 30
0.000000
 40
0.272962
 50
113.527964
 51
195.238344
  6
CONTINUOUS
  0
ARC
  8
WHITE
 10
38.193693
 20
8.173693
 30
0.000000
 40
7.448448
 50
130.089002
 51
473.527964
  6
CONTINUOUS
  0
ARC
  8
WHITE
 10
33.157105
 20
14.157164
 30
0.000000
 40
0.372622
 50
-49.910998
 51
130.089002
  6
CONTINUOUS
  0
ARC
  8
WHITE
 10
38.193693
 20
8.173693
 30
0.000000
 40
8.193693
 50
130.089002
 51
265.995935
  6
CONTINUOUS
  0
LINE
  8
WHITE
 10
37.621550
 20
0.000000
 30
0.000000
 11
38.765836
 21
0.000000
 31
0.000000
  6
CONTINUOUS
  0
ARC
  8
WHITE
 10
38.193693
 20
8.173693
 30
0.000000
 40
8.193693
 50
-85.995935
 51
112.242603
  6
CONTINUOUS
  0
ARC
  8
WHITE
 10
34.988817
 20
16.010339
 30
0.000000
 40
0.272962
 50
-165.108531
 51
-67.757397
  6
CONTINUOUS
  0
LINE
  8
WHITE
 10
34.725023
 20
15.940190
 30
0.000000
 11
32.537500
 21
24.166436
 31
0.000000
  6
CONTINUOUS
  0
ARC
  8
WHITE
 10
32.801294
 20
24.236584
 30
0.000000
 40
0.272962
 50
90.426874
 51
194.891469
  6
CONTINUOUS
  0
LINE
  8
WHITE
 10
32.799261
 20
24.509538
 30
0.000000
 11
36.626659
 21
24.538054
 31
0.000000
  6
CONTINUOUS
  0
ARC
  8
WHITE
 10
36.636807
 20
23.176008
 30
0.000000
 40
1.362084
 50
-89.572431
 51
90.426874
  6
CONTINUOUS
  0
ARC
  8
WHITE
 10
36.649752
 20
21.441350
 30
0.000000
 40
0.372622
 50
90.427569
 51
270.422453
  6
CONTINUOUS
  0
ARC
  8
WHITE
 10
36.636807
 20
23.176008
 30
0.000000
 40
2.107328
 50
-89.573336
 51
90.426978
  6
CONTINUOUS
  0
LINE
  8
WHITE
 10
36.621103
 20
25.283278
 30
0.000000
 11
31.415839
 21
25.244496
 31
0.000000
  6
CONTINUOUS
  0
LINE
  8
WHITE
 10
31.415839
 20
25.244496
 30
0.000000
 11
32.231797
 21
22.249197
 31
0.000000
  6
CONTINUOUS
  0
ARC
  8
WHITE
 10
31.968432
 20
22.177453
 30
0.000000
 40
0.272962
 50
-89.573126
 51
15.238344
  6
CONTINUOUS
  0
LINE
  8
WHITE
 10
31.970466
 20
21.904499
 30
0.000000
 11
13.946923
 21
21.770215
 31
0.000000
  6
CONTINUOUS
  0
ARC
  8
WHITE
 10
13.944890
 20
22.043169
 30
0.000000
 40
0.272962
 50
-157.991975
 51
-89.573126
  6
CONTINUOUS
  0
LINE
  8
WHITE
 10
13.691818
 20
21.940880
 30
0.000000
 11
13.108468
 21
23.384140
 31
0.000000
  6
CONTINUOUS
  0
ARC
  8
WHITE
 10
13.361540
 20
23.486429
 30
0.000000
 40
0.272962
 50
85.429381
 51
202.008025
  6
CONTINUOUS
  0
ARC
  8
WHITE
 10
14.257392
 20
34.692711
 30
0.000000
 40
10.969071
 50
-94.570619
 51
-81.948327
  6
CONTINUOUS
  0
ARC
  8
WHITE
 10
15.776478
 20
23.954135
 30
0.000000
 40
0.123582
 50
-81.948327
 51
85.252072
  6
CONTINUOUS
  0
ARC
  8
WHITE
 10
17.833600
 20
48.721686
 30
0.000000
 40
24.729252
 50
-105.541473
 51
-94.747927
  6
CONTINUOUS
  0
LINE
  8
WHITE
 10
11.207748
 20
24.896616
 30
0.000000
 11
10.022953
 21
25.101719
 31
0.000000
  6
CONTINUOUS
  0
ARC
  8
WHITE
 10
9.945087
 20
24.662915
 30
0.000000
 40
0.445659
 50
79.937517
 51
183.279001
  6
CONTINUOUS
  0
LINE
  8
WHITE
 10
9.500157
 20
24.637424
 30
0.000000
 11
9.503204
 21
24.228505
 31
0.000000
  6
CONTINUOUS
  0
ARC
  8
WHITE
 10
9.948851
 20
24.231825
 30
0.000000
 40
0.445659
 50
-179.573126
 51
-89.573126
  6
CONTINUOUS
  0
LINE
  8
WHITE
 10
9.952171
 20
23.786179
 30
0.000000
 11
11.950010
 21
23.801064
 31
0.000000
  6
CONTINUOUS
  0
ARC
  8
WHITE
 10
11.952044
 20
23.528109
 30
0.000000
 40
0.272962
 50
22.008025
 51
90.426874
  6
CONTINUOUS
  0
LINE
  8
WHITE
 10
12.205116
 20
23.630398
 30
0.000000
 11
13.065643
 21
21.501377
 31
0.000000
  6
CONTINUOUS
  0
ARC
  8
WHITE
 10
12.812571
 20
21.399088
 30
0.000000
 40
0.272962
 50
-21.892780
 51
22.008025
  6
CONTINUOUS
  0
LINE
  8
WHITE
 10
13.065848
 20
21.297308
 30
0.000000
 11
8.228752
 21
9.260270
 31
0.000000
  6
CONTINUOUS
  0
ARC
  8
WHITE
 10
7.975475
 20
9.362050
 30
0.000000
 40
0.272962
 50
-79.594699
 51
-21.892779
  6
CONTINUOUS
  0
ARC
  8
WHITE
 10
8.193693
 20
8.173693
 30
0.000000
 40
0.935264
 50
100.405301
 51
328.128793
  6
CONTINUOUS
  0
ARC
  8
WHITE
 10
9.219763
 20
7.535735
 30
0.000000
 40
0.272962
 50
90.426874
 51
148.128794
  6
CONTINUOUS
  0
LINE
  8
WHITE
 10
9.217730
 20
7.808690
 30
0.000000
 11
15.342656
 21
7.854324
 31
0.000000
  6
CONTINUOUS
  0
ARC
  8
WHITE
 10
15.344690
 20
7.581369
 30
0.000000
 40
0.272962
 50
-4.735054
 51
90.426874
  6
CONTINUOUS
  0
ARC
  8
WHITE
 10
8.193693
 20
8.173693
 30
0.000000
 40
7.448448
 50
85.103874
 51
355.264946
  6
CONTINUOUS
  0
ARC
  8
WHITE
 10
8.861218
 20
15.966225
 30
0.000000
 40
0.372622
 50
-94.896125
 51
85.103874
  6
CONTINUOUS
  0
ARC
  8
WHITE
 10
8.193693
 20
8.173693
 30
0.000000
 40
8.193693
 50
85.103874
 51
265.995935
  6
CONTINUOUS
  0
ENDSEC
  0
EOF
