  0
SECTION
  2
HEADER
  9
$ACADVER
  1
AC1015
  9
$ACADMAINTVER
 70
     6
  9
$DWGCODEPAGE
  3
ANSI_1252
  9
$INSBASE
 10
0.0
 20
0.0
 30
0.0
  9
$EXTMIN
 10
1.000000E+20
 20
1.000000E+20
 30
1.000000E+20
  9
$EXTMAX
 10
-1.000000E+20
 20
-1.000000E+20
 30
-1.000000E+20
  9
$LIMMIN
 10
0.0
 20
0.0
  9
$LIMMAX
 10
420.0
 20
297.0
  9
$ORTHOMODE
 70
     0
  9
$REGENMODE
 70
     1
  9
$FILLMODE
 70
     1
  9
$QTEXTMODE
 70
     0
  9
$MIRRTEXT
 70
     1
  9
$LTSCALE
 40
1.0
  9
$ATTMODE
 70
     1
  9
$TEXTSIZE
 40
2.5
  9
$TRACEWID
 40
1.0
  9
$TEXTSTYLE
  7
Standard
  9
$CLAYER
  8
0
  9
$CELTYPE
  6
ByLayer
  9
$CECOLOR
 62
   256
  9
$CELTSCALE
 40
1.0
  9
$DISPSILH
 70
     0
  9
$DIMSCALE
 40
1.0
  9
$DIMASZ
 40
2.5
  9
$DIMEXO
 40
0.625
  9
$DIMDLI
 40
3.75
  9
$DIMRND
 40
0.0
  9
$DIMDLE
 40
0.0
  9
$DIMEXE
 40
1.25
  9
$DIMTP
 40
0.0
  9
$DIMTM
 40
0.0
  9
$DIMTXT
 40
2.5
  9
$DIMCEN
 40
2.5
  9
$DIMTSZ
 40
0.0
  9
$DIMTOL
 70
     0
  9
$DIMLIM
 70
     0
  9
$DIMTIH
 70
     0
  9
$DIMTOH
 70
     0
  9
$DIMSE1
 70
     0
  9
$DIMSE2
 70
     0
  9
$DIMTAD
 70
     1
  9
$DIMZIN
 70
     8
  9
$DIMBLK
  1

  9
$DIMASO
 70
     1
  9
$DIMSHO
 70
     1
  9
$DIMPOST
  1

  9
$DIMAPOST
  1

  9
$DIMALT
 70
     0
  9
$DIMALTD
 70
     3
  9
$DIMALTF
 40
0.03937
  9
$DIMLFAC
 40
1.0
  9
$DIMTOFL
 70
     1
  9
$DIMTVP
 40
0.0
  9
$DIMTIX
 70
     0
  9
$DIMSOXD
 70
     0
  9
$DIMSAH
 70
     0
  9
$DIMBLK1
  1

  9
$DIMBLK2
  1

  9
$DIMSTYLE
  2
ISO-25
  9
$DIMCLRD
 70
     0
  9
$DIMCLRE
 70
     0
  9
$DIMCLRT
 70
     0
  9
$DIMTFAC
 40
1.0
  9
$DIMGAP
 40
0.625
  9
$DIMJUST
 70
     0
  9
$DIMSD1
 70
     0
  9
$DIMSD2
 70
     0
  9
$DIMTOLJ
 70
     0
  9
$DIMTZIN
 70
     8
  9
$DIMALTZ
 70
     0
  9
$DIMALTTZ
 70
     0
  9
$DIMUPT
 70
     0
  9
$DIMDEC
 70
     2
  9
$DIMTDEC
 70
     2
  9
$DIMALTU
 70
     2
  9
$DIMALTTD
 70
     3
  9
$DIMTXSTY
  7
Standard
  9
$DIMAUNIT
 70
     0
  9
$DIMADEC
 70
     0
  9
$DIMALTRND
 40
0.0
  9
$DIMAZIN
 70
     0
  9
$DIMDSEP
 70
    44
  9
$DIMATFIT
 70
     3
  9
$DIMFRAC
 70
     0
  9
$DIMLDRBLK
  1

  9
$DIMLUNIT
 70
     2
  9
$DIMLWD
 70
    -2
  9
$DIMLWE
 70
    -2
  9
$DIMTMOVE
 70
     0
  9
$LUNITS
 70
     2
  9
$LUPREC
 70
     4
  9
$SKETCHINC
 40
1.0
  9
$FILLETRAD
 40
10.0
  9
$AUNITS
 70
     0
  9
$AUPREC
 70
     0
  9
$MENU
  1
.
  9
$ELEVATION
 40
0.0
  9
$PELEVATION
 40
0.0
  9
$THICKNESS
 40
0.0
  9
$LIMCHECK
 70
     0
  9
$CHAMFERA
 40
10.0
  9
$CHAMFERB
 40
10.0
  9
$CHAMFERC
 40
20.0
  9
$CHAMFERD
 40
0.0
  9
$SKPOLY
 70
     0
  9
$TDCREATE
 40
2454300.843865787
  9
$TDUCREATE
 40
2454301.010532454
  9
$TDUPDATE
 40
2454300.843865799
  9
$TDUUPDATE
 40
2454301.010532465
  9
$TDINDWG
 40
0.0000000116
  9
$TDUSRTIMER
 40
0.0000000116
  9
$USRTIMER
 70
     1
  9
$ANGBASE
 50
0.0
  9
$ANGDIR
 70
     0
  9
$PDMODE
 70
     3
  9
$PDSIZE
 40
-0.7
  9
$PLINEWID
 40
0.0
  9
$SPLFRAME
 70
     0
  9
$SPLINETYPE
 70
     6
  9
$SPLINESEGS
 70
     8
  9
$HANDSEED
  5
3E
  9
$SURFTAB1
 70
     6
  9
$SURFTAB2
 70
     6
  9
$SURFTYPE
 70
     6
  9
$SURFU
 70
     6
  9
$SURFV
 70
     6
  9
$UCSBASE
  2

  9
$UCSNAME
  2

  9
$UCSORG
 10
0.0
 20
0.0
 30
0.0
  9
$UCSXDIR
 10
1.0
 20
0.0
 30
0.0
  9
$UCSYDIR
 10
0.0
 20
1.0
 30
0.0
  9
$UCSORTHOREF
  2

  9
$UCSORTHOVIEW
 70
     0
  9
$UCSORGTOP
 10
0.0
 20
0.0
 30
0.0
  9
$UCSORGBOTTOM
 10
0.0
 20
0.0
 30
0.0
  9
$UCSORGLEFT
 10
0.0
 20
0.0
 30
0.0
  9
$UCSORGRIGHT
 10
0.0
 20
0.0
 30
0.0
  9
$UCSORGFRONT
 10
0.0
 20
0.0
 30
0.0
  9
$UCSORGBACK
 10
0.0
 20
0.0
 30
0.0
  9
$PUCSBASE
  2

  9
$PUCSNAME
  2

  9
$PUCSORG
 10
0.0
 20
0.0
 30
0.0
  9
$PUCSXDIR
 10
1.0
 20
0.0
 30
0.0
  9
$PUCSYDIR
 10
0.0
 20
1.0
 30
0.0
  9
$PUCSORTHOREF
  2

  9
$PUCSORTHOVIEW
 70
     0
  9
$PUCSORGTOP
 10
0.0
 20
0.0
 30
0.0
  9
$PUCSORGBOTTOM
 10
0.0
 20
0.0
 30
0.0
  9
$PUCSORGLEFT
 10
0.0
 20
0.0
 30
0.0
  9
$PUCSORGRIGHT
 10
0.0
 20
0.0
 30
0.0
  9
$PUCSORGFRONT
 10
0.0
 20
0.0
 30
0.0
  9
$PUCSORGBACK
 10
0.0
 20
0.0
 30
0.0
  9
$USERI1
 70
     0
  9
$USERI2
 70
     0
  9
$USERI3
 70
     0
  9
$USERI4
 70
     0
  9
$USERI5
 70
     0
  9
$USERR1
 40
0.0
  9
$USERR2
 40
0.0
  9
$USERR3
 40
0.0
  9
$USERR4
 40
0.0
  9
$USERR5
 40
0.0
  9
$WORLDVIEW
 70
     1
  9
$SHADEDGE
 70
     3
  9
$SHADEDIF
 70
    70
  9
$TILEMODE
 70
     1
  9
$MAXACTVP
 70
    64
  9
$PINSBASE
 10
0.0
 20
0.0
 30
0.0
  9
$PLIMCHECK
 70
     0
  9
$PEXTMIN
 10
1.000000E+20
 20
1.000000E+20
 30
1.000000E+20
  9
$PEXTMAX
 10
-1.000000E+20
 20
-1.000000E+20
 30
-1.000000E+20
  9
$PLIMMIN
 10
0.0
 20
0.0
  9
$PLIMMAX
 10
420.0
 20
297.0
  9
$UNITMODE
 70
     0
  9
$VISRETAIN
 70
     1
  9
$PLINEGEN
 70
     0
  9
$PSLTSCALE
 70
     1
  9
$TREEDEPTH
 70
  3020
  9
$CMLSTYLE
  2
Standard
  9
$CMLJUST
 70
     1
  9
$CMLSCALE
 40
1.0
  9
$PROXYGRAPHICS
 70
     1
  9
$MEASUREMENT
 70
     1
  9
$CELWEIGHT
370
    -1
  9
$ENDCAPS
280
     0
  9
$JOINSTYLE
280
     0
  9
$LWDISPLAY
290
     0
  9
$INSUNITS
 70
     4
  9
$HYPERLINKBASE
  1

  9
$STYLESHEET
  1

  9
$XEDIT
290
     1
  9
$CEPSNTYPE
380
     0
  9
$PSTYLEMODE
290
     1
  9
$FINGERPRINTGUID
  2
{FAEB1C30-E019-11D5-929B-00C0DF256EC4}
  9
$VERSIONGUID
  2
{FAEB1C32-E019-11D5-929B-00C0DF256EC4}
  9
$EXTNAMES
290
     1
  9
$PSVPSCALE
 40
0.0
  9
$OLESTARTUP
290
     0
  0
ENDSEC
  0
SECTION
  2
CLASSES
  0
CLASS
  1
ACDBDICTIONARYWDFLT
  2
AcDbDictionaryWithDefault
  3
ObjectDBX Classes
 90
        0
280
     0
281
     0
  0
CLASS
  1
ACDBPLACEHOLDER
  2
AcDbPlaceHolder
  3
ObjectDBX Classes
 90
        0
280
     0
281
     0
  0
CLASS
  1
LAYOUT
  2
AcDbLayout
  3
ObjectDBX Classes
 90
        0
280
     0
281
     0
  0
ENDSEC
  0
SECTION
  2
TABLES
  0
TABLE
  2
VPORT
  5
8
330
0
100
AcDbSymbolTable
 70
     2
  0
VPORT
  5
29
330
8
100
AcDbSymbolTableRecord
100
AcDbViewportTableRecord
  2
*Active
 70
     0
 10
0.0
 20
0.0
 11
1.0
 21
1.0
 12
50.0
 22
50.0
 13
0.0
 23
0.0
 14
10.0
 24
10.0
 15
10.0
 25
10.0
 16
0.0
 26
0.0
 36
1.0
 17
0.0
 27
0.0
 37
0.0
 40
103.921569
 41
1.0
 42
50.0
 43
0.0
 44
0.0
 50
0.0
 51
0.0
 71
     0
 72
   100
 73
     1
 74
     3
 75
     0
 76
     0
 77
     0
 78
     0
281
     0
 65
     1
110
0.0
120
0.0
130
0.0
111
1.0
121
0.0
131
0.0
112
0.0
122
1.0
132
0.0
 79
     0
146
0.0
  0
ENDTAB
  0
TABLE
  2
LTYPE
  5
5
330
0
100
AcDbSymbolTable
 70
     1
  0
LTYPE
  5
14
330
5
100
AcDbSymbolTableRecord
100
AcDbLinetypeTableRecord
  2
ByBlock
 70
     0
  3

 72
    65
 73
     0
 40
0.0
  0
LTYPE
  5
15
330
5
100
AcDbSymbolTableRecord
100
AcDbLinetypeTableRecord
  2
ByLayer
 70
     0
  3

 72
    65
 73
     0
 40
0.0
  0
LTYPE
  5
16
330
5
100
AcDbSymbolTableRecord
100
AcDbLinetypeTableRecord
  2
Continuous
 70
     0
  3

 72
    65
 73
     0
 40
0.0
  0
ENDTAB
  0
TABLE
  2
LAYER
  5
2
330
0
100
AcDbSymbolTable
 70
     1
  0
LAYER
  5
10
330
2
100
AcDbSymbolTableRecord
100
AcDbLayerTableRecord
  2
0
 70
     0
 62
     7
  6
Continuous
370
    -3
390
F
  0
ENDTAB
  0
TABLE
  2
STYLE
  5
3
330
0
100
AcDbSymbolTable
 70
     1
  0
STYLE
  5
11
330
3
100
AcDbSymbolTableRecord
100
AcDbTextStyleTableRecord
  2
Standard
 70
     0
 40
1.0
 41
1.0
 50
0.0
 71
     0
 42
2.5
  3
RomanS
  4

  0
ENDTAB
  0
TABLE
  2
VIEW
  5
6
330
0
100
AcDbSymbolTable
 70
     0
  0
ENDTAB
  0
TABLE
  2
UCS
  5
7
330
0
100
AcDbSymbolTable
 70
     0
  0
ENDTAB
  0
TABLE
  2
APPID
  5
9
330
0
100
AcDbSymbolTable
 70
     1
  0
APPID
  5
12
330
9
100
AcDbSymbolTableRecord
100
AcDbRegAppTableRecord
  2
ACAD
 70
     0
  0
ENDTAB
  0
TABLE
  2
DIMSTYLE
  5
A
330
0
100
AcDbSymbolTable
 70
     1
100
AcDbDimStyleTable
  0
DIMSTYLE
105
27
330
A
100
AcDbSymbolTableRecord
100
AcDbDimStyleTableRecord
  2
ISO-25
 70
     0
 41
2.5
 42
0.625
 44
1.25
 73
     0
 74
     0
 77
     1
 78
     8
 79
     2
140
2.5
141
2.5
146
0.0
147
0.625
271
     2
272
     0
273
     0
274
     0
278
    44
283
     0
289
     0
340
11
  0
ENDTAB
  0
TABLE
  2
BLOCK_RECORD
  5
1
330
0
100
AcDbSymbolTable
 70
     1
  0
BLOCK_RECORD
  5
1F
330
1
100
AcDbSymbolTableRecord
100
AcDbBlockTableRecord
  2
*Model_Space
340
22
  0
BLOCK_RECORD
  5
1B
330
1
100
AcDbSymbolTableRecord
100
AcDbBlockTableRecord
  2
*Paper_Space
340
1E
  0
BLOCK_RECORD
  5
23
330
1
100
AcDbSymbolTableRecord
100
AcDbBlockTableRecord
  2
*Paper_Space0
340
26
  0
ENDTAB
  0
ENDSEC
  0
SECTION
  2
BLOCKS
  0
BLOCK
  5
20
330
1F
100
AcDbEntity
  8
0
100
AcDbBlockBegin
  2
*Model_Space
 70
     0
 71
     0
 10
0.0
 20
0.0
 30
0.0
  3
*Model_Space
  1

  0
ENDBLK
  5
21
330
1F
100
AcDbEntity
  8
0
100
AcDbBlockEnd
  0
BLOCK
  5
1C
330
1B
100
AcDbEntity
 67
     1
  8
0
100
AcDbBlockBegin
  2
*Paper_Space
 70
     0
 71
     0
 10
0.0
 20
0.0
 30
0.0
  3
*Paper_Space
  1

  0
ENDBLK
  5
1D
330
1B
100
AcDbEntity
 67
     1
  8
0
100
AcDbBlockEnd
  0
BLOCK
  5
24
330
23
100
AcDbEntity
  8
0
100
AcDbBlockBegin
  2
*Paper_Space0
 70
     0
 71
     0
 10
0.0
 20
0.0
 30
0.0
  3
*Paper_Space0
  1

  0
ENDBLK
  5
25
330
23
100
AcDbEntity
  8
0
100
AcDbBlockEnd
  0
ENDSEC
  0
SECTION
  2
ENTITIES
  0
LWPOLYLINE
  5
2A
330
1F
100
AcDbEntity
  8
0
100
AcDbPolyline
 90
       55
 70
   128
 43
0.0
 10
-3.3685
 20
-1.4285
 10
-3.3705
 20
-1.9115
 10
-3.3805
 20
-1.9615
 10
-3.4255
 20
-1.9915
 10
-3.4785
 20
-1.9855
 10
-3.5195
 20
-1.9565
 10
-3.5715
 20
-1.9105
 10
-3.6285
 20
-1.8815
 10
-3.6875
 20
-1.8815
 10
-3.7505
 20
-1.8935
 10
-3.7965
 20
-1.9345
 10
-3.8265
 20
-2.0035
 10
-3.8375
 20
-2.0845
 10
-3.8325
 20
-2.1645
 10
-3.8085
 20
-2.2285
 10
-3.7685
 20
-2.2805
 10
-3.7115
 20
-2.3095
 10
-3.6525
 20
-2.3285
 10
-3.5775
 20
-2.3155
 10
-3.4785
 20
-2.2455
 10
-3.4305
 20
-2.2145
 10
-3.3855
 20
-2.2105
 10
-3.3695
 20
-2.2235
 10
-3.3405
 20
-2.2515
 10
-3.3305
 20
-2.2955
 10
-3.3295
 20
-2.8765
 10
-4.7425
 20
-2.8745
 10
-4.7425
 20
-1.4045
 10
-4.2155
 20
-1.4065
 10
-4.1805
 20
-1.3875
 10
-4.1585
 20
-1.3525
 10
-4.1455
 20
-1.3115
 10
-4.1515
 20
-1.2545
 10
-4.1975
 20
-1.1735
 10
-4.2255
 20
-1.0985
 10
-4.2335
 20
-1.0395
 10
-4.2215
 20
-0.9855
 10
-4.1955
 20
-0.9475
 10
-4.1575
 20
-0.9185
 10
-4.0875
 20
-0.8885
 10
-4.0065
 20
-0.8845
 10
-3.9255
 20
-0.8945
 10
-3.8725
 20
-0.9295
 10
-3.8505
 20
-0.9815
 10
-3.8435
 20
-1.0525
 10
-3.8555
 20
-1.1045
 10
-3.8945
 20
-1.1665
 10
-3.9155
 20
-1.2245
 10
-3.9245
 20
-1.2775
 10
-3.9155
 20
-1.3455
 10
-3.8945
 20
-1.3855
 10
-3.8555
 20
-1.4115
 10
-3.8145
 20
-1.4285
 10
-3.6125
 20
-1.4285
 10
-3.3685
 20
-1.4285
  0
LWPOLYLINE
  5
2B
330
1F
100
AcDbEntity
  8
0
100
AcDbPolyline
 90
       81
 70
   128
 43
0.0
 10
-2.6385
 20
-1.4355
 10
-2.0955
 20
-1.4355
 10
-2.0525
 20
-1.4565
 10
-2.0405
 20
-1.4835
 10
-2.0345
 20
-1.5215
 10
-2.0505
 20
-1.5735
 10
-2.0895
 20
-1.6315
 10
-2.0985
 20
-1.6735
 10
-2.0945
 20
-1.7115
 10
-2.0695
 20
-1.7615
 10
-2.0235
 20
-1.8105
 10
-1.9695
 20
-1.8425
 10
-1.8895
 20
-1.8615
 10
-1.8265
 20
-1.8615
 10
-1.7645
 20
-1.8425
 10
-1.7215
 20
-1.8155
 10
-1.6975
 20
-1.7815
 10
-1.6775
 20
-1.7225
 10
-1.6775
 20
-1.6595
 10
-1.6945
 20
-1.5795
 10
-1.7145
 20
-1.5255
 10
-1.7095
 20
-1.4875
 10
-1.6895
 20
-1.4665
 10
-1.6505
 20
-1.4515
 10
-1.2075
 20
-1.4515
 10
-1.2085
 20
-1.8975
 10
-1.1915
 20
-1.9435
 10
-1.1705
 20
-1.9725
 10
-1.1245
 20
-1.9905
 10
-1.0885
 20
-1.9845
 10
-1.0435
 20
-1.9725
 10
-0.9845
 20
-1.9405
 10
-0.9395
 20
-1.9225
 10
-0.8855
 20
-1.9135
 10
-0.8235
 20
-1.9185
 10
-0.7835
 20
-1.9435
 10
-0.7445
 20
-1.9805
 10
-0.7235
 20
-2.0375
 10
-0.7105
 20
-2.1235
 10
-0.7155
 20
-2.2165
 10
-0.7415
 20
-2.3025
 10
-0.7655
 20
-2.3365
 10
-0.8035
 20
-2.3685
 10
-0.8575
 20
-2.3815
 10
-0.9025
 20
-2.3855
 10
-0.9475
 20
-2.3815
 10
-1.0265
 20
-2.3425
 10
-1.0665
 20
-2.3155
 10
-1.1215
 20
-2.3075
 10
-1.1545
 20
-2.3115
 10
-1.1915
 20
-2.3235
 10
-1.2325
 20
-2.3515
 10
-1.2585
 20
-2.3855
 10
-1.2655
 20
-2.4235
 10
-1.2675
 20
-2.8845
 10
-2.5985
 20
-2.8845
 10
-2.5995
 20
-2.3025
 10
-2.6095
 20
-2.2585
 10
-2.6385
 20
-2.2305
 10
-2.6545
 20
-2.2175
 10
-2.6995
 20
-2.2215
 10
-2.7475
 20
-2.2525
 10
-2.8465
 20
-2.3225
 10
-2.9215
 20
-2.3355
 10
-2.9805
 20
-2.3165
 10
-3.0375
 20
-2.2875
 10
-3.0775
 20
-2.2355
 10
-3.1015
 20
-2.1715
 10
-3.1065
 20
-2.0915
 10
-3.0955
 20
-2.0105
 10
-3.0655
 20
-1.9415
 10
-3.0195
 20
-1.9005
 10
-2.9565
 20
-1.8885
 10
-2.8975
 20
-1.8885
 10
-2.8405
 20
-1.9175
 10
-2.7885
 20
-1.9635
 10
-2.7475
 20
-1.9925
 10
-2.6945
 20
-1.9985
 10
-2.6495
 20
-1.9685
 10
-2.6395
 20
-1.9185
 10
-2.6385
 20
-1.4355
  0
LWPOLYLINE
  5
2C
330
1F
100
AcDbEntity
  8
0
100
AcDbPolyline
 90
       92
 70
   128
 43
0.0
 10
0.9965
 20
-2.9285
 10
1.0335
 20
-2.4415
 10
1.0285
 20
-2.3285
 10
1.0155
 20
-2.2715
 10
0.9795
 20
-2.2165
 10
0.9465
 20
-2.1915
 10
0.9105
 20
-2.1815
 10
0.8635
 20
-2.1865
 10
0.8295
 20
-2.1995
 10
0.7955
 20
-2.2255
 10
0.7345
 20
-2.2605
 10
0.6705
 20
-2.2725
 10
0.6235
 20
-2.2635
 10
0.5795
 20
-2.2375
 10
0.5455
 20
-2.2035
 10
0.5245
 20
-2.1655
 10
0.5155
 20
-2.0825
 10
0.5295
 20
-2.0235
 10
0.5545
 20
-1.9505
 10
0.5845
 20
-1.8985
 10
0.6235
 20
-1.8665
 10
0.6765
 20
-1.8585
 10
0.7215
 20
-1.8585
 10
0.7735
 20
-1.8715
 10
0.8265
 20
-1.8885
 10
0.8775
 20
-1.8885
 10
0.9075
 20
-1.8585
 10
0.9145
 20
-1.8235
 10
0.9125
 20
-1.6015
 10
0.7695
 20
-1.6015
 10
0.6695
 20
-1.5885
 10
0.6015
 20
-1.5695
 10
0.5335
 20
-1.5335
 10
0.4745
 20
-1.4955
 10
0.4345
 20
-1.4565
 10
0.4045
 20
-1.4065
 10
0.3915
 20
-1.3465
 10
0.3965
 20
-1.3045
 10
0.4345
 20
-1.2445
 10
0.4515
 20
-1.1875
 10
0.4465
 20
-1.1265
 10
0.4165
 20
-1.0865
 10
0.3655
 20
-1.0565
 10
0.3145
 20
-1.0435
 10
0.2555
 20
-1.0435
 10
0.2015
 20
-1.0465
 10
0.1545
 20
-1.0665
 10
0.1115
 20
-1.0945
 10
0.0725
 20
-1.1405
 10
0.0575
 20
-1.1875
 10
0.0605
 20
-1.2225
 10
0.0765
 20
-1.2535
 10
0.1085
 20
-1.2915
 10
0.1355
 20
-1.3265
 10
0.1465
 20
-1.3745
 10
0.1465
 20
-1.4085
 10
0.1355
 20
-1.4445
 10
0.1115
 20
-1.4805
 10
0.0685
 20
-1.4915
 10
0.0215
 20
-1.4955
 10
-0.4135
 20
-1.4955
 10
-0.4145
 20
-1.9425
 10
-0.3975
 20
-1.9885
 10
-0.3765
 20
-2.0175
 10
-0.3305
 20
-2.0355
 10
-0.2945
 20
-2.0295
 10
-0.2495
 20
-2.0175
 10
-0.1905
 20
-1.9855
 10
-0.1455
 20
-1.9675
 10
-0.0915
 20
-1.9585
 10
-0.0295
 20
-1.9635
 10
0.0105
 20
-1.9885
 10
0.0495
 20
-2.0255
 10
0.0705
 20
-2.0825
 10
0.0835
 20
-2.1685
 10
0.0785
 20
-2.2615
 10
0.0525
 20
-2.3475
 10
0.0285
 20
-2.3815
 10
-0.0095
 20
-2.4135
 10
-0.0635
 20
-2.4265
 10
-0.1085
 20
-2.4305
 10
-0.1535
 20
-2.4265
 10
-0.2325
 20
-2.3875
 10
-0.2725
 20
-2.3605
 10
-0.3275
 20
-2.3525
 10
-0.3605
 20
-2.3565
 10
-0.3975
 20
-2.3685
 10
-0.4385
 20
-2.3965
 10
-0.4645
 20
-2.4305
 10
-0.4715
 20
-2.4685
 10
-0.4725
 20
-2.9275
 10
0.9965
 20
-2.9285
  0
LWPOLYLINE
  5
2D
330
1F
100
AcDbEntity
  8
0
100
AcDbPolyline
 90
       91
 70
   128
 43
0.0
 10
1.7975
 20
-1.6035
 10
1.7985
 20
-1.8255
 10
1.7915
 20
-1.8605
 10
1.7615
 20
-1.8905
 10
1.7095
 20
-1.8905
 10
1.6565
 20
-1.8735
 10
1.6045
 20
-1.8605
 10
1.5595
 20
-1.8605
 10
1.5065
 20
-1.8685
 10
1.4675
 20
-1.9005
 10
1.4375
 20
-1.9525
 10
1.4125
 20
-2.0255
 10
1.3985
 20
-2.0845
 10
1.4075
 20
-2.1675
 10
1.4285
 20
-2.2055
 10
1.4625
 20
-2.2395
 10
1.5065
 20
-2.2655
 10
1.5535
 20
-2.2745
 10
1.6175
 20
-2.2625
 10
1.6785
 20
-2.2275
 10
1.7125
 20
-2.2015
 10
1.7475
 20
-2.1885
 10
1.7945
 20
-2.1835
 10
1.8305
 20
-2.1935
 10
1.8635
 20
-2.2185
 10
1.8995
 20
-2.2735
 10
1.9125
 20
-2.3305
 10
1.9175
 20
-2.4435
 10
1.8805
 20
-2.9315
 10
3.2795
 20
-2.9305
 10
3.2415
 20
-2.5635
 10
3.2365
 20
-2.5295
 10
3.2245
 20
-2.4895
 10
3.2025
 20
-2.4585
 10
3.1615
 20
-2.4335
 10
3.1075
 20
-2.4215
 10
3.0345
 20
-2.4255
 10
2.9625
 20
-2.4385
 10
2.9075
 20
-2.4265
 10
2.8685
 20
-2.4015
 10
2.8375
 20
-2.3475
 10
2.8235
 20
-2.2705
 10
2.8235
 20
-2.2135
 10
2.8325
 20
-2.1575
 10
2.8435
 20
-2.0995
 10
2.8725
 20
-2.0605
 10
2.9175
 20
-2.0285
 10
2.9665
 20
-2.0205
 10
3.0025
 20
-2.0155
 10
3.0345
 20
-2.0205
 10
3.0965
 20
-2.0485
 10
3.1485
 20
-2.0885
 10
3.2055
 20
-2.1155
 10
3.2575
 20
-2.1205
 10
3.2975
 20
-2.1045
 10
3.3355
 20
-2.0765
 10
3.3595
 20
-2.0245
 10
3.3465
 20
-1.5585
 10
2.9715
 20
-1.5825
 10
2.8835
 20
-1.5835
 10
2.8245
 20
-1.5655
 10
2.7925
 20
-1.5385
 10
2.7665
 20
-1.5035
 10
2.7525
 20
-1.4605
 10
2.7585
 20
-1.4135
 10
2.7745
 20
-1.3515
 10
2.7895
 20
-1.2845
 10
2.7925
 20
-1.2275
 10
2.7785
 20
-1.1705
 10
2.7545
 20
-1.1195
 10
2.7235
 20
-1.0825
 10
2.6835
 20
-1.0545
 10
2.6405
 20
-1.0345
 10
2.5895
 20
-1.0255
 10
2.5345
 20
-1.0285
 10
2.4795
 20
-1.0445
 10
2.4235
 20
-1.0785
 10
2.3895
 20
-1.1265
 10
2.3665
 20
-1.1835
 10
2.3625
 20
-1.2395
 10
2.3755
 20
-1.3015
 10
2.4025
 20
-1.3515
 10
2.4295
 20
-1.4095
 10
2.4365
 20
-1.4575
 10
2.4325
 20
-1.5015
 10
2.4125
 20
-1.5415
 10
2.3925
 20
-1.5695
 10
2.3485
 20
-1.5935
 10
2.3045
 20
-1.6035
 10
1.7965
 20
-1.6035
 10
1.7975
 20
-1.6035
  0
LWPOLYLINE
  5
2E
330
1F
100
AcDbEntity
  8
0
100
AcDbPolyline
 90
       59
 70
   128
 43
0.0
 10
5.5375
 20
-1.6195
 10
5.5375
 20
-2.9305
 10
4.1595
 20
-2.9305
 10
4.1215
 20
-2.5625
 10
4.1165
 20
-2.5285
 10
4.1045
 20
-2.4885
 10
4.0825
 20
-2.4575
 10
4.0415
 20
-2.4325
 10
3.9875
 20
-2.4205
 10
3.9145
 20
-2.4245
 10
3.8425
 20
-2.4375
 10
3.7875
 20
-2.4255
 10
3.7485
 20
-2.4005
 10
3.7175
 20
-2.3465
 10
3.7035
 20
-2.2695
 10
3.7035
 20
-2.2125
 10
3.7125
 20
-2.1565
 10
3.7235
 20
-2.0985
 10
3.7525
 20
-2.0595
 10
3.7975
 20
-2.0275
 10
3.8465
 20
-2.0195
 10
3.8825
 20
-2.0145
 10
3.9145
 20
-2.0195
 10
3.9765
 20
-2.0475
 10
4.0285
 20
-2.0875
 10
4.0855
 20
-2.1145
 10
4.1375
 20
-2.1195
 10
4.1775
 20
-2.1035
 10
4.2155
 20
-2.0755
 10
4.2395
 20
-2.0235
 10
4.2295
 20
-1.6515
 10
4.7465
 20
-1.6375
 10
4.7775
 20
-1.6145
 10
4.7885
 20
-1.5825
 10
4.7945
 20
-1.5365
 10
4.7815
 20
-1.4905
 10
4.7625
 20
-1.4565
 10
4.7275
 20
-1.4205
 10
4.7095
 20
-1.3815
 10
4.6975
 20
-1.3375
 10
4.7025
 20
-1.2775
 10
4.7185
 20
-1.2405
 10
4.7625
 20
-1.1875
 10
4.8395
 20
-1.1475
 10
4.9155
 20
-1.1355
 10
5.0035
 20
-1.1395
 10
5.0635
 20
-1.1585
 10
5.1185
 20
-1.1875
 10
5.1535
 20
-1.2375
 10
5.1695
 20
-1.2745
 10
5.1695
 20
-1.3185
 10
5.1605
 20
-1.3585
 10
5.1375
 20
-1.3985
 10
5.1075
 20
-1.4615
 10
5.0945
 20
-1.5155
 10
5.0945
 20
-1.5585
 10
5.1315
 20
-1.5995
 10
5.1825
 20
-1.6065
 10
5.5375
 20
-1.6195
  0
LWPOLYLINE
  5
2F
330
1F
100
AcDbEntity
  8
0
100
AcDbPolyline
 90
      107
 70
   128
 43
0.0
 10
5.5215
 20
-0.7755
 10
5.5215
 20
0.7965
 10
5.2115
 20
0.8115
 10
5.1725
 20
0.8215
 10
5.1335
 20
0.8325
 10
5.1035
 20
0.8585
 10
5.0865
 20
0.8925
 10
5.0815
 20
0.9335
 10
5.0865
 20
0.9745
 10
5.1015
 20
1.0215
 10
5.1235
 20
1.0715
 10
5.1445
 20
1.1355
 10
5.1535
 20
1.1885
 10
5.1445
 20
1.2425
 10
5.1185
 20
1.2895
 10
5.0865
 20
1.3195
 10
5.0465
 20
1.3435
 10
4.9985
 20
1.3585
 10
4.9185
 20
1.3645
 10
4.8325
 20
1.3585
 10
4.7895
 20
1.3435
 10
4.7415
 20
1.3165
 10
4.6965
 20
1.2835
 10
4.6765
 20
1.2585
 10
4.6545
 20
1.2175
 10
4.6425
 20
1.1835
 10
4.6425
 20
1.1445
 10
4.6525
 20
1.1095
 10
4.6705
 20
1.0715
 10
4.6965
 20
1.0165
 10
4.7265
 20
0.9625
 10
4.7335
 20
0.9215
 10
4.7265
 20
0.8745
 10
4.7125
 20
0.8465
 10
4.6915
 20
0.8185
 10
4.6655
 20
0.8045
 10
4.6315
 20
0.7955
 10
4.0845
 20
0.7955
 10
4.0855
 20
0.7955
 10
4.0855
 20
0.2515
 10
4.1005
 20
0.2285
 10
4.1275
 20
0.2135
 10
4.1575
 20
0.2085
 10
4.2065
 20
0.2165
 10
4.2365
 20
0.2405
 10
4.2845
 20
0.2685
 10
4.3335
 20
0.2965
 10
4.3975
 20
0.3235
 10
4.4525
 20
0.3305
 10
4.5115
 20
0.3275
 10
4.5555
 20
0.3095
 10
4.5905
 20
0.2795
 10
4.6155
 20
0.2445
 10
4.6285
 20
0.1965
 10
4.6315
 20
0.1215
 10
4.6285
 20
0.0435
 10
4.6175
 20
0.0005
 10
4.6015
 20
-0.0335
 10
4.5765
 20
-0.0685
 10
4.5425
 20
-0.0885
 10
4.5065
 20
-0.1025
 10
4.4575
 20
-0.1095
 10
4.4125
 20
-0.1095
 10
4.3585
 20
-0.0935
 10
4.3105
 20
-0.0835
 10
4.2715
 20
-0.0935
 10
4.2365
 20
-0.1125
 10
4.2165
 20
-0.1585
 10
4.2055
 20
-0.2335
 10
4.208071
 20
-0.31536
 10
4.210643
 20
-0.397238
 10
4.213214
 20
-0.47915
 10
4.215786
 20
-0.561115
 10
4.218357
 20
-0.64315
 10
4.220929
 20
-0.725273
 10
4.2235
 20
-0.8075
 10
4.7405
 20
-0.7935
 10
4.7715
 20
-0.7705
 10
4.7825
 20
-0.7385
 10
4.7885
 20
-0.6925
 10
4.7755
 20
-0.6465
 10
4.7565
 20
-0.6125
 10
4.7215
 20
-0.5765
 10
4.7035
 20
-0.5375
 10
4.6915
 20
-0.4935
 10
4.6965
 20
-0.4335
 10
4.7125
 20
-0.3965
 10
4.7565
 20
-0.3435
 10
4.8335
 20
-0.3035
 10
4.9095
 20
-0.2915
 10
4.9975
 20
-0.2955
 10
5.0575
 20
-0.3145
 10
5.1125
 20
-0.3435
 10
5.1475
 20
-0.3935
 10
5.1635
 20
-0.4305
 10
5.1635
 20
-0.4745
 10
5.1545
 20
-0.5145
 10
5.1315
 20
-0.5545
 10
5.1015
 20
-0.6175
 10
5.0885
 20
-0.6715
 10
5.0885
 20
-0.7145
 10
5.1255
 20
-0.7555
 10
5.1765
 20
-0.7625
 10
5.26275
 20
-0.765516
 10
5.349
 20
-0.768625
 10
5.43525
 20
-0.771922
 10
5.5215
 20
-0.7755
  0
LWPOLYLINE
  5
30
330
1F
100
AcDbEntity
  8
0
100
AcDbPolyline
 90
      124
 70
   128
 43
0.0
 10
1.8865
 20
-0.8125
 10
1.8865
 20
-0.1475
 10
1.8775
 20
-0.0905
 10
1.8545
 20
-0.0365
 10
1.8225
 20
-0.0095
 10
1.7805
 20
0.0065
 10
1.7145
 20
0.0095
 10
1.6665
 20
-0.0095
 10
1.6285
 20
-0.0405
 10
1.5855
 20
-0.0745
 10
1.5145
 20
-0.1025
 10
1.4455
 20
-0.1025
 10
1.3785
 20
-0.0785
 10
1.3315
 20
-0.0405
 10
1.2965
 20
0.0145
 10
1.2895
 20
0.0765
 10
1.3005
 20
0.1575
 10
1.3165
 20
0.2255
 10
1.3475
 20
0.2725
 10
1.3905
 20
0.3045
 10
1.4455
 20
0.3235
 10
1.5025
 20
0.3265
 10
1.5655
 20
0.3155
 10
1.6285
 20
0.2875
 10
1.6665
 20
0.2765
 10
1.7175
 20
0.2725
 10
1.7565
 20
0.2805
 10
1.7965
 20
0.3235
 10
1.8075
 20
0.3885
 10
1.8045
 20
0.4575
 10
1.7995
 20
0.5415
 10
2.0165
 20
0.5315
 10
2.1005
 20
0.5265
 10
2.1665
 20
0.5265
 10
2.2165
 20
0.5485
 10
2.2465
 20
0.5805
 10
2.2595
 20
0.6195
 10
2.2595
 20
0.6605
 10
2.2415
 20
0.7035
 10
2.2165
 20
0.7925
 10
2.2065
 20
0.8535
 10
2.2165
 20
0.8975
 10
2.2335
 20
0.9375
 10
2.2635
 20
0.9735
 10
2.3165
 20
1.0165
 10
2.3865
 20
1.0425
 10
2.4715
 20
1.0425
 10
2.5515
 20
1.0295
 10
2.6035
 20
0.9985
 10
2.6475
 20
0.9585
 10
2.6715
 20
0.9145
 10
2.6835
 20
0.8445
 10
2.6655
 20
0.7785
 10
2.6335
 20
0.7365
 10
2.6165
 20
0.7045
 10
2.5985
 20
0.6645
 10
2.5995
 20
0.6295
 10
2.6215
 20
0.5835
 10
2.6575
 20
0.5675
 10
2.6915
 20
0.5615
 10
3.1355
 20
0.5475
 10
3.1355
 20
0.1975
 10
3.1505
 20
0.1745
 10
3.1775
 20
0.1595
 10
3.2075
 20
0.1545
 10
3.2565
 20
0.1625
 10
3.2865
 20
0.1865
 10
3.3345
 20
0.2145
 10
3.3835
 20
0.2425
 10
3.4475
 20
0.2695
 10
3.5025
 20
0.2765
 10
3.5615
 20
0.2735
 10
3.6055
 20
0.2555
 10
3.6405
 20
0.2255
 10
3.6655
 20
0.1905
 10
3.6785
 20
0.1425
 10
3.6815
 20
0.0675
 10
3.6785
 20
-0.0105
 10
3.6675
 20
-0.0535
 10
3.6515
 20
-0.0875
 10
3.6265
 20
-0.1225
 10
3.5925
 20
-0.1425
 10
3.5565
 20
-0.1565
 10
3.5075
 20
-0.1635
 10
3.4625
 20
-0.1635
 10
3.4085
 20
-0.1475
 10
3.3605
 20
-0.1375
 10
3.3215
 20
-0.1475
 10
3.2865
 20
-0.1665
 10
3.2665
 20
-0.2125
 10
3.2555
 20
-0.2875
 10
3.2715
 20
-0.7685
 10
2.8955
 20
-0.7915
 10
2.8075
 20
-0.7925
 10
2.7485
 20
-0.7745
 10
2.7165
 20
-0.7475
 10
2.6905
 20
-0.7125
 10
2.6765
 20
-0.6695
 10
2.6825
 20
-0.6225
 10
2.6985
 20
-0.5605
 10
2.7135
 20
-0.4935
 10
2.7165
 20
-0.4365
 10
2.7025
 20
-0.3795
 10
2.6785
 20
-0.3285
 10
2.6475
 20
-0.2915
 10
2.6075
 20
-0.2635
 10
2.5645
 20
-0.2435
 10
2.5135
 20
-0.2345
 10
2.4585
 20
-0.2375
 10
2.4035
 20
-0.2535
 10
2.3475
 20
-0.2875
 10
2.3135
 20
-0.3355
 10
2.2905
 20
-0.3925
 10
2.2865
 20
-0.4485
 10
2.2995
 20
-0.5105
 10
2.3265
 20
-0.5605
 10
2.3535
 20
-0.6185
 10
2.3605
 20
-0.6665
 10
2.3565
 20
-0.7105
 10
2.3365
 20
-0.7505
 10
2.3165
 20
-0.7785
 10
2.2725
 20
-0.8025
 10
2.2285
 20
-0.8125
 10
1.8865
 20
-0.8125
  0
LWPOLYLINE
  5
31
330
1F
100
AcDbEntity
  8
0
100
AcDbPolyline
 90
      119
 70
   128
 43
0.0
 10
0.8995
 20
0.7585
 10
0.4545
 20
0.7635
 10
0.4095
 20
0.7695
 10
0.3745
 20
0.7835
 10
0.3595
 20
0.8175
 10
0.3595
 20
0.8505
 10
0.3745
 20
0.8905
 10
0.4045
 20
0.9405
 10
0.4325
 20
0.9935
 10
0.4375
 20
1.0235
 10
0.4375
 20
1.0665
 10
0.4245
 20
1.1095
 10
0.4045
 20
1.1465
 10
0.3645
 20
1.1815
 10
0.3145
 20
1.2045
 10
0.2645
 20
1.2175
 10
0.1955
 20
1.2215
 10
0.1285
 20
1.2115
 10
0.0835
 20
1.1915
 10
0.0345
 20
1.1555
 10
0.0095
 20
1.1165
 10
-0.0155
 20
1.0685
 10
-0.0175
 20
1.0125
 10
-0.0105
 20
0.9545
 10
0.0025
 20
0.9065
 10
0.0425
 20
0.8135
 10
0.0325
 20
0.7675
 10
0.0115
 20
0.7375
 10
-0.0205
 20
0.7175
 10
-0.0545
 20
0.7085
 10
-0.1045
 20
0.7035
 10
-0.6105
 20
0.7035
 10
-0.6125
 20
0.1795
 10
-0.6005
 20
0.1365
 10
-0.5635
 20
0.1045
 10
-0.5045
 20
0.0945
 10
-0.4465
 20
0.1045
 10
-0.3855
 20
0.1365
 10
-0.3455
 20
0.1625
 10
-0.2855
 20
0.1795
 10
-0.2215
 20
0.1855
 10
-0.1645
 20
0.1625
 10
-0.1155
 20
0.1205
 10
-0.0945
 20
0.0505
 10
-0.1005
 20
-0.0185
 10
-0.1205
 20
-0.0875
 10
-0.1535
 20
-0.1305
 10
-0.1865
 20
-0.1625
 10
-0.2275
 20
-0.1735
 10
-0.2755
 20
-0.1735
 10
-0.3915
 20
-0.1625
 10
-0.4455
 20
-0.1625
 10
-0.5055
 20
-0.1835
 10
-0.5375
 20
-0.2105
 10
-0.5635
 20
-0.2485
 10
-0.5845
 20
-0.3295
 10
-0.5845
 20
-0.7455
 10
-0.0535
 20
-0.7445
 10
-0.0065
 20
-0.7405
 10
0.0365
 20
-0.7295
 10
0.0605
 20
-0.6935
 10
0.0715
 20
-0.6575
 10
0.0715
 20
-0.6235
 10
0.0605
 20
-0.5755
 10
0.0335
 20
-0.5405
 10
0.0015
 20
-0.5025
 10
-0.0145
 20
-0.4715
 10
-0.0175
 20
-0.4365
 10
-0.0025
 20
-0.3895
 10
0.0365
 20
-0.3435
 10
0.0795
 20
-0.3155
 10
0.1265
 20
-0.2955
 10
0.1805
 20
-0.2925
 10
0.2395
 20
-0.2925
 10
0.2905
 20
-0.3055
 10
0.3415
 20
-0.3355
 10
0.3715
 20
-0.3755
 10
0.3765
 20
-0.4365
 10
0.3595
 20
-0.4935
 10
0.3215
 20
-0.5535
 10
0.3165
 20
-0.5955
 10
0.3295
 20
-0.6555
 10
0.3595
 20
-0.7055
 10
0.3995
 20
-0.7445
 10
0.4585
 20
-0.7825
 10
0.5265
 20
-0.8185
 10
0.5945
 20
-0.8375
 10
0.6945
 20
-0.8505
 10
1.0035
 20
-0.8505
 10
1.0035
 20
-0.1855
 10
0.9945
 20
-0.1285
 10
0.9715
 20
-0.0745
 10
0.9395
 20
-0.0475
 10
0.8975
 20
-0.0315
 10
0.8325
 20
-0.0285
 10
0.7845
 20
-0.0475
 10
0.7465
 20
-0.0785
 10
0.7025
 20
-0.1125
 10
0.6325
 20
-0.1405
 10
0.5635
 20
-0.1405
 10
0.4965
 20
-0.1165
 10
0.4495
 20
-0.0785
 10
0.4145
 20
-0.0235
 10
0.4075
 20
0.0385
 10
0.4185
 20
0.1195
 10
0.4345
 20
0.1875
 10
0.4655
 20
0.2345
 10
0.5085
 20
0.2665
 10
0.5635
 20
0.2855
 10
0.6205
 20
0.2885
 10
0.6835
 20
0.2775
 10
0.7465
 20
0.2495
 10
0.7845
 20
0.2385
 10
0.8355
 20
0.2345
 10
0.8735
 20
0.2425
 10
0.9135
 20
0.2855
 10
0.9245
 20
0.3505
 10
0.9215
 20
0.4195
 10
0.8995
 20
0.7585
  0
LWPOLYLINE
  5
32
330
1F
100
AcDbEntity
  8
0
100
AcDbPolyline
 90
      107
 70
   128
 43
0.0
 10
-2.5745
 20
-0.3615
 10
-2.5745
 20
-0.6855
 10
-2.1115
 20
-0.6865
 10
-2.0685
 20
-0.7075
 10
-2.0565
 20
-0.7345
 10
-2.0505
 20
-0.7725
 10
-2.0665
 20
-0.8245
 10
-2.1055
 20
-0.8825
 10
-2.1145
 20
-0.9245
 10
-2.1105
 20
-0.9625
 10
-2.0855
 20
-1.0125
 10
-2.0395
 20
-1.0615
 10
-1.9855
 20
-1.0935
 10
-1.9055
 20
-1.1125
 10
-1.8425
 20
-1.1125
 10
-1.7805
 20
-1.0935
 10
-1.7375
 20
-1.0665
 10
-1.7135
 20
-1.0325
 10
-1.6935
 20
-0.9735
 10
-1.6935
 20
-0.9105
 10
-1.7105
 20
-0.8305
 10
-1.7305
 20
-0.7765
 10
-1.7255
 20
-0.7385
 10
-1.7055
 20
-0.7175
 10
-1.6665
 20
-0.7025
 10
-1.3195
 20
-0.7025
 10
-1.3195
 20
-0.2865
 10
-1.2985
 20
-0.2055
 10
-1.2725
 20
-0.1675
 10
-1.2405
 20
-0.1405
 10
-1.1805
 20
-0.1195
 10
-1.1265
 20
-0.1195
 10
-1.0105
 20
-0.1305
 10
-0.9625
 20
-0.1305
 10
-0.9215
 20
-0.1195
 10
-0.8885
 20
-0.0875
 10
-0.8555
 20
-0.0445
 10
-0.8355
 20
0.0245
 10
-0.8295
 20
0.0935
 10
-0.8505
 20
0.1635
 10
-0.8995
 20
0.2055
 10
-0.9565
 20
0.2285
 10
-1.0205
 20
0.2225
 10
-1.0805
 20
0.2055
 10
-1.1205
 20
0.1795
 10
-1.1815
 20
0.1475
 10
-1.2395
 20
0.1375
 10
-1.2985
 20
0.1475
 10
-1.3355
 20
0.1795
 10
-1.3475
 20
0.2225
 10
-1.3455
 20
0.7465
 10
-1.5675
 20
0.7465
 10
-1.6275
 20
0.7435
 10
-1.6885
 20
0.7255
 10
-1.7205
 20
0.6875
 10
-1.7205
 20
0.6415
 10
-1.6945
 20
0.5915
 10
-1.6395
 20
0.5255
 10
-1.6065
 20
0.4835
 10
-1.5975
 20
0.4335
 10
-1.6035
 20
0.3885
 10
-1.6335
 20
0.3485
 10
-1.6745
 20
0.3075
 10
-1.7305
 20
0.2875
 10
-1.7955
 20
0.2825
 10
-1.8725
 20
0.2985
 10
-1.9265
 20
0.3235
 10
-1.9625
 20
0.3485
 10
-1.9845
 20
0.3985
 10
-1.9845
 20
0.4475
 10
-1.9685
 20
0.4905
 10
-1.9445
 20
0.5235
 10
-1.9225
 20
0.5665
 10
-1.9125
 20
0.5965
 10
-1.9105
 20
0.6255
 10
-1.9225
 20
0.6625
 10
-1.9625
 20
0.6875
 10
-2.0135
 20
0.6975
 10
-2.0905
 20
0.7085
 10
-2.7195
 20
0.7055
 10
-2.7195
 20
0.3865
 10
-2.6945
 20
0.2635
 10
-2.6755
 20
0.2025
 10
-2.6285
 20
0.1575
 10
-2.5805
 20
0.1475
 10
-2.5315
 20
0.1515
 10
-2.4785
 20
0.1785
 10
-2.4355
 20
0.2265
 10
-2.3975
 20
0.2595
 10
-2.3605
 20
0.2705
 10
-2.3005
 20
0.2745
 10
-2.2425
 20
0.2595
 10
-2.1895
 20
0.2175
 10
-2.1475
 20
0.1575
 10
-2.1255
 20
0.0875
 10
-2.1305
 20
0.0025
 10
-2.1475
 20
-0.0825
 10
-2.1735
 20
-0.1465
 10
-2.2115
 20
-0.1885
 10
-2.2695
 20
-0.2175
 10
-2.3355
 20
-0.2245
 10
-2.4095
 20
-0.2115
 10
-2.4735
 20
-0.2005
 10
-2.5155
 20
-0.2055
 10
-2.5425
 20
-0.2325
 10
-2.5585
 20
-0.2815
 10
-2.5745
 20
-0.3615
  0
LWPOLYLINE
  5
33
330
1F
100
AcDbEntity
  8
0
100
AcDbPolyline
 90
       90
 70
   128
 43
0.0
 10
-3.4645
 20
0.4355
 10
-3.4635
 20
0.8775
 10
-3.8205
 20
0.8775
 10
-3.8475
 20
0.8725
 10
-3.8725
 20
0.8495
 10
-3.8905
 20
0.8205
 10
-3.8945
 20
0.7755
 10
-3.8855
 20
0.7345
 10
-3.8455
 20
0.6915
 10
-3.8115
 20
0.6565
 10
-3.7925
 20
0.6255
 10
-3.7775
 20
0.5795
 10
-3.7775
 20
0.5295
 10
-3.7955
 20
0.4755
 10
-3.8205
 20
0.4375
 10
-3.8645
 20
0.4115
 10
-3.9385
 20
0.3965
 10
-4.0385
 20
0.3925
 10
-4.1265
 20
0.4005
 10
-4.2045
 20
0.4225
 10
-4.2385
 20
0.4475
 10
-4.2655
 20
0.4795
 10
-4.2735
 20
0.5165
 10
-4.2695
 20
0.5495
 10
-4.2555
 20
0.5975
 10
-4.2355
 20
0.6375
 10
-4.1955
 20
0.7125
 10
-4.1645
 20
0.7655
 10
-4.1525
 20
0.8095
 10
-4.1555
 20
0.8475
 10
-4.1795
 20
0.8815
 10
-4.2155
 20
0.9075
 10
-4.2575
 20
0.9255
 10
-4.3455
 20
0.9355
 10
-4.7695
 20
0.9365
 10
-4.7705
 20
-0.6135
 10
-4.2455
 20
-0.6155
 10
-4.2105
 20
-0.5965
 10
-4.1885
 20
-0.5615
 10
-4.1755
 20
-0.5205
 10
-4.1815
 20
-0.4635
 10
-4.2275
 20
-0.3825
 10
-4.2555
 20
-0.3075
 10
-4.2635
 20
-0.2485
 10
-4.2515
 20
-0.1945
 10
-4.2255
 20
-0.1565
 10
-4.1875
 20
-0.1275
 10
-4.1175
 20
-0.0975
 10
-4.0365
 20
-0.0935
 10
-3.9555
 20
-0.1035
 10
-3.9025
 20
-0.1385
 10
-3.8805
 20
-0.1905
 10
-3.8735
 20
-0.2615
 10
-3.8855
 20
-0.3135
 10
-3.9245
 20
-0.3755
 10
-3.9455
 20
-0.4335
 10
-3.9545
 20
-0.4865
 10
-3.9455
 20
-0.5545
 10
-3.9245
 20
-0.5945
 10
-3.8855
 20
-0.6205
 10
-3.8445
 20
-0.6375
 10
-3.6425
 20
-0.6375
 10
-3.3195
 20
-0.6375
 10
-3.3195
 20
-0.3125
 10
-3.3035
 20
-0.2325
 10
-3.2875
 20
-0.1835
 10
-3.2605
 20
-0.1565
 10
-3.2185
 20
-0.1515
 10
-3.1545
 20
-0.1625
 10
-3.0805
 20
-0.1755
 10
-3.0145
 20
-0.1685
 10
-2.9565
 20
-0.1395
 10
-2.9185
 20
-0.0975
 10
-2.8925
 20
-0.0335
 10
-2.8755
 20
0.0515
 10
-2.8705
 20
0.1365
 10
-2.8925
 20
0.2065
 10
-2.9345
 20
0.2665
 10
-2.9875
 20
0.3085
 10
-3.0455
 20
0.3235
 10
-3.1055
 20
0.3195
 10
-3.1425
 20
0.3085
 10
-3.1805
 20
0.2755
 10
-3.2235
 20
0.2275
 10
-3.2765
 20
0.2005
 10
-3.3255
 20
0.1965
 10
-3.3735
 20
0.2065
 10
-3.4205
 20
0.2515
 10
-3.4395
 20
0.3125
 10
-3.4645
 20
0.4355
  0
LWPOLYLINE
  5
34
330
1F
100
AcDbEntity
  8
0
100
AcDbPolyline
 90
       98
 70
   128
 43
0.0
 10
-3.4225
 20
2.7975
 10
-3.4225
 20
2.5155
 10
-3.4125
 20
2.4885
 10
-3.3925
 20
2.4655
 10
-3.3775
 20
2.4535
 10
-3.3525
 20
2.4455
 10
-3.3265
 20
2.4455
 10
-3.2945
 20
2.4535
 10
-3.2455
 20
2.4815
 10
-3.1975
 20
2.4985
 10
-3.1615
 20
2.5065
 10
-3.1285
 20
2.5035
 10
-3.0835
 20
2.4865
 10
-3.0645
 20
2.4665
 10
-3.0385
 20
2.4285
 10
-3.0195
 20
2.3815
 10
-3.0165
 20
2.3385
 10
-3.0165
 20
2.2795
 10
-3.0225
 20
2.2325
 10
-3.0415
 20
2.1705
 10
-3.0645
 20
2.1385
 10
-3.0865
 20
2.1095
 10
-3.1255
 20
2.0875
 10
-3.1615
 20
2.0795
 10
-3.1975
 20
2.0745
 10
-3.2325
 20
2.0775
 10
-3.2725
 20
2.0865
 10
-3.3445
 20
2.1235
 10
-3.3695
 20
2.1315
 10
-3.3985
 20
2.1345
 10
-3.4355
 20
2.1285
 10
-3.4525
 20
2.1075
 10
-3.4665
 20
2.0695
 10
-3.4695
 20
2.0085
 10
-3.4685
 20
1.6895
 10
-3.8225
 20
1.6895
 10
-3.8495
 20
1.6845
 10
-3.8745
 20
1.6615
 10
-3.8925
 20
1.6325
 10
-3.8965
 20
1.5875
 10
-3.8875
 20
1.5465
 10
-3.8475
 20
1.5035
 10
-3.8135
 20
1.4685
 10
-3.7945
 20
1.4375
 10
-3.7795
 20
1.3915
 10
-3.7795
 20
1.3415
 10
-3.7975
 20
1.2875
 10
-3.8225
 20
1.2495
 10
-3.8665
 20
1.2235
 10
-3.9405
 20
1.2085
 10
-4.0405
 20
1.2045
 10
-4.1285
 20
1.2125
 10
-4.2065
 20
1.2345
 10
-4.2405
 20
1.2595
 10
-4.2675
 20
1.2915
 10
-4.2755
 20
1.3285
 10
-4.2715
 20
1.3615
 10
-4.2575
 20
1.4095
 10
-4.2375
 20
1.4495
 10
-4.1975
 20
1.5245
 10
-4.1665
 20
1.5775
 10
-4.1545
 20
1.6215
 10
-4.1575
 20
1.6595
 10
-4.1815
 20
1.6935
 10
-4.2175
 20
1.7195
 10
-4.2595
 20
1.7375
 10
-4.3475
 20
1.7475
 10
-4.7715
 20
1.7475
 10
-4.7735
 20
2.8175
 10
-4.6135
 20
2.8175
 10
-4.4505
 20
2.8175
 10
-4.3515
 20
2.8235
 10
-4.2885
 20
2.8385
 10
-4.2575
 20
2.8705
 10
-4.2425
 20
2.9135
 10
-4.2475
 20
2.9585
 10
-4.2895
 20
3.0805
 10
-4.2975
 20
3.1575
 10
-4.2885
 20
3.2205
 10
-4.2605
 20
3.2705
 10
-4.2215
 20
3.3075
 10
-4.1685
 20
3.3325
 10
-4.1045
 20
3.3385
 10
-4.0325
 20
3.3285
 10
-3.9745
 20
3.3075
 10
-3.9275
 20
3.2705
 10
-3.9065
 20
3.2255
 10
-3.8965
 20
3.1705
 10
-3.9025
 20
3.1165
 10
-3.9195
 20
3.0665
 10
-3.9565
 20
3.0135
 10
-3.9745
 20
2.9725
 10
-3.9775
 20
2.9195
 10
-3.9695
 20
2.8735
 10
-3.9465
 20
2.8425
 10
-3.8775
 20
2.8205
 10
-3.7935
 20
2.8105
 10
-3.4225
 20
2.7975
  0
LWPOLYLINE
  5
35
330
1F
100
AcDbEntity
  8
0
100
AcDbPolyline
 90
      127
 70
   128
 43
0.0
 10
-1.3175
 20
2.1315
 10
-1.321796
 20
2.151537
 10
-1.326537
 20
2.171796
 10
-1.3315
 20
2.1925
 10
-1.3555
 20
2.2345
 10
-1.3865
 20
2.2645
 10
-1.4245
 20
2.2825
 10
-1.4745
 20
2.2735
 10
-1.5385
 20
2.2395
 10
-1.5935
 20
2.2345
 10
-1.6485
 20
2.2395
 10
-1.6995
 20
2.2735
 10
-1.7335
 20
2.3285
 10
-1.7495
 20
2.3835
 10
-1.7495
 20
2.4595
 10
-1.7275
 20
2.5185
 10
-1.6865
 20
2.5535
 10
-1.6445
 20
2.5735
 10
-1.5895
 20
2.5705
 10
-1.5205
 20
2.5315
 10
-1.4625
 20
2.5135
 10
-1.4055
 20
2.5185
 10
-1.3585
 20
2.5435
 10
-1.3425
 20
2.5735
 10
-1.3345
 20
2.5965
 10
-1.3305
 20
2.6535
 10
-1.3955
 20
3.1385
 10
-1.7615
 20
3.1385
 10
-1.8015
 20
3.1405
 10
-1.8375
 20
3.1515
 10
-1.8745
 20
3.1735
 10
-1.8945
 20
3.1995
 10
-1.9045
 20
3.2245
 10
-1.9005
 20
3.2535
 10
-1.8895
 20
3.2885
 10
-1.8645
 20
3.3255
 10
-1.8495
 20
3.3535
 10
-1.8395
 20
3.3955
 10
-1.8435
 20
3.4375
 10
-1.8595
 20
3.4775
 10
-1.8875
 20
3.4995
 10
-1.9245
 20
3.5185
 10
-1.9555
 20
3.5315
 10
-2.0165
 20
3.5375
 10
-2.0605
 20
3.5375
 10
-2.1045
 20
3.5285
 10
-2.1485
 20
3.5055
 10
-2.1835
 20
3.4685
 10
-2.2045
 20
3.4305
 10
-2.2145
 20
3.3835
 10
-2.2065
 20
3.3305
 10
-2.1875
 20
3.2845
 10
-2.1655
 20
3.2505
 10
-2.1615
 20
3.2215
 10
-2.1695
 20
3.1885
 10
-2.1945
 20
3.1535
 10
-2.2225
 20
3.1315
 10
-2.2695
 20
3.1135
 10
-2.3255
 20
3.0995
 10
-2.7695
 20
3.0995
 10
-2.7695
 20
2.5155
 10
-2.7595
 20
2.4885
 10
-2.7395
 20
2.4655
 10
-2.7245
 20
2.4535
 10
-2.6995
 20
2.4455
 10
-2.6735
 20
2.4455
 10
-2.6415
 20
2.4535
 10
-2.5925
 20
2.4815
 10
-2.5445
 20
2.4985
 10
-2.5085
 20
2.5065
 10
-2.4755
 20
2.5035
 10
-2.4305
 20
2.4865
 10
-2.4115
 20
2.4665
 10
-2.3855
 20
2.4285
 10
-2.3665
 20
2.3815
 10
-2.3635
 20
2.3385
 10
-2.3635
 20
2.2795
 10
-2.3695
 20
2.2325
 10
-2.3885
 20
2.1705
 10
-2.4115
 20
2.1385
 10
-2.4335
 20
2.1095
 10
-2.4725
 20
2.0875
 10
-2.5085
 20
2.0795
 10
-2.5445
 20
2.0745
 10
-2.5795
 20
2.0775
 10
-2.6195
 20
2.0865
 10
-2.6915
 20
2.1235
 10
-2.7165
 20
2.1315
 10
-2.7455
 20
2.1345
 10
-2.7825
 20
2.1285
 10
-2.7995
 20
2.1075
 10
-2.8135
 20
2.0695
 10
-2.8165
 20
2.0085
 10
-2.8155
 20
1.5675
 10
-2.1845
 20
1.5695
 10
-2.1075
 20
1.5585
 10
-2.0565
 20
1.5485
 10
-2.0165
 20
1.5235
 10
-2.0045
 20
1.4865
 10
-2.0065
 20
1.4575
 10
-2.0165
 20
1.4275
 10
-2.0385
 20
1.3845
 10
-2.0625
 20
1.3515
 10
-2.0785
 20
1.3085
 10
-2.0785
 20
1.2595
 10
-2.0565
 20
1.2095
 10
-2.0205
 20
1.1845
 10
-1.9665
 20
1.1595
 10
-1.8895
 20
1.1435
 10
-1.8245
 20
1.1485
 10
-1.7685
 20
1.1685
 10
-1.7275
 20
1.2095
 10
-1.6975
 20
1.2495
 10
-1.6915
 20
1.2945
 10
-1.7005
 20
1.3445
 10
-1.7335
 20
1.3865
 10
-1.7885
 20
1.4525
 10
-1.8145
 20
1.5025
 10
-1.8145
 20
1.5485
 10
-1.7825
 20
1.5865
 10
-1.7215
 20
1.6045
 10
-1.6615
 20
1.6075
 10
-1.564922
 20
1.6075
 10
-1.468625
 20
1.6075
 10
-1.372516
 20
1.6075
 10
-1.2765
 20
1.6075
 10
-1.3175
 20
2.1315
  0
LWPOLYLINE
  5
36
330
1F
100
AcDbEntity
  8
0
100
AcDbPolyline
 90
      113
 70
   128
 43
0.0
 10
0.7605
 20
2.8595
 10
0.2685
 20
2.8615
 10
0.2115
 20
2.8545
 10
0.1765
 20
2.8455
 10
0.1485
 20
2.8225
 10
0.1255
 20
2.7955
 10
0.1115
 20
2.7565
 10
0.1085
 20
2.7175
 10
0.1255
 20
2.6645
 10
0.1345
 20
2.5925
 10
0.1345
 20
2.5475
 10
0.1215
 20
2.4815
 10
0.0885
 20
2.4385
 10
0.0495
 20
2.3995
 10
-0.0055
 20
2.3795
 10
-0.0585
 20
2.3745
 10
-0.1235
 20
2.3835
 10
-0.1795
 20
2.4025
 10
-0.2285
 20
2.4425
 10
-0.2615
 20
2.5065
 10
-0.2745
 20
2.5735
 10
-0.2705
 20
2.6385
 10
-0.2515
 20
2.6975
 10
-0.2245
 20
2.7545
 10
-0.2165
 20
2.7895
 10
-0.2165
 20
2.8295
 10
-0.2245
 20
2.8515
 10
-0.2485
 20
2.8805
 10
-0.2915
 20
2.9055
 10
-0.3485
 20
2.9195
 10
-0.7475
 20
2.9185
 10
-0.7045
 20
2.5945
 10
-0.7085
 20
2.5375
 10
-0.7165
 20
2.5145
 10
-0.7325
 20
2.4845
 10
-0.7795
 20
2.4595
 10
-0.8365
 20
2.4545
 10
-0.8945
 20
2.4725
 10
-0.9635
 20
2.5115
 10
-1.0185
 20
2.5145
 10
-1.0605
 20
2.4945
 10
-1.1015
 20
2.4595
 10
-1.1235
 20
2.4005
 10
-1.1235
 20
2.3245
 10
-1.1075
 20
2.2695
 10
-1.0735
 20
2.2145
 10
-1.0225
 20
2.1805
 10
-0.9675
 20
2.1755
 10
-0.9125
 20
2.1805
 10
-0.8485
 20
2.2145
 10
-0.7985
 20
2.2235
 10
-0.7605
 20
2.2055
 10
-0.7295
 20
2.1755
 10
-0.7055
 20
2.1335
 10
-0.6915
 20
2.0725
 10
-0.6505
 20
1.5485
 10
-0.3075
 20
1.5485
 10
-0.2575
 20
1.5535
 10
-0.2235
 20
1.5625
 10
-0.1915
 20
1.5825
 10
-0.1705
 20
1.6125
 10
-0.1605
 20
1.6585
 10
-0.2005
 20
1.7515
 10
-0.2135
 20
1.7995
 10
-0.2205
 20
1.8585
 10
-0.2185
 20
1.9145
 10
-0.1935
 20
1.9625
 10
-0.1685
 20
2.0015
 10
-0.1195
 20
2.0375
 10
-0.0745
 20
2.0575
 10
-0.0075
 20
2.0675
 10
0.0615
 20
2.0635
 10
0.1115
 20
2.0505
 10
0.1615
 20
2.0275
 10
0.2015
 20
1.9925
 10
0.2215
 20
1.9555
 10
0.2345
 20
1.9125
 10
0.2345
 20
1.8695
 10
0.2295
 20
1.8395
 10
0.2015
 20
1.7855
 10
0.1715
 20
1.7355
 10
0.1565
 20
1.6955
 10
0.1565
 20
1.6625
 10
0.1715
 20
1.6285
 10
0.2065
 20
1.6145
 10
0.2515
 20
1.6085
 10
0.6985
 20
1.6025
 10
0.6785
 20
1.9825
 10
0.6905
 20
2.0345
 10
0.7175
 20
2.0605
 10
0.7615
 20
2.0795
 10
0.8145
 20
2.0825
 10
0.8755
 20
2.0555
 10
0.9505
 20
2.0255
 10
1.0075
 20
2.0205
 10
1.0685
 20
2.0345
 10
1.1175
 20
2.0735
 10
1.1535
 20
2.1185
 10
1.1745
 20
2.1985
 10
1.1845
 20
2.2545
 10
1.1845
 20
2.3125
 10
1.1625
 20
2.3745
 10
1.1305
 20
2.4105
 10
1.0865
 20
2.4395
 10
1.0435
 20
2.4495
 10
1.0035
 20
2.4495
 10
0.9605
 20
2.4395
 10
0.9015
 20
2.3955
 10
0.8615
 20
2.3745
 10
0.8205
 20
2.3745
 10
0.7795
 20
2.3955
 10
0.7605
 20
2.4345
 10
0.7605
 20
2.8595
  0
LWPOLYLINE
  5
37
330
1F
100
AcDbEntity
  8
0
100
AcDbPolyline
 90
      120
 70
   128
 43
0.0
 10
3.0885
 20
1.4045
 10
3.0895
 20
1.9415
 10
3.0825
 20
2.0245
 10
3.0645
 20
2.1055
 10
3.0375
 20
2.1455
 10
3.0115
 20
2.1715
 10
2.9685
 20
2.1835
 10
2.9145
 20
2.1755
 10
2.8755
 20
2.1535
 10
2.8315
 20
2.1315
 10
2.7905
 20
2.1185
 10
2.7345
 20
2.1235
 10
2.6865
 20
2.1455
 10
2.6435
 20
2.1805
 10
2.6205
 20
2.2205
 10
2.6155
 20
2.2745
 10
2.6195
 20
2.3305
 10
2.6505
 20
2.3835
 10
2.6955
 20
2.4155
 10
2.7385
 20
2.4245
 10
2.7835
 20
2.4195
 10
2.8265
 20
2.4065
 10
2.8895
 20
2.3835
 10
2.9275
 20
2.3705
 10
2.9675
 20
2.3705
 10
2.9995
 20
2.3895
 10
3.0335
 20
2.4285
 10
3.0515
 20
2.4985
 10
3.0555
 20
2.8225
 10
2.8085
 20
2.8095
 10
2.7555
 20
2.8145
 10
2.7035
 20
2.8385
 10
2.6905
 20
2.8775
 10
2.6865
 20
2.9105
 10
2.6975
 20
2.9455
 10
2.7145
 20
2.9765
 10
2.7675
 20
3.0475
 10
2.7805
 20
3.1075
 10
2.7805
 20
3.1605
 10
2.7675
 20
3.2155
 10
2.7435
 20
3.2505
 10
2.7055
 20
3.2925
 10
2.6515
 20
3.3245
 10
2.5925
 20
3.3455
 10
2.5145
 20
3.3455
 10
2.4655
 20
3.3415
 10
2.4135
 20
3.3245
 10
2.3755
 20
3.3005
 10
2.3435
 20
3.2725
 10
2.3105
 20
3.2195
 10
2.3005
 20
3.1755
 10
2.3055
 20
3.1275
 10
2.3215
 20
3.0865
 10
2.3465
 20
3.0445
 10
2.3755
 20
3.0085
 10
2.3755
 20
2.9645
 10
2.3435
 20
2.9315
 10
2.3055
 20
2.9205
 10
2.2455
 20
2.9115
 10
1.7995
 20
2.9115
 10
1.7995
 20
2.826684
 10
1.7995
 20
2.741532
 10
1.7995
 20
2.656188
 10
1.7995
 20
2.570796
 10
1.7995
 20
2.4855
 10
1.8185
 20
2.4465
 10
1.8595
 20
2.4255
 10
1.9015
 20
2.4255
 10
1.9415
 20
2.4465
 10
2.0005
 20
2.4905
 10
2.0435
 20
2.5005
 10
2.0835
 20
2.5005
 10
2.1265
 20
2.4905
 10
2.1705
 20
2.4615
 10
2.2025
 20
2.4255
 10
2.2245
 20
2.3635
 10
2.2245
 20
2.3055
 10
2.2145
 20
2.2495
 10
2.1935
 20
2.1695
 10
2.1575
 20
2.1245
 10
2.1085
 20
2.0855
 10
2.0475
 20
2.0715
 10
1.9905
 20
2.0765
 10
1.9155
 20
2.1065
 10
1.8535
 20
2.1335
 10
1.8005
 20
2.1305
 10
1.7565
 20
2.1115
 10
1.7295
 20
2.0855
 10
1.7175
 20
2.0335
 10
1.7535
 20
1.4005
 10
1.9705
 20
1.3895
 10
2.0545
 20
1.3845
 10
2.1205
 20
1.3845
 10
2.1705
 20
1.4065
 10
2.2005
 20
1.4385
 10
2.2135
 20
1.4775
 10
2.2135
 20
1.5185
 10
2.1955
 20
1.5615
 10
2.1705
 20
1.6505
 10
2.1605
 20
1.7115
 10
2.1705
 20
1.7555
 10
2.1875
 20
1.7955
 10
2.2175
 20
1.8315
 10
2.2705
 20
1.8755
 10
2.3405
 20
1.9015
 10
2.4255
 20
1.9015
 10
2.5055
 20
1.8885
 10
2.5575
 20
1.8575
 10
2.6015
 20
1.8165
 10
2.6255
 20
1.7725
 10
2.6375
 20
1.7025
 10
2.6195
 20
1.6365
 10
2.5875
 20
1.5945
 10
2.5705
 20
1.5625
 10
2.5525
 20
1.5225
 10
2.5535
 20
1.4875
 10
2.5755
 20
1.4415
 10
2.6115
 20
1.4255
 10
2.6455
 20
1.4195
 10
3.0885
 20
1.4045
  0
LWPOLYLINE
  5
38
330
1F
100
AcDbEntity
  8
0
100
AcDbPolyline
 90
       94
 70
   128
 43
0.0
 10
5.0865
 20
1.8075
 10
5.1015
 20
1.8555
 10
5.1235
 20
1.9055
 10
5.1445
 20
1.9695
 10
5.1535
 20
2.0225
 10
5.1445
 20
2.0765
 10
5.1185
 20
2.1235
 10
5.0865
 20
2.1535
 10
5.0465
 20
2.1775
 10
4.9985
 20
2.1925
 10
4.9185
 20
2.1985
 10
4.8325
 20
2.1925
 10
4.7895
 20
2.1775
 10
4.7415
 20
2.1505
 10
4.6965
 20
2.1175
 10
4.6765
 20
2.0925
 10
4.6545
 20
2.0515
 10
4.6425
 20
2.0175
 10
4.6425
 20
1.9785
 10
4.6525
 20
1.9435
 10
4.6705
 20
1.9055
 10
4.6965
 20
1.8505
 10
4.7265
 20
1.7955
 10
4.7335
 20
1.7545
 10
4.7265
 20
1.7075
 10
4.7125
 20
1.6795
 10
4.6915
 20
1.6515
 10
4.6655
 20
1.6375
 10
4.6315
 20
1.6285
 10
4.0855
 20
1.6285
 10
4.0855
 20
1.9705
 10
4.0785
 20
2.0535
 10
4.0605
 20
2.1345
 10
4.0335
 20
2.1745
 10
4.0075
 20
2.2005
 10
3.9645
 20
2.2125
 10
3.9105
 20
2.2045
 10
3.8715
 20
2.1825
 10
3.8275
 20
2.1605
 10
3.7865
 20
2.1475
 10
3.7305
 20
2.1525
 10
3.6825
 20
2.1745
 10
3.6395
 20
2.2095
 10
3.6165
 20
2.2495
 10
3.6115
 20
2.3035
 10
3.6155
 20
2.3595
 10
3.6465
 20
2.4125
 10
3.6915
 20
2.4445
 10
3.7345
 20
2.4535
 10
3.7795
 20
2.4485
 10
3.8225
 20
2.4355
 10
3.8855
 20
2.4125
 10
3.9235
 20
2.3995
 10
3.9635
 20
2.3995
 10
3.9955
 20
2.4185
 10
4.0295
 20
2.4575
 10
4.0475
 20
2.5295
 10
4.0525
 20
2.8525
 10
4.6035
 20
2.8785
 10
4.6315
 20
2.8675
 10
4.6535
 20
2.8535
 10
4.6645
 20
2.8285
 10
4.6665
 20
2.7915
 10
4.6525
 20
2.7465
 10
4.6485
 20
2.7055
 10
4.6595
 20
2.6655
 10
4.6825
 20
2.6345
 10
4.7315
 20
2.5965
 10
4.7945
 20
2.5695
 10
4.8785
 20
2.5615
 10
4.9355
 20
2.5655
 10
4.9905
 20
2.5845
 10
5.0235
 20
2.6055
 10
5.0575
 20
2.6355
 10
5.0815
 20
2.6685
 10
5.1025
 20
2.7185
 10
5.1065
 20
2.7575
 10
5.1005
 20
2.7865
 10
5.0665
 20
2.8435
 10
5.0575
 20
2.8795
 10
5.0565
 20
2.9145
 10
5.0765
 20
2.9445
 10
5.0905
 20
2.9635
 10
5.1165
 20
2.9785
 10
5.1695
 20
2.9815
 10
5.5215
 20
2.9745
 10
5.5205
 20
1.6285
 10
5.2115
 20
1.6445
 10
5.1725
 20
1.6545
 10
5.1335
 20
1.6655
 10
5.1035
 20
1.6915
 10
5.0865
 20
1.7255
 10
5.0815
 20
1.7665
 10
5.0865
 20
1.8075
  0
LWPOLYLINE
  5
39
330
1F
100
AcDbEntity
  8
0
100
AcDbPolyline
 90
       60
 70
   128
 43
0.0
 10
4.1655
 20
3.6075
 10
4.5635
 20
3.6255
 10
4.5915
 20
3.6145
 10
4.6135
 20
3.6005
 10
4.6245
 20
3.5755
 10
4.6265
 20
3.5385
 10
4.6125
 20
3.4935
 10
4.6085
 20
3.4525
 10
4.6195
 20
3.4125
 10
4.6425
 20
3.3815
 10
4.6915
 20
3.3435
 10
4.7545
 20
3.3165
 10
4.8385
 20
3.3085
 10
4.8955
 20
3.3125
 10
4.9505
 20
3.3315
 10
4.9835
 20
3.3525
 10
5.0175
 20
3.3825
 10
5.0415
 20
3.4155
 10
5.0625
 20
3.4655
 10
5.0665
 20
3.5045
 10
5.0605
 20
3.5335
 10
5.0265
 20
3.5905
 10
5.0175
 20
3.6265
 10
5.0165
 20
3.6615
 10
5.0365
 20
3.6915
 10
5.0505
 20
3.7105
 10
5.0765
 20
3.7255
 10
5.1295
 20
3.7285
 10
5.4815
 20
3.7215
 10
5.4815
 20
5.0815
 10
4.0465
 20
5.0815
 10
4.0465
 20
4.7335
 10
4.0515
 20
4.6585
 10
4.0615
 20
4.6145
 10
4.0865
 20
4.5695
 10
4.1255
 20
4.5465
 10
4.1805
 20
4.5465
 10
4.2255
 20
4.5755
 10
4.2645
 20
4.6305
 10
4.3105
 20
4.6745
 10
4.3635
 20
4.6985
 10
4.4335
 20
4.7045
 10
4.4875
 20
4.6935
 10
4.5365
 20
4.6585
 10
4.5715
 20
4.5895
 10
4.5865
 20
4.5075
 10
4.5915
 20
4.4375
 10
4.5805
 20
4.3695
 10
4.5655
 20
4.2995
 10
4.5415
 20
4.2585
 10
4.4915
 20
4.2245
 10
4.4375
 20
4.2195
 10
4.3835
 20
4.2345
 10
4.3385
 20
4.2695
 10
4.2945
 20
4.2935
 10
4.2545
 20
4.2995
 10
4.2105
 20
4.2885
 10
4.1855
 20
4.2535
 10
4.1645
 20
4.1805
 10
4.1655
 20
3.6075
  0
LWPOLYLINE
  5
3A
330
1F
100
AcDbEntity
  8
0
100
AcDbPolyline
 90
       92
 70
   128
 43
0.0
 10
1.5725
 20
5.0815
 10
1.5735
 20
5.0795
 10
1.6155
 20
4.5315
 10
1.6185
 20
4.4735
 10
1.6025
 20
4.4285
 10
1.5735
 20
4.3995
 10
1.5465
 20
4.3875
 10
1.5015
 20
4.3845
 10
1.4475
 20
4.3915
 10
1.3865
 20
4.4075
 10
1.3305
 20
4.4115
 10
1.2825
 20
4.4035
 10
1.2365
 20
4.3745
 10
1.2045
 20
4.3305
 10
1.1815
 20
4.2495
 10
1.1775
 20
4.1675
 10
1.1905
 20
4.0875
 10
1.2085
 20
4.0385
 10
1.2495
 20
4.0055
 10
1.2935
 20
3.9865
 10
1.3585
 20
3.9895
 10
1.4115
 20
4.0055
 10
1.4925
 20
4.0595
 10
1.5575
 20
4.0875
 10
1.6185
 20
4.1035
 10
1.6845
 20
4.0985
 10
1.7455
 20
4.0795
 10
1.7805
 20
4.0505
 10
1.7955
 20
4.0055
 10
1.7955
 20
3.6845
 10
1.7965
 20
3.6855
 10
2.1415
 20
3.6855
 10
2.2015
 20
3.6945
 10
2.2395
 20
3.7055
 10
2.2715
 20
3.7385
 10
2.2715
 20
3.7825
 10
2.2425
 20
3.8185
 10
2.2175
 20
3.8605
 10
2.2015
 20
3.9015
 10
2.1965
 20
3.9495
 10
2.2065
 20
3.9935
 10
2.2395
 20
4.0465
 10
2.2715
 20
4.0745
 10
2.3095
 20
4.0985
 10
2.3615
 20
4.1155
 10
2.4105
 20
4.1195
 10
2.4885
 20
4.1195
 10
2.5475
 20
4.0985
 10
2.6015
 20
4.0665
 10
2.6395
 20
4.0245
 10
2.6635
 20
3.9895
 10
2.6765
 20
3.9345
 10
2.6765
 20
3.8815
 10
2.6635
 20
3.8215
 10
2.6105
 20
3.7505
 10
2.5935
 20
3.7195
 10
2.5825
 20
3.6845
 10
2.5865
 20
3.6515
 10
2.5995
 20
3.6125
 10
2.6515
 20
3.5885
 10
2.7045
 20
3.5835
 10
3.1055
 20
3.6045
 10
3.1045
 20
4.1785
 10
3.1255
 20
4.2515
 10
3.1505
 20
4.2865
 10
3.1945
 20
4.2975
 10
3.2345
 20
4.2915
 10
3.2785
 20
4.2675
 10
3.3235
 20
4.2325
 10
3.3775
 20
4.2175
 10
3.4315
 20
4.2225
 10
3.4815
 20
4.2565
 10
3.5055
 20
4.2975
 10
3.5205
 20
4.3675
 10
3.5315
 20
4.4355
 10
3.5265
 20
4.5055
 10
3.5115
 20
4.5875
 10
3.4765
 20
4.6565
 10
3.4275
 20
4.6915
 10
3.3735
 20
4.7025
 10
3.3035
 20
4.6965
 10
3.2505
 20
4.6725
 10
3.2045
 20
4.6285
 10
3.1655
 20
4.5735
 10
3.1205
 20
4.5445
 10
3.0655
 20
4.5445
 10
3.0265
 20
4.5675
 10
3.0015
 20
4.6125
 10
2.9915
 20
4.6565
 10
2.9865
 20
4.7305
 10
2.9875
 20
5.0805
 10
1.5725
 20
5.0815
  0
LWPOLYLINE
  5
3B
330
1F
100
AcDbEntity
  8
0
100
AcDbPolyline
 90
       94
 70
   128
 43
0.0
 10
-0.6225
 20
3.7435
 10
-0.2245
 20
3.7445
 10
-0.1675
 20
3.7305
 10
-0.1245
 20
3.7055
 10
-0.1005
 20
3.6765
 10
-0.0925
 20
3.6545
 10
-0.0925
 20
3.6145
 10
-0.1005
 20
3.5795
 10
-0.1275
 20
3.5225
 10
-0.1465
 20
3.4635
 10
-0.1505
 20
3.3985
 10
-0.1375
 20
3.3315
 10
-0.1045
 20
3.2675
 10
-0.0555
 20
3.2275
 10
0.0005
 20
3.2085
 10
0.0655
 20
3.1995
 10
0.1185
 20
3.2045
 10
0.1735
 20
3.2245
 10
0.2125
 20
3.2635
 10
0.2455
 20
3.3065
 10
0.2585
 20
3.3725
 10
0.2585
 20
3.4175
 10
0.2495
 20
3.4895
 10
0.2325
 20
3.5425
 10
0.2355
 20
3.5815
 10
0.2495
 20
3.6205
 10
0.2725
 20
3.6475
 10
0.3005
 20
3.6705
 10
0.3355
 20
3.6795
 10
0.3925
 20
3.6865
 10
0.9835
 20
3.6845
 10
0.9835
 20
4.0055
 10
0.9685
 20
4.0505
 10
0.9335
 20
4.0795
 10
0.8725
 20
4.0985
 10
0.8075
 20
4.1035
 10
0.7465
 20
4.0875
 10
0.6815
 20
4.0595
 10
0.6005
 20
4.0055
 10
0.5475
 20
3.9895
 10
0.4825
 20
3.9865
 10
0.4385
 20
4.0055
 10
0.3975
 20
4.0385
 10
0.3795
 20
4.0875
 10
0.3665
 20
4.1675
 10
0.3705
 20
4.2495
 10
0.3935
 20
4.3305
 10
0.4255
 20
4.3745
 10
0.4715
 20
4.4045
 10
0.5195
 20
4.4115
 10
0.5755
 20
4.4075
 10
0.6365
 20
4.3915
 10
0.6905
 20
4.3845
 10
0.7355
 20
4.3875
 10
0.7625
 20
4.3995
 10
0.7915
 20
4.4285
 10
0.8075
 20
4.4735
 10
0.8045
 20
4.5315
 10
0.7635
 20
5.0775
 10
-0.6295
 20
5.0785
 10
-0.6265
 20
4.8355
 10
-0.6245
 20
4.7745
 10
-0.6145
 20
4.7315
 10
-0.5825
 20
4.7005
 10
-0.5545
 20
4.6845
 10
-0.5135
 20
4.6735
 10
-0.4615
 20
4.6785
 10
-0.4105
 20
4.7005
 10
-0.3395
 20
4.7285
 10
-0.2965
 20
4.7315
 10
-0.2535
 20
4.7185
 10
-0.2155
 20
4.6905
 10
-0.1845
 20
4.6465
 10
-0.1645
 20
4.5845
 10
-0.1635
 20
4.5315
 10
-0.1675
 20
4.4675
 10
-0.1805
 20
4.4055
 10
-0.2015
 20
4.3435
 10
-0.2365
 20
4.2925
 10
-0.2805
 20
4.2645
 10
-0.3245
 20
4.2615
 10
-0.3635
 20
4.2615
 10
-0.4045
 20
4.2745
 10
-0.4365
 20
4.3035
 10
-0.4685
 20
4.3435
 10
-0.4995
 20
4.3605
 10
-0.5395
 20
4.3685
 10
-0.5825
 20
4.3655
 10
-0.6205
 20
4.3545
 10
-0.6495
 20
4.3405
 10
-0.6745
 20
4.2965
 10
-0.6825
 20
4.2545
 10
-0.6825
 20
4.1905
 10
-0.6225
 20
3.7435
  0
LWPOLYLINE
  5
3C
330
1F
100
AcDbEntity
  8
0
100
AcDbPolyline
 90
       96
 70
   128
 43
0.0
 10
-1.4435
 20
3.8825
 10
-1.8095
 20
3.8825
 10
-1.8495
 20
3.8845
 10
-1.8855
 20
3.8955
 10
-1.9225
 20
3.9175
 10
-1.9425
 20
3.9435
 10
-1.9525
 20
3.9685
 10
-1.9485
 20
3.9975
 10
-1.9375
 20
4.0325
 10
-1.9125
 20
4.0695
 10
-1.8975
 20
4.0975
 10
-1.8875
 20
4.1395
 10
-1.8915
 20
4.1815
 10
-1.9075
 20
4.2215
 10
-1.9355
 20
4.2435
 10
-1.9725
 20
4.2625
 10
-2.0035
 20
4.2755
 10
-2.0645
 20
4.2815
 10
-2.1085
 20
4.2815
 10
-2.1525
 20
4.2725
 10
-2.1965
 20
4.2495
 10
-2.2315
 20
4.2125
 10
-2.2525
 20
4.1745
 10
-2.2625
 20
4.1275
 10
-2.2545
 20
4.0745
 10
-2.2355
 20
4.0285
 10
-2.2135
 20
3.9945
 10
-2.2095
 20
3.9655
 10
-2.2175
 20
3.9325
 10
-2.2425
 20
3.8975
 10
-2.2705
 20
3.8755
 10
-2.3175
 20
3.8575
 10
-2.3735
 20
3.8435
 10
-2.8175
 20
3.8435
 10
-2.8175
 20
4.1655
 10
-2.8005
 20
4.1935
 10
-2.7745
 20
4.2125
 10
-2.7425
 20
4.2165
 10
-2.6165
 20
4.1855
 10
-2.5625
 20
4.1895
 10
-2.5085
 20
4.2265
 10
-2.4765
 20
4.2725
 10
-2.4585
 20
4.3265
 10
-2.4535
 20
4.4075
 10
-2.4595
 20
4.4705
 10
-2.4705
 20
4.5315
 10
-2.4875
 20
4.5755
 10
-2.5155
 20
4.6035
 10
-2.5525
 20
4.6245
 10
-2.5985
 20
4.6325
 10
-2.6525
 20
4.6245
 10
-2.6755
 20
4.6125
 10
-2.7065
 20
4.5895
 10
-2.7455
 20
4.5525
 10
-2.7715
 20
4.5405
 10
-2.8005
 20
4.5465
 10
-2.8205
 20
4.5665
 10
-2.8285
 20
4.6095
 10
-2.8305
 20
4.6525
 10
-2.8305
 20
4.7575
 10
-2.8305
 20
5.0565
 10
-1.4255
 20
5.0565
 10
-1.4245
 20
4.8135
 10
-1.4225
 20
4.7525
 10
-1.4125
 20
4.7095
 10
-1.3805
 20
4.6785
 10
-1.3525
 20
4.6625
 10
-1.3115
 20
4.6515
 10
-1.2595
 20
4.6565
 10
-1.2085
 20
4.6785
 10
-1.1375
 20
4.7065
 10
-1.0945
 20
4.7095
 10
-1.0515
 20
4.6965
 10
-1.0135
 20
4.6685
 10
-0.9825
 20
4.6245
 10
-0.9625
 20
4.5625
 10
-0.9615
 20
4.5095
 10
-0.9655
 20
4.4455
 10
-0.9785
 20
4.3835
 10
-0.9995
 20
4.3215
 10
-1.0345
 20
4.2705
 10
-1.0785
 20
4.2425
 10
-1.1225
 20
4.2395
 10
-1.1615
 20
4.2395
 10
-1.2025
 20
4.2525
 10
-1.2345
 20
4.2815
 10
-1.2665
 20
4.3215
 10
-1.2975
 20
4.3385
 10
-1.3375
 20
4.3465
 10
-1.3805
 20
4.3435
 10
-1.4185
 20
4.3325
 10
-1.4475
 20
4.3185
 10
-1.4725
 20
4.2745
 10
-1.4805
 20
4.2325
 10
-1.4805
 20
4.1685
 10
-1.4435
 20
3.8825
  0
LWPOLYLINE
  5
3D
330
1F
100
AcDbEntity
  8
0
100
AcDbPolyline
 90
       60
 70
   128
 43
0.0
 10
-3.3925
 20
5.0535
 10
-3.3925
 20
4.7575
 10
-3.3925
 20
4.6525
 10
-3.3905
 20
4.6095
 10
-3.3825
 20
4.5665
 10
-3.3625
 20
4.5465
 10
-3.3335
 20
4.5405
 10
-3.3075
 20
4.5525
 10
-3.2685
 20
4.5895
 10
-3.2375
 20
4.6125
 10
-3.2145
 20
4.6245
 10
-3.1605
 20
4.6325
 10
-3.1145
 20
4.6245
 10
-3.0775
 20
4.6035
 10
-3.0495
 20
4.5755
 10
-3.0325
 20
4.5315
 10
-3.0215
 20
4.4705
 10
-3.0155
 20
4.4075
 10
-3.0205
 20
4.3265
 10
-3.0385
 20
4.2725
 10
-3.0705
 20
4.2265
 10
-3.1245
 20
4.1895
 10
-3.1785
 20
4.1855
 10
-3.2365
 20
4.1975
 10
-3.3045
 20
4.2165
 10
-3.3365
 20
4.2125
 10
-3.3625
 20
4.1935
 10
-3.3795
 20
4.1655
 10
-3.3795
 20
3.9645
 10
-3.3795
 20
3.5415
 10
-3.7505
 20
3.5545
 10
-3.8345
 20
3.5645
 10
-3.9035
 20
3.5865
 10
-3.9265
 20
3.6175
 10
-3.9345
 20
3.6635
 10
-3.9315
 20
3.7165
 10
-3.9135
 20
3.7575
 10
-3.8765
 20
3.8105
 10
-3.8595
 20
3.8605
 10
-3.8535
 20
3.9145
 10
-3.8635
 20
3.9695
 10
-3.8845
 20
4.0145
 10
-3.9315
 20
4.0515
 10
-3.9895
 20
4.0725
 10
-4.0615
 20
4.0825
 10
-4.1255
 20
4.0765
 10
-4.1785
 20
4.0515
 10
-4.2175
 20
4.0145
 10
-4.2455
 20
3.9645
 10
-4.2545
 20
3.9015
 10
-4.2465
 20
3.8245
 10
-4.2045
 20
3.7025
 10
-4.1995
 20
3.6575
 10
-4.2145
 20
3.6145
 10
-4.2455
 20
3.5825
 10
-4.3085
 20
3.5675
 10
-4.4075
 20
3.5615
 10
-4.7315
 20
3.5615
 10
-4.7315
 20
5.0515
 10
-3.3925
 20
5.0535
  0
ENDSEC
  0
SECTION
  2
OBJECTS
  0
DICTIONARY
  5
C
330
0
100
AcDbDictionary
281
     1
  3
ACAD_GROUP
350
D
  3
ACAD_LAYOUT
350
1A
  3
ACAD_MLINESTYLE
350
17
  3
ACAD_PLOTSETTINGS
350
19
  3
ACAD_PLOTSTYLENAME
350
E
  0
DICTIONARY
  5
D
102
{ACAD_REACTORS
330
C
102
}
330
C
100
AcDbDictionary
281
     1
  0
DICTIONARY
  5
1A
102
{ACAD_REACTORS
330
C
102
}
330
C
100
AcDbDictionary
281
     1
  3
Layout1
350
1E
  3
Layout2
350
26
  3
Model
350
22
  0
DICTIONARY
  5
17
102
{ACAD_REACTORS
330
C
102
}
330
C
100
AcDbDictionary
281
     1
  3
Standard
350
18
  0
DICTIONARY
  5
19
102
{ACAD_REACTORS
330
C
102
}
330
C
100
AcDbDictionary
281
     1
  0
ACDBDICTIONARYWDFLT
  5
E
102
{ACAD_REACTORS
330
C
102
}
330
C
100
AcDbDictionary
281
     1
  3
Normal
350
F
100
AcDbDictionaryWithDefault
340
F
  0
LAYOUT
  5
1E
102
{ACAD_REACTORS
330
1A
102
}
330
1A
100
AcDbPlotSettings
  1

  2

  4

  6

 40
0.0
 41
0.0
 42
0.0
 43
0.0
 44
0.0
 45
0.0
 46
0.0
 47
0.0
 48
0.0
 49
0.0
140
0.0
141
0.0
142
1.0
143
1.0
 70
   688
 72
     0
 73
     0
 74
     5
  7

 75
    16
147
1.0
148
0.0
149
0.0
100
AcDbLayout
  1
Layout1
 70
     1
 71
     1
 10
0.0
 20
0.0
 11
420.0
 21
297.0
 12
0.0
 22
0.0
 32
0.0
 14
1.000000E+20
 24
1.000000E+20
 34
1.000000E+20
 15
-1.000000E+20
 25
-1.000000E+20
 35
-1.000000E+20
146
0.0
 13
0.0
 23
0.0
 33
0.0
 16
1.0
 26
0.0
 36
0.0
 17
0.0
 27
1.0
 37
0.0
 76
     0
330
1B
  0
LAYOUT
  5
26
102
{ACAD_REACTORS
330
1A
102
}
330
1A
100
AcDbPlotSettings
  1

  2

  4

  6

 40
0.0
 41
0.0
 42
0.0
 43
0.0
 44
0.0
 45
0.0
 46
0.0
 47
0.0
 48
0.0
 49
0.0
140
0.0
141
0.0
142
1.0
143
1.0
 70
   688
 72
     0
 73
     0
 74
     5
  7

 75
    16
147
1.0
148
0.0
149
0.0
100
AcDbLayout
  1
Layout2
 70
     1
 71
     2
 10
0.0
 20
0.0
 11
0.0
 21
0.0
 12
0.0
 22
0.0
 32
0.0
 14
0.0
 24
0.0
 34
0.0
 15
0.0
 25
0.0
 35
0.0
146
0.0
 13
0.0
 23
0.0
 33
0.0
 16
1.0
 26
0.0
 36
0.0
 17
0.0
 27
1.0
 37
0.0
 76
     0
330
23
  0
LAYOUT
  5
22
102
{ACAD_REACTORS
330
1A
102
}
330
1A
100
AcDbPlotSettings
  1

  2

  4

  6

 40
0.0
 41
0.0
 42
0.0
 43
0.0
 44
0.0
 45
0.0
 46
0.0
 47
0.0
 48
0.0
 49
0.0
140
0.0
141
0.0
142
1.0
143
1.0
 70
  1712
 72
     0
 73
     0
 74
     0
  7

 75
     0
147
1.0
148
0.0
149
0.0
100
AcDbLayout
  1
Model
 70
     1
 71
     0
 10
0.0
 20
0.0
 11
0.0
 21
0.0
 12
0.0
 22
0.0
 32
0.0
 14
0.0
 24
0.0
 34
0.0
 15
0.0
 25
0.0
 35
0.0
146
0.0
 13
0.0
 23
0.0
 33
0.0
 16
1.0
 26
0.0
 36
0.0
 17
0.0
 27
1.0
 37
0.0
 76
     0
330
1F
  0
MLINESTYLE
  5
18
102
{ACAD_REACTORS
330
17
102
}
330
17
100
AcDbMlineStyle
  2
Standard
 70
     0
  3

 62
   256
 51
90.0
 52
90.0
 71
     2
 49
1.0
 62
   256
  6
BYLAYER
 49
-1.0
 62
   256
  6
BYLAYER
  0
ACDBPLACEHOLDER
  5
F
102
{ACAD_REACTORS
330
E
102
}
330
E
  0
ENDSEC
  0
EOF
