  0
SECTION
  2
HEADER
  9
$ACADVER
  1
AC1015
  9
$ACADMAINTVER
 70
     6
  9
$DWGCODEPAGE
  3
DOS850
  9
$INSBASE
 10
0.0
 20
0.0
 30
0.0
  9
$EXTMIN
 10
-135.5909
 20
-192.1821
 30
1.000000E+20
  9
$EXTMAX
 10
201.8016
 20
130.5735
 30
-1.000000E+20
  9
$LIMMIN
 10
0.0
 20
0.0
  9
$LIMMAX
 10
0.0
 20
0.0
  9
$ORTHOMODE
 70
     0
  9
$REGENMODE
 70
     1
  9
$FILLMODE
 70
     1
  9
$QTEXTMODE
 70
     0
  9
$MIRRTEXT
 70
     1
  9
$LTSCALE
 40
1.0
  9
$ATTMODE
 70
     1
  9
$TEXTSIZE
 40
0.2
  9
$TRACEWID
 40
0.05
  9
$TEXTSTYLE
  7
Standard
  9
$CLAYER
  8
0
  9
$CELTYPE
  6
Continuous
  9
$CECOLOR
 62
   256
  9
$CELTSCALE
 40
1.0
  9
$DISPSILH
 70
     0
  9
$DIMSCALE
 40
1.0
  9
$DIMASZ
 40
0.18
  9
$DIMEXO
 40
0.0625
  9
$DIMDLI
 40
0.38
  9
$DIMRND
 40
0.0
  9
$DIMDLE
 40
0.0
  9
$DIMEXE
 40
0.18
  9
$DIMTP
 40
0.0
  9
$DIMTM
 40
0.0
  9
$DIMTXT
 40
0.18
  9
$DIMCEN
 40
0.09
  9
$DIMTSZ
 40
0.0
  9
$DIMTOL
 70
     0
  9
$DIMLIM
 70
     0
  9
$DIMTIH
 70
     1
  9
$DIMTOH
 70
     1
  9
$DIMSE1
 70
     0
  9
$DIMSE2
 70
     0
  9
$DIMTAD
 70
     0
  9
$DIMZIN
 70
     0
  9
$DIMBLK
  1

  9
$DIMASO
 70
     1
  9
$DIMSHO
 70
     1
  9
$DIMPOST
  1

  9
$DIMAPOST
  1

  9
$DIMALT
 70
     0
  9
$DIMALTD
 70
     2
  9
$DIMALTF
 40
25.4
  9
$DIMLFAC
 40
1.0
  9
$DIMTOFL
 70
     0
  9
$DIMTVP
 40
0.0
  9
$DIMTIX
 70
     0
  9
$DIMSOXD
 70
     0
  9
$DIMSAH
 70
     0
  9
$DIMBLK1
  1

  9
$DIMBLK2
  1

  9
$DIMSTYLE
  2
Standard
  9
$DIMCLRD
 70
     0
  9
$DIMCLRE
 70
     0
  9
$DIMCLRT
 70
     0
  9
$DIMTFAC
 40
1.0
  9
$DIMGAP
 40
0.09
  9
$DIMJUST
 70
     0
  9
$DIMSD1
 70
     0
  9
$DIMSD2
 70
     0
  9
$DIMTOLJ
 70
     1
  9
$DIMTZIN
 70
     0
  9
$DIMALTZ
 70
     0
  9
$DIMALTTZ
 70
     0
  9
$DIMUPT
 70
     0
  9
$DIMDEC
 70
     4
  9
$DIMTDEC
 70
     4
  9
$DIMALTU
 70
     2
  9
$DIMALTTD
 70
     2
  9
$DIMTXSTY
  7
Standard
  9
$DIMAUNIT
 70
     0
  9
$DIMADEC
 70
     0
  9
$DIMALTRND
 40
0.0
  9
$DIMAZIN
 70
     0
  9
$DIMDSEP
 70
     0
  9
$DIMATFIT
 70
     3
  9
$DIMFRAC
 70
     0
  9
$DIMLDRBLK
  1

  9
$DIMLUNIT
 70
     2
  9
$DIMLWD
 70
     0
  9
$DIMLWE
 70
     0
  9
$DIMTMOVE
 70
     0
  9
$LUNITS
 70
     2
  9
$LUPREC
 70
     4
  9
$SKETCHINC
 40
0.1
  9
$FILLETRAD
 40
0.0
  9
$AUNITS
 70
     0
  9
$AUPREC
 70
     0
  9
$MENU
  1
acad
  9
$ELEVATION
 40
0.0
  9
$PELEVATION
 40
0.0
  9
$THICKNESS
 40
0.0
  9
$LIMCHECK
 70
     0
  9
$CHAMFERA
 40
0.0
  9
$CHAMFERB
 40
0.0
  9
$CHAMFERC
 40
0.0
  9
$CHAMFERD
 40
0.0
  9
$SKPOLY
 70
     0
  9
$TDCREATE
 40
0.000000000
  9
$TDUCREATE
 40
0.000000000
  9
$TDUPDATE
 40
0.000000000
  9
$TDUUPDATE
 40
0.000000000
  9
$TDINDWG
 40
0.0000000000
  9
$TDUSRTIMER
 40
0.0000000000
  9
$USRTIMER
 70
     1
  9
$ANGBASE
 50
0.0
  9
$ANGDIR
 70
     0
  9
$PDMODE
 70
     0
  9
$PDSIZE
 40
0.0
  9
$PLINEWID
 40
0.0
  9
$SPLFRAME
 70
     0
  9
$SPLINETYPE
 70
     6
  9
$SPLINESEGS
 70
     8
  9
$HANDSEED
  5
3A
  9
$SURFTAB1
 70
     6
  9
$SURFTAB2
 70
     6
  9
$SURFTYPE
 70
     6
  9
$SURFU
 70
     6
  9
$SURFV
 70
     6
  9
$UCSBASE
  2

  9
$UCSNAME
  2

  9
$UCSORG
 10
0.0
 20
0.0
 30
0.0
  9
$UCSXDIR
 10
1.0
 20
0.0
 30
0.0
  9
$UCSYDIR
 10
0.0
 20
1.0
 30
0.0
  9
$UCSORTHOREF
  2

  9
$UCSORTHOVIEW
 70
     0
  9
$UCSORGTOP
 10
0.0
 20
0.0
 30
0.0
  9
$UCSORGBOTTOM
 10
0.0
 20
0.0
 30
0.0
  9
$UCSORGLEFT
 10
0.0
 20
0.0
 30
0.0
  9
$UCSORGRIGHT
 10
0.0
 20
0.0
 30
0.0
  9
$UCSORGFRONT
 10
0.0
 20
0.0
 30
0.0
  9
$UCSORGBACK
 10
0.0
 20
0.0
 30
0.0
  9
$PUCSBASE
  2

  9
$PUCSNAME
  2

  9
$PUCSORG
 10
0.0
 20
0.0
 30
0.0
  9
$PUCSXDIR
 10
1.0
 20
0.0
 30
0.0
  9
$PUCSYDIR
 10
0.0
 20
1.0
 30
0.0
  9
$PUCSORTHOREF
  2

  9
$PUCSORTHOVIEW
 70
     0
  9
$PUCSORGTOP
 10
0.0
 20
0.0
 30
0.0
  9
$PUCSORGBOTTOM
 10
0.0
 20
0.0
 30
0.0
  9
$PUCSORGLEFT
 10
0.0
 20
0.0
 30
0.0
  9
$PUCSORGRIGHT
 10
0.0
 20
0.0
 30
0.0
  9
$PUCSORGFRONT
 10
0.0
 20
0.0
 30
0.0
  9
$PUCSORGBACK
 10
0.0
 20
0.0
 30
0.0
  9
$USERI1
 70
     0
  9
$USERI2
 70
     0
  9
$USERI3
 70
     0
  9
$USERI4
 70
     0
  9
$USERI5
 70
     0
  9
$USERR1
 40
0.0
  9
$USERR2
 40
0.0
  9
$USERR3
 40
0.0
  9
$USERR4
 40
0.0
  9
$USERR5
 40
0.0
  9
$WORLDVIEW
 70
     1
  9
$SHADEDGE
 70
     3
  9
$SHADEDIF
 70
    70
  9
$TILEMODE
 70
     1
  9
$MAXACTVP
 70
    16
  9
$PINSBASE
 10
0.0
 20
0.0
 30
0.0
  9
$PLIMCHECK
 70
     0
  9
$PEXTMIN
 10
1.000000E+20
 20
1.000000E+20
 30
1.000000E+20
  9
$PEXTMAX
 10
-1.000000E+20
 20
-1.000000E+20
 30
-1.000000E+20
  9
$PLIMMIN
 10
0.0
 20
0.0
  9
$PLIMMAX
 10
12.0
 20
9.0
  9
$UNITMODE
 70
     0
  9
$VISRETAIN
 70
     0
  9
$PLINEGEN
 70
     1
  9
$PSLTSCALE
 70
     0
  9
$TREEDEPTH
 70
  3020
  9
$CMLSTYLE
  2
Standard
  9
$CMLJUST
 70
     0
  9
$CMLSCALE
 40
1.0
  9
$PROXYGRAPHICS
 70
     0
  9
$MEASUREMENT
 70
     0
  9
$CELWEIGHT
370
     0
  9
$ENDCAPS
280
     0
  9
$JOINSTYLE
280
     0
  9
$LWDISPLAY
290
     0
  9
$INSUNITS
 70
     4
  9
$HYPERLINKBASE
  1

  9
$XEDIT
290
     1
  9
$CEPSNTYPE
380
     0
  9
$PSTYLEMODE
290
     1
  9
$FINGERPRINTGUID
  2

  9
$VERSIONGUID
  2

  9
$EXTNAMES
290
     1
  9
$PSVPSCALE
 40
0.0
  0
ENDSEC
  0
SECTION
  2
CLASSES
  0
CLASS
  1
LWPOLYLINE
  2
AcDbPolyline
  3
AutoCAD 2000
 90
    32768
280
     0
281
     1
  0
CLASS
  1
IMAGE
  2
AcDbRasterImage
  3
ISM
 90
    32895
280
     0
281
     1
  0
CLASS
  1
OLE2FRAME
  2
AcDbOle2Frame
  3
AutoCAD 2000
 90
    32768
280
     0
281
     1
  0
CLASS
  1
HATCH
  2
AcDbHatch
  3
AutoCAD 2000
 90
    32768
280
     0
281
     1
  0
CLASS
  1
DICTIONARYVAR
  2
AcDbDictionaryVar
  3
AutoCAD 2000
 90
    32768
280
     0
281
     0
  0
CLASS
  1
RASTERVARIABLES
  2
AcDbRasterVariables
  3
ISM
 90
    32768
280
     0
281
     0
  0
CLASS
  1
IMAGEDEF
  2
AcDbRasterImageDef
  3
ISM
 90
    32768
280
     0
281
     0
  0
CLASS
  1
IMAGEDEF_REACTOR
  2
AcDbRasterImageDefReactor
  3
ISM
 90
    32769
280
     0
281
     0
  0
CLASS
  1
IDBUFFER
  2
AcDbIdBuffer
  3
AutoCAD 2000
 90
    32768
280
     0
281
     0
  0
CLASS
  1
SPATIAL_FILTER
  2
AcDbSpatialFilter
  3
AutoCAD 2000
 90
    32768
280
     0
281
     0
  0
CLASS
  1
XRECORD
  2
AcDbXrecord
  3
AutoCAD 2000
 90
    32768
280
     0
281
     0
  0
CLASS
  1
SORTENTSTABLE
  2
AcDbSortentsTable
  3
AutoCAD 2000
 90
    32768
280
     0
281
     0
  0
CLASS
  1
LAYER_INDEX
  2
AcDbLayerIndex
  3
AutoCAD 2000
 90
    32768
280
     0
281
     0
  0
CLASS
  1
SPATIAL_INDEX
  2
AcDbSpatialIndex
  3
AutoCAD 2000
 90
    32768
280
     0
281
     0
  0
CLASS
  1
OBJECT_PTR
  2
CAseDLPNTableRecord
  3
"ASE-LPNTableRecord"
 90
    32769
280
     0
281
     0
  0
CLASS
  1
LAYOUT
  2
AcDbLayout
  3
AutoCAD 2000
 90
        0
280
     0
281
     0
  0
CLASS
  1
PLOTSETTINGS
  2
AcDbPlotSettings
  3
AutoCAD 2000
 90
    32768
280
     0
281
     0
  0
CLASS
  1
ACDBDICTIONARYWDFLT
  2
AcDbDictionaryWithDefault
  3
AutoCAD 2000
 90
        0
280
     0
281
     0
  0
CLASS
  1
ACDBPLACEHOLDER
  2
AcDbPlaceHolder
  3
AutoCAD 2000
 90
        0
280
     0
281
     0
  0
CLASS
  1
VBA_PROJECT
  2
AcDbVbaProject
  3
acadvba
 90
    32768
280
     0
281
     0
  0
CLASS
  1
WIPEOUT
  2
AcDbWipeout
  3
WipeOut|AutoCAD Express Tool|expresstools@autodesk.com
 90
    32895
280
     0
281
     1
  0
CLASS
  1
WIPEOUTVARIABLES
  2
AcDbWipeoutVariables
  3
WipeOut|AutoCAD Express Tool|expresstools@autodesk.com
 90
        0
280
     0
281
     0
  0
CLASS
  1
RTEXT
  2
RText
  3
RText|AutoCAD Express Tool|expresstools@autodesk.com
 90
    32768
280
     0
281
     1
  0
CLASS
  1
ARCALIGNEDTEXT
  2
AcDbArcAlignedText
  3
ATEXT|AutoCAD Express Tool|expresstools@autodesk.com
 90
    32768
280
     0
281
     1
  0
ENDSEC
  0
SECTION
  2
TABLES
  0
TABLE
  2
VPORT
  5
7
100
AcDbSymbolTable
 70
     1
  0
VPORT
  5
15
100
AcDbSymbolTableRecord
100
AcDbViewportTableRecord
  2
*ACTIVE
 70
     0
 10
0.0
 20
0.0
 11
1.0
 21
1.0
 12
6.591288
 22
4.579184
 13
0.0
 23
0.0
 14
1.0
 24
1.0
 15
0.0
 25
0.0
 16
0.0
 26
0.0
 36
1.0
 17
0.0
 27
0.0
 37
0.0
 40
9.158369
 41
0.688564
 42
50.0
 43
0.0
 44
0.0
 50
0.0
 51
0.0
 71
     0
 72
   100
 73
     1
 74
     1
 75
     0
 76
     0
 77
     0
 78
     0
281
     0
 65
     0
110
0.0
120
0.0
130
0.0
111
1.0
121
0.0
131
0.0
112
0.0
122
1.0
132
0.0
345
0
346
0
 79
     0
146
0.0
  0
ENDTAB
  0
TABLE
  2
LTYPE
  5
4
100
AcDbSymbolTable
 70
     3
  0
LTYPE
  5
11
100
AcDbSymbolTableRecord
100
AcDbLinetypeTableRecord
  2
ByBlock
 70
    64
  3

 72
    65
 73
     0
 40
0.0
  0
LTYPE
  5
12
100
AcDbSymbolTableRecord
100
AcDbLinetypeTableRecord
  2
ByLayer
 70
    64
  3

 72
    65
 73
     0
 40
0.0
  0
LTYPE
  5
13
100
AcDbSymbolTableRecord
100
AcDbLinetypeTableRecord
  2
Continuous
 70
    64
  3
Solid line
 72
    65
 73
     0
 40
0.0
  0
ENDTAB
  0
TABLE
  2
LAYER
  5
2
100
AcDbSymbolTable
 70
     2
  0
LAYER
  5
14
100
AcDbSymbolTableRecord
100
AcDbLayerTableRecord
  2
0
 70
     0
 62
     7
  6
Continuous
290
     1
370
    -3
390
1D
  0
LAYER
  5
24
100
AcDbSymbolTableRecord
100
AcDbLayerTableRecord
  2
0
 70
     0
 62
     7
  6
Continuous
290
     1
370
    -3
390
1F
  0
ENDTAB
  0
TABLE
  2
STYLE
  5
3
100
AcDbSymbolTable
 70
     1
  0
STYLE
  5
17
100
AcDbSymbolTableRecord
100
AcDbTextStyleTableRecord
  2
Standard
 70
     0
 40
0.0
 41
1.0
 50
0.0
 71
     0
 42
0.0
  3
txt
  4

  0
ENDTAB
  0
TABLE
  2
VIEW
  5
5
100
AcDbSymbolTable
 70
     0
  0
ENDTAB
  0
TABLE
  2
UCS
  5
6
100
AcDbSymbolTable
 70
     0
  0
ENDTAB
  0
TABLE
  2
APPID
  5
8
100
AcDbSymbolTable
 70
     1
  0
APPID
  5
16
100
AcDbSymbolTableRecord
100
AcDbRegAppTableRecord
  2
ACAD
 70
     0
  0
ENDTAB
  0
TABLE
  2
DIMSTYLE
  5
9
100
AcDbSymbolTable
 70
     1
100
AcDbDimStyleTable
 71
     0
  0
DIMSTYLE
105
18
100
AcDbSymbolTableRecord
100
AcDbDimStyleTableRecord
  2
Standard
 70
     0
  3

  4

 40
1.0
 41
0.18
 42
0.0625
 43
0.38
 44
0.18
 45
0.0
 46
0.0
 47
0.0
 48
0.0
 71
     0
 72
     0
 73
     1
 74
     1
 75
     0
 76
     0
 77
     0
 78
     0
 79
     0
140
0.18
141
0.09
142
0.0
143
25.4
144
1.0
145
0.0
146
1.0
147
0.09
148
0.0
170
     0
171
     2
172
     0
173
     0
174
     0
175
     0
176
     0
177
     0
178
     0
179
     0
271
     4
272
     4
273
     2
274
     2
275
     0
276
     0
277
     2
278
    46
279
     0
280
     0
281
     0
282
     0
283
     1
284
     0
285
     0
286
     0
288
     0
340
17
341
0
342
0
343
0
344
0
371
    -2
372
    -2
  0
ENDTAB
  0
TABLE
  2
BLOCK_RECORD
  5
1
100
AcDbSymbolTable
 70
     0
  0
BLOCK_RECORD
  5
A
100
AcDbSymbolTableRecord
100
AcDbBlockTableRecord
  2
*MODEL_SPACE
340
20
  0
BLOCK_RECORD
  5
B
100
AcDbSymbolTableRecord
100
AcDbBlockTableRecord
  2
*PAPER_SPACE
340
21
  0
ENDTAB
  0
ENDSEC
  0
SECTION
  2
BLOCKS
  0
BLOCK
  5
D
100
AcDbEntity
  8
0
100
AcDbBlockBegin
  2
*MODEL_SPACE
 70
     0
 10
0.0
 20
0.0
 30
0.0
  3
*MODEL_SPACE
  1

  0
ENDBLK
  5
E
100
AcDbEntity
  8
0
100
AcDbBlockEnd
  0
BLOCK
  5
F
100
AcDbEntity
 67
     1
  8
0
100
AcDbBlockBegin
  2
*PAPER_SPACE
 70
     0
 10
0.0
 20
0.0
 30
0.0
  3
*PAPER_SPACE
  1

  0
ENDBLK
  5
10
100
AcDbEntity
 67
     1
  8
0
100
AcDbBlockEnd
  0
ENDSEC
  0
SECTION
  2
ENTITIES
  0
SPLINE
  5
25
100
AcDbEntity
  8
0
100
AcDbSpline
210
0.0
220
0.0
230
1.0
 70
     1
 71
     3
 72
    88
 73
    84
 74
     0
 42
0.0000000001
 43
0.0000000001
 40
0.0
 40
0.0
 40
0.0
 40
0.0
 40
0.0476190476190476
 40
0.0476190476190476
 40
0.0476190476190476
 40
0.0476190476190476
 40
0.0952380952380952
 40
0.0952380952380952
 40
0.0952380952380952
 40
0.0952380952380952
 40
0.1428571428571429
 40
0.1428571428571429
 40
0.1428571428571429
 40
0.1428571428571429
 40
0.1904761904761905
 40
0.1904761904761905
 40
0.1904761904761905
 40
0.1904761904761905
 40
0.2380952380952381
 40
0.2380952380952381
 40
0.2380952380952381
 40
0.2380952380952381
 40
0.2857142857142857
 40
0.2857142857142857
 40
0.2857142857142857
 40
0.2857142857142857
 40
0.3333333333333333
 40
0.3333333333333333
 40
0.3333333333333333
 40
0.3333333333333333
 40
0.3809523809523809
 40
0.3809523809523809
 40
0.3809523809523809
 40
0.3809523809523809
 40
0.4285714285714286
 40
0.4285714285714286
 40
0.4285714285714286
 40
0.4285714285714286
 40
0.4761904761904762
 40
0.4761904761904762
 40
0.4761904761904762
 40
0.4761904761904762
 40
0.5238095238095237
 40
0.5238095238095237
 40
0.5238095238095237
 40
0.5238095238095237
 40
0.5714285714285714
 40
0.5714285714285714
 40
0.5714285714285714
 40
0.5714285714285714
 40
0.6190476190476191
 40
0.6190476190476191
 40
0.6190476190476191
 40
0.6190476190476191
 40
0.6666666666666667
 40
0.6666666666666667
 40
0.6666666666666667
 40
0.6666666666666667
 40
0.7142857142857144
 40
0.7142857142857144
 40
0.7142857142857144
 40
0.7142857142857144
 40
0.7619047619047621
 40
0.7619047619047621
 40
0.7619047619047621
 40
0.7619047619047621
 40
0.8095238095238098
 40
0.8095238095238098
 40
0.8095238095238098
 40
0.8095238095238098
 40
0.8571428571428574
 40
0.8571428571428574
 40
0.8571428571428574
 40
0.8571428571428574
 40
0.9047619047619051
 40
0.9047619047619051
 40
0.9047619047619051
 40
0.9047619047619051
 40
0.9523809523809528
 40
0.9523809523809528
 40
0.9523809523809528
 40
0.9523809523809528
 40
1.0
 40
1.0
 40
1.0
 40
1.0
 10
48.709499999999998
 20
-161.2927
 30
0.0
 10
48.709499999999998
 20
-161.2927
 30
0.0
 10
47.707599999999999
 20
-159.50229999999999
 30
0.0
 10
47.707599999999999
 20
-159.50229999999999
 30
0.0
 10
47.707599999999999
 20
-159.50229999999999
 30
0.0
 10
47.707599999999999
 20
-159.50229999999999
 30
0.0
 10
41.125799999999998
 20
-159.50999999999999
 30
0.0
 10
41.125799999999998
 20
-159.50999999999999
 30
0.0
 10
41.125799999999998
 20
-159.50999999999999
 30
0.0
 10
38.683
 20
-162.81710000000001
 30
0.0
 10
35.458300000000001
 20
-165.4665
 30
0.0
 10
31.740600000000001
 20
-167.2217
 30
0.0
 10
31.740600000000001
 20
-167.2217
 30
0.0
 10
27.938700000000001
 20
-169.0752
 30
0.0
 10
23.5932
 20
-169.48560000000001
 30
0.0
 10
19.511399999999998
 20
-168.3768
 30
0.0
 10
19.511399999999998
 20
-168.3768
 30
0.0
 10
15.6088
 20
-166.74690000000001
 30
0.0
 10
12.5814
 20
-163.53729999999999
 30
0.0
 10
11.1816
 20
-159.5463
 30
0.0
 10
11.1816
 20
-159.5463
 30
0.0
 10
11.1816
 20
-159.5463
 30
0.0
 10
3.7199
 20
-159.55549999999999
 30
0.0
 10
3.7199
 20
-159.55549999999999
 30
0.0
 10
3.7199
 20
-159.55549999999999
 30
0.0
 10
2.5674000000000001
 20
-159.55549999999999
 30
0.0
 10
1.4622999999999999
 20
-160.01410000000001
 30
0.0
 10
0.6481
 20
-160.83009999999999
 30
0.0
 10
0.6481
 20
-160.83009999999999
 30
0.0
 10
-0.1658
 20
-161.64599999999999
 30
0.0
 10
-0.6221
 20
-162.75229999999999
 30
0.0
 10
-0.6195000000000001
 20
-163.905
 30
0.0
 10
-0.6195000000000001
 20
-163.905
 30
0.0
 10
-0.6195000000000001
 20
-163.905
 30
0.0
 10
-0.5845
 20
-192.14400000000001
 30
0.0
 10
-0.5845
 20
-192.14400000000001
 30
0.0
 10
-0.5845
 20
-192.14400000000001
 30
0.0
 10
-0.5845
 20
-192.14400000000001
 30
0.0
 10
5.9939
 20
-192.13650000000001
 30
0.0
 10
5.9939
 20
-192.13650000000001
 30
0.0
 10
5.9939
 20
-192.13650000000001
 30
0.0
 10
5.9939
 20
-192.13650000000001
 30
0.0
 10
5.9751000000000003
 20
-176.93090000000001
 30
0.0
 10
5.9751000000000003
 20
-176.93090000000001
 30
0.0
 10
5.9751000000000003
 20
-176.93090000000001
 30
0.0
 10
5.9751000000000003
 20
-176.93090000000001
 30
0.0
 10
8.9076000000000004
 20
-176.9282
 30
0.0
 10
8.9076000000000004
 20
-176.9282
 30
0.0
 10
8.9076000000000004
 20
-176.9282
 30
0.0
 10
8.9076000000000004
 20
-176.9282
 30
0.0
 10
8.9265000000000008
 20
-192.1337
 30
0.0
 10
8.9265000000000008
 20
-192.1337
 30
0.0
 10
8.9265000000000008
 20
-192.1337
 30
0.0
 10
8.9265000000000008
 20
-192.1337
 30
0.0
 10
44.787500000000001
 20
-192.0891
 30
0.0
 10
44.787500000000001
 20
-192.0891
 30
0.0
 10
44.787500000000001
 20
-192.0891
 30
0.0
 10
44.787500000000001
 20
-192.0891
 30
0.0
 10
44.768599999999999
 20
-176.8836
 30
0.0
 10
44.768599999999999
 20
-176.8836
 30
0.0
 10
44.768599999999999
 20
-176.8836
 30
0.0
 10
44.768599999999999
 20
-176.8836
 30
0.0
 10
47.700899999999997
 20
-176.87960000000001
 30
0.0
 10
47.700899999999997
 20
-176.87960000000001
 30
0.0
 10
47.700899999999997
 20
-176.87960000000001
 30
0.0
 10
47.700899999999997
 20
-176.87960000000001
 30
0.0
 10
47.719999999999999
 20
-192.08519999999999
 30
0.0
 10
47.719999999999999
 20
-192.08519999999999
 30
0.0
 10
47.719999999999999
 20
-192.08519999999999
 30
0.0
 10
47.719999999999999
 20
-192.08519999999999
 30
0.0
 10
54.264099999999999
 20
-192.0778
 30
0.0
 10
54.264099999999999
 20
-192.0778
 30
0.0
 10
54.264099999999999
 20
-192.0778
 30
0.0
 10
54.264099999999999
 20
-192.0778
 30
0.0
 10
54.231400000000001
 20
-165.4693
 30
0.0
 10
54.231400000000001
 20
-165.4693
 30
0.0
 10
54.231400000000001
 20
-165.4693
 30
0.0
 10
54.230200000000004
 20
-164.1096
 30
0.0
 10
53.592500000000001
 20
-162.82910000000001
 30
0.0
 10
52.508099999999999
 20
-162.00890000000001
 30
0.0
 10
52.508099999999999
 20
-162.00890000000001
 30
0.0
 10
51.4238
 20
-161.18879999999999
 30
0.0
 10
50.018000000000001
 20
-160.9238
 30
0.0
 10
48.709499999999998
 20
-161.2927
 30
0.0
  0
SPLINE
  5
26
100
AcDbEntity
  8
0
100
AcDbSpline
210
0.0
220
0.0
230
1.0
 70
     1
 71
     3
 72
    88
 73
    84
 74
     0
 42
0.0000000001
 43
0.0000000001
 40
0.0
 40
0.0
 40
0.0
 40
0.0
 40
0.0476190476190476
 40
0.0476190476190476
 40
0.0476190476190476
 40
0.0476190476190476
 40
0.0952380952380952
 40
0.0952380952380952
 40
0.0952380952380952
 40
0.0952380952380952
 40
0.1428571428571429
 40
0.1428571428571429
 40
0.1428571428571429
 40
0.1428571428571429
 40
0.1904761904761905
 40
0.1904761904761905
 40
0.1904761904761905
 40
0.1904761904761905
 40
0.2380952380952381
 40
0.2380952380952381
 40
0.2380952380952381
 40
0.2380952380952381
 40
0.2857142857142857
 40
0.2857142857142857
 40
0.2857142857142857
 40
0.2857142857142857
 40
0.3333333333333333
 40
0.3333333333333333
 40
0.3333333333333333
 40
0.3333333333333333
 40
0.3809523809523809
 40
0.3809523809523809
 40
0.3809523809523809
 40
0.3809523809523809
 40
0.4285714285714286
 40
0.4285714285714286
 40
0.4285714285714286
 40
0.4285714285714286
 40
0.4761904761904762
 40
0.4761904761904762
 40
0.4761904761904762
 40
0.4761904761904762
 40
0.5238095238095237
 40
0.5238095238095237
 40
0.5238095238095237
 40
0.5238095238095237
 40
0.5714285714285714
 40
0.5714285714285714
 40
0.5714285714285714
 40
0.5714285714285714
 40
0.6190476190476191
 40
0.6190476190476191
 40
0.6190476190476191
 40
0.6190476190476191
 40
0.6666666666666667
 40
0.6666666666666667
 40
0.6666666666666667
 40
0.6666666666666667
 40
0.7142857142857144
 40
0.7142857142857144
 40
0.7142857142857144
 40
0.7142857142857144
 40
0.7619047619047621
 40
0.7619047619047621
 40
0.7619047619047621
 40
0.7619047619047621
 40
0.8095238095238098
 40
0.8095238095238098
 40
0.8095238095238098
 40
0.8095238095238098
 40
0.8571428571428574
 40
0.8571428571428574
 40
0.8571428571428574
 40
0.8571428571428574
 40
0.9047619047619051
 40
0.9047619047619051
 40
0.9047619047619051
 40
0.9047619047619051
 40
0.9523809523809528
 40
0.9523809523809528
 40
0.9523809523809528
 40
0.9523809523809528
 40
1.0
 40
1.0
 40
1.0
 40
1.0
 10
48.709499999999998
 20
-122.3826
 30
0.0
 10
48.709499999999998
 20
-122.3826
 30
0.0
 10
47.707599999999999
 20
-120.5919
 30
0.0
 10
47.707599999999999
 20
-120.5919
 30
0.0
 10
47.707599999999999
 20
-120.5919
 30
0.0
 10
47.707599999999999
 20
-120.5919
 30
0.0
 10
41.125799999999998
 20
-120.59990000000001
 30
0.0
 10
41.125799999999998
 20
-120.59990000000001
 30
0.0
 10
41.125799999999998
 20
-120.59990000000001
 30
0.0
 10
38.683
 20
-123.9068
 30
0.0
 10
35.458300000000001
 20
-126.5564
 30
0.0
 10
31.740600000000001
 20
-128.31139999999999
 30
0.0
 10
31.740600000000001
 20
-128.31139999999999
 30
0.0
 10
27.938700000000001
 20
-130.16499999999999
 30
0.0
 10
23.5932
 20
-130.5754
 30
0.0
 10
19.511399999999998
 20
-129.4667
 30
0.0
 10
19.511399999999998
 20
-129.4667
 30
0.0
 10
15.6088
 20
-127.8366
 30
0.0
 10
12.5814
 20
-124.6268
 30
0.0
 10
11.1816
 20
-120.6361
 30
0.0
 10
11.1816
 20
-120.6361
 30
0.0
 10
11.1816
 20
-120.6361
 30
0.0
 10
3.7199
 20
-120.64530000000001
 30
0.0
 10
3.7199
 20
-120.64530000000001
 30
0.0
 10
3.7199
 20
-120.64530000000001
 30
0.0
 10
2.5674000000000001
 20
-120.6454
 30
0.0
 10
1.4622999999999999
 20
-121.104
 30
0.0
 10
0.6481
 20
-121.9199
 30
0.0
 10
0.6481
 20
-121.9199
 30
0.0
 10
-0.1658
 20
-122.7358
 30
0.0
 10
-0.6221
 20
-123.8421
 30
0.0
 10
-0.6195000000000001
 20
-124.99469999999999
 30
0.0
 10
-0.6195000000000001
 20
-124.99469999999999
 30
0.0
 10
-0.6195000000000001
 20
-124.99469999999999
 30
0.0
 10
-0.5845
 20
-153.2338
 30
0.0
 10
-0.5845
 20
-153.2338
 30
0.0
 10
-0.5845
 20
-153.2338
 30
0.0
 10
-0.5845
 20
-153.2338
 30
0.0
 10
5.9939
 20
-153.22620000000001
 30
0.0
 10
5.9939
 20
-153.22620000000001
 30
0.0
 10
5.9939
 20
-153.22620000000001
 30
0.0
 10
5.9939
 20
-153.22620000000001
 30
0.0
 10
5.9751000000000003
 20
-138.0205
 30
0.0
 10
5.9751000000000003
 20
-138.0205
 30
0.0
 10
5.9751000000000003
 20
-138.0205
 30
0.0
 10
5.9751000000000003
 20
-138.0205
 30
0.0
 10
8.9076000000000004
 20
-138.01779999999999
 30
0.0
 10
8.9076000000000004
 20
-138.01779999999999
 30
0.0
 10
8.9076000000000004
 20
-138.01779999999999
 30
0.0
 10
8.9076000000000004
 20
-138.01779999999999
 30
0.0
 10
8.9265000000000008
 20
-153.2234
 30
0.0
 10
8.9265000000000008
 20
-153.2234
 30
0.0
 10
8.9265000000000008
 20
-153.2234
 30
0.0
 10
8.9265000000000008
 20
-153.2234
 30
0.0
 10
44.787500000000001
 20
-153.1789
 30
0.0
 10
44.787500000000001
 20
-153.1789
 30
0.0
 10
44.787500000000001
 20
-153.1789
 30
0.0
 10
44.787500000000001
 20
-153.1789
 30
0.0
 10
44.768599999999999
 20
-137.9734
 30
0.0
 10
44.768599999999999
 20
-137.9734
 30
0.0
 10
44.768599999999999
 20
-137.9734
 30
0.0
 10
44.768599999999999
 20
-137.9734
 30
0.0
 10
47.700899999999997
 20
-137.9692
 30
0.0
 10
47.700899999999997
 20
-137.9692
 30
0.0
 10
47.700899999999997
 20
-137.9692
 30
0.0
 10
47.700899999999997
 20
-137.9692
 30
0.0
 10
47.719999999999999
 20
-153.17500000000001
 30
0.0
 10
47.719999999999999
 20
-153.17500000000001
 30
0.0
 10
47.719999999999999
 20
-153.17500000000001
 30
0.0
 10
47.719999999999999
 20
-153.17500000000001
 30
0.0
 10
54.264099999999999
 20
-153.16749999999999
 30
0.0
 10
54.264099999999999
 20
-153.16749999999999
 30
0.0
 10
54.264099999999999
 20
-153.16749999999999
 30
0.0
 10
54.264099999999999
 20
-153.16749999999999
 30
0.0
 10
54.231400000000001
 20
-126.559
 30
0.0
 10
54.231400000000001
 20
-126.559
 30
0.0
 10
54.231400000000001
 20
-126.559
 30
0.0
 10
54.230200000000004
 20
-125.1994
 30
0.0
 10
53.592500000000001
 20
-123.9188
 30
0.0
 10
52.508099999999999
 20
-123.0986
 30
0.0
 10
52.508099999999999
 20
-123.0986
 30
0.0
 10
51.4238
 20
-122.2786
 30
0.0
 10
50.018000000000001
 20
-122.01349999999999
 30
0.0
 10
48.709499999999998
 20
-122.3826
 30
0.0
  0
SPLINE
  5
27
100
AcDbEntity
  8
0
100
AcDbSpline
210
0.0
220
0.0
230
1.0
 70
     1
 71
     3
 72
   124
 73
   120
 74
     0
 42
0.0000000001
 43
0.0000000001
 40
0.0
 40
0.0
 40
0.0
 40
0.0
 40
0.0333333333333333
 40
0.0333333333333333
 40
0.0333333333333333
 40
0.0333333333333333
 40
0.0666666666666667
 40
0.0666666666666667
 40
0.0666666666666667
 40
0.0666666666666667
 40
0.1
 40
0.1
 40
0.1
 40
0.1
 40
0.1333333333333333
 40
0.1333333333333333
 40
0.1333333333333333
 40
0.1333333333333333
 40
0.1666666666666667
 40
0.1666666666666667
 40
0.1666666666666667
 40
0.1666666666666667
 40
0.2
 40
0.2
 40
0.2
 40
0.2
 40
0.2333333333333333
 40
0.2333333333333333
 40
0.2333333333333333
 40
0.2333333333333333
 40
0.2666666666666667
 40
0.2666666666666667
 40
0.2666666666666667
 40
0.2666666666666667
 40
0.3
 40
0.3
 40
0.3
 40
0.3
 40
0.3333333333333333
 40
0.3333333333333333
 40
0.3333333333333333
 40
0.3333333333333333
 40
0.3666666666666666
 40
0.3666666666666666
 40
0.3666666666666666
 40
0.3666666666666666
 40
0.4
 40
0.4
 40
0.4
 40
0.4
 40
0.4333333333333333
 40
0.4333333333333333
 40
0.4333333333333333
 40
0.4333333333333333
 40
0.4666666666666666
 40
0.4666666666666666
 40
0.4666666666666666
 40
0.4666666666666666
 40
0.4999999999999999
 40
0.4999999999999999
 40
0.4999999999999999
 40
0.4999999999999999
 40
0.5333333333333333
 40
0.5333333333333333
 40
0.5333333333333333
 40
0.5333333333333333
 40
0.5666666666666667
 40
0.5666666666666667
 40
0.5666666666666667
 40
0.5666666666666667
 40
0.6
 40
0.6
 40
0.6
 40
0.6
 40
0.6333333333333333
 40
0.6333333333333333
 40
0.6333333333333333
 40
0.6333333333333333
 40
0.6666666666666666
 40
0.6666666666666666
 40
0.6666666666666666
 40
0.6666666666666666
 40
0.7
 40
0.7
 40
0.7
 40
0.7
 40
0.7333333333333333
 40
0.7333333333333333
 40
0.7333333333333333
 40
0.7333333333333333
 40
0.7666666666666666
 40
0.7666666666666666
 40
0.7666666666666666
 40
0.7666666666666666
 40
0.7999999999999999
 40
0.7999999999999999
 40
0.7999999999999999
 40
0.7999999999999999
 40
0.8333333333333333
 40
0.8333333333333333
 40
0.8333333333333333
 40
0.8333333333333333
 40
0.8666666666666666
 40
0.8666666666666666
 40
0.8666666666666666
 40
0.8666666666666666
 40
0.8999999999999999
 40
0.8999999999999999
 40
0.8999999999999999
 40
0.8999999999999999
 40
0.9333333333333332
 40
0.9333333333333332
 40
0.9333333333333332
 40
0.9333333333333332
 40
0.9666666666666666
 40
0.9666666666666666
 40
0.9666666666666666
 40
0.9666666666666666
 40
1.0
 40
1.0
 40
1.0
 40
1.0
 10
74.652799999999999
 20
-153.8355
 30
0.0
 10
74.652799999999999
 20
-153.8355
 30
0.0
 10
74.652799999999999
 20
-170.12729999999999
 30
0.0
 10
74.652799999999999
 20
-170.12729999999999
 30
0.0
 10
74.652799999999999
 20
-170.12729999999999
 30
0.0
 10
74.652799999999999
 20
-170.12729999999999
 30
0.0
 10
77.900300000000001
 20
-183.16079999999999
 30
0.0
 10
77.900300000000001
 20
-183.16079999999999
 30
0.0
 10
77.900300000000001
 20
-183.16079999999999
 30
0.0
 10
77.900300000000001
 20
-183.16079999999999
 30
0.0
 10
96.5381
 20
-183.16079999999999
 30
0.0
 10
96.5381
 20
-183.16079999999999
 30
0.0
 10
96.5381
 20
-183.16079999999999
 30
0.0
 10
96.5381
 20
-183.16079999999999
 30
0.0
 10
96.5381
 20
-171.21340000000001
 30
0.0
 10
96.5381
 20
-171.21340000000001
 30
0.0
 10
96.5381
 20
-171.21340000000001
 30
0.0
 10
96.5381
 20
-170.40369999999999
 30
0.0
 10
97.194500000000005
 20
-169.74719999999999
 30
0.0
 10
98.004400000000004
 20
-169.74719999999999
 30
0.0
 10
98.004400000000004
 20
-169.74719999999999
 30
0.0
 10
98.814099999999996
 20
-169.74719999999999
 30
0.0
 10
99.470699999999994
 20
-170.40369999999999
 30
0.0
 10
99.470699999999994
 20
-171.21340000000001
 30
0.0
 10
99.470699999999994
 20
-171.21340000000001
 30
0.0
 10
99.470699999999994
 20
-171.21340000000001
 30
0.0
 10
99.470699999999994
 20
-183.16079999999999
 30
0.0
 10
99.470699999999994
 20
-183.16079999999999
 30
0.0
 10
99.470699999999994
 20
-183.16079999999999
 30
0.0
 10
99.470699999999994
 20
-183.16079999999999
 30
0.0
 10
118.1084
 20
-183.16079999999999
 30
0.0
 10
118.1084
 20
-183.16079999999999
 30
0.0
 10
118.1084
 20
-183.16079999999999
 30
0.0
 10
118.1084
 20
-183.16079999999999
 30
0.0
 10
121.35590000000001
 20
-170.12729999999999
 30
0.0
 10
121.35590000000001
 20
-170.12729999999999
 30
0.0
 10
121.35590000000001
 20
-170.12729999999999
 30
0.0
 10
121.35590000000001
 20
-170.12729999999999
 30
0.0
 10
121.35590000000001
 20
-153.8355
 30
0.0
 10
121.35590000000001
 20
-153.8355
 30
0.0
 10
121.35590000000001
 20
-153.8355
 30
0.0
 10
121.35590000000001
 20
-153.2594
 30
0.0
 10
121.127
 20
-152.70699999999999
 30
0.0
 10
120.7196
 20
-152.2996
 30
0.0
 10
120.7196
 20
-152.2996
 30
0.0
 10
120.3122
 20
-151.89189999999999
 30
0.0
 10
119.7597
 20
-151.66329999999999
 30
0.0
 10
119.1837
 20
-151.66329999999999
 30
0.0
 10
119.1837
 20
-151.66329999999999
 30
0.0
 10
119.1837
 20
-151.66329999999999
 30
0.0
 10
115.6619
 20
-151.66329999999999
 30
0.0
 10
115.6619
 20
-151.66329999999999
 30
0.0
 10
115.6619
 20
-151.66329999999999
 30
0.0
 10
115.6619
 20
-151.66329999999999
 30
0.0
 10
115.6619
 20
-165.8914
 30
0.0
 10
115.6619
 20
-165.8914
 30
0.0
 10
115.6619
 20
-165.8914
 30
0.0
 10
115.6619
 20
-166.7013
 30
0.0
 10
115.0056
 20
-167.3578
 30
0.0
 10
114.1956
 20
-167.3578
 30
0.0
 10
114.1956
 20
-167.3578
 30
0.0
 10
113.386
 20
-167.3578
 30
0.0
 10
112.7294
 20
-166.7013
 30
0.0
 10
112.7294
 20
-165.8914
 30
0.0
 10
112.7294
 20
-165.8914
 30
0.0
 10
112.7294
 20
-165.8914
 30
0.0
 10
112.7294
 20
-151.66329999999999
 30
0.0
 10
112.7294
 20
-151.66329999999999
 30
0.0
 10
112.7294
 20
-151.66329999999999
 30
0.0
 10
112.7294
 20
-151.66329999999999
 30
0.0
 10
109.40860000000001
 20
-151.66329999999999
 30
0.0
 10
109.40860000000001
 20
-151.66329999999999
 30
0.0
 10
109.40860000000001
 20
-151.66329999999999
 30
0.0
 10
109.40860000000001
 20
-151.66329999999999
 30
0.0
 10
99.644099999999995
 20
-140.46520000000001
 30
0.0
 10
99.644099999999995
 20
-140.46520000000001
 30
0.0
 10
99.644099999999995
 20
-140.46520000000001
 30
0.0
 10
99.232699999999994
 20
-139.9923
 30
0.0
 10
98.636499999999998
 20
-139.72110000000001
 30
0.0
 10
98.009600000000006
 20
-139.72120000000001
 30
0.0
 10
98.009600000000006
 20
-139.72120000000001
 30
0.0
 10
97.382999999999996
 20
-139.72120000000001
 30
0.0
 10
96.786799999999999
 20
-139.99250000000001
 30
0.0
 10
96.375200000000007
 20
-140.46530000000001
 30
0.0
 10
96.375200000000007
 20
-140.46530000000001
 30
0.0
 10
96.375200000000007
 20
-140.46530000000001
 30
0.0
 10
86.600200000000001
 20
-151.66329999999999
 30
0.0
 10
86.600200000000001
 20
-151.66329999999999
 30
0.0
 10
86.600200000000001
 20
-151.66329999999999
 30
0.0
 10
86.600200000000001
 20
-151.66329999999999
 30
0.0
 10
83.290099999999995
 20
-151.66329999999999
 30
0.0
 10
83.290099999999995
 20
-151.66329999999999
 30
0.0
 10
83.290099999999995
 20
-151.66329999999999
 30
0.0
 10
83.290099999999995
 20
-151.66329999999999
 30
0.0
 10
83.290099999999995
 20
-165.8914
 30
0.0
 10
83.290099999999995
 20
-165.8914
 30
0.0
 10
83.290099999999995
 20
-165.8914
 30
0.0
 10
83.290099999999995
 20
-166.7013
 30
0.0
 10
82.633499999999998
 20
-167.3578
 30
0.0
 10
81.823899999999995
 20
-167.3578
 30
0.0
 10
81.823899999999995
 20
-167.3578
 30
0.0
 10
81.013999999999996
 20
-167.3578
 30
0.0
 10
80.357600000000005
 20
-166.7013
 30
0.0
 10
80.357600000000005
 20
-165.8914
 30
0.0
 10
80.357600000000005
 20
-165.8914
 30
0.0
 10
80.357600000000005
 20
-165.8914
 30
0.0
 10
80.357600000000005
 20
-151.66329999999999
 30
0.0
 10
80.357600000000005
 20
-151.66329999999999
 30
0.0
 10
80.357600000000005
 20
-151.66329999999999
 30
0.0
 10
80.357600000000005
 20
-151.66329999999999
 30
0.0
 10
76.825100000000006
 20
-151.66329999999999
 30
0.0
 10
76.825100000000006
 20
-151.66329999999999
 30
0.0
 10
76.825100000000006
 20
-151.66329999999999
 30
0.0
 10
76.248900000000006
 20
-151.66329999999999
 30
0.0
 10
75.696399999999997
 20
-151.89189999999999
 30
0.0
 10
75.289000000000001
 20
-152.2996
 30
0.0
 10
75.289000000000001
 20
-152.2996
 30
0.0
 10
74.881699999999995
 20
-152.70699999999999
 30
0.0
 10
74.652799999999999
 20
-153.2594
 30
0.0
 10
74.652799999999999
 20
-153.8355
 30
0.0
  0
SPLINE
  5
28
100
AcDbEntity
  8
0
100
AcDbSpline
210
0.0
220
0.0
230
1.0
 70
     1
 71
     3
 72
   128
 73
   124
 74
     0
 42
0.0000000001
 43
0.0000000001
 40
0.0
 40
0.0
 40
0.0
 40
0.0
 40
0.032258064516129
 40
0.032258064516129
 40
0.032258064516129
 40
0.032258064516129
 40
0.0645161290322581
 40
0.0645161290322581
 40
0.0645161290322581
 40
0.0645161290322581
 40
0.0967741935483871
 40
0.0967741935483871
 40
0.0967741935483871
 40
0.0967741935483871
 40
0.1290322580645161
 40
0.1290322580645161
 40
0.1290322580645161
 40
0.1290322580645161
 40
0.1612903225806452
 40
0.1612903225806452
 40
0.1612903225806452
 40
0.1612903225806452
 40
0.1935483870967742
 40
0.1935483870967742
 40
0.1935483870967742
 40
0.1935483870967742
 40
0.2258064516129032
 40
0.2258064516129032
 40
0.2258064516129032
 40
0.2258064516129032
 40
0.2580645161290323
 40
0.2580645161290323
 40
0.2580645161290323
 40
0.2580645161290323
 40
0.2903225806451613
 40
0.2903225806451613
 40
0.2903225806451613
 40
0.2903225806451613
 40
0.3225806451612903
 40
0.3225806451612903
 40
0.3225806451612903
 40
0.3225806451612903
 40
0.3548387096774193
 40
0.3548387096774193
 40
0.3548387096774193
 40
0.3548387096774193
 40
0.3870967741935483
 40
0.3870967741935483
 40
0.3870967741935483
 40
0.3870967741935483
 40
0.4193548387096773
 40
0.4193548387096773
 40
0.4193548387096773
 40
0.4193548387096773
 40
0.4516129032258063
 40
0.4516129032258063
 40
0.4516129032258063
 40
0.4516129032258063
 40
0.4838709677419353
 40
0.4838709677419353
 40
0.4838709677419353
 40
0.4838709677419353
 40
0.5161290322580643
 40
0.5161290322580643
 40
0.5161290322580643
 40
0.5161290322580643
 40
0.5483870967741933
 40
0.5483870967741933
 40
0.5483870967741933
 40
0.5483870967741933
 40
0.5806451612903223
 40
0.5806451612903223
 40
0.5806451612903223
 40
0.5806451612903223
 40
0.6129032258064513
 40
0.6129032258064513
 40
0.6129032258064513
 40
0.6129032258064513
 40
0.6451612903225803
 40
0.6451612903225803
 40
0.6451612903225803
 40
0.6451612903225803
 40
0.6774193548387093
 40
0.6774193548387093
 40
0.6774193548387093
 40
0.6774193548387093
 40
0.7096774193548383
 40
0.7096774193548383
 40
0.7096774193548383
 40
0.7096774193548383
 40
0.7419354838709673
 40
0.7419354838709673
 40
0.7419354838709673
 40
0.7419354838709673
 40
0.7741935483870963
 40
0.7741935483870963
 40
0.7741935483870963
 40
0.7741935483870963
 40
0.8064516129032253
 40
0.8064516129032253
 40
0.8064516129032253
 40
0.8064516129032253
 40
0.8387096774193543
 40
0.8387096774193543
 40
0.8387096774193543
 40
0.8387096774193543
 40
0.8709677419354833
 40
0.8709677419354833
 40
0.8709677419354833
 40
0.8709677419354833
 40
0.9032258064516123
 40
0.9032258064516123
 40
0.9032258064516123
 40
0.9032258064516123
 40
0.9354838709677413
 40
0.9354838709677413
 40
0.9354838709677413
 40
0.9354838709677413
 40
0.9677419354838703
 40
0.9677419354838703
 40
0.9677419354838703
 40
0.9677419354838703
 40
1.0
 40
1.0
 40
1.0
 40
1.0
 10
-102.9785
 20
-179.7722
 30
0.0
 10
-105.4097
 20
-183.60300000000001
 30
0.0
 10
-109.4209
 20
-186.15209999999999
 30
0.0
 10
-113.92149999999999
 20
-186.72659999999999
 30
0.0
 10
-113.92149999999999
 20
-186.72659999999999
 30
0.0
 10
-118.422
 20
-187.3013
 30
0.0
 10
-122.9448
 20
-185.8417
 30
0.0
 10
-126.2608
 20
-182.745
 30
0.0
 10
-126.2608
 20
-182.745
 30
0.0
 10
-128.08519999999999
 20
-181.1293
 30
0.0
 10
-129.65000000000001
 20
-179.24250000000001
 30
0.0
 10
-130.90039999999999
 20
-177.1507
 30
0.0
 10
-130.90039999999999
 20
-177.1507
 30
0.0
 10
-132.1163
 20
-175.18530000000001
 30
0.0
 10
-132.99189999999999
 20
-173.02889999999999
 30
0.0
 10
-133.49029999999999
 20
-170.7722
 30
0.0
 10
-133.49029999999999
 20
-170.7722
 30
0.0
 10
-135.03110000000001
 20
-165.70400000000001
 30
0.0
 10
-134.8185
 20
-160.2646
 30
0.0
 10
-132.88740000000001
 20
-155.3323
 30
0.0
 10
-132.88740000000001
 20
-155.3323
 30
0.0
 10
-132.53999999999999
 20
-154.32089999999999
 30
0.0
 10
-132.0789
 20
-153.35220000000001
 30
0.0
 10
-131.51310000000001
 20
-152.44470000000001
 30
0.0
 10
-131.51310000000001
 20
-152.44470000000001
 30
0.0
 10
-130.79650000000001
 20
-151.2706
 30
0.0
 10
-129.95310000000001
 20
-150.17859999999999
 30
0.0
 10
-128.99789999999999
 20
-149.18860000000001
 30
0.0
 10
-128.99789999999999
 20
-149.18860000000001
 30
0.0
 10
-127.81489999999999
 20
-147.96270000000001
 30
0.0
 10
-127.79689999999999
 20
-146.0258
 30
0.0
 10
-128.95670000000001
 20
-144.77799999999999
 30
0.0
 10
-128.95670000000001
 20
-144.77799999999999
 30
0.0
 10
-130.179
 20
-143.4631
 30
0.0
 10
-131.20609999999999
 20
-141.97970000000001
 30
0.0
 10
-132.00720000000001
 20
-140.3734
 30
0.0
 10
-132.00720000000001
 20
-140.3734
 30
0.0
 10
-134.50649999999999
 20
-134.9813
 30
0.0
 10
-134.87540000000001
 20
-128.84399999999999
 30
0.0
 10
-133.03980000000001
 20
-123.1914
 30
0.0
 10
-133.03980000000001
 20
-123.1914
 30
0.0
 10
-132.49870000000001
 20
-120.9442
 30
0.0
 10
-131.5823
 20
-118.80459999999999
 30
0.0
 10
-130.32919999999999
 20
-116.8623
 30
0.0
 10
-130.32919999999999
 20
-116.8623
 30
0.0
 10
-129.0386
 20
-114.7987
 30
0.0
 10
-127.43859999999999
 20
-112.94580000000001
 30
0.0
 10
-125.5849
 20
-111.36799999999999
 30
0.0
 10
-125.5849
 20
-111.36799999999999
 30
0.0
 10
-122.21299999999999
 20
-108.33159999999999
 30
0.0
 10
-117.66379999999999
 20
-106.955
 30
0.0
 10
-113.17400000000001
 20
-107.61279999999999
 30
0.0
 10
-113.17400000000001
 20
-107.61279999999999
 30
0.0
 10
-108.68429999999999
 20
-108.2706
 30
0.0
 10
-104.7209
 20
-110.8944
 30
0.0
 10
-102.3618
 20
-114.7705
 30
0.0
 10
-102.3618
 20
-114.7705
 30
0.0
 10
-97.653800000000004
 20
-121.5187
 30
0.0
 10
-94.193899999999999
 20
-129.05619999999999
 30
0.0
 10
-92.145799999999994
 20
-137.02539999999999
 30
0.0
 10
-92.145799999999994
 20
-137.02539999999999
 30
0.0
 10
-91.858999999999995
 20
-138.1317
 30
0.0
 10
-90.763599999999997
 20
-138.8261
 30
0.0
 10
-89.640600000000006
 20
-138.61349999999999
 30
0.0
 10
-89.640600000000006
 20
-138.61349999999999
 30
0.0
 10
-89.640600000000006
 20
-138.61349999999999
 30
0.0
 10
-65.354699999999994
 20
-134.06479999999999
 30
0.0
 10
-65.354699999999994
 20
-134.06479999999999
 30
0.0
 10
-65.354699999999994
 20
-134.06479999999999
 30
0.0
 10
-65.354699999999994
 20
-134.06479999999999
 30
0.0
 10
-37.630499999999998
 20
-128.87469999999999
 30
0.0
 10
-37.630499999999998
 20
-128.87469999999999
 30
0.0
 10
-37.630499999999998
 20
-128.87469999999999
 30
0.0
 10
-37.310200000000002
 20
-128.81229999999999
 30
0.0
 10
-36.978900000000003
 20
-128.89699999999999
 30
0.0
 10
-36.728200000000001
 20
-129.10589999999999
 30
0.0
 10
-36.728200000000001
 20
-129.10589999999999
 30
0.0
 10
-36.4773
 20
-129.31450000000001
 30
0.0
 10
-36.333799999999997
 20
-129.62479999999999
 30
0.0
 10
-36.337000000000003
 20
-129.9512
 30
0.0
 10
-36.337000000000003
 20
-129.9512
 30
0.0
 10
-36.337000000000003
 20
-129.9512
 30
0.0
 10
-36.492899999999999
 20
-146.39420000000001
 30
0.0
 10
-36.492899999999999
 20
-146.39420000000001
 30
0.0
 10
-36.492899999999999
 20
-146.39420000000001
 30
0.0
 10
-36.492899999999999
 20
-146.39420000000001
 30
0.0
 10
-79.935299999999998
 20
-145.98249999999999
 30
0.0
 10
-79.935299999999998
 20
-145.98249999999999
 30
0.0
 10
-79.935299999999998
 20
-145.98249999999999
 30
0.0
 10
-79.935299999999998
 20
-145.98249999999999
 30
0.0
 10
-79.962900000000005
 20
-148.91460000000001
 30
0.0
 10
-79.962900000000005
 20
-148.91460000000001
 30
0.0
 10
-79.962900000000005
 20
-148.91460000000001
 30
0.0
 10
-79.962900000000005
 20
-148.91460000000001
 30
0.0
 10
-36.520099999999999
 20
-149.32640000000001
 30
0.0
 10
-36.520099999999999
 20
-149.32640000000001
 30
0.0
 10
-36.520099999999999
 20
-149.32640000000001
 30
0.0
 10
-36.520099999999999
 20
-149.32640000000001
 30
0.0
 10
-36.676299999999998
 20
-165.84530000000001
 30
0.0
 10
-36.676299999999998
 20
-165.84530000000001
 30
0.0
 10
-36.676299999999998
 20
-165.84530000000001
 30
0.0
 10
-36.679200000000002
 20
-166.17140000000001
 30
0.0
 10
-36.828699999999998
 20
-166.47919999999999
 30
0.0
 10
-37.083399999999997
 20
-166.68340000000001
 30
0.0
 10
-37.083399999999997
 20
-166.68340000000001
 30
0.0
 10
-37.337899999999998
 20
-166.88749999999999
 30
0.0
 10
-37.670699999999997
 20
-166.96639999999999
 30
0.0
 10
-37.989899999999999
 20
-166.89830000000001
 30
0.0
 10
-37.989899999999999
 20
-166.89830000000001
 30
0.0
 10
-37.989899999999999
 20
-166.89830000000001
 30
0.0
 10
-63.898699999999998
 20
-161.53639999999999
 30
0.0
 10
-63.898699999999998
 20
-161.53639999999999
 30
0.0
 10
-63.898699999999998
 20
-161.53639999999999
 30
0.0
 10
-63.898699999999998
 20
-161.53639999999999
 30
0.0
 10
-89.807699999999997
 20
-156.1748
 30
0.0
 10
-89.807699999999997
 20
-156.1748
 30
0.0
 10
-89.807699999999997
 20
-156.1748
 30
0.0
 10
-90.926299999999998
 20
-155.941
 30
0.0
 10
-92.034499999999994
 20
-156.61439999999999
 30
0.0
 10
-92.342600000000004
 20
-157.71469999999999
 30
0.0
 10
-92.342600000000004
 20
-157.71469999999999
 30
0.0
 10
-94.552700000000002
 20
-165.63929999999999
 30
0.0
 10
-98.1541
 20
-173.10810000000001
 30
0.0
 10
-102.9785
 20
-179.7722
 30
0.0
  0
SPLINE
  5
29
100
AcDbEntity
  8
0
100
AcDbSpline
210
0.0
220
0.0
230
1.0
 70
     1
 71
     3
 72
   168
 73
   164
 74
     0
 42
0.0000000001
 43
0.0000000001
 40
0.0
 40
0.0
 40
0.0
 40
0.0
 40
0.024390243902439
 40
0.024390243902439
 40
0.024390243902439
 40
0.024390243902439
 40
0.0487804878048781
 40
0.0487804878048781
 40
0.0487804878048781
 40
0.0487804878048781
 40
0.0731707317073171
 40
0.0731707317073171
 40
0.0731707317073171
 40
0.0731707317073171
 40
0.0975609756097561
 40
0.0975609756097561
 40
0.0975609756097561
 40
0.0975609756097561
 40
0.1219512195121951
 40
0.1219512195121951
 40
0.1219512195121951
 40
0.1219512195121951
 40
0.1463414634146341
 40
0.1463414634146341
 40
0.1463414634146341
 40
0.1463414634146341
 40
0.1707317073170732
 40
0.1707317073170732
 40
0.1707317073170732
 40
0.1707317073170732
 40
0.1951219512195122
 40
0.1951219512195122
 40
0.1951219512195122
 40
0.1951219512195122
 40
0.2195121951219512
 40
0.2195121951219512
 40
0.2195121951219512
 40
0.2195121951219512
 40
0.2439024390243902
 40
0.2439024390243902
 40
0.2439024390243902
 40
0.2439024390243902
 40
0.2682926829268292
 40
0.2682926829268292
 40
0.2682926829268292
 40
0.2682926829268292
 40
0.2926829268292683
 40
0.2926829268292683
 40
0.2926829268292683
 40
0.2926829268292683
 40
0.3170731707317073
 40
0.3170731707317073
 40
0.3170731707317073
 40
0.3170731707317073
 40
0.3414634146341464
 40
0.3414634146341464
 40
0.3414634146341464
 40
0.3414634146341464
 40
0.3658536585365854
 40
0.3658536585365854
 40
0.3658536585365854
 40
0.3658536585365854
 40
0.3902439024390245
 40
0.3902439024390245
 40
0.3902439024390245
 40
0.3902439024390245
 40
0.4146341463414635
 40
0.4146341463414635
 40
0.4146341463414635
 40
0.4146341463414635
 40
0.4390243902439026
 40
0.4390243902439026
 40
0.4390243902439026
 40
0.4390243902439026
 40
0.4634146341463416
 40
0.4634146341463416
 40
0.4634146341463416
 40
0.4634146341463416
 40
0.4878048780487806
 40
0.4878048780487806
 40
0.4878048780487806
 40
0.4878048780487806
 40
0.5121951219512196
 40
0.5121951219512196
 40
0.5121951219512196
 40
0.5121951219512196
 40
0.5365853658536587
 40
0.5365853658536587
 40
0.5365853658536587
 40
0.5365853658536587
 40
0.5609756097560977
 40
0.5609756097560977
 40
0.5609756097560977
 40
0.5609756097560977
 40
0.5853658536585368
 40
0.5853658536585368
 40
0.5853658536585368
 40
0.5853658536585368
 40
0.6097560975609758
 40
0.6097560975609758
 40
0.6097560975609758
 40
0.6097560975609758
 40
0.6341463414634149
 40
0.6341463414634149
 40
0.6341463414634149
 40
0.6341463414634149
 40
0.6585365853658539
 40
0.6585365853658539
 40
0.6585365853658539
 40
0.6585365853658539
 40
0.682926829268293
 40
0.682926829268293
 40
0.682926829268293
 40
0.682926829268293
 40
0.707317073170732
 40
0.707317073170732
 40
0.707317073170732
 40
0.707317073170732
 40
0.7317073170731711
 40
0.7317073170731711
 40
0.7317073170731711
 40
0.7317073170731711
 40
0.7560975609756101
 40
0.7560975609756101
 40
0.7560975609756101
 40
0.7560975609756101
 40
0.7804878048780491
 40
0.7804878048780491
 40
0.7804878048780491
 40
0.7804878048780491
 40
0.8048780487804882
 40
0.8048780487804882
 40
0.8048780487804882
 40
0.8048780487804882
 40
0.8292682926829272
 40
0.8292682926829272
 40
0.8292682926829272
 40
0.8292682926829272
 40
0.8536585365853663
 40
0.8536585365853663
 40
0.8536585365853663
 40
0.8536585365853663
 40
0.8780487804878053
 40
0.8780487804878053
 40
0.8780487804878053
 40
0.8780487804878053
 40
0.9024390243902444
 40
0.9024390243902444
 40
0.9024390243902444
 40
0.9024390243902444
 40
0.9268292682926834
 40
0.9268292682926834
 40
0.9268292682926834
 40
0.9268292682926834
 40
0.9512195121951225
 40
0.9512195121951225
 40
0.9512195121951225
 40
0.9512195121951225
 40
0.9756097560975615
 40
0.9756097560975615
 40
0.9756097560975615
 40
0.9756097560975615
 40
1.0
 40
1.0
 40
1.0
 40
1.0
 10
140.53020000000001
 20
-66.385099999999994
 30
0.0
 10
140.9153
 20
-66.509900000000002
 30
0.0
 10
141.33510000000001
 20
-66.4679
 30
0.0
 10
141.68790000000001
 20
-66.269400000000005
 30
0.0
 10
141.68790000000001
 20
-66.269400000000005
 30
0.0
 10
142.04040000000001
 20
-66.070300000000003
 30
0.0
 10
142.29390000000001
 20
-65.733000000000004
 30
0.0
 10
142.38659999999999
 20
-65.339100000000002
 30
0.0
 10
142.38659999999999
 20
-65.339100000000002
 30
0.0
 10
142.38659999999999
 20
-65.339100000000002
 30
0.0
 10
149.078
 20
-50.499299999999998
 30
0.0
 10
149.078
 20
-50.499299999999998
 30
0.0
 10
149.078
 20
-50.499299999999998
 30
0.0
 10
149.61250000000001
 20
-50.184100000000001
 30
0.0
 10
150.256
 20
-50.112200000000001
 30
0.0
 10
150.84690000000001
 20
-50.3018
 30
0.0
 10
150.84690000000001
 20
-50.3018
 30
0.0
 10
151.4375
 20
-50.491399999999999
 30
0.0
 10
151.91900000000001
 20
-50.924300000000002
 30
0.0
 10
152.1703
 20
-51.491399999999999
 30
0.0
 10
152.1703
 20
-51.491399999999999
 30
0.0
 10
152.1703
 20
-51.491399999999999
 30
0.0
 10
155.024
 20
-57.973799999999997
 30
0.0
 10
155.024
 20
-57.973799999999997
 30
0.0
 10
155.024
 20
-57.973799999999997
 30
0.0
 10
155.024
 20
-57.973799999999997
 30
0.0
 10
164.56209999999999
 20
-57.5854
 30
0.0
 10
164.56209999999999
 20
-57.5854
 30
0.0
 10
164.56209999999999
 20
-57.5854
 30
0.0
 10
164.56209999999999
 20
-57.5854
 30
0.0
 10
175.5137
 20
-57.138599999999997
 30
0.0
 10
175.5137
 20
-57.138599999999997
 30
0.0
 10
175.5137
 20
-57.138599999999997
 30
0.0
 10
175.5137
 20
-57.138599999999997
 30
0.0
 10
185.36410000000001
 20
-45.398099999999999
 30
0.0
 10
185.36410000000001
 20
-45.398099999999999
 30
0.0
 10
185.36410000000001
 20
-45.398099999999999
 30
0.0
 10
185.7869
 20
-44.794600000000003
 30
0.0
 10
186.4871
 20
-44.446800000000003
 30
0.0
 10
187.22319999999999
 20
-44.474600000000002
 30
0.0
 10
187.22319999999999
 20
-44.474600000000002
 30
0.0
 10
187.9597
 20
-44.502499999999998
 30
0.0
 10
188.63159999999999
 20
-44.901899999999998
 30
0.0
 10
189.00790000000001
 20
-45.535499999999999
 30
0.0
 10
189.00790000000001
 20
-45.535499999999999
 30
0.0
 10
189.00790000000001
 20
-45.535499999999999
 30
0.0
 10
188.60650000000001
 20
-47.703000000000003
 30
0.0
 10
188.60650000000001
 20
-47.703000000000003
 30
0.0
 10
188.60650000000001
 20
-47.703000000000003
 30
0.0
 10
188.60650000000001
 20
-47.703000000000003
 30
0.0
 10
184.53890000000001
 20
-61.442
 30
0.0
 10
184.53890000000001
 20
-61.442
 30
0.0
 10
184.53890000000001
 20
-61.442
 30
0.0
 10
184.41419999999999
 20
-61.8095
 30
0.0
 10
184.44159999999999
 20
-62.211599999999997
 30
0.0
 10
184.6146
 20
-62.559100000000001
 30
0.0
 10
184.6146
 20
-62.559100000000001
 30
0.0
 10
184.78790000000001
 20
-62.906500000000001
 30
0.0
 10
185.09229999999999
 20
-63.170499999999997
 30
0.0
 10
185.4607
 20
-63.292400000000001
 30
0.0
 10
185.4607
 20
-63.292400000000001
 30
0.0
 10
185.82749999999999
 20
-63.415399999999998
 30
0.0
 10
186.22810000000001
 20
-63.387
 30
0.0
 10
186.5736
 20
-63.213200000000001
 30
0.0
 10
186.5736
 20
-63.213200000000001
 30
0.0
 10
186.91919999999999
 20
-63.039400000000001
 30
0.0
 10
187.18129999999999
 20
-62.735100000000003
 30
0.0
 10
187.3015
 20
-62.367400000000004
 30
0.0
 10
187.3015
 20
-62.367400000000004
 30
0.0
 10
187.3015
 20
-62.367400000000004
 30
0.0
 10
192.0086
 20
-48.149900000000002
 30
0.0
 10
192.0086
 20
-48.149900000000002
 30
0.0
 10
192.0086
 20
-48.149900000000002
 30
0.0
 10
192.0086
 20
-48.149900000000002
 30
0.0
 10
193.2841
 20
-41.259300000000003
 30
0.0
 10
193.2841
 20
-41.259300000000003
 30
0.0
 10
193.2841
 20
-41.259300000000003
 30
0.0
 10
193.99119999999999
 20
-39.914499999999997
 30
0.0
 10
194.90880000000001
 20
-38.691200000000002
 30
0.0
 10
196.00200000000001
 20
-37.635899999999999
 30
0.0
 10
196.00200000000001
 20
-37.635899999999999
 30
0.0
 10
200.9512
 20
-40.434600000000003
 30
0.0
 10
203.06479999999999
 20
-46.463799999999999
 30
0.0
 10
200.94659999999999
 20
-51.739899999999999
 30
0.0
 10
200.94659999999999
 20
-51.739899999999999
 30
0.0
 10
200.7773
 20
-52.233199999999997
 30
0.0
 10
200.5806
 20
-52.716799999999999
 30
0.0
 10
200.3579
 20
-53.188499999999998
 30
0.0
 10
200.3579
 20
-53.188499999999998
 30
0.0
 10
199.64439999999999
 20
-54.872799999999998
 30
0.0
 10
198.69820000000001
 20
-56.448799999999999
 30
0.0
 10
197.5471
 20
-57.870699999999999
 30
0.0
 10
197.5471
 20
-57.870699999999999
 30
0.0
 10
197.5471
 20
-57.870699999999999
 30
0.0
 10
187.03049999999999
 20
-77.805199999999999
 30
0.0
 10
187.03049999999999
 20
-77.805199999999999
 30
0.0
 10
187.03049999999999
 20
-77.805199999999999
 30
0.0
 10
185.78049999999999
 20
-81.413799999999995
 30
0.0
 10
182.03389999999999
 20
-83.522199999999998
 30
0.0
 10
178.30070000000001
 20
-82.717600000000004
 30
0.0
 10
178.30070000000001
 20
-82.717600000000004
 30
0.0
 10
178.30070000000001
 20
-82.717600000000004
 30
0.0
 10
180.80019999999999
 20
-76.077699999999993
 30
0.0
 10
180.80019999999999
 20
-76.077699999999993
 30
0.0
 10
180.80019999999999
 20
-76.077699999999993
 30
0.0
 10
180.80019999999999
 20
-76.077699999999993
 30
0.0
 10
173.89259999999999
 20
-65.896000000000001
 30
0.0
 10
173.89259999999999
 20
-65.896000000000001
 30
0.0
 10
173.89259999999999
 20
-65.896000000000001
 30
0.0
 10
173.89259999999999
 20
-65.896000000000001
 30
0.0
 10
153.40289999999999
 20
-66.730999999999995
 30
0.0
 10
153.40289999999999
 20
-66.730999999999995
 30
0.0
 10
153.40289999999999
 20
-66.730999999999995
 30
0.0
 10
153.40289999999999
 20
-66.730999999999995
 30
0.0
 10
137.31569999999999
 20
-78.211799999999997
 30
0.0
 10
137.31569999999999
 20
-78.211799999999997
 30
0.0
 10
137.31569999999999
 20
-78.211799999999997
 30
0.0
 10
137.31569999999999
 20
-78.211799999999997
 30
0.0
 10
134.90260000000001
 20
-84.624399999999994
 30
0.0
 10
134.90260000000001
 20
-84.624399999999994
 30
0.0
 10
134.90260000000001
 20
-84.624399999999994
 30
0.0
 10
133.4939
 20
-84.6524
 30
0.0
 10
132.15260000000001
 20
-84.024100000000004
 30
0.0
 10
131.27209999999999
 20
-82.924300000000002
 30
0.0
 10
131.27209999999999
 20
-82.924300000000002
 30
0.0
 10
130.39179999999999
 20
-81.8245
 30
0.0
 10
130.0728
 20
-80.378
 30
0.0
 10
130.4083
 20
-79.009600000000006
 30
0.0
 10
130.4083
 20
-79.009600000000006
 30
0.0
 10
130.4083
 20
-79.009600000000006
 30
0.0
 10
133.31129999999999
 20
-63.326500000000003
 30
0.0
 10
133.31129999999999
 20
-63.326500000000003
 30
0.0
 10
133.31129999999999
 20
-63.326500000000003
 30
0.0
 10
133.31129999999999
 20
-63.326500000000003
 30
0.0
 10
136.2148
 20
-47.643300000000004
 30
0.0
 10
136.2148
 20
-47.643300000000004
 30
0.0
 10
136.2148
 20
-47.643300000000004
 30
0.0
 10
137.5599
 20
-42.968899999999998
 30
0.0
 10
141.64160000000001
 20
-39.603299999999997
 30
0.0
 10
146.48689999999999
 20
-39.173000000000002
 30
0.0
 10
146.48689999999999
 20
-39.173000000000002
 30
0.0
 10
147.38409999999999
 20
-41.1477
 30
0.0
 10
147.70439999999999
 20
-43.335999999999999
 30
0.0
 10
147.41079999999999
 20
-45.484900000000003
 30
0.0
 10
147.41079999999999
 20
-45.484900000000003
 30
0.0
 10
147.41079999999999
 20
-45.484900000000003
 30
0.0
 10
142.80719999999999
 20
-54.847000000000001
 30
0.0
 10
142.80719999999999
 20
-54.847000000000001
 30
0.0
 10
142.80719999999999
 20
-54.847000000000001
 30
0.0
 10
142.80719999999999
 20
-54.847000000000001
 30
0.0
 10
139.59469999999999
 20
-64.6053
 30
0.0
 10
139.59469999999999
 20
-64.6053
 30
0.0
 10
139.59469999999999
 20
-64.6053
 30
0.0
 10
139.59469999999999
 20
-64.6053
 30
0.0
 10
139.64500000000001
 20
-64.451599999999999
 30
0.0
 10
139.64500000000001
 20
-64.451599999999999
 30
0.0
 10
139.64500000000001
 20
-64.451599999999999
 30
0.0
 10
139.48869999999999
 20
-64.824200000000005
 30
0.0
 10
139.49549999999999
 20
-65.245199999999997
 30
0.0
 10
139.66370000000001
 20
-65.6126
 30
0.0
 10
139.66370000000001
 20
-65.6126
 30
0.0
 10
139.83189999999999
 20
-65.979799999999997
 30
0.0
 10
140.14619999999999
 20
-66.260099999999994
 30
0.0
 10
140.53020000000001
 20
-66.385099999999994
 30
0.0
  0
SPLINE
  5
2A
100
AcDbEntity
  8
0
100
AcDbSpline
210
0.0
220
0.0
230
1.0
 70
     1
 71
     3
 72
    36
 73
    32
 74
     0
 42
0.0000000001
 43
0.0000000001
 40
0.0
 40
0.0
 40
0.0
 40
0.0
 40
0.125
 40
0.125
 40
0.125
 40
0.125
 40
0.25
 40
0.25
 40
0.25
 40
0.25
 40
0.375
 40
0.375
 40
0.375
 40
0.375
 40
0.5
 40
0.5
 40
0.5
 40
0.5
 40
0.625
 40
0.625
 40
0.625
 40
0.625
 40
0.75
 40
0.75
 40
0.75
 40
0.75
 40
0.875
 40
0.875
 40
0.875
 40
0.875
 40
1.0
 40
1.0
 40
1.0
 40
1.0
 10
71.723699999999994
 20
-52.920200000000001
 30
0.0
 10
71.723699999999994
 20
-54.360599999999998
 30
0.0
 10
72.295900000000003
 20
-55.741799999999998
 30
0.0
 10
73.314400000000006
 20
-56.760300000000001
 30
0.0
 10
73.314400000000006
 20
-56.760300000000001
 30
0.0
 10
74.332800000000006
 20
-57.778799999999997
 30
0.0
 10
75.714100000000002
 20
-58.350999999999999
 30
0.0
 10
77.154300000000006
 20
-58.350999999999999
 30
0.0
 10
77.154300000000006
 20
-58.350999999999999
 30
0.0
 10
78.5946
 20
-58.350999999999999
 30
0.0
 10
79.975800000000007
 20
-57.778799999999997
 30
0.0
 10
80.994299999999996
 20
-56.760300000000001
 30
0.0
 10
80.994299999999996
 20
-56.760300000000001
 30
0.0
 10
82.012699999999995
 20
-55.741799999999998
 30
0.0
 10
82.584900000000005
 20
-54.360599999999998
 30
0.0
 10
82.584900000000005
 20
-52.920200000000001
 30
0.0
 10
82.584900000000005
 20
-52.920200000000001
 30
0.0
 10
82.584900000000005
 20
-51.479999999999997
 30
0.0
 10
82.012699999999995
 20
-50.098599999999998
 30
0.0
 10
80.994299999999996
 20
-49.080399999999997
 30
0.0
 10
80.994299999999996
 20
-49.080399999999997
 30
0.0
 10
79.975800000000007
 20
-48.061799999999998
 30
0.0
 10
78.5946
 20
-47.489699999999999
 30
0.0
 10
77.154300000000006
 20
-47.489699999999999
 30
0.0
 10
77.154300000000006
 20
-47.489699999999999
 30
0.0
 10
75.714100000000002
 20
-47.489699999999999
 30
0.0
 10
74.332800000000006
 20
-48.061799999999998
 30
0.0
 10
73.314400000000006
 20
-49.080399999999997
 30
0.0
 10
73.314400000000006
 20
-49.080399999999997
 30
0.0
 10
72.295900000000003
 20
-50.098599999999998
 30
0.0
 10
71.723699999999994
 20
-51.479999999999997
 30
0.0
 10
71.723699999999994
 20
-52.920200000000001
 30
0.0
  0
SPLINE
  5
2B
100
AcDbEntity
  8
0
100
AcDbSpline
210
0.0
220
0.0
230
1.0
 70
     1
 71
     3
 72
   264
 73
   260
 74
     0
 42
0.0000000001
 43
0.0000000001
 40
0.0
 40
0.0
 40
0.0
 40
0.0
 40
0.0153846153846154
 40
0.0153846153846154
 40
0.0153846153846154
 40
0.0153846153846154
 40
0.0307692307692308
 40
0.0307692307692308
 40
0.0307692307692308
 40
0.0307692307692308
 40
0.0461538461538462
 40
0.0461538461538462
 40
0.0461538461538462
 40
0.0461538461538462
 40
0.0615384615384615
 40
0.0615384615384615
 40
0.0615384615384615
 40
0.0615384615384615
 40
0.0769230769230769
 40
0.0769230769230769
 40
0.0769230769230769
 40
0.0769230769230769
 40
0.0923076923076923
 40
0.0923076923076923
 40
0.0923076923076923
 40
0.0923076923076923
 40
0.1076923076923077
 40
0.1076923076923077
 40
0.1076923076923077
 40
0.1076923076923077
 40
0.1230769230769231
 40
0.1230769230769231
 40
0.1230769230769231
 40
0.1230769230769231
 40
0.1384615384615385
 40
0.1384615384615385
 40
0.1384615384615385
 40
0.1384615384615385
 40
0.1538461538461539
 40
0.1538461538461539
 40
0.1538461538461539
 40
0.1538461538461539
 40
0.1692307692307692
 40
0.1692307692307692
 40
0.1692307692307692
 40
0.1692307692307692
 40
0.1846153846153846
 40
0.1846153846153846
 40
0.1846153846153846
 40
0.1846153846153846
 40
0.2
 40
0.2
 40
0.2
 40
0.2
 40
0.2153846153846154
 40
0.2153846153846154
 40
0.2153846153846154
 40
0.2153846153846154
 40
0.2307692307692308
 40
0.2307692307692308
 40
0.2307692307692308
 40
0.2307692307692308
 40
0.2461538461538462
 40
0.2461538461538462
 40
0.2461538461538462
 40
0.2461538461538462
 40
0.2615384615384616
 40
0.2615384615384616
 40
0.2615384615384616
 40
0.2615384615384616
 40
0.2769230769230769
 40
0.2769230769230769
 40
0.2769230769230769
 40
0.2769230769230769
 40
0.2923076923076923
 40
0.2923076923076923
 40
0.2923076923076923
 40
0.2923076923076923
 40
0.3076923076923077
 40
0.3076923076923077
 40
0.3076923076923077
 40
0.3076923076923077
 40
0.3230769230769231
 40
0.3230769230769231
 40
0.3230769230769231
 40
0.3230769230769231
 40
0.3384615384615385
 40
0.3384615384615385
 40
0.3384615384615385
 40
0.3384615384615385
 40
0.3538461538461539
 40
0.3538461538461539
 40
0.3538461538461539
 40
0.3538461538461539
 40
0.3692307692307693
 40
0.3692307692307693
 40
0.3692307692307693
 40
0.3692307692307693
 40
0.3846153846153846
 40
0.3846153846153846
 40
0.3846153846153846
 40
0.3846153846153846
 40
0.4
 40
0.4
 40
0.4
 40
0.4
 40
0.4153846153846154
 40
0.4153846153846154
 40
0.4153846153846154
 40
0.4153846153846154
 40
0.4307692307692308
 40
0.4307692307692308
 40
0.4307692307692308
 40
0.4307692307692308
 40
0.4461538461538462
 40
0.4461538461538462
 40
0.4461538461538462
 40
0.4461538461538462
 40
0.4615384615384616
 40
0.4615384615384616
 40
0.4615384615384616
 40
0.4615384615384616
 40
0.476923076923077
 40
0.476923076923077
 40
0.476923076923077
 40
0.476923076923077
 40
0.4923076923076923
 40
0.4923076923076923
 40
0.4923076923076923
 40
0.4923076923076923
 40
0.5076923076923077
 40
0.5076923076923077
 40
0.5076923076923077
 40
0.5076923076923077
 40
0.523076923076923
 40
0.523076923076923
 40
0.523076923076923
 40
0.523076923076923
 40
0.5384615384615383
 40
0.5384615384615383
 40
0.5384615384615383
 40
0.5384615384615383
 40
0.5538461538461537
 40
0.5538461538461537
 40
0.5538461538461537
 40
0.5538461538461537
 40
0.569230769230769
 40
0.569230769230769
 40
0.569230769230769
 40
0.569230769230769
 40
0.5846153846153843
 40
0.5846153846153843
 40
0.5846153846153843
 40
0.5846153846153843
 40
0.5999999999999996
 40
0.5999999999999996
 40
0.5999999999999996
 40
0.5999999999999996
 40
0.615384615384615
 40
0.615384615384615
 40
0.615384615384615
 40
0.615384615384615
 40
0.6307692307692303
 40
0.6307692307692303
 40
0.6307692307692303
 40
0.6307692307692303
 40
0.6461538461538456
 40
0.6461538461538456
 40
0.6461538461538456
 40
0.6461538461538456
 40
0.661538461538461
 40
0.661538461538461
 40
0.661538461538461
 40
0.661538461538461
 40
0.6769230769230763
 40
0.6769230769230763
 40
0.6769230769230763
 40
0.6769230769230763
 40
0.6923076923076916
 40
0.6923076923076916
 40
0.6923076923076916
 40
0.6923076923076916
 40
0.707692307692307
 40
0.707692307692307
 40
0.707692307692307
 40
0.707692307692307
 40
0.7230769230769223
 40
0.7230769230769223
 40
0.7230769230769223
 40
0.7230769230769223
 40
0.7384615384615376
 40
0.7384615384615376
 40
0.7384615384615376
 40
0.7384615384615376
 40
0.7538461538461529
 40
0.7538461538461529
 40
0.7538461538461529
 40
0.7538461538461529
 40
0.7692307692307683
 40
0.7692307692307683
 40
0.7692307692307683
 40
0.7692307692307683
 40
0.7846153846153836
 40
0.7846153846153836
 40
0.7846153846153836
 40
0.7846153846153836
 40
0.7999999999999989
 40
0.7999999999999989
 40
0.7999999999999989
 40
0.7999999999999989
 40
0.8153846153846143
 40
0.8153846153846143
 40
0.8153846153846143
 40
0.8153846153846143
 40
0.8307692307692296
 40
0.8307692307692296
 40
0.8307692307692296
 40
0.8307692307692296
 40
0.8461538461538449
 40
0.8461538461538449
 40
0.8461538461538449
 40
0.8461538461538449
 40
0.8615384615384603
 40
0.8615384615384603
 40
0.8615384615384603
 40
0.8615384615384603
 40
0.8769230769230756
 40
0.8769230769230756
 40
0.8769230769230756
 40
0.8769230769230756
 40
0.8923076923076909
 40
0.8923076923076909
 40
0.8923076923076909
 40
0.8923076923076909
 40
0.9076923076923062
 40
0.9076923076923062
 40
0.9076923076923062
 40
0.9076923076923062
 40
0.9230769230769216
 40
0.9230769230769216
 40
0.9230769230769216
 40
0.9230769230769216
 40
0.9384615384615369
 40
0.9384615384615369
 40
0.9384615384615369
 40
0.9384615384615369
 40
0.9538461538461522
 40
0.9538461538461522
 40
0.9538461538461522
 40
0.9538461538461522
 40
0.9692307692307676
 40
0.9692307692307676
 40
0.9692307692307676
 40
0.9692307692307676
 40
0.9846153846153829
 40
0.9846153846153829
 40
0.9846153846153829
 40
0.9846153846153829
 40
1.0
 40
1.0
 40
1.0
 40
1.0
 10
128.0488
 20
109.4682
 30
0.0
 10
128.0488
 20
109.4682
 30
0.0
 10
128.1721
 20
127.35039999999999
 30
0.0
 10
128.1721
 20
127.35039999999999
 30
0.0
 10
128.1721
 20
127.35039999999999
 30
0.0
 10
132.4718
 20
129.64859999999999
 30
0.0
 10
137.31389999999999
 20
130.73849999999999
 30
0.0
 10
142.18379999999999
 20
130.5043
 30
0.0
 10
142.18379999999999
 20
130.5043
 30
0.0
 10
142.18379999999999
 20
130.5043
 30
0.0
 10
142.03729999999999
 20
109.3729
 30
0.0
 10
142.03729999999999
 20
109.3729
 30
0.0
 10
142.03729999999999
 20
109.3729
 30
0.0
 10
142.0334
 20
108.84910000000001
 30
0.0
 10
142.30940000000001
 20
108.363
 30
0.0
 10
142.761
 20
108.0976
 30
0.0
 10
142.761
 20
108.0976
 30
0.0
 10
143.21289999999999
 20
107.8323
 30
0.0
 10
143.77170000000001
 20
107.8282
 30
0.0
 10
144.22720000000001
 20
108.0869
 30
0.0
 10
144.22720000000001
 20
108.0869
 30
0.0
 10
144.68289999999999
 20
108.3454
 30
0.0
 10
144.9659
 20
108.8274
 30
0.0
 10
144.96979999999999
 20
109.35129999999999
 30
0.0
 10
144.96979999999999
 20
109.35129999999999
 30
0.0
 10
144.96979999999999
 20
109.35129999999999
 30
0.0
 10
145.11600000000001
 20
130.48439999999999
 30
0.0
 10
145.11600000000001
 20
130.48439999999999
 30
0.0
 10
145.11600000000001
 20
130.48439999999999
 30
0.0
 10
149.99199999999999
 20
130.6532
 30
0.0
 10
154.82230000000001
 20
129.4965
 30
0.0
 10
159.09289999999999
 20
127.1373
 30
0.0
 10
159.09289999999999
 20
127.1373
 30
0.0
 10
159.09289999999999
 20
127.1373
 30
0.0
 10
158.9691
 20
109.2551
 30
0.0
 10
158.9691
 20
109.2551
 30
0.0
 10
158.9691
 20
109.2551
 30
0.0
 10
158.96639999999999
 20
108.8644
 30
0.0
 10
159.1198
 20
108.48860000000001
 30
0.0
 10
159.39510000000001
 20
108.2114
 30
0.0
 10
159.39510000000001
 20
108.2114
 30
0.0
 10
159.6705
 20
107.9341
 30
0.0
 10
160.04519999999999
 20
107.77809999999999
 30
0.0
 10
160.4359
 20
107.77809999999999
 30
0.0
 10
160.4359
 20
107.77809999999999
 30
0.0
 10
161.24209999999999
 20
107.77809999999999
 30
0.0
 10
161.89699999999999
 20
108.4285
 30
0.0
 10
161.9025
 20
109.235
 30
0.0
 10
161.9025
 20
109.235
 30
0.0
 10
161.9025
 20
109.235
 30
0.0
 10
162.01259999999999
 20
125.267
 30
0.0
 10
162.01259999999999
 20
125.267
 30
0.0
 10
162.01259999999999
 20
125.267
 30
0.0
 10
164.31649999999999
 20
123.577
 30
0.0
 10
166.33709999999999
 20
121.5313
 30
0.0
 10
167.99870000000001
 20
119.2068
 30
0.0
 10
167.99870000000001
 20
119.2068
 30
0.0
 10
167.809
 20
110.02419999999999
 30
0.0
 10
166.74189999999999
 20
100.8809
 30
0.0
 10
164.81229999999999
 20
91.901399999999995
 30
0.0
 10
164.81229999999999
 20
91.901399999999995
 30
0.0
 10
164.81229999999999
 20
91.901399999999995
 30
0.0
 10
170.7234
 20
79.587400000000002
 30
0.0
 10
170.7234
 20
79.587400000000002
 30
0.0
 10
170.7234
 20
79.587400000000002
 30
0.0
 10
170.7234
 20
79.587400000000002
 30
0.0
 10
181.53710000000001
 20
57.040399999999998
 30
0.0
 10
181.53710000000001
 20
57.040399999999998
 30
0.0
 10
181.53710000000001
 20
57.040399999999998
 30
0.0
 10
181.53710000000001
 20
57.040399999999998
 30
0.0
 10
183.35130000000001
 20
57.027500000000003
 30
0.0
 10
183.35130000000001
 20
57.027500000000003
 30
0.0
 10
183.35130000000001
 20
57.027500000000003
 30
0.0
 10
183.35130000000001
 20
57.027500000000003
 30
0.0
 10
184.20529999999999
 20
54.849200000000003
 30
0.0
 10
184.20529999999999
 20
54.849200000000003
 30
0.0
 10
184.20529999999999
 20
54.849200000000003
 30
0.0
 10
184.20529999999999
 20
54.849200000000003
 30
0.0
 10
192.06890000000001
 20
54.795400000000001
 30
0.0
 10
192.06890000000001
 20
54.795400000000001
 30
0.0
 10
192.06890000000001
 20
54.795400000000001
 30
0.0
 10
193.46889999999999
 20
54.883200000000002
 30
0.0
 10
194.70910000000001
 20
53.898899999999998
 30
0.0
 10
194.9418
 20
52.515500000000003
 30
0.0
 10
194.9418
 20
52.515500000000003
 30
0.0
 10
194.9418
 20
52.515500000000003
 30
0.0
 10
194.93299999999999
 20
51.267400000000002
 30
0.0
 10
194.93299999999999
 20
51.267400000000002
 30
0.0
 10
194.93299999999999
 20
51.267400000000002
 30
0.0
 10
194.93299999999999
 20
51.267400000000002
 30
0.0
 10
186.56989999999999
 20
51.324300000000001
 30
0.0
 10
186.56989999999999
 20
51.324300000000001
 30
0.0
 10
186.56989999999999
 20
51.324300000000001
 30
0.0
 10
185.76439999999999
 20
51.329799999999999
 30
0.0
 10
185.10550000000001
 20
50.684600000000003
 30
0.0
 10
185.09389999999999
 20
49.879300000000001
 30
0.0
 10
185.09389999999999
 20
49.879300000000001
 30
0.0
 10
185.0881
 20
49.488199999999999
 30
0.0
 10
185.2389
 20
49.1113
 30
0.0
 10
185.51230000000001
 20
48.832099999999997
 30
0.0
 10
185.51230000000001
 20
48.832099999999997
 30
0.0
 10
185.786
 20
48.552700000000002
 30
0.0
 10
186.15960000000001
 20
48.394399999999997
 30
0.0
 10
186.55070000000001
 20
48.3919
 30
0.0
 10
186.55070000000001
 20
48.3919
 30
0.0
 10
186.55070000000001
 20
48.3919
 30
0.0
 10
194.9126
 20
48.335000000000001
 30
0.0
 10
194.9126
 20
48.335000000000001
 30
0.0
 10
194.9126
 20
48.335000000000001
 30
0.0
 10
194.9126
 20
48.335000000000001
 30
0.0
 10
194.90440000000001
 20
47.085500000000003
 30
0.0
 10
194.90440000000001
 20
47.085500000000003
 30
0.0
 10
194.90440000000001
 20
47.085500000000003
 30
0.0
 10
194.65170000000001
 20
45.7057
 30
0.0
 10
193.3981
 20
44.7393
 30
0.0
 10
191.99940000000001
 20
44.846200000000003
 30
0.0
 10
191.99940000000001
 20
44.846200000000003
 30
0.0
 10
191.99940000000001
 20
44.846200000000003
 30
0.0
 10
184.13640000000001
 20
44.900700000000001
 30
0.0
 10
184.13640000000001
 20
44.900700000000001
 30
0.0
 10
184.13640000000001
 20
44.900700000000001
 30
0.0
 10
184.13640000000001
 20
44.900700000000001
 30
0.0
 10
183.25219999999999
 20
42.734699999999997
 30
0.0
 10
183.25219999999999
 20
42.734699999999997
 30
0.0
 10
183.25219999999999
 20
42.734699999999997
 30
0.0
 10
183.25219999999999
 20
42.734699999999997
 30
0.0
 10
177.09540000000001
 20
42.777299999999997
 30
0.0
 10
177.09540000000001
 20
42.777299999999997
 30
0.0
 10
177.09540000000001
 20
42.777299999999997
 30
0.0
 10
175.6549
 20
42.786700000000003
 30
0.0
 10
174.2773
 20
43.368499999999997
 30
0.0
 10
173.2654
 20
44.394199999999998
 30
0.0
 10
173.2654
 20
44.394199999999998
 30
0.0
 10
172.25389999999999
 20
45.419899999999998
 30
0.0
 10
171.69120000000001
 20
46.805700000000002
 30
0.0
 10
171.70160000000001
 20
48.246099999999998
 30
0.0
 10
171.70160000000001
 20
48.246099999999998
 30
0.0
 10
171.70160000000001
 20
48.246099999999998
 30
0.0
 10
171.76259999999999
 20
57.107799999999997
 30
0.0
 10
171.76259999999999
 20
57.107799999999997
 30
0.0
 10
171.76259999999999
 20
57.107799999999997
 30
0.0
 10
171.76259999999999
 20
57.107799999999997
 30
0.0
 10
151.9187
 20
88.547300000000007
 30
0.0
 10
151.9187
 20
88.547300000000007
 30
0.0
 10
151.9187
 20
88.547300000000007
 30
0.0
 10
149.1816
 20
87.486500000000007
 30
0.0
 10
146.28229999999999
 20
86.903899999999993
 30
0.0
 10
143.34800000000001
 20
86.825299999999999
 30
0.0
 10
143.34800000000001
 20
86.825299999999999
 30
0.0
 10
140.38740000000001
 20
86.9465
 30
0.0
 10
137.47020000000001
 20
87.580399999999997
 30
0.0
 10
134.72640000000001
 20
88.698800000000006
 30
0.0
 10
134.72640000000001
 20
88.698800000000006
 30
0.0
 10
134.72640000000001
 20
88.698800000000006
 30
0.0
 10
114.52500000000001
 20
57.503700000000002
 30
0.0
 10
114.52500000000001
 20
57.503700000000002
 30
0.0
 10
114.52500000000001
 20
57.503700000000002
 30
0.0
 10
114.52500000000001
 20
57.503700000000002
 30
0.0
 10
114.46429999999999
 20
48.640500000000003
 30
0.0
 10
114.46429999999999
 20
48.640500000000003
 30
0.0
 10
114.46429999999999
 20
48.640500000000003
 30
0.0
 10
114.4432
 20
45.641399999999997
 30
0.0
 10
111.99509999999999
 20
43.2271
 30
0.0
 10
108.99590000000001
 20
43.247799999999998
 30
0.0
 10
108.99590000000001
 20
43.247799999999998
 30
0.0
 10
108.99590000000001
 20
43.247799999999998
 30
0.0
 10
102.849
 20
43.290300000000002
 30
0.0
 10
102.849
 20
43.290300000000002
 30
0.0
 10
102.849
 20
43.290300000000002
 30
0.0
 10
102.849
 20
43.290300000000002
 30
0.0
 10
101.995
 20
45.468699999999998
 30
0.0
 10
101.995
 20
45.468699999999998
 30
0.0
 10
101.995
 20
45.468699999999998
 30
0.0
 10
101.995
 20
45.468699999999998
 30
0.0
 10
94.120999999999995
 20
45.522300000000001
 30
0.0
 10
94.120999999999995
 20
45.522300000000001
 30
0.0
 10
94.120999999999995
 20
45.522300000000001
 30
0.0
 10
92.721000000000004
 20
45.434800000000003
 30
0.0
 10
91.480999999999995
 20
46.418300000000002
 30
0.0
 10
91.247399999999999
 20
47.801499999999997
 30
0.0
 10
91.247399999999999
 20
47.801499999999997
 30
0.0
 10
91.247399999999999
 20
47.801499999999997
 30
0.0
 10
91.256399999999999
 20
49.051099999999998
 30
0.0
 10
91.256399999999999
 20
49.051099999999998
 30
0.0
 10
91.256399999999999
 20
49.051099999999998
 30
0.0
 10
91.256399999999999
 20
49.051099999999998
 30
0.0
 10
99.618200000000002
 20
48.992400000000004
 30
0.0
 10
99.618200000000002
 20
48.992400000000004
 30
0.0
 10
99.618200000000002
 20
48.992400000000004
 30
0.0
 10
100.0072
 20
48.989400000000003
 30
0.0
 10
100.3814
 20
49.141199999999998
 30
0.0
 10
100.6584
 20
49.414099999999998
 30
0.0
 10
100.6584
 20
49.414099999999998
 30
0.0
 10
100.93559999999999
 20
49.6873
 30
0.0
 10
101.09269999999999
 20
50.059100000000001
 30
0.0
 10
101.0956
 20
50.4482
 30
0.0
 10
101.0956
 20
50.4482
 30
0.0
 10
101.09869999999999
 20
50.837299999999999
 30
0.0
 10
100.9466
 20
51.211399999999998
 30
0.0
 10
100.67319999999999
 20
51.488500000000002
 30
0.0
 10
100.67319999999999
 20
51.488500000000002
 30
0.0
 10
100.3999
 20
51.7654
 30
0.0
 10
100.0278
 20
51.9223
 30
0.0
 10
99.638800000000003
 20
51.924900000000001
 30
0.0
 10
99.638800000000003
 20
51.924900000000001
 30
0.0
 10
99.638800000000003
 20
51.924900000000001
 30
0.0
 10
91.276700000000005
 20
51.983499999999999
 30
0.0
 10
91.276700000000005
 20
51.983499999999999
 30
0.0
 10
91.276700000000005
 20
51.983499999999999
 30
0.0
 10
91.276700000000005
 20
51.983499999999999
 30
0.0
 10
91.284999999999997
 20
53.231499999999997
 30
0.0
 10
91.284999999999997
 20
53.231499999999997
 30
0.0
 10
91.284999999999997
 20
53.231499999999997
 30
0.0
 10
91.536799999999999
 20
54.611699999999999
 30
0.0
 10
92.790499999999994
 20
55.578400000000002
 30
0.0
 10
94.1892
 20
55.471499999999999
 30
0.0
 10
94.1892
 20
55.471499999999999
 30
0.0
 10
94.1892
 20
55.471499999999999
 30
0.0
 10
102.0639
 20
55.417200000000001
 30
0.0
 10
102.0639
 20
55.417200000000001
 30
0.0
 10
102.0639
 20
55.417200000000001
 30
0.0
 10
102.0639
 20
55.417200000000001
 30
0.0
 10
102.94799999999999
 20
57.582999999999998
 30
0.0
 10
102.94799999999999
 20
57.582999999999998
 30
0.0
 10
102.94799999999999
 20
57.582999999999998
 30
0.0
 10
102.94799999999999
 20
57.582999999999998
 30
0.0
 10
104.7505
 20
57.570999999999998
 30
0.0
 10
104.7505
 20
57.570999999999998
 30
0.0
 10
104.7505
 20
57.570999999999998
 30
0.0
 10
104.7505
 20
57.570999999999998
 30
0.0
 10
121.96639999999999
 20
92.197699999999998
 30
0.0
 10
121.96639999999999
 20
92.197699999999998
 30
0.0
 10
121.96639999999999
 20
92.197699999999998
 30
0.0
 10
120.15730000000001
 20
101.2026
 30
0.0
 10
119.2131
 20
110.3599
 30
0.0
 10
119.1465
 20
119.5446
 30
0.0
 10
119.1465
 20
119.5446
 30
0.0
 10
120.8436
 20
121.8466
 30
0.0
 10
122.896
 20
123.8643
 30
0.0
 10
125.2265
 20
125.5218
 30
0.0
 10
125.2265
 20
125.5218
 30
0.0
 10
125.2265
 20
125.5218
 30
0.0
 10
125.1163
 20
109.4894
 30
0.0
 10
125.1163
 20
109.4894
 30
0.0
 10
125.1163
 20
109.4894
 30
0.0
 10
125.1133
 20
109.10039999999999
 30
0.0
 10
125.2651
 20
108.7261
 30
0.0
 10
125.5382
 20
108.4491
 30
0.0
 10
125.5382
 20
108.4491
 30
0.0
 10
125.81140000000001
 20
108.1721
 30
0.0
 10
126.1832
 20
108.0147
 30
0.0
 10
126.5724
 20
108.0121
 30
0.0
 10
126.5724
 20
108.0121
 30
0.0
 10
126.9665
 20
107.9909
 30
0.0
 10
127.35129999999999
 20
108.13679999999999
 30
0.0
 10
127.6322
 20
108.414
 30
0.0
 10
127.6322
 20
108.414
 30
0.0
 10
127.9134
 20
108.69110000000001
 30
0.0
 10
128.06440000000001
 20
109.07380000000001
 30
0.0
 10
128.0488
 20
109.4682
 30
0.0
  0
SPLINE
  5
2C
100
AcDbEntity
  8
0
100
AcDbSpline
210
0.0
220
0.0
230
1.0
 70
     1
 71
     3
 72
    72
 73
    68
 74
     0
 42
0.0000000001
 43
0.0000000001
 40
0.0
 40
0.0
 40
0.0
 40
0.0
 40
0.0588235294117647
 40
0.0588235294117647
 40
0.0588235294117647
 40
0.0588235294117647
 40
0.1176470588235294
 40
0.1176470588235294
 40
0.1176470588235294
 40
0.1176470588235294
 40
0.1764705882352941
 40
0.1764705882352941
 40
0.1764705882352941
 40
0.1764705882352941
 40
0.2352941176470588
 40
0.2352941176470588
 40
0.2352941176470588
 40
0.2352941176470588
 40
0.2941176470588235
 40
0.2941176470588235
 40
0.2941176470588235
 40
0.2941176470588235
 40
0.3529411764705883
 40
0.3529411764705883
 40
0.3529411764705883
 40
0.3529411764705883
 40
0.411764705882353
 40
0.411764705882353
 40
0.411764705882353
 40
0.411764705882353
 40
0.4705882352941177
 40
0.4705882352941177
 40
0.4705882352941177
 40
0.4705882352941177
 40
0.5294117647058824
 40
0.5294117647058824
 40
0.5294117647058824
 40
0.5294117647058824
 40
0.5882352941176471
 40
0.5882352941176471
 40
0.5882352941176471
 40
0.5882352941176471
 40
0.6470588235294118
 40
0.6470588235294118
 40
0.6470588235294118
 40
0.6470588235294118
 40
0.7058823529411765
 40
0.7058823529411765
 40
0.7058823529411765
 40
0.7058823529411765
 40
0.7647058823529412
 40
0.7647058823529412
 40
0.7647058823529412
 40
0.7647058823529412
 40
0.823529411764706
 40
0.823529411764706
 40
0.823529411764706
 40
0.823529411764706
 40
0.8823529411764707
 40
0.8823529411764707
 40
0.8823529411764707
 40
0.8823529411764707
 40
0.9411764705882354
 40
0.9411764705882354
 40
0.9411764705882354
 40
0.9411764705882354
 40
1.0
 40
1.0
 40
1.0
 40
1.0
 10
-10.535299999999999
 20
-104.4789
 30
0.0
 10
-10.7348
 20
-102.73699999999999
 30
0.0
 10
-11.6318
 20
-101.1507
 30
0.0
 10
-13.021699999999999
 20
-100.0821
 30
0.0
 10
-13.021699999999999
 20
-100.0821
 30
0.0
 10
-14.4117
 20
-99.013599999999997
 30
0.0
 10
-16.1753
 20
-98.554199999999994
 30
0.0
 10
-17.909800000000001
 20
-98.809399999999997
 30
0.0
 10
-17.909800000000001
 20
-98.809399999999997
 30
0.0
 10
-17.909800000000001
 20
-98.809399999999997
 30
0.0
 10
-19.8431
 20
-98.809399999999997
 30
0.0
 10
-19.8431
 20
-98.809399999999997
 30
0.0
 10
-19.8431
 20
-98.809399999999997
 30
0.0
 10
-19.8431
 20
-98.809399999999997
 30
0.0
 10
-20.2775
 20
-100.98139999999999
 30
0.0
 10
-20.2775
 20
-100.98139999999999
 30
0.0
 10
-20.2775
 20
-100.98139999999999
 30
0.0
 10
-20.2775
 20
-100.98139999999999
 30
0.0
 10
-27.880400000000002
 20
-100.98139999999999
 30
0.0
 10
-27.880400000000002
 20
-100.98139999999999
 30
0.0
 10
-27.880400000000002
 20
-100.98139999999999
 30
0.0
 10
-27.880400000000002
 20
-100.98139999999999
 30
0.0
 10
-27.880400000000002
 20
-104.4029
 30
0.0
 10
-27.880400000000002
 20
-104.4029
 30
0.0
 10
-27.880400000000002
 20
-104.4029
 30
0.0
 10
-27.880400000000002
 20
-104.4029
 30
0.0
 10
-20.2775
 20
-104.4029
 30
0.0
 10
-20.2775
 20
-104.4029
 30
0.0
 10
-20.2775
 20
-104.4029
 30
0.0
 10
-19.4678
 20
-104.4029
 30
0.0
 10
-18.811399999999999
 20
-105.0592
 30
0.0
 10
-18.811399999999999
 20
-105.869
 30
0.0
 10
-18.811399999999999
 20
-105.869
 30
0.0
 10
-18.811399999999999
 20
-106.6789
 30
0.0
 10
-19.4678
 20
-107.3352
 30
0.0
 10
-20.2775
 20
-107.3352
 30
0.0
 10
-20.2775
 20
-107.3352
 30
0.0
 10
-20.2775
 20
-107.3352
 30
0.0
 10
-27.880400000000002
 20
-107.3352
 30
0.0
 10
-27.880400000000002
 20
-107.3352
 30
0.0
 10
-27.880400000000002
 20
-107.3352
 30
0.0
 10
-27.880400000000002
 20
-107.3352
 30
0.0
 10
-27.880400000000002
 20
-110.75660000000001
 30
0.0
 10
-27.880400000000002
 20
-110.75660000000001
 30
0.0
 10
-27.880400000000002
 20
-110.75660000000001
 30
0.0
 10
-27.880400000000002
 20
-110.75660000000001
 30
0.0
 10
-20.2775
 20
-110.75660000000001
 30
0.0
 10
-20.2775
 20
-110.75660000000001
 30
0.0
 10
-20.2775
 20
-110.75660000000001
 30
0.0
 10
-20.2775
 20
-110.75660000000001
 30
0.0
 10
-19.8431
 20
-112.9289
 30
0.0
 10
-19.8431
 20
-112.9289
 30
0.0
 10
-19.8431
 20
-112.9289
 30
0.0
 10
-19.8431
 20
-112.9289
 30
0.0
 10
-17.909800000000001
 20
-112.9289
 30
0.0
 10
-17.909800000000001
 20
-112.9289
 30
0.0
 10
-17.909800000000001
 20
-112.9289
 30
0.0
 10
-16.107800000000001
 20
-113.1938
 30
0.0
 10
-14.277900000000001
 20
-112.6874
 30
0.0
 10
-12.868
 20
-111.5339
 30
0.0
 10
-12.868
 20
-111.5339
 30
0.0
 10
-11.458399999999999
 20
-110.38079999999999
 30
0.0
 10
-10.5998
 20
-108.6871
 30
0.0
 10
-10.502700000000001
 20
-106.86839999999999
 30
0.0
 10
-10.502700000000001
 20
-106.86839999999999
 30
0.0
 10
-10.395200000000001
 20
-106.0746
 30
0.0
 10
-10.406000000000001
 20
-105.2693
 30
0.0
 10
-10.535299999999999
 20
-104.4789
 30
0.0
  0
SPLINE
  5
2D
100
AcDbEntity
  8
0
100
AcDbSpline
210
0.0
220
0.0
230
1.0
 70
     1
 71
     3
 72
    28
 73
    24
 74
     0
 42
0.0000000001
 43
0.0000000001
 40
0.0
 40
0.0
 40
0.0
 40
0.0
 40
0.1666666666666667
 40
0.1666666666666667
 40
0.1666666666666667
 40
0.1666666666666667
 40
0.3333333333333333
 40
0.3333333333333333
 40
0.3333333333333333
 40
0.3333333333333333
 40
0.5
 40
0.5
 40
0.5
 40
0.5
 40
0.6666666666666666
 40
0.6666666666666666
 40
0.6666666666666666
 40
0.6666666666666666
 40
0.8333333333333333
 40
0.8333333333333333
 40
0.8333333333333333
 40
0.8333333333333333
 40
1.0
 40
1.0
 40
1.0
 40
1.0
 10
-21.5943
 20
-91.017700000000005
 30
0.0
 10
-16.795999999999999
 20
-91.016800000000003
 30
0.0
 10
-12.906700000000001
 20
-87.126900000000006
 30
0.0
 10
-12.906700000000001
 20
-82.328599999999994
 30
0.0
 10
-12.906700000000001
 20
-82.328599999999994
 30
0.0
 10
-12.906700000000001
 20
-80.024000000000001
 30
0.0
 10
-13.8222
 20
-77.813800000000001
 30
0.0
 10
-15.4519
 20
-76.184200000000004
 30
0.0
 10
-15.4519
 20
-76.184200000000004
 30
0.0
 10
-17.081399999999999
 20
-74.554599999999994
 30
0.0
 10
-19.291799999999999
 20
-73.639200000000002
 30
0.0
 10
-21.596299999999999
 20
-73.639300000000006
 30
0.0
 10
-21.596299999999999
 20
-73.639300000000006
 30
0.0
 10
-24.669799999999999
 20
-73.639200000000002
 30
0.0
 10
-27.514600000000002
 20
-75.2624
 30
0.0
 10
-29.078399999999998
 20
-77.9084
 30
0.0
 10
-29.078399999999998
 20
-77.9084
 30
0.0
 10
-30.6418
 20
-80.554500000000004
 30
0.0
 10
-30.691400000000002
 20
-83.829599999999999
 30
0.0
 10
-29.2088
 20
-86.521600000000007
 30
0.0
 10
-29.2088
 20
-86.521600000000007
 30
0.0
 10
-27.6799
 20
-89.295900000000003
 30
0.0
 10
-24.7622
 20
-91.018900000000002
 30
0.0
 10
-21.5943
 20
-91.017700000000005
 30
0.0
  0
SPLINE
  5
2E
100
AcDbEntity
  8
0
100
AcDbSpline
210
0.0
220
0.0
230
1.0
 70
     1
 71
     3
 72
    28
 73
    24
 74
     0
 42
0.0000000001
 43
0.0000000001
 40
0.0
 40
0.0
 40
0.0
 40
0.0
 40
0.1666666666666667
 40
0.1666666666666667
 40
0.1666666666666667
 40
0.1666666666666667
 40
0.3333333333333333
 40
0.3333333333333333
 40
0.3333333333333333
 40
0.3333333333333333
 40
0.5
 40
0.5
 40
0.5
 40
0.5
 40
0.6666666666666666
 40
0.6666666666666666
 40
0.6666666666666666
 40
0.6666666666666666
 40
0.8333333333333333
 40
0.8333333333333333
 40
0.8333333333333333
 40
0.8333333333333333
 40
1.0
 40
1.0
 40
1.0
 40
1.0
 10
-21.5962
 20
-87.759200000000007
 30
0.0
 10
-20.1557
 20
-87.759200000000007
 30
0.0
 10
-18.7743
 20
-87.187200000000004
 30
0.0
 10
-17.756
 20
-86.168700000000001
 30
0.0
 10
-17.756
 20
-86.168700000000001
 30
0.0
 10
-16.737500000000001
 20
-85.150400000000005
 30
0.0
 10
-16.165299999999998
 20
-83.768900000000002
 30
0.0
 10
-16.165299999999998
 20
-82.328699999999998
 30
0.0
 10
-16.165299999999998
 20
-82.328699999999998
 30
0.0
 10
-16.165199999999999
 20
-79.329300000000003
 30
0.0
 10
-18.596699999999998
 20
-76.898099999999999
 30
0.0
 10
-21.596
 20
-76.897800000000004
 30
0.0
 10
-21.596
 20
-76.897800000000004
 30
0.0
 10
-23.813099999999999
 20
-76.897800000000004
 30
0.0
 10
-25.807400000000001
 20
-78.245500000000007
 30
0.0
 10
-26.634699999999999
 20
-80.302400000000006
 30
0.0
 10
-26.634699999999999
 20
-80.302400000000006
 30
0.0
 10
-27.4617
 20
-82.359399999999994
 30
0.0
 10
-26.9557
 20
-84.712699999999998
 30
0.0
 10
-25.356000000000002
 20
-86.247500000000002
 30
0.0
 10
-25.356000000000002
 20
-86.247500000000002
 30
0.0
 10
-24.3447
 20
-87.217600000000004
 30
0.0
 10
-22.997599999999998
 20
-87.759200000000007
 30
0.0
 10
-21.5962
 20
-87.759200000000007
 30
0.0
  0
SPLINE
  5
2F
100
AcDbEntity
  8
0
100
AcDbSpline
210
0.0
220
0.0
230
1.0
 70
     1
 71
     3
 72
    36
 73
    32
 74
     0
 42
0.0000000001
 43
0.0000000001
 40
0.0
 40
0.0
 40
0.0
 40
0.0
 40
0.125
 40
0.125
 40
0.125
 40
0.125
 40
0.25
 40
0.25
 40
0.25
 40
0.25
 40
0.375
 40
0.375
 40
0.375
 40
0.375
 40
0.5
 40
0.5
 40
0.5
 40
0.5
 40
0.625
 40
0.625
 40
0.625
 40
0.625
 40
0.75
 40
0.75
 40
0.75
 40
0.75
 40
0.875
 40
0.875
 40
0.875
 40
0.875
 40
1.0
 40
1.0
 40
1.0
 40
1.0
 10
-42.765700000000002
 20
-84.133899999999997
 30
0.0
 10
-39.692300000000003
 20
-84.133899999999997
 30
0.0
 10
-36.847499999999997
 20
-82.510800000000003
 30
0.0
 10
-35.283900000000003
 20
-79.864900000000006
 30
0.0
 10
-35.283900000000003
 20
-79.864900000000006
 30
0.0
 10
-33.720300000000002
 20
-77.219099999999997
 30
0.0
 10
-33.670499999999997
 20
-73.944000000000003
 30
0.0
 10
-35.152999999999999
 20
-71.2517
 30
0.0
 10
-35.152999999999999
 20
-71.2517
 30
0.0
 10
-35.592500000000001
 20
-70.454899999999995
 30
0.0
 10
-36.154200000000003
 20
-69.731899999999996
 30
0.0
 10
-36.817700000000002
 20
-69.109200000000001
 30
0.0
 10
-36.817700000000002
 20
-69.109200000000001
 30
0.0
 10
-38.429000000000002
 20
-67.596999999999994
 30
0.0
 10
-40.555799999999998
 20
-66.755600000000001
 30
0.0
 10
-42.7654
 20
-66.755799999999994
 30
0.0
 10
-42.7654
 20
-66.755799999999994
 30
0.0
 10
-45.070099999999996
 20
-66.755600000000001
 30
0.0
 10
-47.280299999999997
 20
-67.670900000000003
 30
0.0
 10
-48.9099
 20
-69.300299999999993
 30
0.0
 10
-48.9099
 20
-69.300299999999993
 30
0.0
 10
-50.539700000000003
 20
-70.929900000000004
 30
0.0
 10
-51.455300000000001
 20
-73.140199999999993
 30
0.0
 10
-51.455300000000001
 20
-75.444599999999994
 30
0.0
 10
-51.455300000000001
 20
-75.444599999999994
 30
0.0
 10
-51.455300000000001
 20
-77.749200000000002
 30
0.0
 10
-50.5398
 20
-79.959599999999995
 30
0.0
 10
-48.910200000000003
 20
-81.588899999999995
 30
0.0
 10
-48.910200000000003
 20
-81.588899999999995
 30
0.0
 10
-47.280500000000004
 20
-83.218599999999995
 30
0.0
 10
-45.070399999999999
 20
-84.133899999999997
 30
0.0
 10
-42.765700000000002
 20
-84.133899999999997
 30
0.0
  0
SPLINE
  5
30
100
AcDbEntity
  8
0
100
AcDbSpline
210
0.0
220
0.0
230
1.0
 70
     1
 71
     3
 72
   144
 73
   140
 74
     0
 42
0.0000000001
 43
0.0000000001
 40
0.0
 40
0.0
 40
0.0
 40
0.0
 40
0.0285714285714286
 40
0.0285714285714286
 40
0.0285714285714286
 40
0.0285714285714286
 40
0.0571428571428571
 40
0.0571428571428571
 40
0.0571428571428571
 40
0.0571428571428571
 40
0.0857142857142857
 40
0.0857142857142857
 40
0.0857142857142857
 40
0.0857142857142857
 40
0.1142857142857143
 40
0.1142857142857143
 40
0.1142857142857143
 40
0.1142857142857143
 40
0.1428571428571429
 40
0.1428571428571429
 40
0.1428571428571429
 40
0.1428571428571429
 40
0.1714285714285714
 40
0.1714285714285714
 40
0.1714285714285714
 40
0.1714285714285714
 40
0.2
 40
0.2
 40
0.2
 40
0.2
 40
0.2285714285714286
 40
0.2285714285714286
 40
0.2285714285714286
 40
0.2285714285714286
 40
0.2571428571428572
 40
0.2571428571428572
 40
0.2571428571428572
 40
0.2571428571428572
 40
0.2857142857142858
 40
0.2857142857142858
 40
0.2857142857142858
 40
0.2857142857142858
 40
0.3142857142857143
 40
0.3142857142857143
 40
0.3142857142857143
 40
0.3142857142857143
 40
0.3428571428571429
 40
0.3428571428571429
 40
0.3428571428571429
 40
0.3428571428571429
 40
0.3714285714285715
 40
0.3714285714285715
 40
0.3714285714285715
 40
0.3714285714285715
 40
0.4000000000000001
 40
0.4000000000000001
 40
0.4000000000000001
 40
0.4000000000000001
 40
0.4285714285714287
 40
0.4285714285714287
 40
0.4285714285714287
 40
0.4285714285714287
 40
0.4571428571428572
 40
0.4571428571428572
 40
0.4571428571428572
 40
0.4571428571428572
 40
0.4857142857142858
 40
0.4857142857142858
 40
0.4857142857142858
 40
0.4857142857142858
 40
0.5142857142857144
 40
0.5142857142857144
 40
0.5142857142857144
 40
0.5142857142857144
 40
0.5428571428571429
 40
0.5428571428571429
 40
0.5428571428571429
 40
0.5428571428571429
 40
0.5714285714285715
 40
0.5714285714285715
 40
0.5714285714285715
 40
0.5714285714285715
 40
0.6000000000000001
 40
0.6000000000000001
 40
0.6000000000000001
 40
0.6000000000000001
 40
0.6285714285714287
 40
0.6285714285714287
 40
0.6285714285714287
 40
0.6285714285714287
 40
0.6571428571428573
 40
0.6571428571428573
 40
0.6571428571428573
 40
0.6571428571428573
 40
0.6857142857142858
 40
0.6857142857142858
 40
0.6857142857142858
 40
0.6857142857142858
 40
0.7142857142857144
 40
0.7142857142857144
 40
0.7142857142857144
 40
0.7142857142857144
 40
0.742857142857143
 40
0.742857142857143
 40
0.742857142857143
 40
0.742857142857143
 40
0.7714285714285716
 40
0.7714285714285716
 40
0.7714285714285716
 40
0.7714285714285716
 40
0.8000000000000002
 40
0.8000000000000002
 40
0.8000000000000002
 40
0.8000000000000002
 40
0.8285714285714287
 40
0.8285714285714287
 40
0.8285714285714287
 40
0.8285714285714287
 40
0.8571428571428573
 40
0.8571428571428573
 40
0.8571428571428573
 40
0.8571428571428573
 40
0.8857142857142859
 40
0.8857142857142859
 40
0.8857142857142859
 40
0.8857142857142859
 40
0.9142857142857145
 40
0.9142857142857145
 40
0.9142857142857145
 40
0.9142857142857145
 40
0.9428571428571431
 40
0.9428571428571431
 40
0.9428571428571431
 40
0.9428571428571431
 40
0.9714285714285716
 40
0.9714285714285716
 40
0.9714285714285716
 40
0.9714285714285716
 40
1.0
 40
1.0
 40
1.0
 40
1.0
 10
83.627499999999998
 20
-65.2042
 30
0.0
 10
83.468900000000005
 20
-64.882900000000006
 30
0.0
 10
83.455699999999993
 20
-64.509100000000004
 30
0.0
 10
83.590500000000006
 20
-64.177000000000007
 30
0.0
 10
83.590500000000006
 20
-64.177000000000007
 30
0.0
 10
83.725300000000004
 20
-63.844999999999999
 30
0.0
 10
83.995999999999995
 20
-63.586599999999997
 30
0.0
 10
84.333799999999997
 20
-63.466799999999999
 30
0.0
 10
84.333799999999997
 20
-63.466799999999999
 30
0.0
 10
87.849500000000006
 20
-61.073799999999999
 30
0.0
 10
89.941699999999997
 20
-57.086599999999997
 30
0.0
 10
89.913399999999996
 20
-52.8339
 30
0.0
 10
89.913399999999996
 20
-52.8339
 30
0.0
 10
89.885099999999994
 20
-48.581000000000003
 30
0.0
 10
87.739699999999999
 20
-44.622100000000003
 30
0.0
 10
84.192400000000006
 20
-42.276200000000003
 30
0.0
 10
84.192400000000006
 20
-42.276200000000003
 30
0.0
 10
83.895399999999995
 20
-42.1357
 30
0.0
 10
83.6678
 20
-41.881100000000004
 30
0.0
 10
83.561499999999995
 20
-41.570099999999996
 30
0.0
 10
83.561499999999995
 20
-41.570099999999996
 30
0.0
 10
83.455100000000002
 20
-41.259300000000003
 30
0.0
 10
83.478899999999996
 20
-40.918500000000002
 30
0.0
 10
83.627600000000001
 20
-40.625399999999999
 30
0.0
 10
83.627600000000001
 20
-40.625399999999999
 30
0.0
 10
84.097700000000003
 20
-39.306100000000001
 30
0.0
 10
84.528700000000001
 20
-37.973399999999998
 30
0.0
 10
84.920000000000002
 20
-36.628500000000003
 30
0.0
 10
84.920000000000002
 20
-36.628500000000003
 30
0.0
 10
85.967600000000004
 20
-33.113799999999998
 30
0.0
 10
86.776799999999994
 20
-29.532299999999999
 30
0.0
 10
87.342100000000002
 20
-25.9087
 30
0.0
 10
87.342100000000002
 20
-25.9087
 30
0.0
 10
87.986599999999996
 20
-22.123000000000001
 30
0.0
 10
88.088999999999999
 20
-18.264800000000001
 30
0.0
 10
87.646199999999993
 20
-14.450100000000001
 30
0.0
 10
87.646199999999993
 20
-14.450100000000001
 30
0.0
 10
87.358199999999997
 20
-11.571300000000001
 30
0.0
 10
86.545000000000002
 20
-8.7699999999999996
 30
0.0
 10
85.245900000000006
 20
-6.1847000000000003
 30
0.0
 10
85.245900000000006
 20
-6.1847000000000003
 30
0.0
 10
83.684899999999999
 20
-3.1583999999999999
 30
0.0
 10
80.564800000000005
 20
-1.2571000000000001
 30
0.0
 10
77.159800000000004
 20
-1.2571000000000001
 30
0.0
 10
77.159800000000004
 20
-1.2571000000000001
 30
0.0
 10
73.7547
 20
-1.2571000000000001
 30
0.0
 10
70.634500000000003
 20
-3.1583999999999999
 30
0.0
 10
69.073400000000007
 20
-6.1847000000000003
 30
0.0
 10
69.073400000000007
 20
-6.1847000000000003
 30
0.0
 10
68.530100000000004
 20
-7.1696
 30
0.0
 10
68.096699999999998
 20
-8.2112999999999996
 30
0.0
 10
67.781099999999995
 20
-9.2910000000000004
 30
0.0
 10
67.781099999999995
 20
-9.2910000000000004
 30
0.0
 10
67.4542
 20
-10.2349
 30
0.0
 10
67.192800000000005
 20
-11.200100000000001
 30
0.0
 10
66.998999999999995
 20
-12.180099999999999
 30
0.0
 10
66.998999999999995
 20
-12.180099999999999
 30
0.0
 10
66.852199999999996
 20
-12.9306
 30
0.0
 10
66.743499999999997
 20
-13.6883
 30
0.0
 10
66.673299999999998
 20
-14.450100000000001
 30
0.0
 10
66.673299999999998
 20
-14.450100000000001
 30
0.0
 10
66.364699999999999
 20
-17.1112
 30
0.0
 10
66.320999999999998
 20
-19.796500000000002
 30
0.0
 10
66.542900000000003
 20
-22.466200000000001
 30
0.0
 10
66.542900000000003
 20
-22.466200000000001
 30
0.0
 10
66.638300000000001
 20
-23.619499999999999
 30
0.0
 10
66.783299999999997
 20
-24.768000000000001
 30
0.0
 10
66.977400000000003
 20
-25.908799999999999
 30
0.0
 10
66.977400000000003
 20
-25.908799999999999
 30
0.0
 10
67.542699999999996
 20
-29.532399999999999
 30
0.0
 10
68.352000000000004
 20
-33.113799999999998
 30
0.0
 10
69.399500000000003
 20
-36.628500000000003
 30
0.0
 10
69.399500000000003
 20
-36.628500000000003
 30
0.0
 10
69.769400000000005
 20
-37.903199999999998
 30
0.0
 10
70.174899999999994
 20
-39.167200000000001
 30
0.0
 10
70.615700000000004
 20
-40.419199999999996
 30
0.0
 10
70.615700000000004
 20
-40.419199999999996
 30
0.0
 10
70.747299999999996
 20
-41.127899999999997
 30
0.0
 10
70.5197
 20
-41.855800000000002
 30
0.0
 10
70.0077
 20
-42.363399999999999
 30
0.0
 10
70.0077
 20
-42.363399999999999
 30
0.0
 10
66.605500000000006
 20
-44.667099999999998
 30
0.0
 10
64.522300000000001
 20
-48.4696
 30
0.0
 10
64.412300000000002
 20
-52.577100000000002
 30
0.0
 10
64.412300000000002
 20
-52.577100000000002
 30
0.0
 10
64.302599999999998
 20
-56.684600000000003
 30
0.0
 10
66.179500000000004
 20
-60.5931
 30
0.0
 10
69.453800000000001
 20
-63.075400000000002
 30
0.0
 10
69.453800000000001
 20
-63.075400000000002
 30
0.0
 10
70.316800000000001
 20
-63.509399999999999
 30
0.0
 10
70.789900000000003
 20
-64.460599999999999
 30
0.0
 10
70.615899999999996
 20
-65.410700000000006
 30
0.0
 10
70.615899999999996
 20
-65.410700000000006
 30
0.0
 10
70.174999999999997
 20
-66.662599999999998
 30
0.0
 10
69.769499999999994
 20
-67.9268
 30
0.0
 10
69.399500000000003
 20
-69.201099999999997
 30
0.0
 10
69.399500000000003
 20
-69.201099999999997
 30
0.0
 10
68.352000000000004
 20
-72.716200000000001
 30
0.0
 10
67.542699999999996
 20
-76.297200000000004
 30
0.0
 10
66.977400000000003
 20
-79.921199999999999
 30
0.0
 10
66.977400000000003
 20
-79.921199999999999
 30
0.0
 10
66.331900000000005
 20
-83.710800000000006
 30
0.0
 10
66.229500000000002
 20
-87.572400000000002
 30
0.0
 10
66.673100000000005
 20
-91.390500000000003
 30
0.0
 10
66.673100000000005
 20
-91.390500000000003
 30
0.0
 10
66.733500000000006
 20
-92.024000000000001
 30
0.0
 10
66.820499999999996
 20
-92.654399999999995
 30
0.0
 10
66.933899999999994
 20
-93.280500000000004
 30
0.0
 10
66.933899999999994
 20
-93.280500000000004
 30
0.0
 10
67.130799999999994
 20
-94.390600000000006
 30
0.0
 10
67.414199999999994
 20
-95.483599999999996
 30
0.0
 10
67.781099999999995
 20
-96.549700000000001
 30
0.0
 10
67.781099999999995
 20
-96.549700000000001
 30
0.0
 10
68.0976
 20
-97.625699999999995
 30
0.0
 10
68.530799999999999
 20
-98.663700000000006
 30
0.0
 10
69.073400000000007
 20
-99.644999999999996
 30
0.0
 10
69.073400000000007
 20
-99.644999999999996
 30
0.0
 10
70.634500000000003
 20
-102.67149999999999
 30
0.0
 10
73.7547
 20
-104.5728
 30
0.0
 10
77.159800000000004
 20
-104.57299999999999
 30
0.0
 10
77.159800000000004
 20
-104.57299999999999
 30
0.0
 10
80.564800000000005
 20
-104.57299999999999
 30
0.0
 10
83.685000000000002
 20
-102.67149999999999
 30
0.0
 10
85.246099999999998
 20
-99.644999999999996
 30
0.0
 10
85.246099999999998
 20
-99.644999999999996
 30
0.0
 10
86.543700000000001
 20
-97.063500000000005
 30
0.0
 10
87.357100000000003
 20
-94.265799999999999
 30
0.0
 10
87.646199999999993
 20
-91.390500000000003
 30
0.0
 10
87.646199999999993
 20
-91.390500000000003
 30
0.0
 10
88.090000000000003
 20
-87.572400000000002
 30
0.0
 10
87.987700000000004
 20
-83.710400000000007
 30
0.0
 10
87.342100000000002
 20
-79.921199999999999
 30
0.0
 10
87.342100000000002
 20
-79.921199999999999
 30
0.0
 10
86.776799999999994
 20
-76.297200000000004
 30
0.0
 10
85.967600000000004
 20
-72.716200000000001
 30
0.0
 10
84.920000000000002
 20
-69.201099999999997
 30
0.0
 10
84.920000000000002
 20
-69.201099999999997
 30
0.0
 10
84.528700000000001
 20
-67.856499999999997
 30
0.0
 10
84.097399999999993
 20
-66.523499999999999
 30
0.0
 10
83.627499999999998
 20
-65.2042
 30
0.0
  0
SPLINE
  5
31
100
AcDbEntity
  8
0
100
AcDbSpline
210
0.0
220
0.0
230
1.0
 70
     1
 71
     3
 72
    28
 73
    24
 74
     0
 42
0.0000000001
 43
0.0000000001
 40
0.0
 40
0.0
 40
0.0
 40
0.0
 40
0.1666666666666667
 40
0.1666666666666667
 40
0.1666666666666667
 40
0.1666666666666667
 40
0.3333333333333333
 40
0.3333333333333333
 40
0.3333333333333333
 40
0.3333333333333333
 40
0.5
 40
0.5
 40
0.5
 40
0.5
 40
0.6666666666666666
 40
0.6666666666666666
 40
0.6666666666666666
 40
0.6666666666666666
 40
0.8333333333333333
 40
0.8333333333333333
 40
0.8333333333333333
 40
0.8333333333333333
 40
1.0
 40
1.0
 40
1.0
 40
1.0
 10
-42.766300000000001
 20
-80.875299999999996
 30
0.0
 10
-40.549799999999998
 20
-80.875299999999996
 30
0.0
 10
-38.555500000000002
 20
-79.528199999999998
 30
0.0
 10
-37.728099999999998
 20
-77.471699999999998
 30
0.0
 10
-37.728099999999998
 20
-77.471699999999998
 30
0.0
 10
-36.900799999999997
 20
-75.415300000000002
 30
0.0
 10
-37.406100000000002
 20
-73.062299999999993
 30
0.0
 10
-39.005299999999998
 20
-71.527100000000004
 30
0.0
 10
-39.005299999999998
 20
-71.527100000000004
 30
0.0
 10
-40.016500000000001
 20
-70.556399999999996
 30
0.0
 10
-41.364100000000001
 20
-70.014399999999995
 30
0.0
 10
-42.765999999999998
 20
-70.014399999999995
 30
0.0
 10
-42.765999999999998
 20
-70.014399999999995
 30
0.0
 10
-44.206400000000002
 20
-70.014399999999995
 30
0.0
 10
-45.587699999999998
 20
-70.586399999999998
 30
0.0
 10
-46.606299999999997
 20
-71.605000000000004
 30
0.0
 10
-46.606299999999997
 20
-71.605000000000004
 30
0.0
 10
-47.6248
 20
-72.623199999999997
 30
0.0
 10
-48.196800000000003
 20
-74.004400000000004
 30
0.0
 10
-48.196800000000003
 20
-75.444800000000001
 30
0.0
 10
-48.196800000000003
 20
-75.444800000000001
 30
0.0
 10
-48.196800000000003
 20
-78.444100000000006
 30
0.0
 10
-45.765700000000002
 20
-80.875299999999996
 30
0.0
 10
-42.766300000000001
 20
-80.875299999999996
 30
0.0
  0
SPLINE
  5
32
100
AcDbEntity
  8
0
100
AcDbSpline
210
0.0
220
0.0
230
1.0
 70
     1
 71
     3
 72
    72
 73
    68
 74
     0
 42
0.0000000001
 43
0.0000000001
 40
0.0
 40
0.0
 40
0.0
 40
0.0
 40
0.0588235294117647
 40
0.0588235294117647
 40
0.0588235294117647
 40
0.0588235294117647
 40
0.1176470588235294
 40
0.1176470588235294
 40
0.1176470588235294
 40
0.1176470588235294
 40
0.1764705882352941
 40
0.1764705882352941
 40
0.1764705882352941
 40
0.1764705882352941
 40
0.2352941176470588
 40
0.2352941176470588
 40
0.2352941176470588
 40
0.2352941176470588
 40
0.2941176470588235
 40
0.2941176470588235
 40
0.2941176470588235
 40
0.2941176470588235
 40
0.3529411764705883
 40
0.3529411764705883
 40
0.3529411764705883
 40
0.3529411764705883
 40
0.411764705882353
 40
0.411764705882353
 40
0.411764705882353
 40
0.411764705882353
 40
0.4705882352941177
 40
0.4705882352941177
 40
0.4705882352941177
 40
0.4705882352941177
 40
0.5294117647058824
 40
0.5294117647058824
 40
0.5294117647058824
 40
0.5294117647058824
 40
0.5882352941176471
 40
0.5882352941176471
 40
0.5882352941176471
 40
0.5882352941176471
 40
0.6470588235294118
 40
0.6470588235294118
 40
0.6470588235294118
 40
0.6470588235294118
 40
0.7058823529411765
 40
0.7058823529411765
 40
0.7058823529411765
 40
0.7058823529411765
 40
0.7647058823529412
 40
0.7647058823529412
 40
0.7647058823529412
 40
0.7647058823529412
 40
0.823529411764706
 40
0.823529411764706
 40
0.823529411764706
 40
0.823529411764706
 40
0.8823529411764707
 40
0.8823529411764707
 40
0.8823529411764707
 40
0.8823529411764707
 40
0.9411764705882354
 40
0.9411764705882354
 40
0.9411764705882354
 40
0.9411764705882354
 40
1.0
 40
1.0
 40
1.0
 40
1.0
 10
-9.7757000000000005
 20
-44.908700000000003
 30
0.0
 10
-9.7757000000000005
 20
-44.908700000000003
 30
0.0
 10
-11.7087
 20
-44.908700000000003
 30
0.0
 10
-11.7087
 20
-44.908700000000003
 30
0.0
 10
-11.7087
 20
-44.908700000000003
 30
0.0
 10
-11.7087
 20
-44.908700000000003
 30
0.0
 10
-12.1432
 20
-47.081000000000003
 30
0.0
 10
-12.1432
 20
-47.081000000000003
 30
0.0
 10
-12.1432
 20
-47.081000000000003
 30
0.0
 10
-12.1432
 20
-47.081000000000003
 30
0.0
 10
-19.746200000000002
 20
-47.081000000000003
 30
0.0
 10
-19.746200000000002
 20
-47.081000000000003
 30
0.0
 10
-19.746200000000002
 20
-47.081000000000003
 30
0.0
 10
-19.746200000000002
 20
-47.081000000000003
 30
0.0
 10
-19.746200000000002
 20
-50.502099999999999
 30
0.0
 10
-19.746200000000002
 20
-50.502099999999999
 30
0.0
 10
-19.746200000000002
 20
-50.502099999999999
 30
0.0
 10
-19.746200000000002
 20
-50.502099999999999
 30
0.0
 10
-12.1432
 20
-50.502099999999999
 30
0.0
 10
-12.1432
 20
-50.502099999999999
 30
0.0
 10
-12.1432
 20
-50.502099999999999
 30
0.0
 10
-11.333600000000001
 20
-50.502099999999999
 30
0.0
 10
-10.6769
 20
-51.158700000000003
 30
0.0
 10
-10.6769
 20
-51.968499999999999
 30
0.0
 10
-10.6769
 20
-51.968499999999999
 30
0.0
 10
-10.6769
 20
-52.778300000000002
 30
0.0
 10
-11.333600000000001
 20
-53.434699999999999
 30
0.0
 10
-12.1432
 20
-53.434699999999999
 30
0.0
 10
-12.1432
 20
-53.434699999999999
 30
0.0
 10
-12.1432
 20
-53.434699999999999
 30
0.0
 10
-19.746200000000002
 20
-53.434699999999999
 30
0.0
 10
-19.746200000000002
 20
-53.434699999999999
 30
0.0
 10
-19.746200000000002
 20
-53.434699999999999
 30
0.0
 10
-19.746200000000002
 20
-53.434699999999999
 30
0.0
 10
-19.746200000000002
 20
-56.856000000000002
 30
0.0
 10
-19.746200000000002
 20
-56.856000000000002
 30
0.0
 10
-19.746200000000002
 20
-56.856000000000002
 30
0.0
 10
-19.746200000000002
 20
-56.856000000000002
 30
0.0
 10
-12.1432
 20
-56.856000000000002
 30
0.0
 10
-12.1432
 20
-56.856000000000002
 30
0.0
 10
-12.1432
 20
-56.856000000000002
 30
0.0
 10
-12.1432
 20
-56.856000000000002
 30
0.0
 10
-11.7087
 20
-59.028199999999998
 30
0.0
 10
-11.7087
 20
-59.028199999999998
 30
0.0
 10
-11.7087
 20
-59.028199999999998
 30
0.0
 10
-11.7087
 20
-59.028199999999998
 30
0.0
 10
-9.7757000000000005
 20
-59.028399999999998
 30
0.0
 10
-9.7757000000000005
 20
-59.028399999999998
 30
0.0
 10
-9.7757000000000005
 20
-59.028399999999998
 30
0.0
 10
-7.9736000000000002
 20
-59.293199999999999
 30
0.0
 10
-6.1433
 20
-58.786999999999999
 30
0.0
 10
-4.7337999999999996
 20
-57.633499999999998
 30
0.0
 10
-4.7337999999999996
 20
-57.633499999999998
 30
0.0
 10
-3.3241000000000001
 20
-56.4801
 30
0.0
 10
-2.4655
 20
-54.786299999999997
 30
0.0
 10
-2.3681999999999999
 20
-52.967700000000001
 30
0.0
 10
-2.3681999999999999
 20
-52.967700000000001
 30
0.0
 10
-2.2608999999999999
 20
-52.1738
 30
0.0
 10
-2.2717999999999998
 20
-51.368699999999997
 30
0.0
 10
-2.4009999999999998
 20
-50.578099999999999
 30
0.0
 10
-2.4009999999999998
 20
-50.578099999999999
 30
0.0
 10
-2.6004
 20
-48.836599999999997
 30
0.0
 10
-3.4973999999999998
 20
-47.249899999999997
 30
0.0
 10
-4.8875000000000002
 20
-46.1815
 30
0.0
 10
-4.8875000000000002
 20
-46.1815
 30
0.0
 10
-6.2773000000000003
 20
-45.112900000000003
 30
0.0
 10
-8.0410000000000004
 20
-44.653700000000001
 30
0.0
 10
-9.7757000000000005
 20
-44.908700000000003
 30
0.0
  0
SPLINE
  5
33
100
AcDbEntity
  8
0
100
AcDbSpline
210
0.0
220
0.0
230
1.0
 70
     1
 71
     3
 72
    68
 73
    64
 74
     0
 42
0.0000000001
 43
0.0000000001
 40
0.0
 40
0.0
 40
0.0
 40
0.0
 40
0.0625
 40
0.0625
 40
0.0625
 40
0.0625
 40
0.125
 40
0.125
 40
0.125
 40
0.125
 40
0.1875
 40
0.1875
 40
0.1875
 40
0.1875
 40
0.25
 40
0.25
 40
0.25
 40
0.25
 40
0.3125
 40
0.3125
 40
0.3125
 40
0.3125
 40
0.375
 40
0.375
 40
0.375
 40
0.375
 40
0.4375
 40
0.4375
 40
0.4375
 40
0.4375
 40
0.5
 40
0.5
 40
0.5
 40
0.5
 40
0.5625
 40
0.5625
 40
0.5625
 40
0.5625
 40
0.625
 40
0.625
 40
0.625
 40
0.625
 40
0.6875
 40
0.6875
 40
0.6875
 40
0.6875
 40
0.75
 40
0.75
 40
0.75
 40
0.75
 40
0.8125
 40
0.8125
 40
0.8125
 40
0.8125
 40
0.875
 40
0.875
 40
0.875
 40
0.875
 40
0.9375
 40
0.9375
 40
0.9375
 40
0.9375
 40
1.0
 40
1.0
 40
1.0
 40
1.0
 10
-55.341700000000003
 20
-80.132400000000004
 30
0.0
 10
-54.7622
 20
-80.905000000000001
 30
0.0
 10
-54.7624
 20
-81.967200000000005
 30
0.0
 10
-55.341900000000003
 20
-82.739599999999996
 30
0.0
 10
-55.341900000000003
 20
-82.739599999999996
 30
0.0
 10
-59.1389
 20
-87.799899999999994
 30
0.0
 10
-65.122299999999996
 20
-90.745199999999997
 30
0.0
 10
-71.448499999999996
 20
-90.667900000000003
 30
0.0
 10
-71.448499999999996
 20
-90.667900000000003
 30
0.0
 10
-71.448499999999996
 20
-90.667900000000003
 30
0.0
 10
-72.317400000000006
 20
-90.667900000000003
 30
0.0
 10
-72.317400000000006
 20
-90.667900000000003
 30
0.0
 10
-72.317400000000006
 20
-90.667900000000003
 30
0.0
 10
-72.317400000000006
 20
-90.667900000000003
 30
0.0
 10
-72.317400000000006
 20
-86.323499999999996
 30
0.0
 10
-72.317400000000006
 20
-86.323499999999996
 30
0.0
 10
-72.317400000000006
 20
-86.323499999999996
 30
0.0
 10
-72.317400000000006
 20
-86.323499999999996
 30
0.0
 10
-79.920299999999997
 20
-86.323499999999996
 30
0.0
 10
-79.920299999999997
 20
-86.323499999999996
 30
0.0
 10
-79.920299999999997
 20
-86.323499999999996
 30
0.0
 10
-79.920299999999997
 20
-86.323499999999996
 30
0.0
 10
-79.920299999999997
 20
-82.902100000000004
 30
0.0
 10
-79.920299999999997
 20
-82.902100000000004
 30
0.0
 10
-79.920299999999997
 20
-82.902100000000004
 30
0.0
 10
-79.920299999999997
 20
-82.902100000000004
 30
0.0
 10
-72.317400000000006
 20
-82.902100000000004
 30
0.0
 10
-72.317400000000006
 20
-82.902100000000004
 30
0.0
 10
-72.317400000000006
 20
-82.902100000000004
 30
0.0
 10
-71.5077
 20
-82.902100000000004
 30
0.0
 10
-70.851500000000001
 20
-82.245699999999999
 30
0.0
 10
-70.851500000000001
 20
-81.4358
 30
0.0
 10
-70.851500000000001
 20
-81.4358
 30
0.0
 10
-70.851500000000001
 20
-80.626199999999997
 30
0.0
 10
-71.5077
 20
-79.969499999999996
 30
0.0
 10
-72.317400000000006
 20
-79.969499999999996
 30
0.0
 10
-72.317400000000006
 20
-79.969499999999996
 30
0.0
 10
-72.317400000000006
 20
-79.969499999999996
 30
0.0
 10
-79.920299999999997
 20
-79.969499999999996
 30
0.0
 10
-79.920299999999997
 20
-79.969499999999996
 30
0.0
 10
-79.920299999999997
 20
-79.969499999999996
 30
0.0
 10
-79.920299999999997
 20
-79.969499999999996
 30
0.0
 10
-79.920299999999997
 20
-76.548400000000001
 30
0.0
 10
-79.920299999999997
 20
-76.548400000000001
 30
0.0
 10
-79.920299999999997
 20
-76.548400000000001
 30
0.0
 10
-79.920299999999997
 20
-76.548400000000001
 30
0.0
 10
-76.379599999999996
 20
-76.548400000000001
 30
0.0
 10
-76.379599999999996
 20
-76.548400000000001
 30
0.0
 10
-76.379599999999996
 20
-76.548400000000001
 30
0.0
 10
-76.379599999999996
 20
-76.548400000000001
 30
0.0
 10
-72.317499999999995
 20
-76.548400000000001
 30
0.0
 10
-72.317499999999995
 20
-76.548400000000001
 30
0.0
 10
-72.317499999999995
 20
-76.548400000000001
 30
0.0
 10
-72.317499999999995
 20
-76.548400000000001
 30
0.0
 10
-72.317499999999995
 20
-72.214500000000001
 30
0.0
 10
-72.317499999999995
 20
-72.214500000000001
 30
0.0
 10
-72.317499999999995
 20
-72.214500000000001
 30
0.0
 10
-72.317499999999995
 20
-72.214500000000001
 30
0.0
 10
-71.459500000000006
 20
-72.214500000000001
 30
0.0
 10
-71.459500000000006
 20
-72.214500000000001
 30
0.0
 10
-71.459500000000006
 20
-72.214500000000001
 30
0.0
 10
-65.139200000000002
 20
-72.166200000000003
 30
0.0
 10
-59.165999999999997
 20
-75.100499999999997
 30
0.0
 10
-55.341700000000003
 20
-80.132400000000004
 30
0.0
  0
SPLINE
  5
34
100
AcDbEntity
  8
0
100
AcDbSpline
210
0.0
220
0.0
230
1.0
 70
     1
 71
     3
 72
   232
 73
   228
 74
     0
 42
0.0000000001
 43
0.0000000001
 40
0.0
 40
0.0
 40
0.0
 40
0.0
 40
0.0175438596491228
 40
0.0175438596491228
 40
0.0175438596491228
 40
0.0175438596491228
 40
0.0350877192982456
 40
0.0350877192982456
 40
0.0350877192982456
 40
0.0350877192982456
 40
0.0526315789473684
 40
0.0526315789473684
 40
0.0526315789473684
 40
0.0526315789473684
 40
0.0701754385964912
 40
0.0701754385964912
 40
0.0701754385964912
 40
0.0701754385964912
 40
0.087719298245614
 40
0.087719298245614
 40
0.087719298245614
 40
0.087719298245614
 40
0.1052631578947368
 40
0.1052631578947368
 40
0.1052631578947368
 40
0.1052631578947368
 40
0.1228070175438596
 40
0.1228070175438596
 40
0.1228070175438596
 40
0.1228070175438596
 40
0.1403508771929825
 40
0.1403508771929825
 40
0.1403508771929825
 40
0.1403508771929825
 40
0.1578947368421053
 40
0.1578947368421053
 40
0.1578947368421053
 40
0.1578947368421053
 40
0.1754385964912281
 40
0.1754385964912281
 40
0.1754385964912281
 40
0.1754385964912281
 40
0.1929824561403509
 40
0.1929824561403509
 40
0.1929824561403509
 40
0.1929824561403509
 40
0.2105263157894737
 40
0.2105263157894737
 40
0.2105263157894737
 40
0.2105263157894737
 40
0.2280701754385965
 40
0.2280701754385965
 40
0.2280701754385965
 40
0.2280701754385965
 40
0.2456140350877193
 40
0.2456140350877193
 40
0.2456140350877193
 40
0.2456140350877193
 40
0.2631578947368421
 40
0.2631578947368421
 40
0.2631578947368421
 40
0.2631578947368421
 40
0.2807017543859649
 40
0.2807017543859649
 40
0.2807017543859649
 40
0.2807017543859649
 40
0.2982456140350877
 40
0.2982456140350877
 40
0.2982456140350877
 40
0.2982456140350877
 40
0.3157894736842105
 40
0.3157894736842105
 40
0.3157894736842105
 40
0.3157894736842105
 40
0.3333333333333333
 40
0.3333333333333333
 40
0.3333333333333333
 40
0.3333333333333333
 40
0.3508771929824561
 40
0.3508771929824561
 40
0.3508771929824561
 40
0.3508771929824561
 40
0.3684210526315789
 40
0.3684210526315789
 40
0.3684210526315789
 40
0.3684210526315789
 40
0.3859649122807017
 40
0.3859649122807017
 40
0.3859649122807017
 40
0.3859649122807017
 40
0.4035087719298245
 40
0.4035087719298245
 40
0.4035087719298245
 40
0.4035087719298245
 40
0.4210526315789474
 40
0.4210526315789474
 40
0.4210526315789474
 40
0.4210526315789474
 40
0.4385964912280702
 40
0.4385964912280702
 40
0.4385964912280702
 40
0.4385964912280702
 40
0.456140350877193
 40
0.456140350877193
 40
0.456140350877193
 40
0.456140350877193
 40
0.4736842105263158
 40
0.4736842105263158
 40
0.4736842105263158
 40
0.4736842105263158
 40
0.4912280701754386
 40
0.4912280701754386
 40
0.4912280701754386
 40
0.4912280701754386
 40
0.5087719298245614
 40
0.5087719298245614
 40
0.5087719298245614
 40
0.5087719298245614
 40
0.5263157894736843
 40
0.5263157894736843
 40
0.5263157894736843
 40
0.5263157894736843
 40
0.5438596491228072
 40
0.5438596491228072
 40
0.5438596491228072
 40
0.5438596491228072
 40
0.56140350877193
 40
0.56140350877193
 40
0.56140350877193
 40
0.56140350877193
 40
0.5789473684210529
 40
0.5789473684210529
 40
0.5789473684210529
 40
0.5789473684210529
 40
0.5964912280701757
 40
0.5964912280701757
 40
0.5964912280701757
 40
0.5964912280701757
 40
0.6140350877192986
 40
0.6140350877192986
 40
0.6140350877192986
 40
0.6140350877192986
 40
0.6315789473684215
 40
0.6315789473684215
 40
0.6315789473684215
 40
0.6315789473684215
 40
0.6491228070175443
 40
0.6491228070175443
 40
0.6491228070175443
 40
0.6491228070175443
 40
0.6666666666666672
 40
0.6666666666666672
 40
0.6666666666666672
 40
0.6666666666666672
 40
0.6842105263157901
 40
0.6842105263157901
 40
0.6842105263157901
 40
0.6842105263157901
 40
0.7017543859649129
 40
0.7017543859649129
 40
0.7017543859649129
 40
0.7017543859649129
 40
0.7192982456140358
 40
0.7192982456140358
 40
0.7192982456140358
 40
0.7192982456140358
 40
0.7368421052631586
 40
0.7368421052631586
 40
0.7368421052631586
 40
0.7368421052631586
 40
0.7543859649122815
 40
0.7543859649122815
 40
0.7543859649122815
 40
0.7543859649122815
 40
0.7719298245614044
 40
0.7719298245614044
 40
0.7719298245614044
 40
0.7719298245614044
 40
0.7894736842105272
 40
0.7894736842105272
 40
0.7894736842105272
 40
0.7894736842105272
 40
0.8070175438596501
 40
0.8070175438596501
 40
0.8070175438596501
 40
0.8070175438596501
 40
0.8245614035087729
 40
0.8245614035087729
 40
0.8245614035087729
 40
0.8245614035087729
 40
0.8421052631578958
 40
0.8421052631578958
 40
0.8421052631578958
 40
0.8421052631578958
 40
0.8596491228070187
 40
0.8596491228070187
 40
0.8596491228070187
 40
0.8596491228070187
 40
0.8771929824561415
 40
0.8771929824561415
 40
0.8771929824561415
 40
0.8771929824561415
 40
0.8947368421052644
 40
0.8947368421052644
 40
0.8947368421052644
 40
0.8947368421052644
 40
0.9122807017543873
 40
0.9122807017543873
 40
0.9122807017543873
 40
0.9122807017543873
 40
0.9298245614035101
 40
0.9298245614035101
 40
0.9298245614035101
 40
0.9298245614035101
 40
0.947368421052633
 40
0.947368421052633
 40
0.947368421052633
 40
0.947368421052633
 40
0.9649122807017558
 40
0.9649122807017558
 40
0.9649122807017558
 40
0.9649122807017558
 40
0.9824561403508787
 40
0.9824561403508787
 40
0.9824561403508787
 40
0.9824561403508787
 40
1.0
 40
1.0
 40
1.0
 40
1.0
 10
-29.392600000000002
 20
-47.298299999999998
 30
0.0
 10
-29.393000000000001
 20
-47.874499999999998
 30
0.0
 10
-29.6221
 20
-48.4268
 30
0.0
 10
-30.029900000000001
 20
-48.833799999999997
 30
0.0
 10
-30.029900000000001
 20
-48.833799999999997
 30
0.0
 10
-30.4376
 20
-49.2408
 30
0.0
 10
-30.990300000000001
 20
-49.469000000000001
 30
0.0
 10
-31.566400000000002
 20
-49.468499999999999
 30
0.0
 10
-31.566400000000002
 20
-49.468499999999999
 30
0.0
 10
-31.566400000000002
 20
-49.468499999999999
 30
0.0
 10
-54.451300000000003
 20
-49.445900000000002
 30
0.0
 10
-54.451300000000003
 20
-49.445900000000002
 30
0.0
 10
-54.451300000000003
 20
-49.445900000000002
 30
0.0
 10
-54.451300000000003
 20
-49.445900000000002
 30
0.0
 10
-83.6999
 20
-49.416400000000003
 30
0.0
 10
-83.6999
 20
-49.416400000000003
 30
0.0
 10
-83.6999
 20
-49.416400000000003
 30
0.0
 10
-88.578699999999998
 20
-52.5837
 30
0.0
 10
-92.210400000000007
 20
-57.3429
 30
0.0
 10
-93.977500000000006
 20
-62.885100000000001
 30
0.0
 10
-93.977500000000006
 20
-62.885100000000001
 30
0.0
 10
-96.238500000000002
 20
-70.603200000000001
 30
0.0
 10
-104.0834
 20
-75.258099999999999
 30
0.0
 10
-111.94119999999999
 20
-73.5441
 30
0.0
 10
-111.94119999999999
 20
-73.5441
 30
0.0
 10
-122.8498
 20
-70.061300000000003
 30
0.0
 10
-130.11250000000001
 20
-59.7502
 30
0.0
 10
-129.71809999999999
 20
-48.305999999999997
 30
0.0
 10
-129.71809999999999
 20
-48.305999999999997
 30
0.0
 10
-129.71809999999999
 20
-48.305999999999997
 30
0.0
 10
-129.71109999999999
 20
-41.061599999999999
 30
0.0
 10
-129.71109999999999
 20
-41.061599999999999
 30
0.0
 10
-129.71109999999999
 20
-41.061599999999999
 30
0.0
 10
-129.71109999999999
 20
-41.061599999999999
 30
0.0
 10
-73.231899999999996
 20
-41.118600000000001
 30
0.0
 10
-73.231899999999996
 20
-41.118600000000001
 30
0.0
 10
-73.231899999999996
 20
-41.118600000000001
 30
0.0
 10
-73.231899999999996
 20
-41.118600000000001
 30
0.0
 10
-73.229600000000005
 20
-38.186100000000003
 30
0.0
 10
-73.229600000000005
 20
-38.186100000000003
 30
0.0
 10
-73.229600000000005
 20
-38.186100000000003
 30
0.0
 10
-73.229600000000005
 20
-38.186100000000003
 30
0.0
 10
-128.57159999999999
 20
-38.130099999999999
 30
0.0
 10
-128.57159999999999
 20
-38.130099999999999
 30
0.0
 10
-128.57159999999999
 20
-38.130099999999999
 30
0.0
 10
-127.6801
 20
-36.395699999999998
 30
0.0
 10
-126.5947
 20
-34.768000000000001
 30
0.0
 10
-125.336
 20
-33.278300000000002
 30
0.0
 10
-125.336
 20
-33.278300000000002
 30
0.0
 10
-124.6354
 20
-32.319400000000002
 30
0.0
 10
-123.8494
 20
-31.426300000000001
 30
0.0
 10
-122.9875
 20
-30.609400000000001
 30
0.0
 10
-122.9875
 20
-30.609400000000001
 30
0.0
 10
-120.91240000000001
 20
-28.375599999999999
 30
0.0
 10
-118.1725
 20
-26.870100000000001
 30
0.0
 10
-115.1746
 20
-26.316099999999999
 30
0.0
 10
-115.1746
 20
-26.316099999999999
 30
0.0
 10
-115.1746
 20
-26.316099999999999
 30
0.0
 10
-106.14830000000001
 20
-25.966699999999999
 30
0.0
 10
-106.14830000000001
 20
-25.966699999999999
 30
0.0
 10
-106.14830000000001
 20
-25.966699999999999
 30
0.0
 10
-106.14830000000001
 20
-25.966699999999999
 30
0.0
 10
-107.5231
 20
-21.2194
 30
0.0
 10
-107.5231
 20
-21.2194
 30
0.0
 10
-107.5231
 20
-21.2194
 30
0.0
 10
-111.5718
 20
-22.416399999999999
 30
0.0
 10
-115.8952
 20
-20.531199999999998
 30
0.0
 10
-117.7732
 20
-16.7499
 30
0.0
 10
-117.7732
 20
-16.7499
 30
0.0
 10
-119.6512
 20
-12.968400000000001
 30
0.0
 10
-118.54040000000001
 20
-8.3846000000000007
 30
0.0
 10
-115.1401
 20
-5.8819999999999997
 30
0.0
 10
-115.1401
 20
-5.8819999999999997
 30
0.0
 10
-111.7457
 20
-3.3841000000000001
 30
0.0
 10
-107.0483
 20
-3.6810999999999998
 30
0.0
 10
-103.9954
 20
-6.5865
 30
0.0
 10
-103.9954
 20
-6.5865
 30
0.0
 10
-100.9426
 20
-9.4920000000000009
 30
0.0
 10
-100.41379999999999
 20
-14.168900000000001
 30
0.0
 10
-102.7409
 20
-17.682600000000001
 30
0.0
 10
-102.7409
 20
-17.682600000000001
 30
0.0
 10
-102.7409
 20
-17.682600000000001
 30
0.0
 10
-97.335700000000003
 20
-21.7728
 30
0.0
 10
-97.335700000000003
 20
-21.7728
 30
0.0
 10
-97.335700000000003
 20
-21.7728
 30
0.0
 10
-86.060599999999994
 20
-17.220099999999999
 30
0.0
 10
-74.369799999999998
 20
-13.772500000000001
 30
0.0
 10
-62.428600000000003
 20
-11.478400000000001
 30
0.0
 10
-62.428600000000003
 20
-11.478400000000001
 30
0.0
 10
-58.346400000000003
 20
-10.503500000000001
 30
0.0
 10
-54.165900000000001
 20
-10.0009
 30
0.0
 10
-49.969099999999997
 20
-9.9809000000000001
 30
0.0
 10
-49.969099999999997
 20
-9.9809000000000001
 30
0.0
 10
-49.969099999999997
 20
-9.9809000000000001
 30
0.0
 10
-12.129200000000001
 20
-10.018700000000001
 30
0.0
 10
-12.129200000000001
 20
-10.018700000000001
 30
0.0
 10
-12.129200000000001
 20
-10.018700000000001
 30
0.0
 10
-12.129200000000001
 20
-10.018700000000001
 30
0.0
 10
-12.1257
 20
-7.0862999999999996
 30
0.0
 10
-12.1257
 20
-7.0862999999999996
 30
0.0
 10
-12.1257
 20
-7.0862999999999996
 30
0.0
 10
-12.1257
 20
-7.0862999999999996
 30
0.0
 10
-35.990200000000002
 20
-7.0625
 30
0.0
 10
-35.990200000000002
 20
-7.0625
 30
0.0
 10
-35.990200000000002
 20
-7.0625
 30
0.0
 10
-35.664900000000003
 20
-3.4916
 30
0.0
 10
-32.901400000000002
 20
-0.6264
 30
0.0
 10
-29.3443
 20
-0.1723
 30
0.0
 10
-29.3443
 20
-0.1723
 30
0.0
 10
-29.3443
 20
-0.1723
 30
0.0
 10
8.1044
 20
-0.2097
 30
0.0
 10
8.1044
 20
-0.2097
 30
0.0
 10
8.1044
 20
-0.2097
 30
0.0
 10
8.1044
 20
-0.2097
 30
0.0
 10
8.0795999999999992
 20
-25.190899999999999
 30
0.0
 10
8.0795999999999992
 20
-25.190899999999999
 30
0.0
 10
8.0795999999999992
 20
-25.190899999999999
 30
0.0
 10
8.0795999999999992
 20
-25.190899999999999
 30
0.0
 10
11.0122
 20
-25.193100000000001
 30
0.0
 10
11.0122
 20
-25.193100000000001
 30
0.0
 10
11.0122
 20
-25.193100000000001
 30
0.0
 10
11.0122
 20
-25.193100000000001
 30
0.0
 10
11.037100000000001
 20
-0.2133
 30
0.0
 10
11.037100000000001
 20
-0.2133
 30
0.0
 10
11.037100000000001
 20
-0.2133
 30
0.0
 10
11.037100000000001
 20
-0.2133
 30
0.0
 10
20.161200000000001
 20
-0.2222
 30
0.0
 10
20.161200000000001
 20
-0.2222
 30
0.0
 10
20.161200000000001
 20
-0.2222
 30
0.0
 10
20.449400000000001
 20
-0.2226
 30
0.0
 10
20.7254
 20
-0.3375
 30
0.0
 10
20.928699999999999
 20
-0.5414
 30
0.0
 10
20.928699999999999
 20
-0.5414
 30
0.0
 10
21.131900000000002
 20
-0.7455000000000001
 30
0.0
 10
21.245899999999999
 20
-1.022
 30
0.0
 10
21.2453
 20
-1.3099000000000001
 30
0.0
 10
21.2453
 20
-1.3099000000000001
 30
0.0
 10
21.2453
 20
-1.3099000000000001
 30
0.0
 10
21.241800000000001
 20
-4.6875
 30
0.0
 10
21.241800000000001
 20
-4.6875
 30
0.0
 10
21.241800000000001
 20
-4.6875
 30
0.0
 10
35.4208
 20
-6.7618
 30
0.0
 10
47.298699999999997
 20
-16.4894
 30
0.0
 10
52.127299999999998
 20
-29.9815
 30
0.0
 10
52.127299999999998
 20
-29.9815
 30
0.0
 10
52.127299999999998
 20
-29.9815
 30
0.0
 10
55.939799999999998
 20
-29.985199999999999
 30
0.0
 10
55.939799999999998
 20
-29.985199999999999
 30
0.0
 10
55.939799999999998
 20
-29.985199999999999
 30
0.0
 10
56.515900000000002
 20
-29.985600000000002
 30
0.0
 10
57.068300000000001
 20
-30.2149
 30
0.0
 10
57.4754
 20
-30.622399999999999
 30
0.0
 10
57.4754
 20
-30.622399999999999
 30
0.0
 10
57.882399999999997
 20
-31.030100000000001
 30
0.0
 10
58.110900000000001
 20
-31.582899999999999
 30
0.0
 10
58.110300000000002
 20
-32.159100000000002
 30
0.0
 10
58.110300000000002
 20
-32.159100000000002
 30
0.0
 10
58.110300000000002
 20
-32.159100000000002
 30
0.0
 10
58.108699999999999
 20
-33.408000000000001
 30
0.0
 10
58.108699999999999
 20
-33.408000000000001
 30
0.0
 10
58.108699999999999
 20
-33.408000000000001
 30
0.0
 10
58.108699999999999
 20
-33.408000000000001
 30
0.0
 10
52.677999999999997
 20
-33.402299999999997
 30
0.0
 10
52.677999999999997
 20
-33.402299999999997
 30
0.0
 10
52.677999999999997
 20
-33.402299999999997
 30
0.0
 10
52.677999999999997
 20
-33.402299999999997
 30
0.0
 10
52.675699999999999
 20
-36.334699999999998
 30
0.0
 10
52.675699999999999
 20
-36.334699999999998
 30
0.0
 10
52.675699999999999
 20
-36.334699999999998
 30
0.0
 10
52.675699999999999
 20
-36.334699999999998
 30
0.0
 10
58.106200000000001
 20
-36.340600000000002
 30
0.0
 10
58.106200000000001
 20
-36.340600000000002
 30
0.0
 10
58.106200000000001
 20
-36.340600000000002
 30
0.0
 10
58.106200000000001
 20
-36.340600000000002
 30
0.0
 10
58.104500000000002
 20
-37.589599999999997
 30
0.0
 10
58.104500000000002
 20
-37.589599999999997
 30
0.0
 10
58.104500000000002
 20
-37.589599999999997
 30
0.0
 10
58.103999999999999
 20
-38.165999999999997
 30
0.0
 10
57.874699999999997
 20
-38.718600000000002
 30
0.0
 10
57.466700000000003
 20
-39.125599999999999
 30
0.0
 10
57.466700000000003
 20
-39.125599999999999
 30
0.0
 10
57.058700000000002
 20
-39.532699999999998
 30
0.0
 10
56.506
 20
-39.760899999999999
 30
0.0
 10
55.929600000000001
 20
-39.760300000000001
 30
0.0
 10
55.929600000000001
 20
-39.760300000000001
 30
0.0
 10
55.929600000000001
 20
-39.760300000000001
 30
0.0
 10
52.6723
 20
-39.756100000000004
 30
0.0
 10
52.6723
 20
-39.756100000000004
 30
0.0
 10
52.6723
 20
-39.756100000000004
 30
0.0
 10
51.101799999999997
 20
-42.935400000000001
 30
0.0
 10
48.021799999999999
 20
-45.097299999999997
 30
0.0
 10
44.498100000000001
 20
-45.493699999999997
 30
0.0
 10
44.498100000000001
 20
-45.493699999999997
 30
0.0
 10
44.498100000000001
 20
-45.493699999999997
 30
0.0
 10
8.1788000000000007
 20
-45.457299999999996
 30
0.0
 10
8.1788000000000007
 20
-45.457299999999996
 30
0.0
 10
8.1788000000000007
 20
-45.457299999999996
 30
0.0
 10
8.1788000000000007
 20
-45.457299999999996
 30
0.0
 10
0.8196
 20
-29.929200000000002
 30
0.0
 10
0.8196
 20
-29.929200000000002
 30
0.0
 10
0.8196
 20
-29.929200000000002
 30
0.0
 10
0.8196
 20
-29.929200000000002
 30
0.0
 10
-26.441299999999998
 20
-29.902000000000001
 30
0.0
 10
-26.441299999999998
 20
-29.902000000000001
 30
0.0
 10
-26.441299999999998
 20
-29.902000000000001
 30
0.0
 10
-26.441299999999998
 20
-29.902000000000001
 30
0.0
 10
-26.4346
 20
-22.843299999999999
 30
0.0
 10
-26.4346
 20
-22.843299999999999
 30
0.0
 10
-26.4346
 20
-22.843299999999999
 30
0.0
 10
-26.434000000000001
 20
-22.454000000000001
 30
0.0
 10
-26.5884
 20
-22.080300000000001
 30
0.0
 10
-26.863199999999999
 20
-21.8049
 30
0.0
 10
-26.863199999999999
 20
-21.8049
 30
0.0
 10
-27.138200000000001
 20
-21.529499999999999
 30
0.0
 10
-27.511700000000001
 20
-21.374600000000001
 30
0.0
 10
-27.9008
 20
-21.374600000000001
 30
0.0
 10
-27.9008
 20
-21.374600000000001
 30
0.0
 10
-28.7103
 20
-21.374600000000001
 30
0.0
 10
-29.366700000000002
 20
-22.0305
 30
0.0
 10
-29.3673
 20
-22.84
 30
0.0
 10
-29.3673
 20
-22.84
 30
0.0
 10
-29.3673
 20
-22.84
 30
0.0
 10
-29.392600000000002
 20
-47.298299999999998
 30
0.0
 10
-29.392600000000002
 20
-47.298299999999998
 30
0.0
 10
-29.392600000000002
 20
-47.298299999999998
 30
0.0
 10
-29.392600000000002
 20
-47.298299999999998
 30
0.0
 10
-29.392600000000002
 20
-47.298299999999998
 30
0.0
 10
-29.392600000000002
 20
-47.298299999999998
 30
0.0
  0
SPLINE
  5
35
100
AcDbEntity
  8
0
100
AcDbSpline
210
0.0
220
0.0
230
1.0
 70
     1
 71
     3
 72
   196
 73
   192
 74
     0
 42
0.0000000001
 43
0.0000000001
 40
0.0
 40
0.0
 40
0.0
 40
0.0
 40
0.0208333333333333
 40
0.0208333333333333
 40
0.0208333333333333
 40
0.0208333333333333
 40
0.0416666666666667
 40
0.0416666666666667
 40
0.0416666666666667
 40
0.0416666666666667
 40
0.0625
 40
0.0625
 40
0.0625
 40
0.0625
 40
0.0833333333333333
 40
0.0833333333333333
 40
0.0833333333333333
 40
0.0833333333333333
 40
0.1041666666666667
 40
0.1041666666666667
 40
0.1041666666666667
 40
0.1041666666666667
 40
0.125
 40
0.125
 40
0.125
 40
0.125
 40
0.1458333333333333
 40
0.1458333333333333
 40
0.1458333333333333
 40
0.1458333333333333
 40
0.1666666666666667
 40
0.1666666666666667
 40
0.1666666666666667
 40
0.1666666666666667
 40
0.1875
 40
0.1875
 40
0.1875
 40
0.1875
 40
0.2083333333333333
 40
0.2083333333333333
 40
0.2083333333333333
 40
0.2083333333333333
 40
0.2291666666666667
 40
0.2291666666666667
 40
0.2291666666666667
 40
0.2291666666666667
 40
0.25
 40
0.25
 40
0.25
 40
0.25
 40
0.2708333333333333
 40
0.2708333333333333
 40
0.2708333333333333
 40
0.2708333333333333
 40
0.2916666666666666
 40
0.2916666666666666
 40
0.2916666666666666
 40
0.2916666666666666
 40
0.3124999999999999
 40
0.3124999999999999
 40
0.3124999999999999
 40
0.3124999999999999
 40
0.3333333333333333
 40
0.3333333333333333
 40
0.3333333333333333
 40
0.3333333333333333
 40
0.3541666666666666
 40
0.3541666666666666
 40
0.3541666666666666
 40
0.3541666666666666
 40
0.3749999999999999
 40
0.3749999999999999
 40
0.3749999999999999
 40
0.3749999999999999
 40
0.3958333333333332
 40
0.3958333333333332
 40
0.3958333333333332
 40
0.3958333333333332
 40
0.4166666666666665
 40
0.4166666666666665
 40
0.4166666666666665
 40
0.4166666666666665
 40
0.4374999999999998
 40
0.4374999999999998
 40
0.4374999999999998
 40
0.4374999999999998
 40
0.4583333333333332
 40
0.4583333333333332
 40
0.4583333333333332
 40
0.4583333333333332
 40
0.4791666666666665
 40
0.4791666666666665
 40
0.4791666666666665
 40
0.4791666666666665
 40
0.4999999999999998
 40
0.4999999999999998
 40
0.4999999999999998
 40
0.4999999999999998
 40
0.5208333333333332
 40
0.5208333333333332
 40
0.5208333333333332
 40
0.5208333333333332
 40
0.5416666666666665
 40
0.5416666666666665
 40
0.5416666666666665
 40
0.5416666666666665
 40
0.5624999999999999
 40
0.5624999999999999
 40
0.5624999999999999
 40
0.5624999999999999
 40
0.5833333333333333
 40
0.5833333333333333
 40
0.5833333333333333
 40
0.5833333333333333
 40
0.6041666666666666
 40
0.6041666666666666
 40
0.6041666666666666
 40
0.6041666666666666
 40
0.625
 40
0.625
 40
0.625
 40
0.625
 40
0.6458333333333334
 40
0.6458333333333334
 40
0.6458333333333334
 40
0.6458333333333334
 40
0.6666666666666667
 40
0.6666666666666667
 40
0.6666666666666667
 40
0.6666666666666667
 40
0.6875000000000001
 40
0.6875000000000001
 40
0.6875000000000001
 40
0.6875000000000001
 40
0.7083333333333335
 40
0.7083333333333335
 40
0.7083333333333335
 40
0.7083333333333335
 40
0.7291666666666669
 40
0.7291666666666669
 40
0.7291666666666669
 40
0.7291666666666669
 40
0.7500000000000002
 40
0.7500000000000002
 40
0.7500000000000002
 40
0.7500000000000002
 40
0.7708333333333336
 40
0.7708333333333336
 40
0.7708333333333336
 40
0.7708333333333336
 40
0.791666666666667
 40
0.791666666666667
 40
0.791666666666667
 40
0.791666666666667
 40
0.8125000000000003
 40
0.8125000000000003
 40
0.8125000000000003
 40
0.8125000000000003
 40
0.8333333333333337
 40
0.8333333333333337
 40
0.8333333333333337
 40
0.8333333333333337
 40
0.8541666666666671
 40
0.8541666666666671
 40
0.8541666666666671
 40
0.8541666666666671
 40
0.8750000000000004
 40
0.8750000000000004
 40
0.8750000000000004
 40
0.8750000000000004
 40
0.8958333333333338
 40
0.8958333333333338
 40
0.8958333333333338
 40
0.8958333333333338
 40
0.9166666666666672
 40
0.9166666666666672
 40
0.9166666666666672
 40
0.9166666666666672
 40
0.9375000000000006
 40
0.9375000000000006
 40
0.9375000000000006
 40
0.9375000000000006
 40
0.9583333333333339
 40
0.9583333333333339
 40
0.9583333333333339
 40
0.9583333333333339
 40
0.9791666666666673
 40
0.9791666666666673
 40
0.9791666666666673
 40
0.9791666666666673
 40
1.0
 40
1.0
 40
1.0
 40
1.0
 10
-8.7566000000000006
 20
57.538400000000003
 30
0.0
 10
-8.7271000000000001
 20
58.116700000000002
 30
0.0
 10
-8.2495999999999992
 20
58.570500000000003
 30
0.0
 10
-7.6706000000000003
 20
58.570500000000003
 30
0.0
 10
-7.6706000000000003
 20
58.570500000000003
 30
0.0
 10
-7.6706000000000003
 20
58.570500000000003
 30
0.0
 10
5.8451000000000004
 20
58.572400000000002
 30
0.0
 10
5.8451000000000004
 20
58.572400000000002
 30
0.0
 10
5.8451000000000004
 20
58.572400000000002
 30
0.0
 10
5.8451000000000004
 20
58.572400000000002
 30
0.0
 10
16.680199999999999
 20
58.574100000000001
 30
0.0
 10
16.680199999999999
 20
58.574100000000001
 30
0.0
 10
16.680199999999999
 20
58.574100000000001
 30
0.0
 10
16.968299999999999
 20
58.574100000000001
 30
0.0
 10
17.244599999999998
 20
58.459699999999998
 30
0.0
 10
17.4482
 20
58.256100000000004
 30
0.0
 10
17.4482
 20
58.256100000000004
 30
0.0
 10
17.651900000000001
 20
58.052500000000002
 30
0.0
 10
17.766400000000001
 20
57.7761
 30
0.0
 10
17.7666
 20
57.488199999999999
 30
0.0
 10
17.7666
 20
57.488199999999999
 30
0.0
 10
17.7666
 20
57.488199999999999
 30
0.0
 10
17.77
 20
34.810099999999998
 30
0.0
 10
17.77
 20
34.810099999999998
 30
0.0
 10
17.77
 20
34.810099999999998
 30
0.0
 10
17.770099999999999
 20
34.000399999999999
 30
0.0
 10
18.4268
 20
33.343899999999998
 30
0.0
 10
19.2364
 20
33.343899999999998
 30
0.0
 10
19.2364
 20
33.343899999999998
 30
0.0
 10
20.046299999999999
 20
33.344099999999997
 30
0.0
 10
20.7027
 20
34.000700000000002
 30
0.0
 10
20.7027
 20
34.810499999999998
 30
0.0
 10
20.7027
 20
34.810499999999998
 30
0.0
 10
20.7027
 20
34.810499999999998
 30
0.0
 10
20.699000000000002
 20
57.488599999999998
 30
0.0
 10
20.699000000000002
 20
57.488599999999998
 30
0.0
 10
20.699000000000002
 20
57.488599999999998
 30
0.0
 10
20.699000000000002
 20
57.776699999999998
 30
0.0
 10
20.813300000000002
 20
58.052999999999997
 30
0.0
 10
21.017099999999999
 20
58.256700000000002
 30
0.0
 10
21.017099999999999
 20
58.256700000000002
 30
0.0
 10
21.220600000000001
 20
58.4604
 30
0.0
 10
21.496700000000001
 20
58.5749
 30
0.0
 10
21.7849
 20
58.575000000000003
 30
0.0
 10
21.7849
 20
58.575000000000003
 30
0.0
 10
21.7849
 20
58.575000000000003
 30
0.0
 10
47.0914
 20
58.579000000000001
 30
0.0
 10
47.0914
 20
58.579000000000001
 30
0.0
 10
47.0914
 20
58.579000000000001
 30
0.0
 10
47.691200000000002
 20
58.579000000000001
 30
0.0
 10
48.177500000000002
 20
58.092799999999997
 30
0.0
 10
48.177700000000002
 20
57.492899999999999
 30
0.0
 10
48.177700000000002
 20
57.492899999999999
 30
0.0
 10
48.177700000000002
 20
57.492899999999999
 30
0.0
 10
48.181199999999997
 20
34.814700000000002
 30
0.0
 10
48.181199999999997
 20
34.814700000000002
 30
0.0
 10
48.181199999999997
 20
34.814700000000002
 30
0.0
 10
48.181399999999996
 20
34.005200000000002
 30
0.0
 10
48.837499999999999
 20
33.3489
 30
0.0
 10
49.647100000000002
 20
33.348700000000001
 30
0.0
 10
49.647100000000002
 20
33.348700000000001
 30
0.0
 10
50.456699999999998
 20
33.348599999999998
 30
0.0
 10
51.113100000000003
 20
34.004399999999997
 30
0.0
 10
51.113700000000001
 20
34.814
 30
0.0
 10
51.113700000000001
 20
34.814
 30
0.0
 10
51.113700000000001
 20
34.814
 30
0.0
 10
51.110199999999999
 20
57.493299999999998
 30
0.0
 10
51.110199999999999
 20
57.493299999999998
 30
0.0
 10
51.110199999999999
 20
57.493299999999998
 30
0.0
 10
51.110199999999999
 20
57.781399999999998
 30
0.0
 10
51.224600000000002
 20
58.0578
 30
0.0
 10
51.428199999999997
 20
58.261400000000002
 30
0.0
 10
51.428199999999997
 20
58.261400000000002
 30
0.0
 10
51.631900000000002
 20
58.465299999999999
 30
0.0
 10
51.908000000000001
 20
58.579700000000003
 30
0.0
 10
52.196199999999997
 20
58.579700000000003
 30
0.0
 10
52.196199999999997
 20
58.579700000000003
 30
0.0
 10
52.196199999999997
 20
58.579700000000003
 30
0.0
 10
60.43
 20
58.580800000000004
 30
0.0
 10
60.43
 20
58.580800000000004
 30
0.0
 10
60.43
 20
58.580800000000004
 30
0.0
 10
60.770400000000002
 20
58.581000000000003
 30
0.0
 10
61.110799999999998
 20
58.573799999999999
 30
0.0
 10
61.4512
 20
58.559600000000003
 30
0.0
 10
61.4512
 20
58.559600000000003
 30
0.0
 10
74.732200000000006
 20
58.239800000000002
 30
0.0
 10
85.286500000000004
 20
47.298200000000001
 30
0.0
 10
85.127600000000001
 20
34.014099999999999
 30
0.0
 10
85.127600000000001
 20
34.014099999999999
 30
0.0
 10
84.968699999999998
 20
20.729900000000001
 30
0.0
 10
74.155699999999996
 20
10.0441
 30
0.0
 10
60.870699999999999
 20
10.0421
 30
0.0
 10
60.870699999999999
 20
10.0421
 30
0.0
 10
60.870699999999999
 20
10.0421
 30
0.0
 10
30.774699999999999
 20
10.037599999999999
 30
0.0
 10
30.774699999999999
 20
10.037599999999999
 30
0.0
 10
30.774699999999999
 20
10.037599999999999
 30
0.0
 10
30.774699999999999
 20
10.037599999999999
 30
0.0
 10
-111.87609999999999
 20
10.0154
 30
0.0
 10
-111.87609999999999
 20
10.0154
 30
0.0
 10
-111.87609999999999
 20
10.0154
 30
0.0
 10
-125.16079999999999
 20
10.341100000000001
 30
0.0
 10
-135.7141
 20
21.288399999999999
 30
0.0
 10
-135.55289999999999
 20
34.5762
 30
0.0
 10
-135.55289999999999
 20
34.5762
 30
0.0
 10
-135.39169999999999
 20
47.863799999999998
 30
0.0
 10
-124.57550000000001
 20
58.551699999999997
 30
0.0
 10
-111.2868
 20
58.554699999999997
 30
0.0
 10
-111.2868
 20
58.554699999999997
 30
0.0
 10
-111.2868
 20
58.554699999999997
 30
0.0
 10
-102.5973
 20
58.555500000000002
 30
0.0
 10
-102.5973
 20
58.555500000000002
 30
0.0
 10
-102.5973
 20
58.555500000000002
 30
0.0
 10
-101.9974
 20
58.555500000000002
 30
0.0
 10
-101.5112
 20
58.069400000000002
 30
0.0
 10
-101.511
 20
57.469499999999996
 30
0.0
 10
-101.511
 20
57.469499999999996
 30
0.0
 10
-101.511
 20
57.469499999999996
 30
0.0
 10
-101.5074
 20
34.791499999999999
 30
0.0
 10
-101.5074
 20
34.791499999999999
 30
0.0
 10
-101.5074
 20
34.791499999999999
 30
0.0
 10
-101.5073
 20
33.981400000000001
 30
0.0
 10
-100.8507
 20
33.324800000000003
 30
0.0
 10
-100.04040000000001
 20
33.3249
 30
0.0
 10
-100.04040000000001
 20
33.3249
 30
0.0
 10
-99.230400000000003
 20
33.3249
 30
0.0
 10
-98.573800000000006
 20
33.9818
 30
0.0
 10
-98.573999999999998
 20
34.792000000000002
 30
0.0
 10
-98.573999999999998
 20
34.792000000000002
 30
0.0
 10
-98.573999999999998
 20
34.792000000000002
 30
0.0
 10
-98.577399999999997
 20
57.469999999999999
 30
0.0
 10
-98.577399999999997
 20
57.469999999999999
 30
0.0
 10
-98.577399999999997
 20
57.469999999999999
 30
0.0
 10
-98.577500000000001
 20
57.758200000000002
 30
0.0
 10
-98.463200000000001
 20
58.034399999999998
 30
0.0
 10
-98.259399999999999
 20
58.238399999999999
 30
0.0
 10
-98.259399999999999
 20
58.238399999999999
 30
0.0
 10
-98.055899999999994
 20
58.441800000000001
 30
0.0
 10
-97.779399999999995
 20
58.556399999999996
 30
0.0
 10
-97.491500000000002
 20
58.556399999999996
 30
0.0
 10
-97.491500000000002
 20
58.556399999999996
 30
0.0
 10
-97.491500000000002
 20
58.556399999999996
 30
0.0
 10
-74.097700000000003
 20
58.560000000000002
 30
0.0
 10
-74.097700000000003
 20
58.560000000000002
 30
0.0
 10
-74.097700000000003
 20
58.560000000000002
 30
0.0
 10
-73.809600000000003
 20
58.560000000000002
 30
0.0
 10
-73.533299999999997
 20
58.445599999999999
 30
0.0
 10
-73.329499999999996
 20
58.241999999999997
 30
0.0
 10
-73.329499999999996
 20
58.241999999999997
 30
0.0
 10
-73.125799999999998
 20
58.038600000000002
 30
0.0
 10
-73.011300000000006
 20
57.7622
 30
0.0
 10
-73.011300000000006
 20
57.473999999999997
 30
0.0
 10
-73.011300000000006
 20
57.473999999999997
 30
0.0
 10
-73.011300000000006
 20
57.473999999999997
 30
0.0
 10
-73.007800000000003
 20
34.7958
 30
0.0
 10
-73.007800000000003
 20
34.7958
 30
0.0
 10
-73.007800000000003
 20
34.7958
 30
0.0
 10
-73.0077
 20
33.986199999999997
 30
0.0
 10
-72.351100000000002
 20
33.329700000000003
 30
0.0
 10
-71.541399999999996
 20
33.329900000000002
 30
0.0
 10
-71.541399999999996
 20
33.329900000000002
 30
0.0
 10
-70.731499999999997
 20
33.329999999999998
 30
0.0
 10
-70.075100000000006
 20
33.986699999999999
 30
0.0
 10
-70.075500000000005
 20
34.796300000000002
 30
0.0
 10
-70.075500000000005
 20
34.796300000000002
 30
0.0
 10
-70.075500000000005
 20
34.796300000000002
 30
0.0
 10
-70.078800000000001
 20
57.474299999999999
 30
0.0
 10
-70.078800000000001
 20
57.474299999999999
 30
0.0
 10
-70.078800000000001
 20
57.474299999999999
 30
0.0
 10
-70.078800000000001
 20
57.762599999999999
 30
0.0
 10
-69.964399999999998
 20
58.038899999999998
 30
0.0
 10
-69.760800000000003
 20
58.242600000000003
 30
0.0
 10
-69.760800000000003
 20
58.242600000000003
 30
0.0
 10
-69.557199999999995
 20
58.446300000000001
 30
0.0
 10
-69.280799999999999
 20
58.560699999999997
 30
0.0
 10
-68.992900000000006
 20
58.560699999999997
 30
0.0
 10
-68.992900000000006
 20
58.560699999999997
 30
0.0
 10
-68.992900000000006
 20
58.560699999999997
 30
0.0
 10
-44.674599999999998
 20
58.564700000000002
 30
0.0
 10
-44.674599999999998
 20
58.564700000000002
 30
0.0
 10
-44.674599999999998
 20
58.564700000000002
 30
0.0
 10
-44.095500000000001
 20
58.565199999999997
 30
0.0
 10
-43.617600000000003
 20
58.111499999999999
 30
0.0
 10
-43.588000000000001
 20
57.532899999999998
 30
0.0
 10
-43.588000000000001
 20
57.532899999999998
 30
0.0
 10
-43.099299999999999
 20
48.270099999999999
 30
0.0
 10
-35.445399999999999
 20
41.010599999999997
 30
0.0
 10
-26.169699999999999
 20
41.012
 30
0.0
 10
-26.169699999999999
 20
41.012
 30
0.0
 10
-16.894100000000002
 20
41.013399999999997
 30
0.0
 10
-9.2423999999999999
 20
48.275399999999998
 30
0.0
 10
-8.7566000000000006
 20
57.538400000000003
 30
0.0
  0
SPLINE
  5
36
100
AcDbEntity
  8
0
100
AcDbSpline
210
0.0
220
0.0
230
1.0
 70
     1
 71
     3
 72
   168
 73
   164
 74
     0
 42
0.0000000001
 43
0.0000000001
 40
0.0
 40
0.0
 40
0.0
 40
0.0
 40
0.024390243902439
 40
0.024390243902439
 40
0.024390243902439
 40
0.024390243902439
 40
0.0487804878048781
 40
0.0487804878048781
 40
0.0487804878048781
 40
0.0487804878048781
 40
0.0731707317073171
 40
0.0731707317073171
 40
0.0731707317073171
 40
0.0731707317073171
 40
0.0975609756097561
 40
0.0975609756097561
 40
0.0975609756097561
 40
0.0975609756097561
 40
0.1219512195121951
 40
0.1219512195121951
 40
0.1219512195121951
 40
0.1219512195121951
 40
0.1463414634146341
 40
0.1463414634146341
 40
0.1463414634146341
 40
0.1463414634146341
 40
0.1707317073170732
 40
0.1707317073170732
 40
0.1707317073170732
 40
0.1707317073170732
 40
0.1951219512195122
 40
0.1951219512195122
 40
0.1951219512195122
 40
0.1951219512195122
 40
0.2195121951219512
 40
0.2195121951219512
 40
0.2195121951219512
 40
0.2195121951219512
 40
0.2439024390243902
 40
0.2439024390243902
 40
0.2439024390243902
 40
0.2439024390243902
 40
0.2682926829268292
 40
0.2682926829268292
 40
0.2682926829268292
 40
0.2682926829268292
 40
0.2926829268292683
 40
0.2926829268292683
 40
0.2926829268292683
 40
0.2926829268292683
 40
0.3170731707317073
 40
0.3170731707317073
 40
0.3170731707317073
 40
0.3170731707317073
 40
0.3414634146341464
 40
0.3414634146341464
 40
0.3414634146341464
 40
0.3414634146341464
 40
0.3658536585365854
 40
0.3658536585365854
 40
0.3658536585365854
 40
0.3658536585365854
 40
0.3902439024390245
 40
0.3902439024390245
 40
0.3902439024390245
 40
0.3902439024390245
 40
0.4146341463414635
 40
0.4146341463414635
 40
0.4146341463414635
 40
0.4146341463414635
 40
0.4390243902439026
 40
0.4390243902439026
 40
0.4390243902439026
 40
0.4390243902439026
 40
0.4634146341463416
 40
0.4634146341463416
 40
0.4634146341463416
 40
0.4634146341463416
 40
0.4878048780487806
 40
0.4878048780487806
 40
0.4878048780487806
 40
0.4878048780487806
 40
0.5121951219512196
 40
0.5121951219512196
 40
0.5121951219512196
 40
0.5121951219512196
 40
0.5365853658536587
 40
0.5365853658536587
 40
0.5365853658536587
 40
0.5365853658536587
 40
0.5609756097560977
 40
0.5609756097560977
 40
0.5609756097560977
 40
0.5609756097560977
 40
0.5853658536585368
 40
0.5853658536585368
 40
0.5853658536585368
 40
0.5853658536585368
 40
0.6097560975609758
 40
0.6097560975609758
 40
0.6097560975609758
 40
0.6097560975609758
 40
0.6341463414634149
 40
0.6341463414634149
 40
0.6341463414634149
 40
0.6341463414634149
 40
0.6585365853658539
 40
0.6585365853658539
 40
0.6585365853658539
 40
0.6585365853658539
 40
0.682926829268293
 40
0.682926829268293
 40
0.682926829268293
 40
0.682926829268293
 40
0.707317073170732
 40
0.707317073170732
 40
0.707317073170732
 40
0.707317073170732
 40
0.7317073170731711
 40
0.7317073170731711
 40
0.7317073170731711
 40
0.7317073170731711
 40
0.7560975609756101
 40
0.7560975609756101
 40
0.7560975609756101
 40
0.7560975609756101
 40
0.7804878048780491
 40
0.7804878048780491
 40
0.7804878048780491
 40
0.7804878048780491
 40
0.8048780487804882
 40
0.8048780487804882
 40
0.8048780487804882
 40
0.8048780487804882
 40
0.8292682926829272
 40
0.8292682926829272
 40
0.8292682926829272
 40
0.8292682926829272
 40
0.8536585365853663
 40
0.8536585365853663
 40
0.8536585365853663
 40
0.8536585365853663
 40
0.8780487804878053
 40
0.8780487804878053
 40
0.8780487804878053
 40
0.8780487804878053
 40
0.9024390243902444
 40
0.9024390243902444
 40
0.9024390243902444
 40
0.9024390243902444
 40
0.9268292682926834
 40
0.9268292682926834
 40
0.9268292682926834
 40
0.9268292682926834
 40
0.9512195121951225
 40
0.9512195121951225
 40
0.9512195121951225
 40
0.9512195121951225
 40
0.9756097560975615
 40
0.9756097560975615
 40
0.9756097560975615
 40
0.9756097560975615
 40
1.0
 40
1.0
 40
1.0
 40
1.0
 10
107.5835
 20
28.257300000000001
 30
0.0
 10
107.5835
 20
28.257300000000001
 30
0.0
 10
102.9448
 20
12.997
 30
0.0
 10
102.9448
 20
12.997
 30
0.0
 10
102.9448
 20
12.997
 30
0.0
 10
102.9448
 20
12.997
 30
0.0
 10
98.3065
 20
-2.2631999999999999
 30
0.0
 10
98.3065
 20
-2.2631999999999999
 30
0.0
 10
98.3065
 20
-2.2631999999999999
 30
0.0
 10
97.819900000000004
 20
-3.5851999999999999
 30
0.0
 10
97.975499999999997
 20
-5.0583999999999998
 30
0.0
 10
98.7273
 20
-6.2496999999999998
 30
0.0
 10
98.7273
 20
-6.2496999999999998
 30
0.0
 10
99.479299999999995
 20
-7.4410999999999996
 30
0.0
 10
100.7422
 20
-8.2155000000000005
 30
0.0
 10
102.1448
 20
-8.3452000000000002
 30
0.0
 10
102.1448
 20
-8.3452000000000002
 30
0.0
 10
102.1448
 20
-8.3452000000000002
 30
0.0
 10
105.2598
 20
-2.2425999999999999
 30
0.0
 10
105.2598
 20
-2.2425999999999999
 30
0.0
 10
105.2598
 20
-2.2425999999999999
 30
0.0
 10
105.2598
 20
-2.2425999999999999
 30
0.0
 10
122.52970000000001
 20
7.3674999999999997
 30
0.0
 10
122.52970000000001
 20
7.3674999999999997
 30
0.0
 10
122.52970000000001
 20
7.3674999999999997
 30
0.0
 10
122.52970000000001
 20
7.3674999999999997
 30
0.0
 10
142.98439999999999
 20
5.9062999999999999
 30
0.0
 10
142.98439999999999
 20
5.9062999999999999
 30
0.0
 10
142.98439999999999
 20
5.9062999999999999
 30
0.0
 10
142.98439999999999
 20
5.9062999999999999
 30
0.0
 10
148.71019999999999
 20
-4.9837999999999996
 30
0.0
 10
148.71019999999999
 20
-4.9837999999999996
 30
0.0
 10
148.71019999999999
 20
-4.9837999999999996
 30
0.0
 10
148.71019999999999
 20
-4.9837999999999996
 30
0.0
 10
145.48410000000001
 20
-11.3026
 30
0.0
 10
145.48410000000001
 20
-11.3026
 30
0.0
 10
145.48410000000001
 20
-11.3026
 30
0.0
 10
149.10400000000001
 20
-12.519399999999999
 30
0.0
 10
153.06290000000001
 20
-10.843500000000001
 30
0.0
 10
154.70840000000001
 20
-7.3971999999999998
 30
0.0
 10
154.70840000000001
 20
-7.3971999999999998
 30
0.0
 10
154.70840000000001
 20
-7.3971999999999998
 30
0.0
 10
167.38800000000001
 20
11.236599999999999
 30
0.0
 10
167.38800000000001
 20
11.236599999999999
 30
0.0
 10
167.38800000000001
 20
11.236599999999999
 30
0.0
 10
168.6908
 20
12.5207
 30
0.0
 10
169.80719999999999
 20
13.9811
 30
0.0
 10
170.7047
 20
15.5753
 30
0.0
 10
170.7047
 20
15.5753
 30
0.0
 10
170.97880000000001
 20
16.019100000000002
 30
0.0
 10
171.2278
 20
16.477599999999999
 30
0.0
 10
171.45160000000001
 20
16.948799999999999
 30
0.0
 10
171.45160000000001
 20
16.948799999999999
 30
0.0
 10
174.1463
 20
21.954899999999999
 30
0.0
 10
172.7201
 20
28.1829
 30
0.0
 10
168.11490000000001
 20
31.517199999999999
 30
0.0
 10
168.11490000000001
 20
31.517199999999999
 30
0.0
 10
166.91059999999999
 20
30.590800000000002
 30
0.0
 10
165.8621
 20
29.477699999999999
 30
0.0
 10
165.00890000000001
 20
28.220300000000002
 30
0.0
 10
165.00890000000001
 20
28.220300000000002
 30
0.0
 10
165.00890000000001
 20
28.220300000000002
 30
0.0
 10
162.97110000000001
 20
21.515799999999999
 30
0.0
 10
162.97110000000001
 20
21.515799999999999
 30
0.0
 10
162.97110000000001
 20
21.515799999999999
 30
0.0
 10
162.97110000000001
 20
21.515799999999999
 30
0.0
 10
156.7037
 20
7.9135
 30
0.0
 10
156.7037
 20
7.9135
 30
0.0
 10
156.7037
 20
7.9135
 30
0.0
 10
156.54320000000001
 20
7.5614999999999997
 30
0.0
 10
156.24860000000001
 20
7.2884000000000002
 30
0.0
 10
155.88579999999999
 20
7.1544999999999996
 30
0.0
 10
155.88579999999999
 20
7.1544999999999996
 30
0.0
 10
155.523
 20
7.0206
 30
0.0
 10
155.1217
 20
7.0369999999999999
 30
0.0
 10
154.77109999999999
 20
7.2000999999999999
 30
0.0
 10
154.77109999999999
 20
7.2000999999999999
 30
0.0
 10
154.4186
 20
7.3625999999999996
 30
0.0
 10
154.1455
 20
7.6589
 30
0.0
 10
154.01230000000001
 20
8.0235000000000003
 30
0.0
 10
154.01230000000001
 20
8.0235000000000003
 30
0.0
 10
153.8793
 20
8.3881999999999994
 30
0.0
 10
153.89699999999999
 20
8.7908000000000008
 30
0.0
 10
154.06190000000001
 20
9.1420999999999992
 30
0.0
 10
154.06190000000001
 20
9.1420999999999992
 30
0.0
 10
154.06190000000001
 20
9.1420999999999992
 30
0.0
 10
159.64019999999999
 20
22.340299999999999
 30
0.0
 10
159.64019999999999
 20
22.340299999999999
 30
0.0
 10
159.64019999999999
 20
22.340299999999999
 30
0.0
 10
159.64019999999999
 20
22.340299999999999
 30
0.0
 10
160.28139999999999
 20
24.449200000000001
 30
0.0
 10
160.28139999999999
 20
24.449200000000001
 30
0.0
 10
160.28139999999999
 20
24.449200000000001
 30
0.0
 10
159.9785
 20
25.120699999999999
 30
0.0
 10
159.3554
 20
25.5929
 30
0.0
 10
158.6267
 20
25.7028
 30
0.0
 10
158.6267
 20
25.7028
 30
0.0
 10
157.8981
 20
25.8127
 30
0.0
 10
157.1636
 20
25.5456
 30
0.0
 10
156.67580000000001
 20
24.993200000000002
 30
0.0
 10
156.67580000000001
 20
24.993200000000002
 30
0.0
 10
156.67580000000001
 20
24.993200000000002
 30
0.0
 10
145.57470000000001
 20
14.4276
 30
0.0
 10
145.57470000000001
 20
14.4276
 30
0.0
 10
145.57470000000001
 20
14.4276
 30
0.0
 10
145.57470000000001
 20
14.4276
 30
0.0
 10
134.64179999999999
 20
15.208
 30
0.0
 10
134.64179999999999
 20
15.208
 30
0.0
 10
134.64179999999999
 20
15.208
 30
0.0
 10
134.64179999999999
 20
15.208
 30
0.0
 10
125.12
 20
15.8888
 30
0.0
 10
125.12
 20
15.8888
 30
0.0
 10
125.12
 20
15.8888
 30
0.0
 10
125.12
 20
15.8888
 30
0.0
 10
123.009
 20
22.649000000000001
 30
0.0
 10
123.009
 20
22.649000000000001
 30
0.0
 10
123.009
 20
22.649000000000001
 30
0.0
 10
122.8229
 20
23.2408
 30
0.0
 10
122.3926
 20
23.724900000000002
 30
0.0
 10
121.82680000000001
 20
23.979399999999998
 30
0.0
 10
121.82680000000001
 20
23.979399999999998
 30
0.0
 10
121.2608
 20
24.233899999999998
 30
0.0
 10
120.61320000000001
 20
24.2346
 30
0.0
 10
120.04689999999999
 20
23.981100000000001
 30
0.0
 10
120.04689999999999
 20
23.981100000000001
 30
0.0
 10
120.04689999999999
 20
23.981100000000001
 30
0.0
 10
111.73820000000001
 20
9.9825999999999997
 30
0.0
 10
111.73820000000001
 20
9.9825999999999997
 30
0.0
 10
111.73820000000001
 20
9.9825999999999997
 30
0.0
 10
111.60209999999999
 20
9.6012000000000004
 30
0.0
 10
111.31270000000001
 20
9.2944999999999993
 30
0.0
 10
110.93989999999999
 20
9.1363000000000003
 30
0.0
 10
110.93989999999999
 20
9.1363000000000003
 30
0.0
 10
110.5673
 20
8.9783000000000008
 30
0.0
 10
110.1455
 20
8.9833999999999996
 30
0.0
 10
109.77679999999999
 20
9.1501999999999999
 30
0.0
 10
109.77679999999999
 20
9.1501999999999999
 30
0.0
 10
109.4089
 20
9.3176000000000005
 30
0.0
 10
109.12779999999999
 20
9.6311999999999998
 30
0.0
 10
109.0017
 20
10.0151
 30
0.0
 10
109.0017
 20
10.0151
 30
0.0
 10
108.87569999999999
 20
10.398899999999999
 30
0.0
 10
108.9161
 20
10.818099999999999
 30
0.0
 10
109.1131
 20
11.1709
 30
0.0
 10
109.1131
 20
11.1709
 30
0.0
 10
109.1131
 20
11.1709
 30
0.0
 10
109.0459
 20
11.023899999999999
 30
0.0
 10
109.0459
 20
11.023899999999999
 30
0.0
 10
109.0459
 20
11.023899999999999
 30
0.0
 10
109.0459
 20
11.023899999999999
 30
0.0
 10
113.3295
 20
20.361999999999998
 30
0.0
 10
113.3295
 20
20.361999999999998
 30
0.0
 10
113.3295
 20
20.361999999999998
 30
0.0
 10
113.3295
 20
20.361999999999998
 30
0.0
 10
118.9509
 20
29.150400000000001
 30
0.0
 10
118.9509
 20
29.150400000000001
 30
0.0
 10
118.9509
 20
29.150400000000001
 30
0.0
 10
119.4828
 20
31.2531
 30
0.0
 10
119.4091
 20
33.4634
 30
0.0
 10
118.7384
 20
35.525799999999997
 30
0.0
 10
118.7384
 20
35.525799999999997
 30
0.0
 10
113.8755
 20
35.6402
 30
0.0
 10
109.4431
 20
32.752099999999999
 30
0.0
 10
107.5835
 20
28.257300000000001
 30
0.0
  0
SPLINE
  5
37
100
AcDbEntity
  8
0
100
AcDbSpline
210
0.0
220
0.0
230
1.0
 70
     1
 71
     3
 72
   168
 73
   164
 74
     0
 42
0.0000000001
 43
0.0000000001
 40
0.0
 40
0.0
 40
0.0
 40
0.0
 40
0.024390243902439
 40
0.024390243902439
 40
0.024390243902439
 40
0.024390243902439
 40
0.0487804878048781
 40
0.0487804878048781
 40
0.0487804878048781
 40
0.0487804878048781
 40
0.0731707317073171
 40
0.0731707317073171
 40
0.0731707317073171
 40
0.0731707317073171
 40
0.0975609756097561
 40
0.0975609756097561
 40
0.0975609756097561
 40
0.0975609756097561
 40
0.1219512195121951
 40
0.1219512195121951
 40
0.1219512195121951
 40
0.1219512195121951
 40
0.1463414634146341
 40
0.1463414634146341
 40
0.1463414634146341
 40
0.1463414634146341
 40
0.1707317073170732
 40
0.1707317073170732
 40
0.1707317073170732
 40
0.1707317073170732
 40
0.1951219512195122
 40
0.1951219512195122
 40
0.1951219512195122
 40
0.1951219512195122
 40
0.2195121951219512
 40
0.2195121951219512
 40
0.2195121951219512
 40
0.2195121951219512
 40
0.2439024390243902
 40
0.2439024390243902
 40
0.2439024390243902
 40
0.2439024390243902
 40
0.2682926829268292
 40
0.2682926829268292
 40
0.2682926829268292
 40
0.2682926829268292
 40
0.2926829268292683
 40
0.2926829268292683
 40
0.2926829268292683
 40
0.2926829268292683
 40
0.3170731707317073
 40
0.3170731707317073
 40
0.3170731707317073
 40
0.3170731707317073
 40
0.3414634146341464
 40
0.3414634146341464
 40
0.3414634146341464
 40
0.3414634146341464
 40
0.3658536585365854
 40
0.3658536585365854
 40
0.3658536585365854
 40
0.3658536585365854
 40
0.3902439024390245
 40
0.3902439024390245
 40
0.3902439024390245
 40
0.3902439024390245
 40
0.4146341463414635
 40
0.4146341463414635
 40
0.4146341463414635
 40
0.4146341463414635
 40
0.4390243902439026
 40
0.4390243902439026
 40
0.4390243902439026
 40
0.4390243902439026
 40
0.4634146341463416
 40
0.4634146341463416
 40
0.4634146341463416
 40
0.4634146341463416
 40
0.4878048780487806
 40
0.4878048780487806
 40
0.4878048780487806
 40
0.4878048780487806
 40
0.5121951219512196
 40
0.5121951219512196
 40
0.5121951219512196
 40
0.5121951219512196
 40
0.5365853658536587
 40
0.5365853658536587
 40
0.5365853658536587
 40
0.5365853658536587
 40
0.5609756097560977
 40
0.5609756097560977
 40
0.5609756097560977
 40
0.5609756097560977
 40
0.5853658536585368
 40
0.5853658536585368
 40
0.5853658536585368
 40
0.5853658536585368
 40
0.6097560975609758
 40
0.6097560975609758
 40
0.6097560975609758
 40
0.6097560975609758
 40
0.6341463414634149
 40
0.6341463414634149
 40
0.6341463414634149
 40
0.6341463414634149
 40
0.6585365853658539
 40
0.6585365853658539
 40
0.6585365853658539
 40
0.6585365853658539
 40
0.682926829268293
 40
0.682926829268293
 40
0.682926829268293
 40
0.682926829268293
 40
0.707317073170732
 40
0.707317073170732
 40
0.707317073170732
 40
0.707317073170732
 40
0.7317073170731711
 40
0.7317073170731711
 40
0.7317073170731711
 40
0.7317073170731711
 40
0.7560975609756101
 40
0.7560975609756101
 40
0.7560975609756101
 40
0.7560975609756101
 40
0.7804878048780491
 40
0.7804878048780491
 40
0.7804878048780491
 40
0.7804878048780491
 40
0.8048780487804882
 40
0.8048780487804882
 40
0.8048780487804882
 40
0.8048780487804882
 40
0.8292682926829272
 40
0.8292682926829272
 40
0.8292682926829272
 40
0.8292682926829272
 40
0.8536585365853663
 40
0.8536585365853663
 40
0.8536585365853663
 40
0.8536585365853663
 40
0.8780487804878053
 40
0.8780487804878053
 40
0.8780487804878053
 40
0.8780487804878053
 40
0.9024390243902444
 40
0.9024390243902444
 40
0.9024390243902444
 40
0.9024390243902444
 40
0.9268292682926834
 40
0.9268292682926834
 40
0.9268292682926834
 40
0.9268292682926834
 40
0.9512195121951225
 40
0.9512195121951225
 40
0.9512195121951225
 40
0.9512195121951225
 40
0.9756097560975615
 40
0.9756097560975615
 40
0.9756097560975615
 40
0.9756097560975615
 40
1.0
 40
1.0
 40
1.0
 40
1.0
 10
140.53020000000001
 20
-107.71129999999999
 30
0.0
 10
140.9153
 20
-107.8361
 30
0.0
 10
141.33510000000001
 20
-107.794
 30
0.0
 10
141.68790000000001
 20
-107.59529999999999
 30
0.0
 10
141.68790000000001
 20
-107.59529999999999
 30
0.0
 10
142.04040000000001
 20
-107.39660000000001
 30
0.0
 10
142.29390000000001
 20
-107.05929999999999
 30
0.0
 10
142.38659999999999
 20
-106.6653
 30
0.0
 10
142.38659999999999
 20
-106.6653
 30
0.0
 10
142.38659999999999
 20
-106.6653
 30
0.0
 10
149.078
 20
-91.825299999999999
 30
0.0
 10
149.078
 20
-91.825299999999999
 30
0.0
 10
149.078
 20
-91.825299999999999
 30
0.0
 10
149.61250000000001
 20
-91.510099999999994
 30
0.0
 10
150.256
 20
-91.438400000000001
 30
0.0
 10
150.84690000000001
 20
-91.627899999999997
 30
0.0
 10
150.84690000000001
 20
-91.627899999999997
 30
0.0
 10
151.4375
 20
-91.817400000000006
 30
0.0
 10
151.91900000000001
 20
-92.250399999999999
 30
0.0
 10
152.1703
 20
-92.817800000000005
 30
0.0
 10
152.1703
 20
-92.817800000000005
 30
0.0
 10
152.1703
 20
-92.817800000000005
 30
0.0
 10
155.024
 20
-99.299800000000005
 30
0.0
 10
155.024
 20
-99.299800000000005
 30
0.0
 10
155.024
 20
-99.299800000000005
 30
0.0
 10
155.024
 20
-99.299800000000005
 30
0.0
 10
164.56209999999999
 20
-98.911600000000007
 30
0.0
 10
164.56209999999999
 20
-98.911600000000007
 30
0.0
 10
164.56209999999999
 20
-98.911600000000007
 30
0.0
 10
164.56209999999999
 20
-98.911600000000007
 30
0.0
 10
175.5137
 20
-98.464699999999993
 30
0.0
 10
175.5137
 20
-98.464699999999993
 30
0.0
 10
175.5137
 20
-98.464699999999993
 30
0.0
 10
175.5137
 20
-98.464699999999993
 30
0.0
 10
185.36410000000001
 20
-86.724000000000004
 30
0.0
 10
185.36410000000001
 20
-86.724000000000004
 30
0.0
 10
185.36410000000001
 20
-86.724000000000004
 30
0.0
 10
185.7869
 20
-86.120500000000007
 30
0.0
 10
186.4871
 20
-85.772999999999996
 30
0.0
 10
187.22319999999999
 20
-85.800799999999995
 30
0.0
 10
187.22319999999999
 20
-85.800799999999995
 30
0.0
 10
187.9597
 20
-85.828599999999994
 30
0.0
 10
188.63159999999999
 20
-86.228099999999998
 30
0.0
 10
189.00790000000001
 20
-86.861500000000007
 30
0.0
 10
189.00790000000001
 20
-86.861500000000007
 30
0.0
 10
189.00790000000001
 20
-86.861500000000007
 30
0.0
 10
188.60650000000001
 20
-89.0291
 30
0.0
 10
188.60650000000001
 20
-89.0291
 30
0.0
 10
188.60650000000001
 20
-89.0291
 30
0.0
 10
188.60650000000001
 20
-89.0291
 30
0.0
 10
184.53890000000001
 20
-102.768
 30
0.0
 10
184.53890000000001
 20
-102.768
 30
0.0
 10
184.53890000000001
 20
-102.768
 30
0.0
 10
184.41419999999999
 20
-103.1357
 30
0.0
 10
184.44159999999999
 20
-103.5377
 30
0.0
 10
184.6146
 20
-103.8852
 30
0.0
 10
184.6146
 20
-103.8852
 30
0.0
 10
184.78790000000001
 20
-104.23260000000001
 30
0.0
 10
185.09229999999999
 20
-104.4966
 30
0.0
 10
185.4607
 20
-104.6187
 30
0.0
 10
185.4607
 20
-104.6187
 30
0.0
 10
185.82749999999999
 20
-104.7415
 30
0.0
 10
186.22810000000001
 20
-104.7128
 30
0.0
 10
186.5736
 20
-104.53919999999999
 30
0.0
 10
186.5736
 20
-104.53919999999999
 30
0.0
 10
186.91919999999999
 20
-104.3656
 30
0.0
 10
187.18129999999999
 20
-104.0611
 30
0.0
 10
187.3015
 20
-103.6935
 30
0.0
 10
187.3015
 20
-103.6935
 30
0.0
 10
187.3015
 20
-103.6935
 30
0.0
 10
192.0086
 20
-89.475899999999996
 30
0.0
 10
192.0086
 20
-89.475899999999996
 30
0.0
 10
192.0086
 20
-89.475899999999996
 30
0.0
 10
192.0086
 20
-89.475899999999996
 30
0.0
 10
193.2841
 20
-82.585499999999996
 30
0.0
 10
193.2841
 20
-82.585499999999996
 30
0.0
 10
193.2841
 20
-82.585499999999996
 30
0.0
 10
193.99119999999999
 20
-81.240499999999997
 30
0.0
 10
194.90880000000001
 20
-80.017200000000003
 30
0.0
 10
196.00200000000001
 20
-78.9619
 30
0.0
 10
196.00200000000001
 20
-78.9619
 30
0.0
 10
200.9512
 20
-81.760599999999997
 30
0.0
 10
203.06479999999999
 20
-87.7898
 30
0.0
 10
200.94659999999999
 20
-93.066100000000006
 30
0.0
 10
200.94659999999999
 20
-93.066100000000006
 30
0.0
 10
200.7773
 20
-93.559399999999997
 30
0.0
 10
200.5806
 20
-94.042699999999996
 30
0.0
 10
200.3579
 20
-94.514399999999995
 30
0.0
 10
200.3579
 20
-94.514399999999995
 30
0.0
 10
199.64439999999999
 20
-96.198899999999995
 30
0.0
 10
198.69820000000001
 20
-97.775000000000006
 30
0.0
 10
197.5471
 20
-99.196600000000004
 30
0.0
 10
197.5471
 20
-99.196600000000004
 30
0.0
 10
197.5471
 20
-99.196600000000004
 30
0.0
 10
187.03049999999999
 20
-119.1315
 30
0.0
 10
187.03049999999999
 20
-119.1315
 30
0.0
 10
187.03049999999999
 20
-119.1315
 30
0.0
 10
185.78049999999999
 20
-122.73990000000001
 30
0.0
 10
182.03389999999999
 20
-124.84820000000001
 30
0.0
 10
178.30070000000001
 20
-124.0436
 30
0.0
 10
178.30070000000001
 20
-124.0436
 30
0.0
 10
178.30070000000001
 20
-124.0436
 30
0.0
 10
180.80019999999999
 20
-117.4037
 30
0.0
 10
180.80019999999999
 20
-117.4037
 30
0.0
 10
180.80019999999999
 20
-117.4037
 30
0.0
 10
180.80019999999999
 20
-117.4037
 30
0.0
 10
173.89259999999999
 20
-107.22199999999999
 30
0.0
 10
173.89259999999999
 20
-107.22199999999999
 30
0.0
 10
173.89259999999999
 20
-107.22199999999999
 30
0.0
 10
173.89259999999999
 20
-107.22199999999999
 30
0.0
 10
153.40289999999999
 20
-108.05719999999999
 30
0.0
 10
153.40289999999999
 20
-108.05719999999999
 30
0.0
 10
153.40289999999999
 20
-108.05719999999999
 30
0.0
 10
153.40289999999999
 20
-108.05719999999999
 30
0.0
 10
137.31569999999999
 20
-119.5378
 30
0.0
 10
137.31569999999999
 20
-119.5378
 30
0.0
 10
137.31569999999999
 20
-119.5378
 30
0.0
 10
137.31569999999999
 20
-119.5378
 30
0.0
 10
134.90260000000001
 20
-125.95059999999999
 30
0.0
 10
134.90260000000001
 20
-125.95059999999999
 30
0.0
 10
134.90260000000001
 20
-125.95059999999999
 30
0.0
 10
133.4939
 20
-125.9785
 30
0.0
 10
132.15260000000001
 20
-125.34999999999999
 30
0.0
 10
131.27209999999999
 20
-124.2503
 30
0.0
 10
131.27209999999999
 20
-124.2503
 30
0.0
 10
130.39179999999999
 20
-123.1506
 30
0.0
 10
130.0728
 20
-121.70399999999999
 30
0.0
 10
130.4083
 20
-120.33580000000001
 30
0.0
 10
130.4083
 20
-120.33580000000001
 30
0.0
 10
130.4083
 20
-120.33580000000001
 30
0.0
 10
133.31129999999999
 20
-104.65260000000001
 30
0.0
 10
133.31129999999999
 20
-104.65260000000001
 30
0.0
 10
133.31129999999999
 20
-104.65260000000001
 30
0.0
 10
133.31129999999999
 20
-104.65260000000001
 30
0.0
 10
136.2148
 20
-88.969300000000004
 30
0.0
 10
136.2148
 20
-88.969300000000004
 30
0.0
 10
136.2148
 20
-88.969300000000004
 30
0.0
 10
137.5599
 20
-84.295000000000002
 30
0.0
 10
141.64160000000001
 20
-80.929199999999994
 30
0.0
 10
146.48689999999999
 20
-80.499099999999999
 30
0.0
 10
146.48689999999999
 20
-80.499099999999999
 30
0.0
 10
147.38409999999999
 20
-82.4739
 30
0.0
 10
147.70439999999999
 20
-84.662000000000006
 30
0.0
 10
147.41079999999999
 20
-86.811000000000007
 30
0.0
 10
147.41079999999999
 20
-86.811000000000007
 30
0.0
 10
147.41079999999999
 20
-86.811000000000007
 30
0.0
 10
142.80719999999999
 20
-96.172899999999998
 30
0.0
 10
142.80719999999999
 20
-96.172899999999998
 30
0.0
 10
142.80719999999999
 20
-96.172899999999998
 30
0.0
 10
142.80719999999999
 20
-96.172899999999998
 30
0.0
 10
139.59469999999999
 20
-105.9312
 30
0.0
 10
139.59469999999999
 20
-105.9312
 30
0.0
 10
139.59469999999999
 20
-105.9312
 30
0.0
 10
139.59469999999999
 20
-105.9312
 30
0.0
 10
139.64500000000001
 20
-105.7778
 30
0.0
 10
139.64500000000001
 20
-105.7778
 30
0.0
 10
139.64500000000001
 20
-105.7778
 30
0.0
 10
139.48869999999999
 20
-106.1504
 30
0.0
 10
139.49549999999999
 20
-106.57129999999999
 30
0.0
 10
139.66370000000001
 20
-106.9387
 30
0.0
 10
139.66370000000001
 20
-106.9387
 30
0.0
 10
139.83189999999999
 20
-107.306
 30
0.0
 10
140.14619999999999
 20
-107.586
 30
0.0
 10
140.53020000000001
 20
-107.71129999999999
 30
0.0
  0
SPLINE
  5
38
100
AcDbEntity
  8
0
100
AcDbSpline
210
0.0
220
0.0
230
1.0
 70
     1
 71
     3
 72
   168
 73
   164
 74
     0
 42
0.0000000001
 43
0.0000000001
 40
0.0
 40
0.0
 40
0.0
 40
0.0
 40
0.024390243902439
 40
0.024390243902439
 40
0.024390243902439
 40
0.024390243902439
 40
0.0487804878048781
 40
0.0487804878048781
 40
0.0487804878048781
 40
0.0487804878048781
 40
0.0731707317073171
 40
0.0731707317073171
 40
0.0731707317073171
 40
0.0731707317073171
 40
0.0975609756097561
 40
0.0975609756097561
 40
0.0975609756097561
 40
0.0975609756097561
 40
0.1219512195121951
 40
0.1219512195121951
 40
0.1219512195121951
 40
0.1219512195121951
 40
0.1463414634146341
 40
0.1463414634146341
 40
0.1463414634146341
 40
0.1463414634146341
 40
0.1707317073170732
 40
0.1707317073170732
 40
0.1707317073170732
 40
0.1707317073170732
 40
0.1951219512195122
 40
0.1951219512195122
 40
0.1951219512195122
 40
0.1951219512195122
 40
0.2195121951219512
 40
0.2195121951219512
 40
0.2195121951219512
 40
0.2195121951219512
 40
0.2439024390243902
 40
0.2439024390243902
 40
0.2439024390243902
 40
0.2439024390243902
 40
0.2682926829268292
 40
0.2682926829268292
 40
0.2682926829268292
 40
0.2682926829268292
 40
0.2926829268292683
 40
0.2926829268292683
 40
0.2926829268292683
 40
0.2926829268292683
 40
0.3170731707317073
 40
0.3170731707317073
 40
0.3170731707317073
 40
0.3170731707317073
 40
0.3414634146341464
 40
0.3414634146341464
 40
0.3414634146341464
 40
0.3414634146341464
 40
0.3658536585365854
 40
0.3658536585365854
 40
0.3658536585365854
 40
0.3658536585365854
 40
0.3902439024390245
 40
0.3902439024390245
 40
0.3902439024390245
 40
0.3902439024390245
 40
0.4146341463414635
 40
0.4146341463414635
 40
0.4146341463414635
 40
0.4146341463414635
 40
0.4390243902439026
 40
0.4390243902439026
 40
0.4390243902439026
 40
0.4390243902439026
 40
0.4634146341463416
 40
0.4634146341463416
 40
0.4634146341463416
 40
0.4634146341463416
 40
0.4878048780487806
 40
0.4878048780487806
 40
0.4878048780487806
 40
0.4878048780487806
 40
0.5121951219512196
 40
0.5121951219512196
 40
0.5121951219512196
 40
0.5121951219512196
 40
0.5365853658536587
 40
0.5365853658536587
 40
0.5365853658536587
 40
0.5365853658536587
 40
0.5609756097560977
 40
0.5609756097560977
 40
0.5609756097560977
 40
0.5609756097560977
 40
0.5853658536585368
 40
0.5853658536585368
 40
0.5853658536585368
 40
0.5853658536585368
 40
0.6097560975609758
 40
0.6097560975609758
 40
0.6097560975609758
 40
0.6097560975609758
 40
0.6341463414634149
 40
0.6341463414634149
 40
0.6341463414634149
 40
0.6341463414634149
 40
0.6585365853658539
 40
0.6585365853658539
 40
0.6585365853658539
 40
0.6585365853658539
 40
0.682926829268293
 40
0.682926829268293
 40
0.682926829268293
 40
0.682926829268293
 40
0.707317073170732
 40
0.707317073170732
 40
0.707317073170732
 40
0.707317073170732
 40
0.7317073170731711
 40
0.7317073170731711
 40
0.7317073170731711
 40
0.7317073170731711
 40
0.7560975609756101
 40
0.7560975609756101
 40
0.7560975609756101
 40
0.7560975609756101
 40
0.7804878048780491
 40
0.7804878048780491
 40
0.7804878048780491
 40
0.7804878048780491
 40
0.8048780487804882
 40
0.8048780487804882
 40
0.8048780487804882
 40
0.8048780487804882
 40
0.8292682926829272
 40
0.8292682926829272
 40
0.8292682926829272
 40
0.8292682926829272
 40
0.8536585365853663
 40
0.8536585365853663
 40
0.8536585365853663
 40
0.8536585365853663
 40
0.8780487804878053
 40
0.8780487804878053
 40
0.8780487804878053
 40
0.8780487804878053
 40
0.9024390243902444
 40
0.9024390243902444
 40
0.9024390243902444
 40
0.9024390243902444
 40
0.9268292682926834
 40
0.9268292682926834
 40
0.9268292682926834
 40
0.9268292682926834
 40
0.9512195121951225
 40
0.9512195121951225
 40
0.9512195121951225
 40
0.9512195121951225
 40
0.9756097560975615
 40
0.9756097560975615
 40
0.9756097560975615
 40
0.9756097560975615
 40
1.0
 40
1.0
 40
1.0
 40
1.0
 10
181.95269999999999
 20
-19.979199999999999
 30
0.0
 10
184.26249999999999
 20
-14.7842
 30
0.0
 10
182.37049999999999
 20
-8.6814999999999998
 30
0.0
 10
177.52719999999999
 20
-5.7039999999999997
 30
0.0
 10
177.52719999999999
 20
-5.7039999999999997
 30
0.0
 10
176.39609999999999
 20
-6.7183999999999999
 30
0.0
 10
175.43450000000001
 20
-7.9073000000000002
 30
0.0
 10
174.6788
 20
-9.2256
 30
0.0
 10
174.6788
 20
-9.2256
 30
0.0
 10
174.6788
 20
-9.2256
 30
0.0
 10
173.15209999999999
 20
-16.064599999999999
 30
0.0
 10
173.15209999999999
 20
-16.064599999999999
 30
0.0
 10
173.15209999999999
 20
-16.064599999999999
 30
0.0
 10
173.15209999999999
 20
-16.064599999999999
 30
0.0
 10
167.9281
 20
-30.1005
 30
0.0
 10
167.9281
 20
-30.1005
 30
0.0
 10
167.9281
 20
-30.1005
 30
0.0
 10
167.7945
 20
-30.4633
 30
0.0
 10
167.5215
 20
-30.758099999999999
 30
0.0
 10
167.16970000000001
 20
-30.9191
 30
0.0
 10
167.16970000000001
 20
-30.9191
 30
0.0
 10
166.81800000000001
 20
-31.079899999999999
 30
0.0
 10
166.41659999999999
 20
-31.093699999999998
 30
0.0
 10
166.05459999999999
 20
-30.957599999999999
 30
0.0
 10
166.05459999999999
 20
-30.957599999999999
 30
0.0
 10
165.6909
 20
-30.822299999999998
 30
0.0
 10
165.39619999999999
 20
-30.5472
 30
0.0
 10
165.23589999999999
 20
-30.193899999999999
 30
0.0
 10
165.23589999999999
 20
-30.193899999999999
 30
0.0
 10
165.07570000000001
 20
-29.840299999999999
 30
0.0
 10
165.06309999999999
 20
-29.4374
 30
0.0
 10
165.2011
 20
-29.0747
 30
0.0
 10
165.2011
 20
-29.0747
 30
0.0
 10
165.2011
 20
-29.0747
 30
0.0
 10
169.76849999999999
 20
-15.493600000000001
 30
0.0
 10
169.76849999999999
 20
-15.493600000000001
 30
0.0
 10
169.76849999999999
 20
-15.493600000000001
 30
0.0
 10
169.76849999999999
 20
-15.493600000000001
 30
0.0
 10
170.24879999999999
 20
-13.3423
 30
0.0
 10
170.24879999999999
 20
-13.3423
 30
0.0
 10
170.24879999999999
 20
-13.3423
 30
0.0
 10
169.89609999999999
 20
-12.695499999999999
 30
0.0
 10
169.23929999999999
 20
-12.271599999999999
 30
0.0
 10
168.50450000000001
 20
-12.216900000000001
 30
0.0
 10
168.50450000000001
 20
-12.216900000000001
 30
0.0
 10
167.7696
 20
-12.1624
 30
0.0
 10
167.05719999999999
 20
-12.4841
 30
0.0
 10
166.61259999999999
 20
-13.0715
 30
0.0
 10
166.61259999999999
 20
-13.0715
 30
0.0
 10
166.61259999999999
 20
-13.0715
 30
0.0
 10
156.33949999999999
 20
-24.443999999999999
 30
0.0
 10
156.33949999999999
 20
-24.443999999999999
 30
0.0
 10
156.33949999999999
 20
-24.443999999999999
 30
0.0
 10
156.33949999999999
 20
-24.443999999999999
 30
0.0
 10
145.37860000000001
 20
-24.489999999999998
 30
0.0
 10
145.37860000000001
 20
-24.489999999999998
 30
0.0
 10
145.37860000000001
 20
-24.489999999999998
 30
0.0
 10
145.37860000000001
 20
-24.489999999999998
 30
0.0
 10
135.8329
 20
-24.5291
 30
0.0
 10
135.8329
 20
-24.5291
 30
0.0
 10
135.8329
 20
-24.5291
 30
0.0
 10
135.8329
 20
-24.5291
 30
0.0
 10
133.2183
 20
-17.947199999999999
 30
0.0
 10
133.2183
 20
-17.947199999999999
 30
0.0
 10
133.2183
 20
-17.947199999999999
 30
0.0
 10
132.9879
 20
-17.371099999999998
 30
0.0
 10
132.52250000000001
 20
-16.9208
 30
0.0
 10
131.9391
 20
-16.709800000000001
 30
0.0
 10
131.9391
 20
-16.709800000000001
 30
0.0
 10
131.35570000000001
 20
-16.4986
 30
0.0
 10
130.7098
 20
-16.546800000000001
 30
0.0
 10
130.16419999999999
 20
-16.842300000000002
 30
0.0
 10
130.16419999999999
 20
-16.842300000000002
 30
0.0
 10
130.16419999999999
 20
-16.842300000000002
 30
0.0
 10
122.9344
 20
-31.427199999999999
 30
0.0
 10
122.9344
 20
-31.427199999999999
 30
0.0
 10
122.9344
 20
-31.427199999999999
 30
0.0
 10
122.8274
 20
-31.817699999999999
 30
0.0
 10
122.56189999999999
 20
-32.145400000000002
 30
0.0
 10
122.2022
 20
-32.331000000000003
 30
0.0
 10
122.2022
 20
-32.331000000000003
 30
0.0
 10
121.8425
 20
-32.5169
 30
0.0
 10
121.4216
 20
-32.543599999999998
 30
0.0
 10
121.04130000000001
 20
-32.405000000000001
 30
0.0
 10
121.04130000000001
 20
-32.405000000000001
 30
0.0
 10
120.66200000000001
 20
-32.265900000000002
 30
0.0
 10
120.3582
 20
-31.9742
 30
0.0
 10
120.20350000000001
 20
-31.601099999999999
 30
0.0
 10
120.20350000000001
 20
-31.601099999999999
 30
0.0
 10
120.0488
 20
-31.227599999999999
 30
0.0
 10
120.0574
 20
-30.806799999999999
 30
0.0
 10
120.22709999999999
 20
-30.440100000000001
 30
0.0
 10
120.22709999999999
 20
-30.440100000000001
 30
0.0
 10
120.22709999999999
 20
-30.440100000000001
 30
0.0
 10
120.17140000000001
 20
-30.591899999999999
 30
0.0
 10
120.17140000000001
 20
-30.591899999999999
 30
0.0
 10
120.17140000000001
 20
-30.591899999999999
 30
0.0
 10
120.17140000000001
 20
-30.591899999999999
 30
0.0
 10
123.73869999999999
 20
-20.957599999999999
 30
0.0
 10
123.73869999999999
 20
-20.957599999999999
 30
0.0
 10
123.73869999999999
 20
-20.957599999999999
 30
0.0
 10
123.73869999999999
 20
-20.957599999999999
 30
0.0
 10
128.6815
 20
-11.770300000000001
 30
0.0
 10
128.6815
 20
-11.770300000000001
 30
0.0
 10
128.6815
 20
-11.770300000000001
 30
0.0
 10
129.05350000000001
 20
-9.6335999999999995
 30
0.0
 10
128.8135
 20
-7.4348999999999998
 30
0.0
 10
127.9889
 20
-5.4288999999999996
 30
0.0
 10
127.9889
 20
-5.4288999999999996
 30
0.0
 10
123.1315
 20
-5.6816000000000004
 30
0.0
 10
118.9294
 20
-8.8957999999999995
 30
0.0
 10
117.4139
 20
-13.5177
 30
0.0
 10
117.4139
 20
-13.5177
 30
0.0
 10
117.4139
 20
-13.5177
 30
0.0
 10
113.9389
 20
-29.084299999999999
 30
0.0
 10
113.9389
 20
-29.084299999999999
 30
0.0
 10
113.9389
 20
-29.084299999999999
 30
0.0
 10
113.9389
 20
-29.084299999999999
 30
0.0
 10
110.4641
 20
-44.650700000000001
 30
0.0
 10
110.4641
 20
-44.650700000000001
 30
0.0
 10
110.4641
 20
-44.650700000000001
 30
0.0
 10
110.0788
 20
-46.005600000000001
 30
0.0
 10
110.34480000000001
 20
-47.462800000000001
 30
0.0
 10
111.18429999999999
 20
-48.594200000000001
 30
0.0
 10
111.18429999999999
 20
-48.594200000000001
 30
0.0
 10
112.02379999999999
 20
-49.7254
 30
0.0
 10
113.3416
 20
-50.4024
 30
0.0
 10
114.7501
 20
-50.426000000000002
 30
0.0
 10
114.7501
 20
-50.426000000000002
 30
0.0
 10
114.7501
 20
-50.426000000000002
 30
0.0
 10
117.3961
 20
-44.105800000000002
 30
0.0
 10
117.3961
 20
-44.105800000000002
 30
0.0
 10
117.3961
 20
-44.105800000000002
 30
0.0
 10
117.3961
 20
-44.105800000000002
 30
0.0
 10
133.89250000000001
 20
-33.221299999999999
 30
0.0
 10
133.89250000000001
 20
-33.221299999999999
 30
0.0
 10
133.89250000000001
 20
-33.221299999999999
 30
0.0
 10
133.89250000000001
 20
-33.221299999999999
 30
0.0
 10
154.39920000000001
 20
-33.136099999999999
 30
0.0
 10
154.39920000000001
 20
-33.136099999999999
 30
0.0
 10
154.39920000000001
 20
-33.136099999999999
 30
0.0
 10
154.39920000000001
 20
-33.136099999999999
 30
0.0
 10
160.9297
 20
-43.563600000000001
 30
0.0
 10
160.9297
 20
-43.563600000000001
 30
0.0
 10
160.9297
 20
-43.563600000000001
 30
0.0
 10
160.9297
 20
-43.563600000000001
 30
0.0
 10
158.18899999999999
 20
-50.107700000000001
 30
0.0
 10
158.18899999999999
 20
-50.107700000000001
 30
0.0
 10
158.18899999999999
 20
-50.107700000000001
 30
0.0
 10
161.8903
 20
-51.048200000000001
 30
0.0
 10
165.7114
 20
-49.078499999999998
 30
0.0
 10
167.0924
 20
-45.518099999999997
 30
0.0
 10
167.0924
 20
-45.518099999999997
 30
0.0
 10
167.0924
 20
-45.518099999999997
 30
0.0
 10
178.3313
 20
-25.9816
 30
0.0
 10
178.3313
 20
-25.9816
 30
0.0
 10
178.3313
 20
-25.9816
 30
0.0
 10
179.5335
 20
-24.602699999999999
 30
0.0
 10
180.5367
 20
-23.0624
 30
0.0
 10
181.31139999999999
 20
-21.405000000000001
 30
0.0
 10
181.31139999999999
 20
-21.405000000000001
 30
0.0
 10
181.55119999999999
 20
-20.942
 30
0.0
 10
181.76519999999999
 20
-20.466100000000001
 30
0.0
 10
181.95269999999999
 20
-19.979199999999999
 30
0.0
  0
SPLINE
  5
39
100
AcDbEntity
  8
0
100
AcDbSpline
210
0.0
220
0.0
230
1.0
 70
     1
 71
     3
 72
   212
 73
   208
 74
     0
 42
0.0000000001
 43
0.0000000001
 40
0.0
 40
0.0
 40
0.0
 40
0.0
 40
0.0192307692307692
 40
0.0192307692307692
 40
0.0192307692307692
 40
0.0192307692307692
 40
0.0384615384615385
 40
0.0384615384615385
 40
0.0384615384615385
 40
0.0384615384615385
 40
0.0576923076923077
 40
0.0576923076923077
 40
0.0576923076923077
 40
0.0576923076923077
 40
0.0769230769230769
 40
0.0769230769230769
 40
0.0769230769230769
 40
0.0769230769230769
 40
0.0961538461538462
 40
0.0961538461538462
 40
0.0961538461538462
 40
0.0961538461538462
 40
0.1153846153846154
 40
0.1153846153846154
 40
0.1153846153846154
 40
0.1153846153846154
 40
0.1346153846153846
 40
0.1346153846153846
 40
0.1346153846153846
 40
0.1346153846153846
 40
0.1538461538461539
 40
0.1538461538461539
 40
0.1538461538461539
 40
0.1538461538461539
 40
0.1730769230769231
 40
0.1730769230769231
 40
0.1730769230769231
 40
0.1730769230769231
 40
0.1923076923076923
 40
0.1923076923076923
 40
0.1923076923076923
 40
0.1923076923076923
 40
0.2115384615384615
 40
0.2115384615384615
 40
0.2115384615384615
 40
0.2115384615384615
 40
0.2307692307692307
 40
0.2307692307692307
 40
0.2307692307692307
 40
0.2307692307692307
 40
0.2499999999999999
 40
0.2499999999999999
 40
0.2499999999999999
 40
0.2499999999999999
 40
0.2692307692307692
 40
0.2692307692307692
 40
0.2692307692307692
 40
0.2692307692307692
 40
0.2884615384615384
 40
0.2884615384615384
 40
0.2884615384615384
 40
0.2884615384615384
 40
0.3076923076923076
 40
0.3076923076923076
 40
0.3076923076923076
 40
0.3076923076923076
 40
0.3269230769230768
 40
0.3269230769230768
 40
0.3269230769230768
 40
0.3269230769230768
 40
0.346153846153846
 40
0.346153846153846
 40
0.346153846153846
 40
0.346153846153846
 40
0.3653846153846153
 40
0.3653846153846153
 40
0.3653846153846153
 40
0.3653846153846153
 40
0.3846153846153845
 40
0.3846153846153845
 40
0.3846153846153845
 40
0.3846153846153845
 40
0.4038461538461537
 40
0.4038461538461537
 40
0.4038461538461537
 40
0.4038461538461537
 40
0.4230769230769229
 40
0.4230769230769229
 40
0.4230769230769229
 40
0.4230769230769229
 40
0.4423076923076921
 40
0.4423076923076921
 40
0.4423076923076921
 40
0.4423076923076921
 40
0.4615384615384613
 40
0.4615384615384613
 40
0.4615384615384613
 40
0.4615384615384613
 40
0.4807692307692306
 40
0.4807692307692306
 40
0.4807692307692306
 40
0.4807692307692306
 40
0.4999999999999998
 40
0.4999999999999998
 40
0.4999999999999998
 40
0.4999999999999998
 40
0.5192307692307691
 40
0.5192307692307691
 40
0.5192307692307691
 40
0.5192307692307691
 40
0.5384615384615383
 40
0.5384615384615383
 40
0.5384615384615383
 40
0.5384615384615383
 40
0.5576923076923076
 40
0.5576923076923076
 40
0.5576923076923076
 40
0.5576923076923076
 40
0.5769230769230769
 40
0.5769230769230769
 40
0.5769230769230769
 40
0.5769230769230769
 40
0.5961538461538462
 40
0.5961538461538462
 40
0.5961538461538462
 40
0.5961538461538462
 40
0.6153846153846154
 40
0.6153846153846154
 40
0.6153846153846154
 40
0.6153846153846154
 40
0.6346153846153847
 40
0.6346153846153847
 40
0.6346153846153847
 40
0.6346153846153847
 40
0.653846153846154
 40
0.653846153846154
 40
0.653846153846154
 40
0.653846153846154
 40
0.6730769230769232
 40
0.6730769230769232
 40
0.6730769230769232
 40
0.6730769230769232
 40
0.6923076923076925
 40
0.6923076923076925
 40
0.6923076923076925
 40
0.6923076923076925
 40
0.7115384615384618
 40
0.7115384615384618
 40
0.7115384615384618
 40
0.7115384615384618
 40
0.7307692307692311
 40
0.7307692307692311
 40
0.7307692307692311
 40
0.7307692307692311
 40
0.7500000000000003
 40
0.7500000000000003
 40
0.7500000000000003
 40
0.7500000000000003
 40
0.7692307692307696
 40
0.7692307692307696
 40
0.7692307692307696
 40
0.7692307692307696
 40
0.7884615384615389
 40
0.7884615384615389
 40
0.7884615384615389
 40
0.7884615384615389
 40
0.8076923076923082
 40
0.8076923076923082
 40
0.8076923076923082
 40
0.8076923076923082
 40
0.8269230769230774
 40
0.8269230769230774
 40
0.8269230769230774
 40
0.8269230769230774
 40
0.8461538461538467
 40
0.8461538461538467
 40
0.8461538461538467
 40
0.8461538461538467
 40
0.865384615384616
 40
0.865384615384616
 40
0.865384615384616
 40
0.865384615384616
 40
0.8846153846153853
 40
0.8846153846153853
 40
0.8846153846153853
 40
0.8846153846153853
 40
0.9038461538461545
 40
0.9038461538461545
 40
0.9038461538461545
 40
0.9038461538461545
 40
0.9230769230769238
 40
0.9230769230769238
 40
0.9230769230769238
 40
0.9230769230769238
 40
0.9423076923076931
 40
0.9423076923076931
 40
0.9423076923076931
 40
0.9423076923076931
 40
0.9615384615384623
 40
0.9615384615384623
 40
0.9615384615384623
 40
0.9615384615384623
 40
0.9807692307692316
 40
0.9807692307692316
 40
0.9807692307692316
 40
0.9807692307692316
 40
1.0
 40
1.0
 40
1.0
 40
1.0
 10
85.244600000000005
 20
93.885599999999997
 30
0.0
 10
85.401899999999998
 20
100.31950000000001
 30
0.0
 10
82.997100000000003
 20
106.55240000000001
 30
0.0
 10
78.559100000000001
 20
111.2129
 30
0.0
 10
78.559100000000001
 20
111.2129
 30
0.0
 10
74.121200000000002
 20
115.8736
 30
0.0
 10
68.013300000000001
 20
118.5804
 30
0.0
 10
61.579500000000003
 20
118.7377
 30
0.0
 10
61.579500000000003
 20
118.7377
 30
0.0
 10
61.181600000000003
 20
118.75490000000001
 30
0.0
 10
60.783200000000001
 20
118.7621
 30
0.0
 10
60.384999999999998
 20
118.7593
 30
0.0
 10
60.384999999999998
 20
118.7593
 30
0.0
 10
60.384999999999998
 20
118.7593
 30
0.0
 10
51.228900000000003
 20
118.7578
 30
0.0
 10
51.228900000000003
 20
118.7578
 30
0.0
 10
51.228900000000003
 20
118.7578
 30
0.0
 10
51.228900000000003
 20
118.7578
 30
0.0
 10
51.232599999999998
 20
94.993700000000004
 30
0.0
 10
51.232599999999998
 20
94.993700000000004
 30
0.0
 10
51.232599999999998
 20
94.993700000000004
 30
0.0
 10
51.232599999999998
 20
94.183899999999994
 30
0.0
 10
50.5764
 20
93.527199999999993
 30
0.0
 10
49.7667
 20
93.527100000000004
 30
0.0
 10
49.7667
 20
93.527100000000004
 30
0.0
 10
48.956699999999998
 20
93.527000000000001
 30
0.0
 10
48.300199999999997
 20
94.183400000000006
 30
0.0
 10
48.3001
 20
94.993200000000002
 30
0.0
 10
48.3001
 20
94.993200000000002
 30
0.0
 10
48.3001
 20
94.993200000000002
 30
0.0
 10
48.296399999999998
 20
118.7576
 30
0.0
 10
48.296399999999998
 20
118.7576
 30
0.0
 10
48.296399999999998
 20
118.7576
 30
0.0
 10
48.296399999999998
 20
118.7576
 30
0.0
 10
20.817499999999999
 20
118.75320000000001
 30
0.0
 10
20.817499999999999
 20
118.75320000000001
 30
0.0
 10
20.817499999999999
 20
118.75320000000001
 30
0.0
 10
20.817499999999999
 20
118.75320000000001
 30
0.0
 10
20.821300000000001
 20
94.988900000000001
 30
0.0
 10
20.821300000000001
 20
94.988900000000001
 30
0.0
 10
20.821300000000001
 20
94.988900000000001
 30
0.0
 10
20.821999999999999
 20
94.599900000000005
 30
0.0
 10
20.668199999999999
 20
94.226600000000005
 30
0.0
 10
20.393699999999999
 20
93.950999999999993
 30
0.0
 10
20.393699999999999
 20
93.950999999999993
 30
0.0
 10
20.119199999999999
 20
93.675399999999996
 30
0.0
 10
19.746500000000001
 20
93.520399999999995
 30
0.0
 10
19.357500000000002
 20
93.519800000000004
 30
0.0
 10
19.357500000000002
 20
93.519800000000004
 30
0.0
 10
18.5471
 20
93.519099999999995
 30
0.0
 10
17.889600000000002
 20
94.1755
 30
0.0
 10
17.888999999999999
 20
94.986000000000004
 30
0.0
 10
17.888999999999999
 20
94.986000000000004
 30
0.0
 10
17.888999999999999
 20
94.986000000000004
 30
0.0
 10
17.841799999999999
 20
118.7514
 30
0.0
 10
17.841799999999999
 20
118.7514
 30
0.0
 10
17.841799999999999
 20
118.7514
 30
0.0
 10
4.7786999999999997
 20
118.5478
 30
0.0
 10
-5.8578000000000001
 20
108.18980000000001
 30
0.0
 10
-6.4081999999999999
 20
95.136899999999997
 30
0.0
 10
-6.4081999999999999
 20
95.136899999999997
 30
0.0
 10
-6.4313000000000002
 20
94.554299999999998
 30
0.0
 10
-6.9104000000000001
 20
94.093900000000005
 30
0.0
 10
-7.4934000000000003
 20
94.093900000000005
 30
0.0
 10
-7.4934000000000003
 20
94.093900000000005
 30
0.0
 10
-7.4934000000000003
 20
94.093900000000005
 30
0.0
 10
-7.5153999999999996
 20
94.093900000000005
 30
0.0
 10
-7.5153999999999996
 20
94.093900000000005
 30
0.0
 10
-7.5153999999999996
 20
94.093900000000005
 30
0.0
 10
-7.8033999999999999
 20
94.093800000000002
 30
0.0
 10
-8.0798000000000005
 20
94.208200000000005
 30
0.0
 10
-8.2834000000000003
 20
94.412000000000006
 30
0.0
 10
-8.2834000000000003
 20
94.412000000000006
 30
0.0
 10
-8.4870000000000001
 20
94.615600000000001
 30
0.0
 10
-8.6014999999999997
 20
94.8917
 30
0.0
 10
-8.6015999999999995
 20
95.179900000000004
 30
0.0
 10
-8.6015999999999995
 20
95.179900000000004
 30
0.0
 10
-8.6015999999999995
 20
95.179900000000004
 30
0.0
 10
-8.6052
 20
118.5531
 30
0.0
 10
-8.6052
 20
118.5531
 30
0.0
 10
-8.6052
 20
118.5531
 30
0.0
 10
-8.6052
 20
118.5531
 30
0.0
 10
-43.469700000000003
 20
118.74299999999999
 30
0.0
 10
-43.469700000000003
 20
118.74299999999999
 30
0.0
 10
-43.469700000000003
 20
118.74299999999999
 30
0.0
 10
-43.469700000000003
 20
118.74299999999999
 30
0.0
 10
-43.466099999999997
 20
95.174499999999995
 30
0.0
 10
-43.466099999999997
 20
95.174499999999995
 30
0.0
 10
-43.466099999999997
 20
95.174499999999995
 30
0.0
 10
-43.465800000000002
 20
94.886300000000006
 30
0.0
 10
-43.580199999999998
 20
94.610100000000003
 30
0.0
 10
-43.783999999999999
 20
94.406499999999994
 30
0.0
 10
-43.783999999999999
 20
94.406499999999994
 30
0.0
 10
-43.9876
 20
94.202600000000004
 30
0.0
 10
-44.2639
 20
94.088200000000001
 30
0.0
 10
-44.552100000000003
 20
94.088200000000001
 30
0.0
 10
-44.552100000000003
 20
94.088200000000001
 30
0.0
 10
-44.552100000000003
 20
94.088200000000001
 30
0.0
 10
-44.595500000000001
 20
94.088300000000004
 30
0.0
 10
-44.595500000000001
 20
94.088300000000004
 30
0.0
 10
-44.595500000000001
 20
94.088300000000004
 30
0.0
 10
-45.178699999999999
 20
94.087400000000002
 30
0.0
 10
-45.658499999999997
 20
94.547799999999995
 30
0.0
 10
-45.681899999999999
 20
95.130799999999994
 30
0.0
 10
-45.681899999999999
 20
95.130799999999994
 30
0.0
 10
-46.235999999999997
 20
108.1833
 30
0.0
 10
-56.875500000000002
 20
118.5378
 30
0.0
 10
-69.938500000000005
 20
118.7377
 30
0.0
 10
-69.938500000000005
 20
118.7377
 30
0.0
 10
-69.938500000000005
 20
118.7377
 30
0.0
 10
-69.945499999999996
 20
94.974800000000002
 30
0.0
 10
-69.945499999999996
 20
94.974800000000002
 30
0.0
 10
-69.945499999999996
 20
94.974800000000002
 30
0.0
 10
-69.945400000000006
 20
94.162000000000006
 30
0.0
 10
-70.604299999999995
 20
93.502899999999997
 30
0.0
 10
-71.417000000000002
 20
93.502799999999993
 30
0.0
 10
-71.417000000000002
 20
93.502799999999993
 30
0.0
 10
-72.229799999999997
 20
93.502700000000004
 30
0.0
 10
-72.888800000000003
 20
94.161500000000004
 30
0.0
 10
-72.888900000000007
 20
94.974299999999999
 30
0.0
 10
-72.888900000000007
 20
94.974299999999999
 30
0.0
 10
-72.888900000000007
 20
94.974299999999999
 30
0.0
 10
-72.892600000000002
 20
118.73869999999999
 30
0.0
 10
-72.892600000000002
 20
118.73869999999999
 30
0.0
 10
-72.892600000000002
 20
118.73869999999999
 30
0.0
 10
-72.892600000000002
 20
118.73869999999999
 30
0.0
 10
-98.459999999999994
 20
118.7345
 30
0.0
 10
-98.459999999999994
 20
118.7345
 30
0.0
 10
-98.459999999999994
 20
118.7345
 30
0.0
 10
-98.459999999999994
 20
118.7345
 30
0.0
 10
-98.456199999999995
 20
94.970299999999995
 30
0.0
 10
-98.456199999999995
 20
94.970299999999995
 30
0.0
 10
-98.456199999999995
 20
94.970299999999995
 30
0.0
 10
-98.456000000000003
 20
94.160399999999996
 30
0.0
 10
-99.112499999999997
 20
93.504000000000005
 30
0.0
 10
-99.922200000000004
 20
93.503799999999998
 30
0.0
 10
-99.922200000000004
 20
93.503799999999998
 30
0.0
 10
-100.73220000000001
 20
93.503699999999995
 30
0.0
 10
-101.3887
 20
94.160200000000003
 30
0.0
 10
-101.3887
 20
94.969700000000003
 30
0.0
 10
-101.3887
 20
94.969700000000003
 30
0.0
 10
-101.3887
 20
94.969700000000003
 30
0.0
 10
-101.3927
 20
118.7342
 30
0.0
 10
-101.3927
 20
118.7342
 30
0.0
 10
-101.3927
 20
118.7342
 30
0.0
 10
-101.3927
 20
118.7342
 30
0.0
 10
-110.5701
 20
118.73269999999999
 30
0.0
 10
-110.5701
 20
118.73269999999999
 30
0.0
 10
-110.5701
 20
118.73269999999999
 30
0.0
 10
-117.0067
 20
118.89019999999999
 30
0.0
 10
-123.2423
 20
116.4841
 30
0.0
 10
-127.90519999999999
 20
112.0441
 30
0.0
 10
-127.90519999999999
 20
112.0441
 30
0.0
 10
-132.56780000000001
 20
107.6041
 30
0.0
 10
-135.2757
 20
101.4936
 30
0.0
 10
-135.4331
 20
95.056899999999999
 30
0.0
 10
-135.4331
 20
95.056899999999999
 30
0.0
 10
-135.59059999999999
 20
88.6203
 30
0.0
 10
-133.18450000000001
 20
82.384600000000006
 30
0.0
 10
-128.74449999999999
 20
77.721999999999994
 30
0.0
 10
-128.74449999999999
 20
77.721999999999994
 30
0.0
 10
-124.3043
 20
73.059299999999993
 30
0.0
 10
-118.1939
 20
70.351299999999995
 30
0.0
 10
-111.7573
 20
70.193899999999999
 30
0.0
 10
-111.7573
 20
70.193899999999999
 30
0.0
 10
-111.7573
 20
70.193899999999999
 30
0.0
 10
-60.706499999999998
 20
70.201800000000006
 30
0.0
 10
-60.706499999999998
 20
70.201800000000006
 30
0.0
 10
-60.706499999999998
 20
70.201800000000006
 30
0.0
 10
-60.706499999999998
 20
70.201800000000006
 30
0.0
 10
-27.496200000000002
 20
70.206800000000001
 30
0.0
 10
-27.496200000000002
 20
70.206800000000001
 30
0.0
 10
-27.496200000000002
 20
70.206800000000001
 30
0.0
 10
-27.496200000000002
 20
70.206800000000001
 30
0.0
 10
-27.4998
 20
92.809100000000001
 30
0.0
 10
-27.4998
 20
92.809100000000001
 30
0.0
 10
-27.4998
 20
92.809100000000001
 30
0.0
 10
-27.4998
 20
93.618799999999993
 30
0.0
 10
-26.843699999999998
 20
94.275199999999998
 30
0.0
 10
-26.034400000000002
 20
94.275599999999997
 30
0.0
 10
-26.034400000000002
 20
94.275599999999997
 30
0.0
 10
-25.224799999999998
 20
94.276200000000003
 30
0.0
 10
-24.568000000000001
 20
93.620500000000007
 30
0.0
 10
-24.5671
 20
92.8108
 30
0.0
 10
-24.5671
 20
92.8108
 30
0.0
 10
-24.5671
 20
92.8108
 30
0.0
 10
-24.563700000000001
 20
70.207499999999996
 30
0.0
 10
-24.563700000000001
 20
70.207499999999996
 30
0.0
 10
-24.563700000000001
 20
70.207499999999996
 30
0.0
 10
-24.563700000000001
 20
70.207499999999996
 30
0.0
 10
19.695799999999998
 20
70.214399999999998
 30
0.0
 10
19.695799999999998
 20
70.214399999999998
 30
0.0
 10
19.695799999999998
 20
70.214399999999998
 30
0.0
 10
19.695799999999998
 20
70.214399999999998
 30
0.0
 10
60.392499999999998
 20
70.220699999999994
 30
0.0
 10
60.392499999999998
 20
70.220699999999994
 30
0.0
 10
60.392499999999998
 20
70.220699999999994
 30
0.0
 10
66.8262
 20
70.063500000000005
 30
0.0
 10
73.058899999999994
 20
72.468100000000007
 30
0.0
 10
77.719800000000006
 20
76.906000000000006
 30
0.0
 10
77.719800000000006
 20
76.906000000000006
 30
0.0
 10
82.380399999999995
 20
81.344300000000004
 30
0.0
 10
85.087199999999996
 20
87.451899999999995
 30
0.0
 10
85.244600000000005
 20
93.885599999999997
 30
0.0
 10
85.244600000000005
 20
93.885599999999997
 30
0.0
 10
85.244600000000005
 20
93.885599999999997
 30
0.0
 10
85.244600000000005
 20
93.885599999999997
 30
0.0
 10
85.244600000000005
 20
93.885599999999997
 30
0.0
  0
ENDSEC
  0
SECTION
  2
OBJECTS
  0
DICTIONARY
  5
19
100
AcDbDictionary
280
     0
281
     1
  3
ACAD_GROUP
350
1A
  3
ACAD_MLINESTYLE
350
1B
  3
ACAD_LAYOUT
350
1E
  3
ACAD_PLOTSETTINGS
350
22
  3
ACAD_PLOTSTYLENAME
350
1F
  3
ACAD_WIPEOUT_VARS
350
23
  0
DICTIONARY
  5
1A
102
{ACAD_REACTORS
330
19
102
}
100
AcDbDictionary
280
     0
281
     1
  0
DICTIONARY
  5
1B
102
{ACAD_REACTORS
330
19
102
}
100
AcDbDictionary
280
     0
281
     1
  3
Standard
350
1C
  0
MLINESTYLE
  5
1C
102
{ACAD_REACTORS
330
1B
102
}
100
AcDbMlineStyle
  2
Standard
 70
     0
  3

 62
     0
 51
90.0
 52
90.0
 71
     2
 49
0.5
 62
   256
  6
BYLAYER
 49
-0.5
 62
   256
  6
BYLAYER
  0
ACDBDICTIONARYWDFLT
  5
1F
102
{ACAD_REACTORS
330
19
102
}
100
AcDbDictionary
281
     1
  3
Normal
350
1D
100
AcDbDictionaryWithDefault
340
1D
  0
ACDBPLACEHOLDER
  5
1D
102
{ACAD_REACTORS
330
1F
102
}
  0
LAYOUT
  5
20
102
{ACAD_REACTORS
330
1E
102
}
100
AcDbPlotSettings
  1

  2

  4

  6

 40
0.0
 41
0.0
 42
0.0
 43
0.0
 44
0.0
 45
0.0
 46
0.0
 47
0.0
 48
0.0
 49
0.0
140
0.0
141
0.0
142
1.0
143
1.0
 70
  1024
 72
     0
 73
     0
 74
     0
  7

 75
     0
147
1.0
148
0.0
149
0.0
100
AcDbLayout
  1
Model
 70
     0
 71
     0
 10
0.0
 20
0.0
 11
0.0
 21
0.0
 12
0.0
 22
0.0
 32
0.0
 14
0.0
 24
0.0
 34
0.0
 15
0.0
 25
0.0
 35
0.0
146
0.0
 13
0.0
 23
0.0
 33
0.0
 16
0.0
 26
0.0
 36
0.0
 17
0.0
 27
0.0
 37
0.0
 76
     0
330
A
331
0
345
0
346
0
  0
LAYOUT
  5
21
102
{ACAD_REACTORS
330
1E
102
}
100
AcDbPlotSettings
  1

  2

  4

  6

 40
0.0
 41
0.0
 42
0.0
 43
0.0
 44
0.0
 45
0.0
 46
0.0
 47
0.0
 48
0.0
 49
0.0
140
0.0
141
0.0
142
1.0
143
1.0
 70
     0
 72
     0
 73
     0
 74
     0
  7

 75
     0
147
1.0
148
0.0
149
0.0
100
AcDbLayout
  1
Layout1
 70
     0
 71
     0
 10
0.0
 20
0.0
 11
0.0
 21
0.0
 12
0.0
 22
0.0
 32
0.0
 14
0.0
 24
0.0
 34
0.0
 15
0.0
 25
0.0
 35
0.0
146
0.0
 13
0.0
 23
0.0
 33
0.0
 16
0.0
 26
0.0
 36
0.0
 17
0.0
 27
0.0
 37
0.0
 76
     0
330
B
331
0
345
0
346
0
  0
DICTIONARY
  5
1E
102
{ACAD_REACTORS
330
19
102
}
100
AcDbDictionary
280
     0
281
     1
  3
Layout1
350
21
  3
Model
350
20
  0
DICTIONARY
  5
22
102
{ACAD_REACTORS
330
19
102
}
100
AcDbDictionary
280
     0
281
     1
  0
WIPEOUTVARIABLES
  5
23
100
AcDbWipeoutVariables
 70
     1
  0
ENDSEC
  0
EOF
