999
"DXF R12 Output" (www.mydxf.blogspot.com)
 0 
SECTION
 2 
HEADER
 9 
$ACADVER
 1 
AC1009
 9 
$EXTMIN
 10 
 0 
 20 
 0 
 9 
$EXTMAX
 10 
 8.5 
 20 
 11 
 0 
ENDSEC
 0 
SECTION
 2 
ENTITIES
0
LINE
8
Layer 1
10
194.327777
20
25.940594
11
190.839186
21
29.581910
0
LINE
8
Layer 1
10
190.839186
20
29.581910
11
198.652328
21
29.600480
0
LINE
8
Layer 1
10
198.652328
20
29.600480
11
202.085781
21
29.676428
0
LINE
8
Layer 1
10
202.085781
20
29.676428
11
204.188211
21
29.892806
0
LINE
8
Layer 1
10
204.188211
20
29.892806
11
204.759419
21
30.057469
0
LINE
8
Layer 1
10
204.759419
20
30.057469
11
205.020822
21
30.261816
0
LINE
8
Layer 1
10
205.020822
20
30.261816
11
204.980071
21
30.507373
0
LINE
8
Layer 1
10
204.980071
20
30.507373
11
204.644817
21
30.795663
0
LINE
8
Layer 1
10
204.644817
20
30.795663
11
204.332195
21
31.083724
0
LINE
8
Layer 1
10
204.332195
20
31.083724
11
204.352903
21
31.332846
0
LINE
8
Layer 1
10
204.352903
20
31.332846
11
204.714983
21
31.544457
0
LINE
8
Layer 1
10
204.714983
20
31.544457
11
205.426477
21
31.719986
0
LINE
8
Layer 1
10
205.426477
20
31.719986
11
207.929875
21
31.968512
0
LINE
8
Layer 1
10
207.929875
20
31.968512
11
211.927432
21
32.089849
0
LINE
8
Layer 1
10
211.927432
20
32.089849
11
217.123562
21
32.185889
0
LINE
8
Layer 1
10
217.123562
20
32.185889
11
219.377770
21
32.416500
0
LINE
8
Layer 1
10
219.377770
20
32.416500
11
219.548082
21
32.637964
0
LINE
8
Layer 1
10
219.548082
20
32.637964
11
219.158627
21
32.959902
0
LINE
8
Layer 1
10
219.158627
20
32.959902
11
216.934703
21
33.994313
0
LINE
8
Layer 1
10
216.934703
20
33.994313
11
214.725375
21
34.762617
0
LINE
8
Layer 1
10
214.725375
20
34.762617
11
211.737779
21
35.533652
0
LINE
8
Layer 1
10
211.737779
20
35.533652
11
208.363692
21
36.217797
0
LINE
8
Layer 1
10
208.363692
20
36.217797
11
204.994891
21
36.725434
0
LINE
8
Layer 1
10
204.994891
20
36.725434
11
201.871333
21
37.218221
0
LINE
8
Layer 1
10
201.871333
20
37.218221
11
199.165002
21
37.861897
0
LINE
8
Layer 1
10
199.165002
20
37.861897
11
197.165691
21
38.573026
0
LINE
8
Layer 1
10
197.165691
20
38.573026
11
196.521727
21
38.927811
0
LINE
8
Layer 1
10
196.521727
20
38.927811
11
196.163190
21
39.268171
0
LINE
8
Layer 1
10
196.163190
20
39.268171
11
195.662657
21
40.640621
0
LINE
8
Layer 1
10
195.662657
20
40.640621
11
195.030105
21
43.195858
0
LINE
8
Layer 1
10
195.030105
20
43.195858
11
193.693133
21
50.394387
0
LINE
8
Layer 1
10
193.693133
20
50.394387
11
193.151760
21
54.403462
0
LINE
8
Layer 1
10
193.151760
20
54.403462
11
192.924812
21
57.753582
0
LINE
8
Layer 1
10
192.924812
20
57.753582
11
193.060477
21
60.591500
0
LINE
8
Layer 1
10
193.060477
20
60.591500
11
193.606942
21
63.063967
0
LINE
8
Layer 1
10
193.606942
20
63.063967
11
194.612396
21
65.317737
0
LINE
8
Layer 1
10
194.612396
20
65.317737
11
196.125026
21
67.499561
0
LINE
8
Layer 1
10
196.125026
20
67.499561
11
198.193021
21
69.756191
0
LINE
8
Layer 1
10
198.193021
20
69.756191
11
200.864569
21
72.234380
0
LINE
8
Layer 1
10
200.864569
20
72.234380
11
203.763260
21
74.565867
0
LINE
8
Layer 1
10
203.763260
20
74.565867
11
207.113402
21
76.887542
0
LINE
8
Layer 1
10
207.113402
20
76.887542
11
210.734081
21
79.106615
0
LINE
8
Layer 1
10
210.734081
20
79.106615
11
214.444382
21
81.130296
0
LINE
8
Layer 1
10
214.444382
20
81.130296
11
218.063390
21
82.865794
0
LINE
8
Layer 1
10
218.063390
20
82.865794
11
221.410191
21
84.220318
0
LINE
8
Layer 1
10
221.410191
20
84.220318
11
224.303870
21
85.101079
0
LINE
8
Layer 1
10
224.303870
20
85.101079
11
226.563513
21
85.415287
0
LINE
8
Layer 1
10
226.563513
20
85.415287
11
228.172140
21
85.541044
0
LINE
8
Layer 1
10
228.172140
20
85.541044
11
229.243146
21
85.876949
0
LINE
8
Layer 1
10
229.243146
20
85.876949
11
229.796203
21
86.360951
0
LINE
8
Layer 1
10
229.796203
20
86.360951
11
229.850983
21
86.931000
0
LINE
8
Layer 1
10
229.850983
20
86.931000
11
229.427157
21
87.525045
0
LINE
8
Layer 1
10
229.427157
20
87.525045
11
228.544396
21
88.081036
0
LINE
8
Layer 1
10
228.544396
20
88.081036
11
227.222372
21
88.536923
0
LINE
8
Layer 1
10
227.222372
20
88.536923
11
225.480756
21
88.830655
0
LINE
8
Layer 1
10
225.480756
20
88.830655
11
224.312066
21
88.829004
0
LINE
8
Layer 1
10
224.312066
20
88.829004
11
222.893083
21
88.604512
0
LINE
8
Layer 1
10
222.893083
20
88.604512
11
219.135507
21
87.422514
0
LINE
8
Layer 1
10
219.135507
20
87.422514
11
213.870572
21
85.155672
0
LINE
8
Layer 1
10
213.870572
20
85.155672
11
206.760818
21
81.674995
0
LINE
8
Layer 1
10
206.760818
20
81.674995
11
186.741717
21
71.718675
0
LINE
8
Layer 1
10
186.741717
20
71.718675
11
184.047784
21
70.323214
0
LINE
8
Layer 1
10
184.047784
20
70.323214
11
183.142952
21
69.693276
0
LINE
8
Layer 1
10
183.142952
20
69.693276
11
182.484311
21
69.049530
0
LINE
8
Layer 1
10
182.484311
20
69.049530
11
182.035439
21
68.347724
0
LINE
8
Layer 1
10
182.035439
20
68.347724
11
181.759911
21
67.543606
0
LINE
8
Layer 1
10
181.759911
20
67.543606
11
181.583197
21
65.451423
0
LINE
8
Layer 1
10
181.583197
20
65.451423
11
181.476796
21
63.463046
0
LINE
8
Layer 1
10
181.476796
20
63.463046
11
181.158276
21
61.780777
0
LINE
8
Layer 1
10
181.158276
20
61.780777
11
180.628666
21
60.405728
0
LINE
8
Layer 1
10
180.628666
20
60.405728
11
179.888995
21
59.339008
0
LINE
8
Layer 1
10
179.888995
20
59.339008
11
178.940291
21
58.581727
0
LINE
8
Layer 1
10
178.940291
20
58.581727
11
177.783582
21
58.134996
0
LINE
8
Layer 1
10
177.783582
20
58.134996
11
176.419896
21
57.999925
0
LINE
8
Layer 1
10
176.419896
20
57.999925
11
174.850261
21
58.177625
0
LINE
8
Layer 1
10
174.850261
20
58.177625
11
173.087213
21
58.726751
0
LINE
8
Layer 1
10
173.087213
20
58.726751
11
171.643559
21
59.627238
0
LINE
8
Layer 1
10
171.643559
20
59.627238
11
170.467110
21
60.922833
0
LINE
8
Layer 1
10
170.467110
20
60.922833
11
169.505672
21
62.657282
0
LINE
8
Layer 1
10
169.505672
20
62.657282
11
168.063751
21
64.932305
0
LINE
8
Layer 1
10
168.063751
20
64.932305
11
165.362175
21
68.360460
0
LINE
8
Layer 1
10
165.362175
20
68.360460
11
161.787461
21
72.477108
0
LINE
8
Layer 1
10
161.787461
20
72.477108
11
157.726126
21
76.817612
0
LINE
8
Layer 1
10
157.726126
20
76.817612
11
147.602962
21
87.235930
0
LINE
8
Layer 1
10
147.602962
20
87.235930
11
147.530354
21
100.587412
0
LINE
8
Layer 1
10
147.530354
20
100.587412
11
147.214482
21
111.443060
0
LINE
8
Layer 1
10
147.214482
20
111.443060
11
146.912462
21
115.855297
0
LINE
8
Layer 1
10
146.912462
20
115.855297
11
146.556973
21
118.793943
0
LINE
8
Layer 1
10
146.556973
20
118.793943
11
145.656184
21
123.649020
0
LINE
8
Layer 1
10
145.656184
20
123.649020
11
142.993429
21
115.759521
0
LINE
8
Layer 1
10
142.993429
20
115.759521
11
141.896885
21
112.092767
0
LINE
8
Layer 1
10
141.896885
20
112.092767
11
140.879631
21
107.941218
0
LINE
8
Layer 1
10
140.879631
20
107.941218
11
140.055090
21
103.814663
0
LINE
8
Layer 1
10
140.055090
20
103.814663
11
139.536686
21
100.222894
0
LINE
8
Layer 1
10
139.536686
20
100.222894
11
139.070561
21
96.552257
0
LINE
8
Layer 1
10
139.070561
20
96.552257
11
138.545248
21
94.310081
0
LINE
8
Layer 1
10
138.545248
20
94.310081
11
138.235786
21
93.656902
0
LINE
8
Layer 1
10
138.235786
20
93.656902
11
137.881996
21
93.279522
0
LINE
8
Layer 1
10
137.881996
20
93.279522
11
137.474035
21
93.150835
0
LINE
8
Layer 1
10
137.474035
20
93.150835
11
137.002057
21
93.243736
0
LINE
8
Layer 1
10
137.002057
20
93.243736
11
135.507827
21
93.715467
0
LINE
8
Layer 1
10
135.507827
20
93.715467
11
134.359622
21
93.911671
0
LINE
8
Layer 1
10
134.359622
20
93.911671
11
134.189468
21
94.178653
0
LINE
8
Layer 1
10
134.189468
20
94.178653
11
134.051993
21
94.943829
0
LINE
8
Layer 1
10
134.051993
20
94.943829
11
133.881036
21
97.754162
0
LINE
8
Layer 1
10
133.881036
20
97.754162
11
133.858658
21
101.913457
0
LINE
8
Layer 1
10
133.858658
20
101.913457
11
133.996766
21
106.992502
0
LINE
8
Layer 1
10
133.996766
20
106.992502
11
134.125956
21
113.385700
0
LINE
8
Layer 1
10
134.125956
20
113.385700
11
133.949730
21
119.122794
0
LINE
8
Layer 1
10
133.949730
20
119.122794
11
133.459194
21
124.350037
0
LINE
8
Layer 1
10
133.459194
20
124.350037
11
132.645452
21
129.213681
0
LINE
8
Layer 1
10
132.645452
20
129.213681
11
131.904999
21
133.378368
0
LINE
8
Layer 1
10
131.904999
20
133.378368
11
131.496327
21
137.059232
0
LINE
8
Layer 1
10
131.496327
20
137.059232
11
131.427149
21
140.146984
0
LINE
8
Layer 1
10
131.427149
20
140.146984
11
131.705181
21
142.532334
0
LINE
8
Layer 1
10
131.705181
20
142.532334
11
132.271300
21
144.664825
0
LINE
8
Layer 1
10
132.271300
20
144.664825
11
132.991613
21
146.771370
0
LINE
8
Layer 1
10
132.991613
20
146.771370
11
134.875089
21
150.884432
0
LINE
8
Layer 1
10
134.875089
20
150.884432
11
137.316150
21
154.827124
0
LINE
8
Layer 1
10
137.316150
20
154.827124
11
140.275332
21
158.555053
0
LINE
8
Layer 1
10
140.275332
20
158.555053
11
143.713175
21
162.023825
0
LINE
8
Layer 1
10
143.713175
20
162.023825
11
147.590217
21
165.189046
0
LINE
8
Layer 1
10
147.590217
20
165.189046
11
151.866997
21
168.006322
0
LINE
8
Layer 1
10
151.866997
20
168.006322
11
156.504053
21
170.431260
0
LINE
8
Layer 1
10
156.504053
20
170.431260
11
160.566214
21
172.337343
0
LINE
8
Layer 1
10
160.566214
20
172.337343
11
162.217499
21
173.281366
0
LINE
8
Layer 1
10
162.217499
20
173.281366
11
162.204768
21
173.460837
0
LINE
8
Layer 1
10
162.204768
20
173.460837
11
161.668164
21
173.481671
0
LINE
8
Layer 1
10
161.668164
20
173.481671
11
159.128466
21
173.156598
0
LINE
8
Layer 1
10
159.128466
20
173.156598
11
156.265242
21
172.567105
0
LINE
8
Layer 1
10
156.265242
20
172.567105
11
153.271696
21
171.651626
0
LINE
8
Layer 1
10
153.271696
20
171.651626
11
150.233220
21
170.454678
0
LINE
8
Layer 1
10
150.233220
20
170.454678
11
147.235207
21
169.020777
0
LINE
8
Layer 1
10
147.235207
20
169.020777
11
144.363052
21
167.394441
0
LINE
8
Layer 1
10
144.363052
20
167.394441
11
141.702147
21
165.620187
0
LINE
8
Layer 1
10
141.702147
20
165.620187
11
139.337887
21
163.742533
0
LINE
8
Layer 1
10
139.337887
20
163.742533
11
137.355665
21
161.805995
0
LINE
8
Layer 1
10
137.355665
20
161.805995
11
134.349261
21
158.210765
0
LINE
8
Layer 1
10
134.349261
20
158.210765
11
131.933071
21
154.571724
0
LINE
8
Layer 1
10
131.933071
20
154.571724
11
130.919905
21
152.630565
0
LINE
8
Layer 1
10
130.919905
20
152.630565
11
130.022611
21
150.552200
0
LINE
8
Layer 1
10
130.022611
20
150.552200
11
129.230629
21
148.294547
0
LINE
8
Layer 1
10
129.230629
20
148.294547
11
128.533397
21
145.815521
0
LINE
8
Layer 1
10
128.533397
20
145.815521
11
127.380945
21
140.025014
0
LINE
8
Layer 1
10
127.380945
20
140.025014
11
126.480772
21
132.844005
0
LINE
8
Layer 1
10
126.480772
20
132.844005
11
125.748393
21
123.935824
0
LINE
8
Layer 1
10
125.748393
20
123.935824
11
125.099326
21
112.963796
0
LINE
8
Layer 1
10
125.099326
20
112.963796
11
124.604942
21
104.839862
0
LINE
8
Layer 1
10
124.604942
20
104.839862
11
124.079001
21
100.190288
0
LINE
8
Layer 1
10
124.079001
20
100.190288
11
123.753693
21
98.896866
0
LINE
8
Layer 1
10
123.753693
20
98.896866
11
123.359889
21
98.146210
0
LINE
8
Layer 1
10
123.359889
20
98.146210
11
122.877389
21
97.829712
0
LINE
8
Layer 1
10
122.877389
20
97.829712
11
122.285991
21
97.838765
0
LINE
8
Layer 1
10
122.285991
20
97.838765
11
121.387663
21
98.242426
0
LINE
8
Layer 1
10
121.387663
20
98.242426
11
120.820512
21
99.046553
0
LINE
8
Layer 1
10
120.820512
20
99.046553
11
120.561409
21
100.309006
0
LINE
8
Layer 1
10
120.561409
20
100.309006
11
120.587222
21
102.087649
0
LINE
8
Layer 1
10
120.587222
20
102.087649
11
121.918984
21
124.839400
0
LINE
8
Layer 1
10
121.918984
20
124.839400
11
122.592264
21
135.845737
0
LINE
8
Layer 1
10
122.592264
20
135.845737
11
122.957488
21
139.562794
0
LINE
8
Layer 1
10
122.957488
20
139.562794
11
123.428634
21
142.515032
0
LINE
8
Layer 1
10
123.428634
20
142.515032
11
124.070850
21
145.021893
0
LINE
8
Layer 1
10
124.070850
20
145.021893
11
124.949287
21
147.402818
0
LINE
8
Layer 1
10
124.949287
20
147.402818
11
127.675417
21
153.064625
0
LINE
8
Layer 1
10
127.675417
20
153.064625
11
130.026544
21
157.236679
0
LINE
8
Layer 1
10
130.026544
20
157.236679
11
132.935966
21
161.716125
0
LINE
8
Layer 1
10
132.935966
20
161.716125
11
136.033741
21
165.965414
0
LINE
8
Layer 1
10
136.033741
20
165.965414
11
138.949927
21
169.447001
0
LINE
8
Layer 1
10
138.949927
20
169.447001
11
143.430756
21
174.589373
0
LINE
8
Layer 1
10
143.430756
20
174.589373
11
144.680651
21
176.266887
0
LINE
8
Layer 1
10
144.680651
20
176.266887
11
145.005275
21
177.017415
0
LINE
8
Layer 1
10
145.005275
20
177.017415
11
144.499697
21
177.057909
0
LINE
8
Layer 1
10
144.499697
20
177.057909
11
143.489118
21
176.802149
0
LINE
8
Layer 1
10
143.489118
20
176.802149
11
140.539140
21
175.589317
0
LINE
8
Layer 1
10
140.539140
20
175.589317
11
138.079181
21
174.146005
0
LINE
8
Layer 1
10
138.079181
20
174.146005
11
135.647989
21
172.229137
0
LINE
8
Layer 1
10
135.647989
20
172.229137
11
133.275101
21
169.877532
0
LINE
8
Layer 1
10
133.275101
20
169.877532
11
130.990055
21
167.130011
0
LINE
8
Layer 1
10
130.990055
20
167.130011
11
128.822387
21
164.025394
0
LINE
8
Layer 1
10
128.822387
20
164.025394
11
126.801636
21
160.602503
0
LINE
8
Layer 1
10
126.801636
20
160.602503
11
124.957337
21
156.900158
0
LINE
8
Layer 1
10
124.957337
20
156.900158
11
123.319029
21
152.957180
0
LINE
8
Layer 1
10
123.319029
20
152.957180
11
119.941423
21
144.112941
0
LINE
8
Layer 1
10
119.941423
20
144.112941
11
118.892876
21
141.604505
0
LINE
8
Layer 1
10
118.892876
20
141.604505
11
118.181557
21
140.241322
0
LINE
8
Layer 1
10
118.181557
20
140.241322
11
117.931355
21
139.958607
0
LINE
8
Layer 1
10
117.931355
20
139.958607
11
117.740257
21
139.925492
0
LINE
8
Layer 1
10
117.740257
20
139.925492
11
117.501767
21
140.559113
0
LINE
8
Layer 1
10
117.501767
20
140.559113
11
117.364386
21
144.283100
0
LINE
8
Layer 1
10
117.364386
20
144.283100
11
117.511357
21
147.036277
0
LINE
8
Layer 1
10
117.511357
20
147.036277
11
117.987585
21
149.994745
0
LINE
8
Layer 1
10
117.987585
20
149.994745
11
118.776539
21
153.114339
0
LINE
8
Layer 1
10
118.776539
20
153.114339
11
119.861691
21
156.350894
0
LINE
8
Layer 1
10
119.861691
20
156.350894
11
121.226509
21
159.660246
0
LINE
8
Layer 1
10
121.226509
20
159.660246
11
122.854465
21
162.998231
0
LINE
8
Layer 1
10
122.854465
20
162.998231
11
124.729029
21
166.320685
0
LINE
8
Layer 1
10
124.729029
20
166.320685
11
126.833670
21
169.583441
0
LINE
8
Layer 1
10
126.833670
20
169.583441
11
128.336739
21
171.895853
0
LINE
8
Layer 1
10
128.336739
20
171.895853
11
129.468467
21
173.888672
0
LINE
8
Layer 1
10
129.468467
20
173.888672
11
130.119089
21
175.349229
0
LINE
8
Layer 1
10
130.119089
20
175.349229
11
130.178841
21
176.064850
0
LINE
8
Layer 1
10
130.178841
20
176.064850
11
129.849870
21
176.241225
0
LINE
8
Layer 1
10
129.849870
20
176.241225
11
129.394135
21
176.258755
0
LINE
8
Layer 1
10
129.394135
20
176.258755
11
128.167898
21
175.869253
0
LINE
8
Layer 1
10
128.167898
20
175.869253
11
126.631180
21
175.000281
0
LINE
8
Layer 1
10
126.631180
20
175.000281
11
124.915032
21
173.755780
0
LINE
8
Layer 1
10
124.915032
20
173.755780
11
123.150504
21
172.239687
0
LINE
8
Layer 1
10
123.150504
20
172.239687
11
121.468646
21
170.555941
0
LINE
8
Layer 1
10
121.468646
20
170.555941
11
120.000510
21
168.808481
0
LINE
8
Layer 1
10
120.000510
20
168.808481
11
118.877145
21
167.101246
0
LINE
8
Layer 1
10
118.877145
20
167.101246
11
117.827585
21
164.682775
0
LINE
8
Layer 1
10
117.827585
20
164.682775
11
116.860223
21
161.534608
0
LINE
8
Layer 1
10
116.860223
20
161.534608
11
116.077294
21
158.044483
0
LINE
8
Layer 1
10
116.077294
20
158.044483
11
115.581032
21
154.600140
0
LINE
8
Layer 1
10
115.581032
20
154.600140
11
115.100448
21
151.032886
0
LINE
8
Layer 1
10
115.100448
20
151.032886
11
114.302934
21
146.636764
0
LINE
8
Layer 1
10
114.302934
20
146.636764
11
112.089195
21
136.708993
0
LINE
8
Layer 1
10
112.089195
20
136.708993
11
109.603982
21
127.518994
0
LINE
8
Layer 1
10
109.603982
20
127.518994
11
108.467123
21
124.045084
0
LINE
8
Layer 1
10
108.467123
20
124.045084
11
107.511458
21
121.768929
0
LINE
8
Layer 1
10
107.511458
20
121.768929
11
106.768229
21
120.765430
0
LINE
8
Layer 1
10
106.768229
20
120.765430
11
105.636212
21
119.692177
0
LINE
8
Layer 1
10
105.636212
20
119.692177
11
102.740944
21
117.653739
0
LINE
8
Layer 1
10
102.740944
20
117.653739
11
101.245260
21
116.847217
0
LINE
8
Layer 1
10
101.245260
20
116.847217
11
99.895919
21
116.288268
0
LINE
8
Layer 1
10
99.895919
20
116.288268
11
98.826706
21
116.056223
0
LINE
8
Layer 1
10
98.826706
20
116.056223
11
98.171404
21
116.230414
0
LINE
8
Layer 1
10
98.171404
20
116.230414
11
98.027130
21
116.911925
0
LINE
8
Layer 1
10
98.027130
20
116.911925
11
98.114728
21
118.287113
0
LINE
8
Layer 1
10
98.114728
20
118.287113
11
98.891084
21
122.319350
0
LINE
8
Layer 1
10
98.891084
20
122.319350
11
99.422863
21
124.854620
0
LINE
8
Layer 1
10
99.422863
20
124.854620
11
99.858343
21
127.736857
0
LINE
8
Layer 1
10
99.858343
20
127.736857
11
100.152585
21
130.611530
0
LINE
8
Layer 1
10
100.152585
20
130.611530
11
100.260652
21
133.124107
0
LINE
8
Layer 1
10
100.260652
20
133.124107
11
100.541129
21
138.225900
0
LINE
8
Layer 1
10
100.541129
20
138.225900
11
101.352319
21
143.624604
0
LINE
8
Layer 1
10
101.352319
20
143.624604
11
102.648858
21
149.189923
0
LINE
8
Layer 1
10
102.648858
20
149.189923
11
104.385387
21
154.791561
0
LINE
8
Layer 1
10
104.385387
20
154.791561
11
106.516542
21
160.299223
0
LINE
8
Layer 1
10
106.516542
20
160.299223
11
108.996962
21
165.582615
0
LINE
8
Layer 1
10
108.996962
20
165.582615
11
111.781285
21
170.511440
0
LINE
8
Layer 1
10
111.781285
20
170.511440
11
114.824149
21
174.955403
0
LINE
8
Layer 1
10
114.824149
20
174.955403
11
118.254275
21
179.653413
0
LINE
8
Layer 1
10
118.254275
20
179.653413
11
119.680962
21
181.965747
0
LINE
8
Layer 1
10
119.680962
20
181.965747
11
119.597519
21
182.192134
0
LINE
8
Layer 1
10
119.597519
20
182.192134
11
119.357722
21
182.272303
0
LINE
8
Layer 1
10
119.357722
20
182.272303
11
118.472265
21
182.037768
0
LINE
8
Layer 1
10
118.472265
20
182.037768
11
117.150986
21
181.349713
0
LINE
8
Layer 1
10
117.150986
20
181.349713
11
115.520278
21
180.295705
0
LINE
8
Layer 1
10
115.520278
20
180.295705
11
111.836154
21
177.440107
0
LINE
8
Layer 1
10
111.836154
20
177.440107
11
110.035525
21
175.813655
0
LINE
8
Layer 1
10
110.035525
20
175.813655
11
108.431045
21
174.171525
0
LINE
8
Layer 1
10
108.431045
20
174.171525
11
105.818722
21
171.086954
0
LINE
8
Layer 1
10
105.818722
20
171.086954
11
103.567905
21
167.942045
0
LINE
8
Layer 1
10
103.567905
20
167.942045
11
101.595303
21
164.533014
0
LINE
8
Layer 1
10
101.595303
20
164.533014
11
99.817624
21
160.656078
0
LINE
8
Layer 1
10
99.817624
20
160.656078
11
98.151577
21
156.107452
0
LINE
8
Layer 1
10
98.151577
20
156.107452
11
96.513871
21
150.683353
0
LINE
8
Layer 1
10
96.513871
20
150.683353
11
94.821213
21
144.179997
0
LINE
8
Layer 1
10
94.821213
20
144.179997
11
92.990314
21
136.393600
0
LINE
8
Layer 1
10
92.990314
20
136.393600
11
89.844486
21
123.662603
0
LINE
8
Layer 1
10
89.844486
20
123.662603
11
88.331498
21
118.221095
0
LINE
8
Layer 1
10
88.331498
20
118.221095
11
87.115492
21
114.359571
0
LINE
8
Layer 1
10
87.115492
20
114.359571
11
85.742736
21
110.063661
0
LINE
8
Layer 1
10
85.742736
20
110.063661
11
84.604062
21
105.576502
0
LINE
8
Layer 1
10
84.604062
20
105.576502
11
83.698044
21
100.885314
0
LINE
8
Layer 1
10
83.698044
20
100.885314
11
83.023259
21
95.977319
0
LINE
8
Layer 1
10
83.023259
20
95.977319
11
82.578282
21
90.839736
0
LINE
8
Layer 1
10
82.578282
20
90.839736
11
82.361687
21
85.459788
0
LINE
8
Layer 1
10
82.361687
20
85.459788
11
82.372052
21
79.824693
0
LINE
8
Layer 1
10
82.372052
20
79.824693
11
82.607952
21
73.921674
0
LINE
8
Layer 1
10
82.607952
20
73.921674
11
83.132450
21
66.299631
0
LINE
8
Layer 1
10
83.132450
20
66.299631
11
83.692591
21
60.944239
0
LINE
8
Layer 1
10
83.692591
20
60.944239
11
84.282342
21
57.852609
0
LINE
8
Layer 1
10
84.282342
20
57.852609
11
84.586437
21
57.154800
0
LINE
8
Layer 1
10
84.586437
20
57.154800
11
84.895673
21
57.021847
0
LINE
8
Layer 1
10
84.895673
20
57.021847
11
85.209296
21
57.453389
0
LINE
8
Layer 1
10
85.209296
20
57.453389
11
85.526551
21
58.449064
0
LINE
8
Layer 1
10
85.526551
20
58.449064
11
86.168944
21
62.131367
0
LINE
8
Layer 1
10
86.168944
20
62.131367
11
86.816821
21
68.065865
0
LINE
8
Layer 1
10
86.816821
20
68.065865
11
87.464149
21
76.249668
0
LINE
8
Layer 1
10
87.464149
20
76.249668
11
87.973714
21
81.574322
0
LINE
8
Layer 1
10
87.973714
20
81.574322
11
88.341217
21
83.687520
0
LINE
8
Layer 1
10
88.341217
20
83.687520
11
88.835929
21
85.604203
0
LINE
8
Layer 1
10
88.835929
20
85.604203
11
89.496899
21
87.451547
0
LINE
8
Layer 1
10
89.496899
20
87.451547
11
90.363174
21
89.356731
0
LINE
8
Layer 1
10
90.363174
20
89.356731
11
92.867830
21
93.849328
0
LINE
8
Layer 1
10
92.867830
20
93.849328
11
96.476017
21
99.370234
0
LINE
8
Layer 1
10
96.476017
20
99.370234
11
99.976904
21
103.829532
0
LINE
8
Layer 1
10
99.976904
20
103.829532
11
101.517307
21
105.467569
0
LINE
8
Layer 1
10
101.517307
20
105.467569
11
102.827124
21
106.607994
0
LINE
8
Layer 1
10
102.827124
20
106.607994
11
103.838431
21
107.173405
0
LINE
8
Layer 1
10
103.838431
20
107.173405
11
104.210919
21
107.216291
0
LINE
8
Layer 1
10
104.210919
20
107.216291
11
104.483309
21
107.086397
0
LINE
8
Layer 1
10
104.483309
20
107.086397
11
104.618698
21
106.529019
0
LINE
8
Layer 1
10
104.618698
20
106.529019
11
104.550512
21
105.448235
0
LINE
8
Layer 1
10
104.550512
20
105.448235
11
103.882297
21
102.339476
0
LINE
8
Layer 1
10
103.882297
20
102.339476
11
103.069397
21
98.757676
0
LINE
8
Layer 1
10
103.069397
20
98.757676
11
102.124826
21
93.427653
0
LINE
8
Layer 1
10
102.124826
20
93.427653
11
100.139519
21
79.798856
0
LINE
8
Layer 1
10
100.139519
20
79.798856
11
98.524059
21
66.004923
0
LINE
8
Layer 1
10
98.524059
20
66.004923
11
98.041798
21
60.468478
0
LINE
8
Layer 1
10
98.041798
20
60.468478
11
97.876131
21
56.597688
0
LINE
8
Layer 1
10
97.876131
20
56.597688
11
97.938039
21
52.746300
0
LINE
8
Layer 1
10
97.938039
20
52.746300
11
98.160288
21
51.019534
0
LINE
8
Layer 1
10
98.160288
20
51.019534
11
98.377636
21
50.851608
0
LINE
8
Layer 1
10
98.377636
20
50.851608
11
98.690384
21
51.093306
0
LINE
8
Layer 1
10
98.690384
20
51.093306
11
99.675834
21
52.643529
0
LINE
8
Layer 1
10
99.675834
20
52.643529
11
100.896630
21
55.070091
0
LINE
8
Layer 1
10
100.896630
20
55.070091
11
102.108847
21
58.076459
0
LINE
8
Layer 1
10
102.108847
20
58.076459
11
103.281939
21
61.548335
0
LINE
8
Layer 1
10
103.281939
20
61.548335
11
104.385363
21
65.371420
0
LINE
8
Layer 1
10
104.385363
20
65.371420
11
105.388574
21
69.431416
0
LINE
8
Layer 1
10
105.388574
20
69.431416
11
106.261026
21
73.614023
0
LINE
8
Layer 1
10
106.261026
20
73.614023
11
106.972176
21
77.804944
0
LINE
8
Layer 1
10
106.972176
20
77.804944
11
107.491479
21
81.889879
0
LINE
8
Layer 1
10
107.491479
20
81.889879
11
108.161645
21
86.962618
0
LINE
8
Layer 1
10
108.161645
20
86.962618
11
109.059555
21
91.322624
0
LINE
8
Layer 1
10
109.059555
20
91.322624
11
110.212650
21
95.078476
0
LINE
8
Layer 1
10
110.212650
20
95.078476
11
111.648370
21
98.338750
0
LINE
8
Layer 1
10
111.648370
20
98.338750
11
114.712860
21
104.228700
0
LINE
8
Layer 1
10
114.712860
20
104.228700
11
114.859336
21
98.159878
0
LINE
8
Layer 1
10
114.859336
20
98.159878
11
115.220991
21
92.269293
0
LINE
8
Layer 1
10
115.220991
20
92.269293
11
115.884791
21
86.629068
0
LINE
8
Layer 1
10
115.884791
20
86.629068
11
116.585835
21
83.500575
0
LINE
8
Layer 1
10
116.585835
20
83.500575
11
116.936858
21
82.970458
0
LINE
8
Layer 1
10
116.936858
20
82.970458
11
117.116930
21
82.970293
0
LINE
8
Layer 1
10
117.116930
20
82.970293
11
117.301734
21
83.149148
0
LINE
8
Layer 1
10
117.301734
20
83.149148
11
117.690605
21
84.051185
0
LINE
8
Layer 1
10
117.690605
20
84.051185
11
118.113611
21
85.691109
0
LINE
8
Layer 1
10
118.113611
20
85.691109
11
119.102590
21
91.242780
0
LINE
8
Layer 1
10
119.102590
20
91.242780
11
119.535782
21
93.344576
0
LINE
8
Layer 1
10
119.535782
20
93.344576
11
120.077051
21
94.898906
0
LINE
8
Layer 1
10
120.077051
20
94.898906
11
120.684281
21
95.815177
0
LINE
8
Layer 1
10
120.684281
20
95.815177
11
120.999469
21
96.005731
0
LINE
8
Layer 1
10
120.999469
20
96.005731
11
121.315353
21
96.002797
0
LINE
8
Layer 1
10
121.315353
20
96.002797
11
122.141282
21
95.507368
0
LINE
8
Layer 1
10
122.141282
20
95.507368
11
122.690962
21
94.661757
0
LINE
8
Layer 1
10
122.690962
20
94.661757
11
122.965153
21
93.475208
0
LINE
8
Layer 1
10
122.965153
20
93.475208
11
122.964609
21
91.956965
0
LINE
8
Layer 1
10
122.964609
20
91.956965
11
122.690088
21
90.116271
0
LINE
8
Layer 1
10
122.690088
20
90.116271
11
122.142347
21
87.962371
0
LINE
8
Layer 1
10
122.142347
20
87.962371
11
121.322142
21
85.504509
0
LINE
8
Layer 1
10
121.322142
20
85.504509
11
120.230231
21
82.751927
0
LINE
8
Layer 1
10
120.230231
20
82.751927
11
118.849127
21
79.231712
0
LINE
8
Layer 1
10
118.849127
20
79.231712
11
117.559138
21
75.457405
0
LINE
8
Layer 1
10
117.559138
20
75.457405
11
115.428735
21
67.878096
0
LINE
8
Layer 1
10
115.428735
20
67.878096
11
114.676437
21
64.438883
0
LINE
8
Layer 1
10
114.676437
20
64.438883
11
114.191482
21
61.477157
0
LINE
8
Layer 1
10
114.191482
20
61.477157
11
114.017930
21
59.175812
0
LINE
8
Layer 1
10
114.017930
20
59.175812
11
114.199837
21
57.717744
0
LINE
8
Layer 1
10
114.199837
20
57.717744
11
114.626741
21
57.085398
0
LINE
8
Layer 1
10
114.626741
20
57.085398
11
115.229130
21
56.896207
0
LINE
8
Layer 1
10
115.229130
20
56.896207
11
115.985375
21
57.116775
0
LINE
8
Layer 1
10
115.985375
20
57.116775
11
116.873848
21
57.713708
0
LINE
8
Layer 1
10
116.873848
20
57.713708
11
117.872919
21
58.653610
0
LINE
8
Layer 1
10
117.872919
20
58.653610
11
118.960961
21
59.903086
0
LINE
8
Layer 1
10
118.960961
20
59.903086
11
121.317441
21
63.197176
0
LINE
8
Layer 1
10
121.317441
20
63.197176
11
123.770259
21
67.328817
0
LINE
8
Layer 1
10
123.770259
20
67.328817
11
126.146387
21
72.030846
0
LINE
8
Layer 1
10
126.146387
20
72.030846
11
128.272796
21
77.036100
0
LINE
8
Layer 1
10
128.272796
20
77.036100
11
129.976457
21
82.077416
0
LINE
8
Layer 1
10
129.976457
20
82.077416
11
131.285203
21
86.413240
0
LINE
8
Layer 1
10
131.285203
20
86.413240
11
131.790881
21
87.689185
0
LINE
8
Layer 1
10
131.790881
20
87.689185
11
132.282271
21
88.461741
0
LINE
8
Layer 1
10
132.282271
20
88.461741
11
132.823001
21
88.799352
0
LINE
8
Layer 1
10
132.823001
20
88.799352
11
133.476702
21
88.770459
0
LINE
8
Layer 1
10
133.476702
20
88.770459
11
135.377538
21
87.886932
0
LINE
8
Layer 1
10
135.377538
20
87.886932
11
136.390700
21
86.979393
0
LINE
8
Layer 1
10
136.390700
20
86.979393
11
137.230463
21
85.428191
0
LINE
8
Layer 1
10
137.230463
20
85.428191
11
137.901292
21
83.222230
0
LINE
8
Layer 1
10
137.901292
20
83.222230
11
138.407651
21
80.350414
0
LINE
8
Layer 1
10
138.407651
20
80.350414
11
138.888398
21
77.599424
0
LINE
8
Layer 1
10
138.888398
20
77.599424
11
139.600338
21
74.685307
0
LINE
8
Layer 1
10
139.600338
20
74.685307
11
140.493168
21
71.737607
0
LINE
8
Layer 1
10
140.493168
20
71.737607
11
141.516583
21
68.885873
0
LINE
8
Layer 1
10
141.516583
20
68.885873
11
142.620281
21
66.259650
0
LINE
8
Layer 1
10
142.620281
20
66.259650
11
143.753958
21
63.988484
0
LINE
8
Layer 1
10
143.753958
20
63.988484
11
144.867309
21
62.201921
0
LINE
8
Layer 1
10
144.867309
20
62.201921
11
145.910032
21
61.029509
0
LINE
8
Layer 1
10
145.910032
20
61.029509
11
146.389504
21
60.715570
0
LINE
8
Layer 1
10
146.389504
20
60.715570
11
146.771701
21
60.690386
0
LINE
8
Layer 1
10
146.771701
20
60.690386
11
147.066900
21
61.005466
0
LINE
8
Layer 1
10
147.066900
20
61.005466
11
147.285381
21
61.712320
0
LINE
8
Layer 1
10
147.285381
20
61.712320
11
147.533293
21
64.507392
0
LINE
8
Layer 1
10
147.533293
20
64.507392
11
147.597659
21
69.487680
0
LINE
8
Layer 1
10
147.597659
20
69.487680
11
147.688668
21
73.320874
0
LINE
8
Layer 1
10
147.688668
20
73.320874
11
147.936682
21
76.455070
0
LINE
8
Layer 1
10
147.936682
20
76.455070
11
148.304176
21
78.570260
0
LINE
8
Layer 1
10
148.304176
20
78.570260
11
148.521002
21
79.145725
0
LINE
8
Layer 1
10
148.521002
20
79.145725
11
148.753627
21
79.346436
0
LINE
8
Layer 1
10
148.753627
20
79.346436
11
149.319556
21
79.199872
0
LINE
8
Layer 1
10
149.319556
20
79.199872
11
150.069058
21
78.779728
0
LINE
8
Layer 1
10
150.069058
20
78.779728
11
152.015131
21
77.235997
0
LINE
8
Layer 1
10
152.015131
20
77.235997
11
154.384539
21
74.949830
0
LINE
8
Layer 1
10
154.384539
20
74.949830
11
156.969978
21
72.155816
0
LINE
8
Layer 1
10
156.969978
20
72.155816
11
159.564144
21
69.088543
0
LINE
8
Layer 1
10
159.564144
20
69.088543
11
161.959730
21
65.982599
0
LINE
8
Layer 1
10
161.959730
20
65.982599
11
163.949433
21
63.072573
0
LINE
8
Layer 1
10
163.949433
20
63.072573
11
165.325947
21
60.593052
0
LINE
8
Layer 1
10
165.325947
20
60.593052
11
166.710252
21
57.093831
0
LINE
8
Layer 1
10
166.710252
20
57.093831
11
167.737829
21
53.515656
0
LINE
8
Layer 1
10
167.737829
20
53.515656
11
168.403243
21
50.009687
0
LINE
8
Layer 1
10
168.403243
20
50.009687
11
168.701060
21
46.727082
0
LINE
8
Layer 1
10
168.701060
20
46.727082
11
168.625843
21
43.819002
0
LINE
8
Layer 1
10
168.625843
20
43.819002
11
168.172158
21
41.436606
0
LINE
8
Layer 1
10
168.172158
20
41.436606
11
167.801691
21
40.489777
0
LINE
8
Layer 1
10
167.801691
20
40.489777
11
167.334569
21
39.731053
0
LINE
8
Layer 1
10
167.334569
20
39.731053
11
166.770112
21
39.179330
0
LINE
8
Layer 1
10
166.770112
20
39.179330
11
166.107641
21
38.853502
0
LINE
8
Layer 1
10
166.107641
20
38.853502
11
165.485856
21
38.623747
0
LINE
8
Layer 1
10
165.485856
20
38.623747
11
165.445523
21
38.475198
0
LINE
8
Layer 1
10
165.445523
20
38.475198
11
167.017968
21
38.461044
0
LINE
8
Layer 1
10
167.017968
20
38.461044
11
167.982557
21
38.565265
0
LINE
8
Layer 1
10
167.982557
20
38.565265
11
168.723675
21
38.778422
0
LINE
8
Layer 1
10
168.723675
20
38.778422
11
169.275813
21
39.192300
0
LINE
8
Layer 1
10
169.275813
20
39.192300
11
169.673463
21
39.898684
0
LINE
8
Layer 1
10
169.673463
20
39.898684
11
169.951116
21
40.989359
0
LINE
8
Layer 1
10
169.951116
20
40.989359
11
170.143263
21
42.556111
0
LINE
8
Layer 1
10
170.143263
20
42.556111
11
170.409006
21
47.484987
0
LINE
8
Layer 1
10
170.409006
20
47.484987
11
170.661989
21
51.537652
0
LINE
8
Layer 1
10
170.661989
20
51.537652
11
171.055333
21
54.265072
0
LINE
8
Layer 1
10
171.055333
20
54.265072
11
171.619381
21
55.802407
0
LINE
8
Layer 1
10
171.619381
20
55.802407
11
171.974902
21
56.167030
0
LINE
8
Layer 1
10
171.974902
20
56.167030
11
172.384477
21
56.284817
0
LINE
8
Layer 1
10
172.384477
20
56.284817
11
173.572985
21
56.117866
0
LINE
8
Layer 1
10
173.572985
20
56.117866
11
174.558984
21
55.609948
0
LINE
8
Layer 1
10
174.558984
20
55.609948
11
175.346211
21
54.750466
0
LINE
8
Layer 1
10
175.346211
20
54.750466
11
175.938403
21
53.528821
0
LINE
8
Layer 1
10
175.938403
20
53.528821
11
176.339298
21
51.934418
0
LINE
8
Layer 1
10
176.339298
20
51.934418
11
176.552634
21
49.956657
0
LINE
8
Layer 1
10
176.552634
20
49.956657
11
176.582146
21
47.584941
0
LINE
8
Layer 1
10
176.582146
20
47.584941
11
176.431572
21
44.808673
0
LINE
8
Layer 1
10
176.431572
20
44.808673
11
176.230206
21
41.903312
0
LINE
8
Layer 1
10
176.230206
20
41.903312
11
176.204762
21
39.686855
0
LINE
8
Layer 1
10
176.204762
20
39.686855
11
176.433159
21
38.066366
0
LINE
8
Layer 1
10
176.433159
20
38.066366
11
176.993319
21
36.948912
0
LINE
8
Layer 1
10
176.993319
20
36.948912
11
177.963163
21
36.241555
0
LINE
8
Layer 1
10
177.963163
20
36.241555
11
179.420613
21
35.851363
0
LINE
8
Layer 1
10
179.420613
20
35.851363
11
181.443589
21
35.685400
0
LINE
8
Layer 1
10
181.443589
20
35.685400
11
184.110012
21
35.650732
0
LINE
8
Layer 1
10
184.110012
20
35.650732
11
186.786224
21
35.731680
0
LINE
8
Layer 1
10
186.786224
20
35.731680
11
187.621742
21
35.894966
0
LINE
8
Layer 1
10
187.621742
20
35.894966
11
188.186436
21
36.195325
0
LINE
8
Layer 1
10
188.186436
20
36.195325
11
188.528484
21
36.674158
0
LINE
8
Layer 1
10
188.528484
20
36.674158
11
188.696064
21
37.372864
0
LINE
8
Layer 1
10
188.696064
20
37.372864
11
188.700523
21
39.595493
0
LINE
8
Layer 1
10
188.700523
20
39.595493
11
188.452691
21
42.012726
0
LINE
8
Layer 1
10
188.452691
20
42.012726
11
188.363597
21
42.045275
0
LINE
8
Layer 1
10
188.363597
20
42.045275
11
188.260902
21
41.853942
0
LINE
8
Layer 1
10
188.260902
20
41.853942
11
188.009222
21
40.809274
0
LINE
8
Layer 1
10
188.009222
20
40.809274
11
187.556387
21
39.420807
0
LINE
8
Layer 1
10
187.556387
20
39.420807
11
187.190385
21
38.943351
0
LINE
8
Layer 1
10
187.190385
20
38.943351
11
186.689594
21
38.588894
0
LINE
8
Layer 1
10
186.689594
20
38.588894
11
185.158446
21
38.184426
0
LINE
8
Layer 1
10
185.158446
20
38.184426
11
182.712549
21
38.078294
0
LINE
8
Layer 1
10
182.712549
20
38.078294
11
177.941890
21
38.078294
0
LINE
8
Layer 1
10
177.941890
20
38.078294
11
177.941890
21
44.267145
0
LINE
8
Layer 1
10
177.941890
20
44.267145
11
178.058809
21
46.555344
0
LINE
8
Layer 1
10
178.058809
20
46.555344
11
178.388463
21
48.921357
0
LINE
8
Layer 1
10
178.388463
20
48.921357
11
178.899195
21
51.271094
0
LINE
8
Layer 1
10
178.899195
20
51.271094
11
179.559348
21
53.510463
0
LINE
8
Layer 1
10
179.559348
20
53.510463
11
180.337265
21
55.545374
0
LINE
8
Layer 1
10
180.337265
20
55.545374
11
181.201289
21
57.281736
0
LINE
8
Layer 1
10
181.201289
20
57.281736
11
182.119765
21
58.625459
0
LINE
8
Layer 1
10
182.119765
20
58.625459
11
183.061034
21
59.482451
0
LINE
8
Layer 1
10
183.061034
20
59.482451
11
183.898667
21
59.735254
0
LINE
8
Layer 1
10
183.898667
20
59.735254
11
184.753462
21
59.503738
0
LINE
8
Layer 1
10
184.753462
20
59.503738
11
185.601927
21
58.825650
0
LINE
8
Layer 1
10
185.601927
20
58.825650
11
186.420568
21
57.738734
0
LINE
8
Layer 1
10
186.420568
20
57.738734
11
187.185892
21
56.280737
0
LINE
8
Layer 1
10
187.185892
20
56.280737
11
187.874405
21
54.489406
0
LINE
8
Layer 1
10
187.874405
20
54.489406
11
188.462614
21
52.402487
0
LINE
8
Layer 1
10
188.462614
20
52.402487
11
188.927026
21
50.057725
0
LINE
8
Layer 1
10
188.927026
20
50.057725
11
189.972225
21
43.540254
0
LINE
8
Layer 1
10
189.972225
20
43.540254
11
189.521383
21
51.266680
0
LINE
8
Layer 1
10
189.521383
20
51.266680
11
189.408305
21
54.653110
0
LINE
8
Layer 1
10
189.408305
20
54.653110
11
189.511468
21
56.822693
0
LINE
8
Layer 1
10
189.511468
20
56.822693
11
189.792119
21
57.827953
0
LINE
8
Layer 1
10
189.792119
20
57.827953
11
189.986891
21
57.910378
0
LINE
8
Layer 1
10
189.986891
20
57.910378
11
190.211502
21
57.721420
0
LINE
8
Layer 1
10
190.211502
20
57.721420
11
190.730861
21
56.555619
0
LINE
8
Layer 1
10
190.730861
20
56.555619
11
191.311443
21
54.383077
0
LINE
8
Layer 1
10
191.311443
20
54.383077
11
191.914490
21
51.256323
0
LINE
8
Layer 1
10
191.914490
20
51.256323
11
192.501249
21
47.227882
0
LINE
8
Layer 1
10
192.501249
20
47.227882
11
193.507204
21
40.335649
0
LINE
8
Layer 1
10
193.507204
20
40.335649
11
193.930960
21
38.121268
0
LINE
8
Layer 1
10
193.930960
20
38.121268
11
194.226426
21
37.168156
0
LINE
8
Layer 1
10
194.226426
20
37.168156
11
195.064174
21
36.889097
0
LINE
8
Layer 1
10
195.064174
20
36.889097
11
196.964456
21
36.509975
0
LINE
8
Layer 1
10
196.964456
20
36.509975
11
202.824162
21
35.650732
0
LINE
8
Layer 1
10
202.824162
20
35.650732
11
208.829170
21
34.732457
0
LINE
8
Layer 1
10
208.829170
20
34.732457
11
210.521875
21
34.321215
0
LINE
8
Layer 1
10
210.521875
20
34.321215
11
211.324546
21
33.957878
0
LINE
8
Layer 1
10
211.324546
20
33.957878
11
211.388172
21
33.797918
0
LINE
8
Layer 1
10
211.388172
20
33.797918
11
211.224556
21
33.654427
0
LINE
8
Layer 1
10
211.224556
20
33.654427
11
210.209279
21
33.422842
0
LINE
8
Layer 1
10
210.209279
20
33.422842
11
205.382362
21
33.223197
0
LINE
8
Layer 1
10
205.382362
20
33.223197
11
202.411095
21
33.141584
0
LINE
8
Layer 1
10
202.411095
20
33.141584
11
200.387607
21
32.898289
0
LINE
8
Layer 1
10
200.387607
20
32.898289
11
199.322977
21
32.495630
0
LINE
8
Layer 1
10
199.322977
20
32.495630
11
199.153697
21
32.235264
0
LINE
8
Layer 1
10
199.153697
20
32.235264
11
199.228287
21
31.935925
0
LINE
8
Layer 1
10
199.228287
20
31.935925
11
199.305751
21
31.637868
0
LINE
8
Layer 1
10
199.305751
20
31.637868
11
199.124520
21
31.407232
0
LINE
8
Layer 1
10
199.124520
20
31.407232
11
197.965701
21
31.146701
0
LINE
8
Layer 1
10
197.965701
20
31.146701
11
195.711291
21
31.151299
0
LINE
8
Layer 1
10
195.711291
20
31.151299
11
192.320748
21
31.417991
0
LINE
8
Layer 1
10
192.320748
20
31.417991
11
184.617622
21
32.187329
0
LINE
8
Layer 1
10
184.617622
20
32.187329
11
187.652045
21
29.697818
0
LINE
8
Layer 1
10
187.652045
20
29.697818
11
189.584612
21
27.899892
0
LINE
8
Layer 1
10
189.584612
20
27.899892
11
189.854493
21
27.437926
0
LINE
8
Layer 1
10
189.854493
20
27.437926
11
189.685365
21
27.268770
0
LINE
8
Layer 1
10
189.685365
20
27.268770
11
189.096172
21
27.393534
0
LINE
8
Layer 1
10
189.096172
20
27.393534
11
188.105857
21
27.813325
0
LINE
8
Layer 1
10
188.105857
20
27.813325
11
184.997640
21
29.542427
0
LINE
8
Layer 1
10
184.997640
20
29.542427
11
183.083830
21
30.602520
0
LINE
8
Layer 1
10
183.083830
20
30.602520
11
181.709635
21
31.092483
0
LINE
8
Layer 1
10
181.709635
20
31.092483
11
180.752787
21
31.035002
0
LINE
8
Layer 1
10
180.752787
20
31.035002
11
180.091015
21
30.452763
0
LINE
8
Layer 1
10
180.091015
20
30.452763
11
179.566502
21
29.870538
0
LINE
8
Layer 1
10
179.566502
20
29.870538
11
179.050792
21
29.775190
0
LINE
8
Layer 1
10
179.050792
20
29.775190
11
178.497278
21
30.180221
0
LINE
8
Layer 1
10
178.497278
20
30.180221
11
177.859354
21
31.099136
0
LINE
8
Layer 1
10
177.859354
20
31.099136
11
176.690176
21
32.694687
0
LINE
8
Layer 1
10
176.690176
20
32.694687
11
175.193580
21
34.018101
0
LINE
8
Layer 1
10
175.193580
20
34.018101
11
173.315436
21
35.084416
0
LINE
8
Layer 1
10
173.315436
20
35.084416
11
171.001617
21
35.908665
0
LINE
8
Layer 1
10
171.001617
20
35.908665
11
168.197994
21
36.505885
0
LINE
8
Layer 1
10
168.197994
20
36.505885
11
164.850438
21
36.891110
0
LINE
8
Layer 1
10
164.850438
20
36.891110
11
160.904820
21
37.079376
0
LINE
8
Layer 1
10
160.904820
20
37.079376
11
156.307011
21
37.085719
0
LINE
8
Layer 1
10
156.307011
20
37.085719
11
149.951420
21
36.886163
0
LINE
8
Layer 1
10
149.951420
20
36.886163
11
145.355174
21
36.552895
0
LINE
8
Layer 1
10
145.355174
20
36.552895
11
142.532717
21
36.134640
0
LINE
8
Layer 1
10
142.532717
20
36.134640
11
141.791173
21
35.908868
0
LINE
8
Layer 1
10
141.791173
20
35.908868
11
141.498492
21
35.680122
0
LINE
8
Layer 1
10
141.498492
20
35.680122
11
141.656480
21
35.454490
0
LINE
8
Layer 1
10
141.656480
20
35.454490
11
142.266943
21
35.238064
0
LINE
8
Layer 1
10
142.266943
20
35.238064
11
144.852513
21
34.857190
0
LINE
8
Layer 1
10
144.852513
20
34.857190
11
149.269645
21
34.586225
0
LINE
8
Layer 1
10
149.269645
20
34.586225
11
155.532782
21
34.473893
0
LINE
8
Layer 1
10
155.532782
20
34.473893
11
171.357411
21
34.436979
0
LINE
8
Layer 1
10
171.357411
20
34.436979
11
177.335005
21
28.368128
0
LINE
8
Layer 1
10
177.335005
20
28.368128
11
181.516838
21
24.205506
0
LINE
8
Layer 1
10
181.516838
20
24.205506
11
182.549498
21
23.150712
0
LINE
8
Layer 1
10
182.549498
20
23.150712
11
183.143434
21
22.706887
0
LINE
8
Layer 1
10
183.143434
20
22.706887
11
183.498731
21
22.818995
0
LINE
8
Layer 1
10
183.498731
20
22.818995
11
183.815473
21
23.432005
0
LINE
8
Layer 1
10
183.815473
20
23.432005
11
184.293745
21
24.490882
0
LINE
8
Layer 1
10
184.293745
20
24.490882
11
185.133632
21
25.940594
0
LINE
8
Layer 1
10
185.133632
20
25.940594
11
186.787164
21
25.554400
0
LINE
8
Layer 1
10
186.787164
20
25.554400
11
188.920294
21
24.800063
0
LINE
8
Layer 1
10
188.920294
20
24.800063
11
193.378002
21
23.143928
0
LINE
8
Layer 1
10
193.378002
20
23.143928
11
195.078906
21
22.720614
0
LINE
8
Layer 1
10
195.078906
20
22.720614
11
195.660942
21
22.714814
0
LINE
8
Layer 1
10
195.660942
20
22.714814
11
196.012061
21
22.886126
0
LINE
8
Layer 1
10
196.012061
20
22.886126
11
196.093284
21
23.264454
0
LINE
8
Layer 1
10
196.093284
20
23.264454
11
195.865630
21
23.879705
0
LINE
8
Layer 1
10
195.865630
20
23.879705
11
194.327777
21
25.940594
0
LINE
8
Layer 1
10
194.327777
20
25.940594
11
194.327777
21
25.940594
0
LINE
8
Layer 1
10
50.687292
20
87.083615
11
54.404708
21
88.686602
0
LINE
8
Layer 1
10
54.404708
20
88.686602
11
57.838880
21
90.327014
0
LINE
8
Layer 1
10
57.838880
20
90.327014
11
61.030176
21
92.030526
0
LINE
8
Layer 1
10
61.030176
20
92.030526
11
64.018962
21
93.822817
0
LINE
8
Layer 1
10
64.018962
20
93.822817
11
66.845605
21
95.729562
0
LINE
8
Layer 1
10
66.845605
20
95.729562
11
69.550475
21
97.776439
0
LINE
8
Layer 1
10
69.550475
20
97.776439
11
72.173937
21
99.989125
0
LINE
8
Layer 1
10
72.173937
20
99.989125
11
74.756360
21
102.393296
0
LINE
8
Layer 1
10
74.756360
20
102.393296
11
77.695262
21
105.476744
0
LINE
8
Layer 1
10
77.695262
20
105.476744
11
80.180069
21
108.602271
0
LINE
8
Layer 1
10
80.180069
20
108.602271
11
82.255843
21
111.877747
0
LINE
8
Layer 1
10
82.255843
20
111.877747
11
83.967645
21
115.411043
0
LINE
8
Layer 1
10
83.967645
20
115.411043
11
85.360536
21
119.310030
0
LINE
8
Layer 1
10
85.360536
20
119.310030
11
86.479575
21
123.682578
0
LINE
8
Layer 1
10
86.479575
20
123.682578
11
87.369825
21
128.636559
0
LINE
8
Layer 1
10
87.369825
20
128.636559
11
88.076346
21
134.279843
0
LINE
8
Layer 1
10
88.076346
20
134.279843
11
88.748481
21
140.002835
0
LINE
8
Layer 1
10
88.748481
20
140.002835
11
89.533745
21
145.366590
0
LINE
8
Layer 1
10
89.533745
20
145.366590
11
90.437542
21
150.381874
0
LINE
8
Layer 1
10
90.437542
20
150.381874
11
91.465277
21
155.059452
0
LINE
8
Layer 1
10
91.465277
20
155.059452
11
92.622356
21
159.410091
0
LINE
8
Layer 1
10
92.622356
20
159.410091
11
93.914184
21
163.444556
0
LINE
8
Layer 1
10
93.914184
20
163.444556
11
95.346165
21
167.173614
0
LINE
8
Layer 1
10
95.346165
20
167.173614
11
96.923705
21
170.608030
0
LINE
8
Layer 1
10
96.923705
20
170.608030
11
98.652209
21
173.758571
0
LINE
8
Layer 1
10
98.652209
20
173.758571
11
100.537083
21
176.636002
0
LINE
8
Layer 1
10
100.537083
20
176.636002
11
102.583731
21
179.251089
0
LINE
8
Layer 1
10
102.583731
20
179.251089
11
104.797559
21
181.614599
0
LINE
8
Layer 1
10
104.797559
20
181.614599
11
107.183972
21
183.737298
0
LINE
8
Layer 1
10
107.183972
20
183.737298
11
109.748374
21
185.629950
0
LINE
8
Layer 1
10
109.748374
20
185.629950
11
112.496172
21
187.303324
0
LINE
8
Layer 1
10
112.496172
20
187.303324
11
115.432769
21
188.768183
0
LINE
8
Layer 1
10
115.432769
20
188.768183
11
119.046755
21
190.177144
0
LINE
8
Layer 1
10
119.046755
20
190.177144
11
120.826233
21
190.644643
0
LINE
8
Layer 1
10
120.826233
20
190.644643
11
122.760863
21
190.976980
0
LINE
8
Layer 1
10
122.760863
20
190.976980
11
127.616062
21
191.304655
0
LINE
8
Layer 1
10
127.616062
20
191.304655
11
134.653316
21
191.297131
0
LINE
8
Layer 1
10
134.653316
20
191.297131
11
139.834266
21
191.134112
0
LINE
8
Layer 1
10
139.834266
20
191.134112
11
144.278664
21
190.763840
0
LINE
8
Layer 1
10
144.278664
20
190.763840
11
148.219931
21
190.106651
0
LINE
8
Layer 1
10
148.219931
20
190.106651
11
151.891486
21
189.082878
0
LINE
8
Layer 1
10
151.891486
20
189.082878
11
155.526751
21
187.612857
0
LINE
8
Layer 1
10
155.526751
20
187.612857
11
159.359145
21
185.616922
0
LINE
8
Layer 1
10
159.359145
20
185.616922
11
163.622090
21
183.015407
0
LINE
8
Layer 1
10
163.622090
20
183.015407
11
168.549004
21
179.728647
0
LINE
8
Layer 1
10
168.549004
20
179.728647
11
173.430593
21
176.604029
0
LINE
8
Layer 1
10
173.430593
20
176.604029
11
177.804834
21
174.304333
0
LINE
8
Layer 1
10
177.804834
20
174.304333
11
179.831186
21
173.461576
0
LINE
8
Layer 1
10
179.831186
20
173.461576
11
181.766087
21
172.822345
0
LINE
8
Layer 1
10
181.766087
20
172.822345
11
183.621330
21
172.385739
0
LINE
8
Layer 1
10
183.621330
20
172.385739
11
185.408711
21
172.150855
0
LINE
8
Layer 1
10
185.408711
20
172.150855
11
187.140025
21
172.116792
0
LINE
8
Layer 1
10
187.140025
20
172.116792
11
188.827066
21
172.282648
0
LINE
8
Layer 1
10
188.827066
20
172.282648
11
190.481630
21
172.647522
0
LINE
8
Layer 1
10
190.481630
20
172.647522
11
192.115511
21
173.210512
0
LINE
8
Layer 1
10
192.115511
20
173.210512
11
193.740505
21
173.970717
0
LINE
8
Layer 1
10
193.740505
20
173.970717
11
195.368406
21
174.927235
0
LINE
8
Layer 1
10
195.368406
20
174.927235
11
198.680110
21
177.425604
0
LINE
8
Layer 1
10
198.680110
20
177.425604
11
200.988049
21
179.542329
0
LINE
8
Layer 1
10
200.988049
20
179.542329
11
202.837083
21
181.629616
0
LINE
8
Layer 1
10
202.837083
20
181.629616
11
204.287511
21
183.860490
0
LINE
8
Layer 1
10
204.287511
20
183.860490
11
205.399633
21
186.407975
0
LINE
8
Layer 1
10
205.399633
20
186.407975
11
206.233748
21
189.445095
0
LINE
8
Layer 1
10
206.233748
20
189.445095
11
206.850153
21
193.144873
0
LINE
8
Layer 1
10
206.850153
20
193.144873
11
207.309149
21
197.680335
0
LINE
8
Layer 1
10
207.309149
20
197.680335
11
207.671035
21
203.224503
0
LINE
8
Layer 1
10
207.671035
20
203.224503
11
208.109139
21
209.306341
0
LINE
8
Layer 1
10
208.109139
20
209.306341
11
208.741537
21
215.601742
0
LINE
8
Layer 1
10
208.741537
20
215.601742
11
209.483587
21
221.367911
0
LINE
8
Layer 1
10
209.483587
20
221.367911
11
210.250645
21
225.862052
0
LINE
8
Layer 1
10
210.250645
20
225.862052
11
210.969371
21
229.005500
0
LINE
8
Layer 1
10
210.969371
20
229.005500
11
211.748841
21
231.599662
0
LINE
8
Layer 1
10
211.748841
20
231.599662
11
212.683708
21
233.768627
0
LINE
8
Layer 1
10
212.683708
20
233.768627
11
213.868625
21
235.636483
0
LINE
8
Layer 1
10
213.868625
20
235.636483
11
215.398244
21
237.327316
0
LINE
8
Layer 1
10
215.398244
20
237.327316
11
217.367217
21
238.965214
0
LINE
8
Layer 1
10
217.367217
20
238.965214
11
219.870199
21
240.674265
0
LINE
8
Layer 1
10
219.870199
20
240.674265
11
223.001840
21
242.578557
0
LINE
8
Layer 1
10
223.001840
20
242.578557
11
227.099549
21
244.986229
0
LINE
8
Layer 1
10
227.099549
20
244.986229
11
222.599304
21
245.379742
0
LINE
8
Layer 1
10
222.599304
20
245.379742
11
220.656648
21
245.428018
0
LINE
8
Layer 1
10
220.656648
20
245.428018
11
218.693978
21
245.268570
0
LINE
8
Layer 1
10
218.693978
20
245.268570
11
216.940167
21
244.931946
0
LINE
8
Layer 1
10
216.940167
20
244.931946
11
215.624088
21
244.448697
0
LINE
8
Layer 1
10
215.624088
20
244.448697
11
214.571151
21
243.754190
0
LINE
8
Layer 1
10
214.571151
20
243.754190
11
213.561354
21
242.819056
0
LINE
8
Layer 1
10
213.561354
20
242.819056
11
212.593800
21
241.640215
0
LINE
8
Layer 1
10
212.593800
20
241.640215
11
211.667589
21
240.214586
0
LINE
8
Layer 1
10
211.667589
20
240.214586
11
209.935599
21
236.610647
0
LINE
8
Layer 1
10
209.935599
20
236.610647
11
208.358196
21
231.982600
0
LINE
8
Layer 1
10
208.358196
20
231.982600
11
206.928188
21
226.305807
0
LINE
8
Layer 1
10
206.928188
20
226.305807
11
205.638384
21
219.555627
0
LINE
8
Layer 1
10
205.638384
20
219.555627
11
204.481593
21
211.707423
0
LINE
8
Layer 1
10
204.481593
20
211.707423
11
203.450625
21
202.736554
0
LINE
8
Layer 1
10
203.450625
20
202.736554
11
202.294786
21
193.150004
0
LINE
8
Layer 1
10
202.294786
20
193.150004
11
201.648056
21
189.736819
0
LINE
8
Layer 1
10
201.648056
20
189.736819
11
200.863346
21
186.981990
0
LINE
8
Layer 1
10
200.863346
20
186.981990
11
199.871576
21
184.689237
0
LINE
8
Layer 1
10
199.871576
20
184.689237
11
198.603667
21
182.662281
0
LINE
8
Layer 1
10
198.603667
20
182.662281
11
196.990539
21
180.704844
0
LINE
8
Layer 1
10
196.990539
20
180.704844
11
194.963113
21
178.620646
0
LINE
8
Layer 1
10
194.963113
20
178.620646
11
192.430434
21
176.333444
0
LINE
8
Layer 1
10
192.430434
20
176.333444
11
190.272690
21
174.926395
0
LINE
8
Layer 1
10
190.272690
20
174.926395
11
189.217847
21
174.495717
0
LINE
8
Layer 1
10
189.217847
20
174.495717
11
188.116851
21
174.216423
0
LINE
8
Layer 1
10
188.116851
20
174.216423
11
185.589886
21
174.020449
0
LINE
8
Layer 1
10
185.589886
20
174.020449
11
183.497744
21
174.147365
0
LINE
8
Layer 1
10
183.497744
20
174.147365
11
181.513397
21
174.528717
0
LINE
8
Layer 1
10
181.513397
20
174.528717
11
179.636275
21
175.165409
0
LINE
8
Layer 1
10
179.636275
20
175.165409
11
177.865807
21
176.058347
0
LINE
8
Layer 1
10
177.865807
20
176.058347
11
176.201421
21
177.208435
0
LINE
8
Layer 1
10
176.201421
20
177.208435
11
174.642548
21
178.616578
0
LINE
8
Layer 1
10
174.642548
20
178.616578
11
173.188616
21
180.283682
0
LINE
8
Layer 1
10
173.188616
20
180.283682
11
171.839055
21
182.210650
0
LINE
8
Layer 1
10
171.839055
20
182.210650
11
170.593293
21
184.398389
0
LINE
8
Layer 1
10
170.593293
20
184.398389
11
169.450760
21
186.847803
0
LINE
8
Layer 1
10
169.450760
20
186.847803
11
168.410886
21
189.559797
0
LINE
8
Layer 1
10
168.410886
20
189.559797
11
167.473098
21
192.535276
0
LINE
8
Layer 1
10
167.473098
20
192.535276
11
166.636828
21
195.775145
0
LINE
8
Layer 1
10
166.636828
20
195.775145
11
165.901503
21
199.280308
0
LINE
8
Layer 1
10
165.901503
20
199.280308
11
164.731406
21
207.090140
0
LINE
8
Layer 1
10
164.731406
20
207.090140
11
163.550714
21
214.725431
0
LINE
8
Layer 1
10
163.550714
20
214.725431
11
161.832993
21
222.063109
0
LINE
8
Layer 1
10
161.832993
20
222.063109
11
159.604385
21
229.046845
0
LINE
8
Layer 1
10
159.604385
20
229.046845
11
158.306668
21
232.388384
0
LINE
8
Layer 1
10
158.306668
20
232.388384
11
156.891034
21
235.620314
0
LINE
8
Layer 1
10
156.891034
20
235.620314
11
155.360749
21
238.735595
0
LINE
8
Layer 1
10
155.360749
20
238.735595
11
153.719083
21
241.727186
0
LINE
8
Layer 1
10
153.719083
20
241.727186
11
151.969302
21
244.588046
0
LINE
8
Layer 1
10
151.969302
20
244.588046
11
150.114674
21
247.311134
0
LINE
8
Layer 1
10
150.114674
20
247.311134
11
148.158469
21
249.889410
0
LINE
8
Layer 1
10
148.158469
20
249.889410
11
146.103953
21
252.315831
0
LINE
8
Layer 1
10
146.103953
20
252.315831
11
143.954394
21
254.583358
0
LINE
8
Layer 1
10
143.954394
20
254.583358
11
141.713060
21
256.684949
0
LINE
8
Layer 1
10
141.713060
20
256.684949
11
137.627285
21
259.991556
0
LINE
8
Layer 1
10
137.627285
20
259.991556
11
133.370653
21
262.818148
0
LINE
8
Layer 1
10
133.370653
20
262.818148
11
128.839541
21
265.200712
0
LINE
8
Layer 1
10
128.839541
20
265.200712
11
123.930327
21
267.175232
0
LINE
8
Layer 1
10
123.930327
20
267.175232
11
118.539389
21
268.777693
0
LINE
8
Layer 1
10
118.539389
20
268.777693
11
112.563103
21
270.044081
0
LINE
8
Layer 1
10
112.563103
20
270.044081
11
105.897848
21
271.010380
0
LINE
8
Layer 1
10
105.897848
20
271.010380
11
98.440000
21
271.712577
0
LINE
8
Layer 1
10
98.440000
20
271.712577
11
93.589776
21
272.209916
0
LINE
8
Layer 1
10
93.589776
20
272.209916
11
88.459025
21
272.968129
0
LINE
8
Layer 1
10
88.459025
20
272.968129
11
83.659301
21
273.884115
0
LINE
8
Layer 1
10
83.659301
20
273.884115
11
79.802155
21
274.854772
0
LINE
8
Layer 1
10
79.802155
20
274.854772
11
74.659295
21
276.396694
0
LINE
8
Layer 1
10
74.659295
20
276.396694
11
72.099185
21
277.024583
0
LINE
8
Layer 1
10
72.099185
20
277.024583
11
71.506644
21
277.033611
0
LINE
8
Layer 1
10
71.506644
20
277.033611
11
71.222570
21
276.859545
0
LINE
8
Layer 1
10
71.222570
20
276.859545
11
71.130200
21
276.022686
0
LINE
8
Layer 1
10
71.130200
20
276.022686
11
71.317254
21
275.640500
0
LINE
8
Layer 1
10
71.317254
20
275.640500
11
71.853443
21
275.138071
0
LINE
8
Layer 1
10
71.853443
20
275.138071
11
73.823389
21
273.841059
0
LINE
8
Layer 1
10
73.823389
20
273.841059
11
76.740363
21
272.268801
0
LINE
8
Layer 1
10
76.740363
20
272.268801
11
80.304690
21
270.558448
0
LINE
8
Layer 1
10
80.304690
20
270.558448
11
88.176699
21
267.272060
0
LINE
8
Layer 1
10
88.176699
20
267.272060
11
91.885031
21
265.970325
0
LINE
8
Layer 1
10
91.885031
20
265.970325
11
95.042014
21
265.079099
0
LINE
8
Layer 1
10
95.042014
20
265.079099
11
97.605158
21
264.379682
0
LINE
8
Layer 1
10
97.605158
20
264.379682
11
99.917850
21
263.549427
0
LINE
8
Layer 1
10
99.917850
20
263.549427
11
101.726295
21
262.692255
0
LINE
8
Layer 1
10
101.726295
20
262.692255
11
102.776700
21
261.912083
0
LINE
8
Layer 1
10
102.776700
20
261.912083
11
103.042703
21
261.418232
0
LINE
8
Layer 1
10
103.042703
20
261.418232
11
102.857284
21
261.026284
0
LINE
8
Layer 1
10
102.857284
20
261.026284
11
102.111203
21
260.724833
0
LINE
8
Layer 1
10
102.111203
20
260.724833
11
100.695221
21
260.502473
0
LINE
8
Layer 1
10
100.695221
20
260.502473
11
95.416589
21
260.249405
0
LINE
8
Layer 1
10
95.416589
20
260.249405
11
86.147470
21
260.175835
0
LINE
8
Layer 1
10
86.147470
20
260.175835
11
79.855072
21
260.058054
0
LINE
8
Layer 1
10
79.855072
20
260.058054
11
72.946161
21
259.745804
0
LINE
8
Layer 1
10
72.946161
20
259.745804
11
58.974342
21
258.698104
0
LINE
8
Layer 1
10
58.974342
20
258.698104
11
52.759201
21
258.042755
0
LINE
8
Layer 1
10
52.759201
20
258.042755
11
47.623087
21
257.353141
0
LINE
8
Layer 1
10
47.623087
20
257.353141
11
43.989884
21
256.669313
0
LINE
8
Layer 1
10
43.989884
20
256.669313
11
42.869338
21
256.342085
0
LINE
8
Layer 1
10
42.869338
20
256.342085
11
42.283476
21
256.031323
0
LINE
8
Layer 1
10
42.283476
20
256.031323
11
42.242718
21
255.866325
0
LINE
8
Layer 1
10
42.242718
20
255.866325
11
42.410273
21
255.673851
0
LINE
8
Layer 1
10
42.410273
20
255.673851
11
43.309062
21
255.221413
0
LINE
8
Layer 1
10
43.309062
20
255.221413
11
46.932547
21
254.151153
0
LINE
8
Layer 1
10
46.932547
20
254.151153
11
52.173795
21
253.059566
0
LINE
8
Layer 1
10
52.173795
20
253.059566
11
58.052671
21
252.185675
0
LINE
8
Layer 1
10
58.052671
20
252.185675
11
62.441392
21
251.448667
0
LINE
8
Layer 1
10
62.441392
20
251.448667
11
63.640018
21
251.035650
0
LINE
8
Layer 1
10
63.640018
20
251.035650
11
64.171598
21
250.600226
0
LINE
8
Layer 1
10
64.171598
20
250.600226
11
64.186489
21
250.375816
0
LINE
8
Layer 1
10
64.186489
20
250.375816
11
64.033711
21
250.147850
0
LINE
8
Layer 1
10
64.033711
20
250.147850
11
63.223940
21
249.683974
0
LINE
8
Layer 1
10
63.223940
20
249.683974
11
61.739866
21
249.214052
0
LINE
8
Layer 1
10
61.739866
20
249.214052
11
59.579070
21
248.743535
0
LINE
8
Layer 1
10
59.579070
20
248.743535
11
57.922322
21
248.348464
0
LINE
8
Layer 1
10
57.922322
20
248.348464
11
56.795917
21
247.896395
0
LINE
8
Layer 1
10
56.795917
20
247.896395
11
56.194159
21
247.404309
0
LINE
8
Layer 1
10
56.194159
20
247.404309
11
56.111352
21
246.889184
0
LINE
8
Layer 1
10
56.111352
20
246.889184
11
56.541802
21
246.368000
0
LINE
8
Layer 1
10
56.541802
20
246.368000
11
57.479811
21
245.857736
0
LINE
8
Layer 1
10
57.479811
20
245.857736
11
58.919686
21
245.375371
0
LINE
8
Layer 1
10
58.919686
20
245.375371
11
60.855730
21
244.937884
0
LINE
8
Layer 1
10
60.855730
20
244.937884
11
62.910402
21
244.428696
0
LINE
8
Layer 1
10
62.910402
20
244.428696
11
64.200801
21
243.753694
0
LINE
8
Layer 1
10
64.200801
20
243.753694
11
64.604130
21
243.316686
0
LINE
8
Layer 1
10
64.604130
20
243.316686
11
64.870069
21
242.793431
0
LINE
8
Layer 1
10
64.870069
20
242.793431
11
65.061349
21
241.428462
0
LINE
8
Layer 1
10
65.061349
20
241.428462
11
64.994514
21
240.581624
0
LINE
8
Layer 1
10
64.994514
20
240.581624
11
64.718779
21
239.887409
0
LINE
8
Layer 1
10
64.718779
20
239.887409
11
64.121296
21
239.301600
0
LINE
8
Layer 1
10
64.121296
20
239.301600
11
63.089219
21
238.779982
0
LINE
8
Layer 1
10
63.089219
20
238.779982
11
61.509703
21
238.278342
0
LINE
8
Layer 1
10
61.509703
20
238.278342
11
59.269899
21
237.752464
0
LINE
8
Layer 1
10
59.269899
20
237.752464
11
52.358047
21
236.451134
0
LINE
8
Layer 1
10
52.358047
20
236.451134
11
47.537517
21
235.505667
0
LINE
8
Layer 1
10
47.537517
20
235.505667
11
43.802996
21
234.599720
0
LINE
8
Layer 1
10
43.802996
20
234.599720
11
41.524773
21
233.836113
0
LINE
8
Layer 1
10
41.524773
20
233.836113
11
41.047489
21
233.539820
0
LINE
8
Layer 1
10
41.047489
20
233.539820
11
41.073138
21
233.317669
0
LINE
8
Layer 1
10
41.073138
20
233.317669
11
42.565652
21
232.910529
0
LINE
8
Layer 1
10
42.565652
20
232.910529
11
45.580939
21
232.449996
0
LINE
8
Layer 1
10
45.580939
20
232.449996
11
54.427103
21
231.594869
0
LINE
8
Layer 1
10
54.427103
20
231.594869
11
61.228043
21
231.068420
0
LINE
8
Layer 1
10
61.228043
20
231.068420
11
63.263121
21
230.825558
0
LINE
8
Layer 1
10
63.263121
20
230.825558
11
64.534945
21
230.547429
0
LINE
8
Layer 1
10
64.534945
20
230.547429
11
65.153771
21
230.197400
0
LINE
8
Layer 1
10
65.153771
20
230.197400
11
65.229854
21
229.738840
0
LINE
8
Layer 1
10
65.229854
20
229.738840
11
64.873450
21
229.135118
0
LINE
8
Layer 1
10
64.873450
20
229.135118
11
64.194814
21
228.349601
0
LINE
8
Layer 1
10
64.194814
20
228.349601
11
62.545552
21
226.657468
0
LINE
8
Layer 1
10
62.545552
20
226.657468
11
60.841518
21
225.179933
0
LINE
8
Layer 1
10
60.841518
20
225.179933
11
59.059540
21
223.905151
0
LINE
8
Layer 1
10
59.059540
20
223.905151
11
57.176445
21
222.821277
0
LINE
8
Layer 1
10
57.176445
20
222.821277
11
55.169061
21
221.916464
0
LINE
8
Layer 1
10
55.169061
20
221.916464
11
53.014214
21
221.178868
0
LINE
8
Layer 1
10
53.014214
20
221.178868
11
50.688734
21
220.596643
0
LINE
8
Layer 1
10
50.688734
20
220.596643
11
48.169446
21
220.157943
0
LINE
8
Layer 1
10
48.169446
20
220.157943
11
45.255367
21
219.621617
0
LINE
8
Layer 1
10
45.255367
20
219.621617
11
42.111606
21
218.837072
0
LINE
8
Layer 1
10
42.111606
20
218.837072
11
35.974264
21
216.840483
0
LINE
8
Layer 1
10
35.974264
20
216.840483
11
33.400293
21
215.787020
0
LINE
8
Layer 1
10
33.400293
20
215.787020
11
31.435863
21
214.802496
0
LINE
8
Layer 1
10
31.435863
20
214.802496
11
30.290778
21
213.966201
0
LINE
8
Layer 1
10
30.290778
20
213.966201
11
30.091054
21
213.628418
0
LINE
8
Layer 1
10
30.091054
20
213.628418
11
30.174844
21
213.357426
0
LINE
8
Layer 1
10
30.174844
20
213.357426
11
31.447592
21
213.026030
0
LINE
8
Layer 1
10
31.447592
20
213.026030
11
34.404396
21
212.632280
0
LINE
8
Layer 1
10
34.404396
20
212.632280
11
43.607183
21
211.854937
0
LINE
8
Layer 1
10
43.607183
20
211.854937
11
56.351576
21
211.040413
0
LINE
8
Layer 1
10
56.351576
20
211.040413
11
50.348032
21
203.150913
0
LINE
8
Layer 1
10
50.348032
20
203.150913
11
45.986662
21
197.095919
0
LINE
8
Layer 1
10
45.986662
20
197.095919
11
41.915343
21
190.819236
0
LINE
8
Layer 1
10
41.915343
20
190.819236
11
38.225326
21
184.507148
0
LINE
8
Layer 1
10
38.225326
20
184.507148
11
35.007865
21
178.345938
0
LINE
8
Layer 1
10
35.007865
20
178.345938
11
32.354212
21
172.521890
0
LINE
8
Layer 1
10
32.354212
20
172.521890
11
30.355621
21
167.221288
0
LINE
8
Layer 1
10
30.355621
20
167.221288
11
29.103344
21
162.630414
0
LINE
8
Layer 1
10
29.103344
20
162.630414
11
28.785590
21
160.659339
0
LINE
8
Layer 1
10
28.785590
20
160.659339
11
28.688634
21
158.935553
0
LINE
8
Layer 1
10
28.688634
20
158.935553
11
28.729020
21
155.207025
0
LINE
8
Layer 1
10
28.729020
20
155.207025
11
30.812751
21
157.861319
0
LINE
8
Layer 1
10
30.812751
20
157.861319
11
33.466998
21
161.835476
0
LINE
8
Layer 1
10
33.466998
20
161.835476
11
36.922467
21
167.663041
0
LINE
8
Layer 1
10
36.922467
20
167.663041
11
39.034527
21
171.134026
0
LINE
8
Layer 1
10
39.034527
20
171.134026
11
41.747963
21
175.195034
0
LINE
8
Layer 1
10
41.747963
20
175.195034
11
47.947069
21
183.732407
0
LINE
8
Layer 1
10
47.947069
20
183.732407
11
53.455994
21
190.565735
0
LINE
8
Layer 1
10
53.455994
20
190.565735
11
55.306703
21
192.496687
0
LINE
8
Layer 1
10
55.306703
20
192.496687
11
55.893256
21
192.942563
0
LINE
8
Layer 1
10
55.893256
20
192.942563
11
56.210945
21
192.985593
0
LINE
8
Layer 1
10
56.210945
20
192.985593
11
55.998219
21
191.621495
0
LINE
8
Layer 1
10
55.998219
20
191.621495
11
54.966102
21
188.360268
0
LINE
8
Layer 1
10
54.966102
20
188.360268
11
51.112826
21
178.100146
0
LINE
8
Layer 1
10
51.112826
20
178.100146
11
48.798310
21
172.080450
0
LINE
8
Layer 1
10
48.798310
20
172.080450
11
46.699297
21
166.168343
0
LINE
8
Layer 1
10
46.699297
20
166.168343
11
44.868422
21
160.554197
0
LINE
8
Layer 1
10
44.868422
20
160.554197
11
43.358319
21
155.428381
0
LINE
8
Layer 1
10
43.358319
20
155.428381
11
42.221623
21
150.981268
0
LINE
8
Layer 1
10
42.221623
20
150.981268
11
41.510968
21
147.403229
0
LINE
8
Layer 1
10
41.510968
20
147.403229
11
41.278987
21
144.884633
0
LINE
8
Layer 1
10
41.278987
20
144.884633
11
41.358948
21
144.082118
0
LINE
8
Layer 1
10
41.358948
20
144.082118
11
41.578316
21
143.615853
0
LINE
8
Layer 1
10
41.578316
20
143.615853
11
41.881779
21
143.593559
0
LINE
8
Layer 1
10
41.881779
20
143.593559
11
42.352196
21
143.927512
0
LINE
8
Layer 1
10
42.352196
20
143.927512
11
43.699134
21
145.533452
0
LINE
8
Layer 1
10
43.699134
20
145.533452
11
45.429618
21
148.172268
0
LINE
8
Layer 1
10
45.429618
20
148.172268
11
47.354134
21
151.582552
0
LINE
8
Layer 1
10
47.354134
20
151.582552
11
49.761473
21
155.866114
0
LINE
8
Layer 1
10
49.761473
20
155.866114
11
52.263969
21
159.825566
0
LINE
8
Layer 1
10
52.263969
20
159.825566
11
54.766993
21
163.352165
0
LINE
8
Layer 1
10
54.766993
20
163.352165
11
57.175919
21
166.337168
0
LINE
8
Layer 1
10
57.175919
20
166.337168
11
59.396118
21
168.671831
0
LINE
8
Layer 1
10
59.396118
20
168.671831
11
61.332961
21
170.247410
0
LINE
8
Layer 1
10
61.332961
20
170.247410
11
62.165553
21
170.716562
0
LINE
8
Layer 1
10
62.165553
20
170.716562
11
62.891820
21
170.955163
0
LINE
8
Layer 1
10
62.891820
20
170.955163
11
63.499935
21
170.949622
0
LINE
8
Layer 1
10
63.499935
20
170.949622
11
63.978068
21
170.686346
0
LINE
8
Layer 1
10
63.978068
20
170.686346
11
64.365453
21
170.161474
0
LINE
8
Layer 1
10
64.365453
20
170.161474
11
64.566701
21
169.465684
0
LINE
8
Layer 1
10
64.566701
20
169.465684
11
64.566691
21
168.534666
0
LINE
8
Layer 1
10
64.566691
20
168.534666
11
64.350301
21
167.304111
0
LINE
8
Layer 1
10
64.350301
20
167.304111
11
63.207896
21
163.687157
0
LINE
8
Layer 1
10
63.207896
20
163.687157
11
61.018516
21
158.100347
0
LINE
8
Layer 1
10
61.018516
20
158.100347
11
58.474528
21
152.377239
0
LINE
8
Layer 1
10
58.474528
20
152.377239
11
55.759379
21
147.420005
0
LINE
8
Layer 1
10
55.759379
20
147.420005
11
52.561233
21
142.719342
0
LINE
8
Layer 1
10
52.561233
20
142.719342
11
48.568254
21
137.765948
0
LINE
8
Layer 1
10
48.568254
20
137.765948
11
45.193942
21
134.016412
0
LINE
8
Layer 1
10
45.193942
20
134.016412
11
41.868147
21
130.653946
0
LINE
8
Layer 1
10
41.868147
20
130.653946
11
38.973924
21
128.046213
0
LINE
8
Layer 1
10
38.973924
20
128.046213
11
36.894330
21
126.560879
0
LINE
8
Layer 1
10
36.894330
20
126.560879
11
35.462052
21
125.707772
0
LINE
8
Layer 1
10
35.462052
20
125.707772
11
34.552143
21
124.925855
0
LINE
8
Layer 1
10
34.552143
20
124.925855
11
34.211475
21
124.269049
0
LINE
8
Layer 1
10
34.211475
20
124.269049
11
34.269253
21
124.004413
0
LINE
8
Layer 1
10
34.269253
20
124.004413
11
34.486918
21
123.791274
0
LINE
8
Layer 1
10
34.486918
20
123.791274
11
35.036534
21
123.560056
0
LINE
8
Layer 1
10
35.036534
20
123.560056
11
35.698778
21
123.471272
0
LINE
8
Layer 1
10
35.698778
20
123.471272
11
37.337129
21
123.706587
0
LINE
8
Layer 1
10
37.337129
20
123.706587
11
39.353925
21
124.468375
0
LINE
8
Layer 1
10
39.353925
20
124.468375
11
41.701117
21
125.727791
0
LINE
8
Layer 1
10
41.701117
20
125.727791
11
44.330660
21
127.455993
0
LINE
8
Layer 1
10
44.330660
20
127.455993
11
47.194506
21
129.624137
0
LINE
8
Layer 1
10
47.194506
20
129.624137
11
50.244608
21
132.203379
0
LINE
8
Layer 1
10
50.244608
20
132.203379
11
53.432919
21
135.164875
0
LINE
8
Layer 1
10
53.432919
20
135.164875
11
62.208421
21
143.674005
0
LINE
8
Layer 1
10
62.208421
20
143.674005
11
56.925278
21
127.694258
0
LINE
8
Layer 1
10
56.925278
20
127.694258
11
53.318178
21
116.036263
0
LINE
8
Layer 1
10
53.318178
20
116.036263
11
52.317460
21
112.200118
0
LINE
8
Layer 1
10
52.317460
20
112.200118
11
52.064621
21
110.447099
0
LINE
8
Layer 1
10
52.064621
20
110.447099
11
52.284216
21
110.284476
0
LINE
8
Layer 1
10
52.284216
20
110.284476
11
52.709127
21
110.445845
0
LINE
8
Layer 1
10
52.709127
20
110.445845
11
54.101597
21
111.646104
0
LINE
8
Layer 1
10
54.101597
20
111.646104
11
56.095432
21
113.858961
0
LINE
8
Layer 1
10
56.095432
20
113.858961
11
58.544030
21
116.895501
0
LINE
8
Layer 1
10
58.544030
20
116.895501
11
64.219120
21
124.683966
0
LINE
8
Layer 1
10
64.219120
20
124.683966
11
67.152411
21
129.058062
0
LINE
8
Layer 1
10
67.152411
20
129.058062
11
69.954067
21
133.500179
0
LINE
8
Layer 1
10
69.954067
20
133.500179
11
74.776165
21
140.943969
0
LINE
8
Layer 1
10
74.776165
20
140.943969
11
76.699179
21
143.586935
0
LINE
8
Layer 1
10
76.699179
20
143.586935
11
77.947136
21
145.007186
0
LINE
8
Layer 1
10
77.947136
20
145.007186
11
78.995616
21
145.776906
0
LINE
8
Layer 1
10
78.995616
20
145.776906
11
79.303350
21
145.862823
0
LINE
8
Layer 1
10
79.303350
20
145.862823
11
79.479088
21
145.720634
0
LINE
8
Layer 1
10
79.479088
20
145.720634
11
79.471589
21
144.665500
0
LINE
8
Layer 1
10
79.471589
20
144.665500
11
79.047154
21
142.438631
0
LINE
8
Layer 1
10
79.047154
20
142.438631
11
78.312915
21
139.352840
0
LINE
8
Layer 1
10
78.312915
20
139.352840
11
77.407344
21
136.200236
0
LINE
8
Layer 1
10
77.407344
20
136.200236
11
75.116627
21
129.755731
0
LINE
8
Layer 1
10
75.116627
20
129.755731
11
72.243842
21
123.227400
0
LINE
8
Layer 1
10
72.243842
20
123.227400
11
68.857827
21
116.737524
0
LINE
8
Layer 1
10
68.857827
20
116.737524
11
65.027423
21
110.408386
0
LINE
8
Layer 1
10
65.027423
20
110.408386
11
60.821467
21
104.362269
0
LINE
8
Layer 1
10
60.821467
20
104.362269
11
56.308799
21
98.721455
0
LINE
8
Layer 1
10
56.308799
20
98.721455
11
51.558258
21
93.608226
0
LINE
8
Layer 1
10
51.558258
20
93.608226
11
45.118448
21
86.973199
0
LINE
8
Layer 1
10
45.118448
20
86.973199
11
43.358654
21
84.961387
0
LINE
8
Layer 1
10
43.358654
20
84.961387
11
42.967376
21
84.416529
0
LINE
8
Layer 1
10
42.967376
20
84.416529
11
42.948928
21
84.230320
0
LINE
8
Layer 1
10
42.948928
20
84.230320
11
45.581542
21
85.080366
0
LINE
8
Layer 1
10
45.581542
20
85.080366
11
50.687292
21
87.083615
0
LINE
8
Layer 1
10
50.687292
20
87.083615
11
50.687292
21
87.083615
0
LINE
8
Layer 1
10
71.919236
20
155.500745
11
73.355275
21
160.444862
0
LINE
8
Layer 1
10
73.355275
20
160.444862
11
75.155272
21
165.329538
0
LINE
8
Layer 1
10
75.155272
20
165.329538
11
77.288784
21
170.101569
0
LINE
8
Layer 1
10
77.288784
20
170.101569
11
79.725369
21
174.707747
0
LINE
8
Layer 1
10
79.725369
20
174.707747
11
82.434583
21
179.094867
0
LINE
8
Layer 1
10
82.434583
20
179.094867
11
85.385983
21
183.209723
0
LINE
8
Layer 1
10
85.385983
20
183.209723
11
88.549127
21
186.999109
0
LINE
8
Layer 1
10
88.549127
20
186.999109
11
91.893571
21
190.409819
0
LINE
8
Layer 1
10
91.893571
20
190.409819
11
96.076980
21
194.561995
0
LINE
8
Layer 1
10
96.076980
20
194.561995
11
97.253454
21
195.921241
0
LINE
8
Layer 1
10
97.253454
20
195.921241
11
97.571365
21
196.534631
0
LINE
8
Layer 1
10
97.571365
20
196.534631
11
97.156478
21
196.646835
0
LINE
8
Layer 1
10
97.156478
20
196.646835
11
96.416416
21
196.523305
0
LINE
8
Layer 1
10
96.416416
20
196.523305
11
94.129563
21
195.666983
0
LINE
8
Layer 1
10
94.129563
20
195.666983
11
91.048393
21
194.161543
0
LINE
8
Layer 1
10
91.048393
20
194.161543
11
87.510489
21
192.202862
0
LINE
8
Layer 1
10
87.510489
20
192.202862
11
83.853438
21
189.986818
0
LINE
8
Layer 1
10
83.853438
20
189.986818
11
80.414825
21
187.709287
0
LINE
8
Layer 1
10
80.414825
20
187.709287
11
77.532234
21
185.566148
0
LINE
8
Layer 1
10
77.532234
20
185.566148
11
75.543252
21
183.753277
0
LINE
8
Layer 1
10
75.543252
20
183.753277
11
73.829751
21
181.955750
0
LINE
8
Layer 1
10
73.829751
20
181.955750
11
72.426538
21
180.672452
0
LINE
8
Layer 1
10
72.426538
20
180.672452
11
71.478419
21
180.022444
0
LINE
8
Layer 1
10
71.478419
20
180.022444
11
71.220271
21
179.972130
0
LINE
8
Layer 1
10
71.220271
20
179.972130
11
71.130200
21
180.124786
0
LINE
8
Layer 1
10
71.130200
20
180.124786
11
71.244640
21
181.206139
0
LINE
8
Layer 1
10
71.244640
20
181.206139
11
71.575972
21
182.445340
0
LINE
8
Layer 1
10
71.575972
20
182.445340
11
72.817386
21
185.303714
0
LINE
8
Layer 1
10
72.817386
20
185.303714
11
74.710589
21
188.512753
0
LINE
8
Layer 1
10
74.710589
20
188.512753
11
77.111727
21
191.885303
0
LINE
8
Layer 1
10
77.111727
20
191.885303
11
79.876946
21
195.234211
0
LINE
8
Layer 1
10
79.876946
20
195.234211
11
82.862392
21
198.372323
0
LINE
8
Layer 1
10
82.862392
20
198.372323
11
85.924212
21
201.112486
0
LINE
8
Layer 1
10
85.924212
20
201.112486
11
88.918553
21
203.267544
0
LINE
8
Layer 1
10
88.918553
20
203.267544
11
91.590831
21
204.664154
0
LINE
8
Layer 1
10
91.590831
20
204.664154
11
92.980614
21
205.130844
0
LINE
8
Layer 1
10
92.980614
20
205.130844
11
94.549794
21
205.466517
0
LINE
8
Layer 1
10
94.549794
20
205.466517
11
98.657245
21
205.814992
0
LINE
8
Layer 1
10
98.657245
20
205.814992
11
104.774989
21
205.849934
0
LINE
8
Layer 1
10
104.774989
20
205.849934
11
108.922450
21
205.687024
0
LINE
8
Layer 1
10
108.922450
20
205.687024
11
113.161281
21
205.307337
0
LINE
8
Layer 1
10
113.161281
20
205.307337
11
117.292875
21
204.751849
0
LINE
8
Layer 1
10
117.292875
20
204.751849
11
121.118628
21
204.061532
0
LINE
8
Layer 1
10
121.118628
20
204.061532
11
124.439934
21
203.277362
0
LINE
8
Layer 1
10
124.439934
20
203.277362
11
127.058187
21
202.440311
0
LINE
8
Layer 1
10
127.058187
20
202.440311
11
128.774783
21
201.591353
0
LINE
8
Layer 1
10
128.774783
20
201.591353
11
129.232896
21
201.175214
0
LINE
8
Layer 1
10
129.232896
20
201.175214
11
129.391116
21
200.771464
0
LINE
8
Layer 1
10
129.391116
20
200.771464
11
128.802481
21
200.338405
0
LINE
8
Layer 1
10
128.802481
20
200.338405
11
127.199761
21
199.775357
0
LINE
8
Layer 1
10
127.199761
20
199.775357
11
121.931182
21
198.550750
0
LINE
8
Layer 1
10
121.931182
20
198.550750
11
118.333129
21
197.701584
0
LINE
8
Layer 1
10
118.333129
20
197.701584
11
114.785713
21
196.493383
0
LINE
8
Layer 1
10
114.785713
20
196.493383
11
111.259684
21
194.908142
0
LINE
8
Layer 1
10
111.259684
20
194.908142
11
107.725797
21
192.927856
0
LINE
8
Layer 1
10
107.725797
20
192.927856
11
104.154802
21
190.534521
0
LINE
8
Layer 1
10
104.154802
20
190.534521
11
100.517453
21
187.710133
0
LINE
8
Layer 1
10
100.517453
20
187.710133
11
96.784502
21
184.436687
0
LINE
8
Layer 1
10
96.784502
20
184.436687
11
92.926702
21
180.696179
0
LINE
8
Layer 1
10
92.926702
20
180.696179
11
86.589563
21
174.065569
0
LINE
8
Layer 1
10
86.589563
20
174.065569
11
84.180549
21
171.317097
0
LINE
8
Layer 1
10
84.180549
20
171.317097
11
82.154988
21
168.783939
0
LINE
8
Layer 1
10
82.154988
20
168.783939
11
80.420693
21
166.344163
0
LINE
8
Layer 1
10
80.420693
20
166.344163
11
78.885474
21
163.875838
0
LINE
8
Layer 1
10
78.885474
20
163.875838
11
76.043519
21
158.365811
0
LINE
8
Layer 1
10
76.043519
20
158.365811
11
73.892003
21
154.345465
0
LINE
8
Layer 1
10
73.892003
20
154.345465
11
73.008724
21
153.100435
0
LINE
8
Layer 1
10
73.008724
20
153.100435
11
72.300501
21
152.397968
0
LINE
8
Layer 1
10
72.300501
20
152.397968
11
71.802388
21
152.262415
0
LINE
8
Layer 1
10
71.802388
20
152.262415
11
71.549438
21
152.718126
0
LINE
8
Layer 1
10
71.549438
20
152.718126
11
71.576703
21
153.789452
0
LINE
8
Layer 1
10
71.576703
20
153.789452
11
71.919236
21
155.500745
0
LINE
8
Layer 1
10
71.919236
20
155.500745
11
71.919236
21
155.500745
0
LINE
8
Layer 1
10
151.380345
20
214.801458
11
149.688381
21
219.584397
0
LINE
8
Layer 1
10
149.688381
20
219.584397
11
147.827630
21
224.058260
0
LINE
8
Layer 1
10
147.827630
20
224.058260
11
145.764042
21
228.278256
0
LINE
8
Layer 1
10
145.764042
20
228.278256
11
143.463565
21
232.299594
0
LINE
8
Layer 1
10
143.463565
20
232.299594
11
140.892151
21
236.177483
0
LINE
8
Layer 1
10
140.892151
20
236.177483
11
138.015747
21
239.967131
0
LINE
8
Layer 1
10
138.015747
20
239.967131
11
134.800304
21
243.723748
0
LINE
8
Layer 1
10
134.800304
20
243.723748
11
131.211772
21
247.502542
0
LINE
8
Layer 1
10
131.211772
20
247.502542
11
126.788487
21
251.753497
0
LINE
8
Layer 1
10
126.788487
20
251.753497
11
123.213334
21
254.658496
0
LINE
8
Layer 1
10
123.213334
20
254.658496
11
121.590613
21
255.714775
0
LINE
8
Layer 1
10
121.590613
20
255.714775
11
119.996092
21
256.564778
0
LINE
8
Layer 1
10
119.996092
20
256.564778
11
118.368493
21
257.251912
0
LINE
8
Layer 1
10
118.368493
20
257.251912
11
116.646539
21
257.819581
0
LINE
8
Layer 1
10
116.646539
20
257.819581
11
114.196667
21
258.616650
0
LINE
8
Layer 1
10
114.196667
20
258.616650
11
112.406874
21
259.376350
0
LINE
8
Layer 1
10
112.406874
20
259.376350
11
111.280003
21
260.085107
0
LINE
8
Layer 1
10
111.280003
20
260.085107
11
110.818899
21
260.729346
0
LINE
8
Layer 1
10
110.818899
20
260.729346
11
110.838898
21
261.023030
0
LINE
8
Layer 1
10
110.838898
20
261.023030
11
111.026406
21
261.295495
0
LINE
8
Layer 1
10
111.026406
20
261.295495
11
111.905366
21
261.769978
0
LINE
8
Layer 1
10
111.905366
20
261.769978
11
113.458623
21
262.139221
0
LINE
8
Layer 1
10
113.458623
20
262.139221
11
115.689022
21
262.389651
0
LINE
8
Layer 1
10
115.689022
20
262.389651
11
118.500905
21
262.396846
0
LINE
8
Layer 1
10
118.500905
20
262.396846
11
119.783514
21
262.210194
0
LINE
8
Layer 1
10
119.783514
20
262.210194
11
121.059121
21
261.872253
0
LINE
8
Layer 1
10
121.059121
20
261.872253
11
123.814988
21
260.669138
0
LINE
8
Layer 1
10
123.814988
20
260.669138
11
127.219829
21
258.640769
0
LINE
8
Layer 1
10
127.219829
20
258.640769
11
130.405206
21
256.368562
0
LINE
8
Layer 1
10
130.405206
20
256.368562
11
133.814146
21
253.534573
0
LINE
8
Layer 1
10
133.814146
20
253.534573
11
137.314513
21
250.279950
0
LINE
8
Layer 1
10
137.314513
20
250.279950
11
140.774170
21
246.745842
0
LINE
8
Layer 1
10
140.774170
20
246.745842
11
144.060979
21
243.073397
0
LINE
8
Layer 1
10
144.060979
20
243.073397
11
147.042805
21
239.403763
0
LINE
8
Layer 1
10
147.042805
20
239.403763
11
149.587510
21
235.878087
0
LINE
8
Layer 1
10
149.587510
20
235.878087
11
151.562957
21
232.637519
0
LINE
8
Layer 1
10
151.562957
20
232.637519
11
152.649450
21
230.300137
0
LINE
8
Layer 1
10
152.649450
20
230.300137
11
153.678972
21
227.464861
0
LINE
8
Layer 1
10
153.678972
20
227.464861
11
154.626713
21
224.245800
0
LINE
8
Layer 1
10
154.626713
20
224.245800
11
155.467862
21
220.757067
0
LINE
8
Layer 1
10
155.467862
20
220.757067
11
156.177610
21
217.112773
0
LINE
8
Layer 1
10
156.177610
20
217.112773
11
156.731144
21
213.427028
0
LINE
8
Layer 1
10
156.731144
20
213.427028
11
157.103655
21
209.813945
0
LINE
8
Layer 1
10
157.103655
20
209.813945
11
157.270331
21
206.387635
0
LINE
8
Layer 1
10
157.270331
20
206.387635
11
157.163704
21
204.942103
0
LINE
8
Layer 1
10
157.163704
20
204.942103
11
157.013561
21
204.528855
0
LINE
8
Layer 1
10
157.013561
20
204.528855
11
156.804889
21
204.313347
0
LINE
8
Layer 1
10
156.804889
20
204.313347
11
156.542208
21
204.289123
0
LINE
8
Layer 1
10
156.542208
20
204.289123
11
156.230036
21
204.449730
0
LINE
8
Layer 1
10
156.230036
20
204.449730
11
155.475291
21
205.299616
0
LINE
8
Layer 1
10
155.475291
20
205.299616
11
154.576801
21
206.811369
0
LINE
8
Layer 1
10
154.576801
20
206.811369
11
153.570716
21
208.933351
0
LINE
8
Layer 1
10
153.570716
20
208.933351
11
151.380345
21
214.801458
0
LINE
8
Layer 1
10
151.380345
20
214.801458
11
151.380345
21
214.801458
0
LINE
8
Layer 1
10
132.648000
20
209.662979
11
130.231101
21
211.264089
0
LINE
8
Layer 1
10
130.231101
20
211.264089
11
127.574707
21
212.652798
0
LINE
8
Layer 1
10
127.574707
20
212.652798
11
124.675421
21
213.830000
0
LINE
8
Layer 1
10
124.675421
20
213.830000
11
121.529846
21
214.796590
0
LINE
8
Layer 1
10
121.529846
20
214.796590
11
118.134586
21
215.553464
0
LINE
8
Layer 1
10
118.134586
20
215.553464
11
114.486242
21
216.101514
0
LINE
8
Layer 1
10
114.486242
20
216.101514
11
110.581420
21
216.441638
0
LINE
8
Layer 1
10
110.581420
20
216.441638
11
106.416721
21
216.574728
0
LINE
8
Layer 1
10
106.416721
20
216.574728
11
100.246117
21
216.740114
0
LINE
8
Layer 1
10
100.246117
20
216.740114
11
94.791696
21
217.127287
0
LINE
8
Layer 1
10
94.791696
20
217.127287
11
90.162546
21
217.708210
0
LINE
8
Layer 1
10
90.162546
20
217.708210
11
86.467752
21
218.454849
0
LINE
8
Layer 1
10
86.467752
20
218.454849
11
83.816403
21
219.339168
0
LINE
8
Layer 1
10
83.816403
20
219.339168
11
82.916109
21
219.824195
0
LINE
8
Layer 1
10
82.916109
20
219.824195
11
82.317583
21
220.333130
0
LINE
8
Layer 1
10
82.317583
20
220.333130
11
82.034462
21
220.862466
0
LINE
8
Layer 1
10
82.034462
20
220.862466
11
82.080381
21
221.408701
0
LINE
8
Layer 1
10
82.080381
20
221.408701
11
82.468976
21
221.968328
0
LINE
8
Layer 1
10
82.468976
20
221.968328
11
83.213883
21
222.537844
0
LINE
8
Layer 1
10
83.213883
20
222.537844
11
84.034149
21
222.830223
0
LINE
8
Layer 1
10
84.034149
20
222.830223
11
85.389316
21
223.054885
0
LINE
8
Layer 1
10
85.389316
20
223.054885
11
89.425086
21
223.313511
0
LINE
8
Layer 1
10
89.425086
20
223.313511
11
94.762649
21
223.338632
0
LINE
8
Layer 1
10
94.762649
20
223.338632
11
100.843461
21
223.155160
0
LINE
8
Layer 1
10
100.843461
20
223.155160
11
107.108980
21
222.788004
0
LINE
8
Layer 1
10
107.108980
20
222.788004
11
113.000661
21
222.262075
0
LINE
8
Layer 1
10
113.000661
20
222.262075
11
117.959963
21
221.602284
0
LINE
8
Layer 1
10
117.959963
20
221.602284
11
121.428341
21
220.833541
0
LINE
8
Layer 1
10
121.428341
20
220.833541
11
124.670650
21
219.641804
0
LINE
8
Layer 1
10
124.670650
20
219.641804
11
127.725099
21
218.231959
0
LINE
8
Layer 1
10
127.725099
20
218.231959
11
130.516346
21
216.660994
0
LINE
8
Layer 1
10
130.516346
20
216.660994
11
132.969046
21
214.985899
0
LINE
8
Layer 1
10
132.969046
20
214.985899
11
135.007856
21
213.263663
0
LINE
8
Layer 1
10
135.007856
20
213.263663
11
136.557431
21
211.551276
0
LINE
8
Layer 1
10
136.557431
20
211.551276
11
137.542428
21
209.905727
0
LINE
8
Layer 1
10
137.542428
20
209.905727
11
137.799665
21
209.125825
0
LINE
8
Layer 1
10
137.799665
20
209.125825
11
137.887504
21
208.384005
0
LINE
8
Layer 1
10
137.887504
20
208.384005
11
137.844267
21
207.668577
0
LINE
8
Layer 1
10
137.844267
20
207.668577
11
137.692482
21
207.187069
0
LINE
8
Layer 1
10
137.692482
20
207.187069
11
137.399036
21
206.947565
0
LINE
8
Layer 1
10
137.399036
20
206.947565
11
136.930819
21
206.958147
0
LINE
8
Layer 1
10
136.930819
20
206.958147
11
135.337623
21
207.761897
0
LINE
8
Layer 1
10
135.337623
20
207.761897
11
132.648000
21
209.662979
0
LINE
8
Layer 1
10
132.648000
20
209.662979
11
132.648000
21
209.662979
0
LINE
8
Layer 1
10
141.099162
20
215.837533
11
139.852135
21
217.095697
0
LINE
8
Layer 1
10
139.852135
20
217.095697
11
138.830928
21
218.321087
0
LINE
8
Layer 1
10
138.830928
20
218.321087
11
138.140924
21
219.373434
0
LINE
8
Layer 1
10
138.140924
20
219.373434
11
137.887504
21
220.112466
0
LINE
8
Layer 1
10
137.887504
20
220.112466
11
137.762903
21
220.577105
0
LINE
8
Layer 1
10
137.762903
20
220.577105
11
137.400341
21
221.121711
0
LINE
8
Layer 1
10
137.400341
20
221.121711
11
136.028775
21
222.413228
0
LINE
8
Layer 1
10
136.028775
20
222.413228
11
133.907692
21
223.911821
0
LINE
8
Layer 1
10
133.907692
20
223.911821
11
131.171980
21
225.542295
0
LINE
8
Layer 1
10
131.171980
20
225.542295
11
127.956524
21
227.229453
0
LINE
8
Layer 1
10
127.956524
20
227.229453
11
124.396209
21
228.898102
0
LINE
8
Layer 1
10
124.396209
20
228.898102
11
120.625924
21
230.473043
0
LINE
8
Layer 1
10
120.625924
20
230.473043
11
116.780553
21
231.879084
0
LINE
8
Layer 1
10
116.780553
20
231.879084
11
112.013945
21
233.245970
0
LINE
8
Layer 1
10
112.013945
20
233.245970
11
106.907664
21
234.277274
0
LINE
8
Layer 1
10
106.907664
20
234.277274
11
101.640279
21
234.967230
0
LINE
8
Layer 1
10
101.640279
20
234.967230
11
96.390362
21
235.310068
0
LINE
8
Layer 1
10
96.390362
20
235.310068
11
91.336481
21
235.300021
0
LINE
8
Layer 1
10
91.336481
20
235.300021
11
86.657206
21
234.931321
0
LINE
8
Layer 1
10
86.657206
20
234.931321
11
82.531109
21
234.198202
0
LINE
8
Layer 1
10
82.531109
20
234.198202
11
80.731305
21
233.693182
0
LINE
8
Layer 1
10
80.731305
20
233.693182
11
79.136759
21
233.094894
0
LINE
8
Layer 1
10
79.136759
20
233.094894
11
75.736500
21
231.855127
0
LINE
8
Layer 1
10
75.736500
20
231.855127
11
74.639922
21
231.663656
0
LINE
8
Layer 1
10
74.639922
20
231.663656
11
73.957752
21
231.752007
0
LINE
8
Layer 1
10
73.957752
20
231.752007
11
73.699020
21
232.115841
0
LINE
8
Layer 1
10
73.699020
20
232.115841
11
73.872756
21
232.750818
0
LINE
8
Layer 1
10
73.872756
20
232.750818
11
74.487990
21
233.652598
0
LINE
8
Layer 1
10
74.487990
20
233.652598
11
75.553751
21
234.816842
0
LINE
8
Layer 1
10
75.553751
20
234.816842
11
76.488778
21
235.554599
0
LINE
8
Layer 1
10
76.488778
20
235.554599
11
77.761999
21
236.256507
0
LINE
8
Layer 1
10
77.761999
20
236.256507
11
81.180785
21
237.533562
0
LINE
8
Layer 1
10
81.180785
20
237.533562
11
85.525641
21
238.609586
0
LINE
8
Layer 1
10
85.525641
20
238.609586
11
90.512098
21
239.446155
0
LINE
8
Layer 1
10
90.512098
20
239.446155
11
95.855688
21
240.004847
0
LINE
8
Layer 1
10
95.855688
20
240.004847
11
101.271944
21
240.247240
0
LINE
8
Layer 1
10
101.271944
20
240.247240
11
106.476396
21
240.134912
0
LINE
8
Layer 1
10
106.476396
20
240.134912
11
111.184577
21
239.629439
0
LINE
8
Layer 1
10
111.184577
20
239.629439
11
116.854998
21
238.524386
0
LINE
8
Layer 1
10
116.854998
20
238.524386
11
121.909270
21
237.147779
0
LINE
8
Layer 1
10
121.909270
20
237.147779
11
126.416995
21
235.458906
0
LINE
8
Layer 1
10
126.416995
20
235.458906
11
130.447775
21
233.417052
0
LINE
8
Layer 1
10
130.447775
20
233.417052
11
134.071210
21
230.981501
0
LINE
8
Layer 1
10
134.071210
20
230.981501
11
137.356901
21
228.111540
0
LINE
8
Layer 1
10
137.356901
20
228.111540
11
140.374451
21
224.766455
0
LINE
8
Layer 1
10
140.374451
20
224.766455
11
143.193460
21
220.905530
0
LINE
8
Layer 1
10
143.193460
20
220.905530
11
146.303925
21
216.012439
0
LINE
8
Layer 1
10
146.303925
20
216.012439
11
147.597659
21
213.565698
0
LINE
8
Layer 1
10
147.597659
20
213.565698
11
147.439251
21
213.063177
0
LINE
8
Layer 1
10
147.439251
20
213.063177
11
146.996526
21
212.819453
0
LINE
8
Layer 1
10
146.996526
20
212.819453
11
146.318226
21
212.817483
0
LINE
8
Layer 1
10
146.318226
20
212.817483
11
145.453096
21
213.040227
0
LINE
8
Layer 1
10
145.453096
20
213.040227
11
143.357324
21
214.091695
0
LINE
8
Layer 1
10
143.357324
20
214.091695
11
141.099162
21
215.837533
0
LINE
8
Layer 1
10
141.099162
20
215.837533
11
141.099162
21
215.837533
0
LINE
8
Layer 1
10
114.598123
20
244.497296
11
110.545757
21
245.062287
0
LINE
8
Layer 1
10
110.545757
20
245.062287
11
105.175894
21
245.546302
0
LINE
8
Layer 1
10
105.175894
20
245.546302
11
99.187985
21
245.897879
0
LINE
8
Layer 1
10
99.187985
20
245.897879
11
93.281483
21
246.065559
0
LINE
8
Layer 1
10
93.281483
20
246.065559
11
83.637713
21
246.409653
0
LINE
8
Layer 1
10
83.637713
20
246.409653
11
80.704042
21
246.704065
0
LINE
8
Layer 1
10
80.704042
20
246.704065
11
79.905283
21
246.867910
0
LINE
8
Layer 1
10
79.905283
20
246.867910
11
79.626584
21
247.037533
0
LINE
8
Layer 1
10
79.626584
20
247.037533
11
79.723364
21
247.349072
0
LINE
8
Layer 1
10
79.723364
20
247.349072
11
80.010653
21
247.642648
0
LINE
8
Layer 1
10
80.010653
20
247.642648
11
81.138460
21
248.173788
0
LINE
8
Layer 1
10
81.138460
20
248.173788
11
82.973410
21
248.626712
0
LINE
8
Layer 1
10
82.973410
20
248.626712
11
85.478906
21
248.997178
0
LINE
8
Layer 1
10
85.478906
20
248.997178
11
92.355151
21
249.473772
0
LINE
8
Layer 1
10
92.355151
20
249.473772
11
101.474422
21
249.569639
0
LINE
8
Layer 1
10
101.474422
20
249.569639
11
106.916918
21
249.429679
0
LINE
8
Layer 1
10
106.916918
20
249.429679
11
111.657616
21
249.130174
0
LINE
8
Layer 1
10
111.657616
20
249.130174
11
115.699889
21
248.670335
0
LINE
8
Layer 1
10
115.699889
20
248.670335
11
119.047109
21
248.049374
0
LINE
8
Layer 1
10
119.047109
20
248.049374
11
121.702647
21
247.266501
0
LINE
8
Layer 1
10
121.702647
20
247.266501
11
123.669875
21
246.320928
0
LINE
8
Layer 1
10
123.669875
20
246.320928
11
124.952165
21
245.211866
0
LINE
8
Layer 1
10
124.952165
20
245.211866
11
125.337512
21
244.595780
0
LINE
8
Layer 1
10
125.337512
20
244.595780
11
125.552889
21
243.938527
0
LINE
8
Layer 1
10
125.552889
20
243.938527
11
125.654743
21
242.917596
0
LINE
8
Layer 1
10
125.654743
20
242.917596
11
125.465901
21
242.329572
0
LINE
8
Layer 1
10
125.465901
20
242.329572
11
124.964315
21
242.149938
0
LINE
8
Layer 1
10
124.964315
20
242.149938
11
124.127935
21
242.354182
0
LINE
8
Layer 1
10
124.127935
20
242.354182
11
120.557968
21
243.279422
0
LINE
8
Layer 1
10
120.557968
20
243.279422
11
114.598123
21
244.497296
0
LINE
8
Layer 1
10
114.598123
20
244.497296
11
114.598123
21
244.497296
0
LINE
8
Layer 1
10
234.707371
20
91.484137
11
235.495714
21
92.426700
0
LINE
8
Layer 1
10
235.495714
20
92.426700
11
236.521504
21
93.198580
0
LINE
8
Layer 1
10
236.521504
20
93.198580
11
237.651952
21
93.720123
0
LINE
8
Layer 1
10
237.651952
20
93.720123
11
238.754271
21
93.911671
0
LINE
8
Layer 1
10
238.754271
20
93.911671
11
239.834749
21
94.087628
0
LINE
8
Layer 1
10
239.834749
20
94.087628
11
240.763621
21
94.584291
0
LINE
8
Layer 1
10
240.763621
20
94.584291
11
241.480112
21
95.354852
0
LINE
8
Layer 1
10
241.480112
20
95.354852
11
241.923446
21
96.352498
0
LINE
8
Layer 1
10
241.923446
20
96.352498
11
242.409579
21
97.360027
0
LINE
8
Layer 1
10
242.409579
20
97.360027
11
243.261365
21
98.298971
0
LINE
8
Layer 1
10
243.261365
20
98.298971
11
244.358763
21
99.064369
0
LINE
8
Layer 1
10
244.358763
20
99.064369
11
245.581734
21
99.551261
0
LINE
8
Layer 1
10
245.581734
20
99.551261
11
246.952526
21
100.136335
0
LINE
8
Layer 1
10
246.952526
20
100.136335
11
248.225768
21
101.146805
0
LINE
8
Layer 1
10
248.225768
20
101.146805
11
249.336971
21
102.518251
0
LINE
8
Layer 1
10
249.336971
20
102.518251
11
250.221648
21
104.186253
0
LINE
8
Layer 1
10
250.221648
20
104.186253
11
250.998902
21
105.814677
0
LINE
8
Layer 1
10
250.998902
20
105.814677
11
251.917688
21
107.382487
0
LINE
8
Layer 1
10
251.917688
20
107.382487
11
252.863196
21
108.711299
0
LINE
8
Layer 1
10
252.863196
20
108.711299
11
253.720617
21
109.622728
0
LINE
8
Layer 1
10
253.720617
20
109.622728
11
254.284759
21
110.288481
0
LINE
8
Layer 1
10
254.284759
20
110.288481
11
254.676840
21
111.175748
0
LINE
8
Layer 1
10
254.676840
20
111.175748
11
254.898055
21
112.239331
0
LINE
8
Layer 1
10
254.898055
20
112.239331
11
254.949599
21
113.434033
0
LINE
8
Layer 1
10
254.949599
20
113.434033
11
254.832664
21
114.714657
0
LINE
8
Layer 1
10
254.832664
20
114.714657
11
254.548447
21
116.036004
0
LINE
8
Layer 1
10
254.548447
20
116.036004
11
254.098140
21
117.352879
0
LINE
8
Layer 1
10
254.098140
20
117.352879
11
253.482938
21
118.620083
0
LINE
8
Layer 1
10
253.482938
20
118.620083
11
253.135245
21
118.949898
0
LINE
8
Layer 1
10
253.135245
20
118.949898
11
252.722814
21
118.907344
0
LINE
8
Layer 1
10
252.722814
20
118.907344
11
252.279536
21
118.549872
0
LINE
8
Layer 1
10
252.279536
20
118.549872
11
251.839302
21
117.934932
0
LINE
8
Layer 1
10
251.839302
20
117.934932
11
251.103532
21
116.162446
0
LINE
8
Layer 1
10
251.103532
20
116.162446
11
250.786632
21
114.049488
0
LINE
8
Layer 1
10
250.786632
20
114.049488
11
250.578712
21
113.162341
0
LINE
8
Layer 1
10
250.578712
20
113.162341
11
249.949865
21
112.007143
0
LINE
8
Layer 1
10
249.949865
20
112.007143
11
248.874112
21
110.555686
0
LINE
8
Layer 1
10
248.874112
20
110.555686
11
247.325469
21
108.779761
0
LINE
8
Layer 1
10
247.325469
20
108.779761
11
242.705595
21
104.141667
0
LINE
8
Layer 1
10
242.705595
20
104.141667
11
235.882394
21
97.867185
0
LINE
8
Layer 1
10
235.882394
20
97.867185
11
234.658508
21
96.570708
0
LINE
8
Layer 1
10
234.658508
20
96.570708
11
233.568799
21
95.051528
0
LINE
8
Layer 1
10
233.568799
20
95.051528
11
232.731915
21
93.498825
0
LINE
8
Layer 1
10
232.731915
20
93.498825
11
232.266504
21
92.101780
0
LINE
8
Layer 1
10
232.266504
20
92.101780
11
232.060847
21
89.992236
0
LINE
8
Layer 1
10
232.060847
20
89.992236
11
232.184449
21
89.420562
0
LINE
8
Layer 1
10
232.184449
20
89.420562
11
232.447024
21
89.173986
0
LINE
8
Layer 1
10
232.447024
20
89.173986
11
232.839589
21
89.254781
0
LINE
8
Layer 1
10
232.839589
20
89.254781
11
233.353158
21
89.665222
0
LINE
8
Layer 1
10
233.353158
20
89.665222
11
234.707371
21
91.484137
0
LINE
8
Layer 1
10
234.707371
20
91.484137
11
234.707371
21
91.484137
0
LINE
8
Layer 1
10
179.045545
20
98.849967
11
180.285461
21
99.450973
0
LINE
8
Layer 1
10
180.285461
20
99.450973
11
181.499728
21
100.203742
0
LINE
8
Layer 1
10
181.499728
20
100.203742
11
182.548952
21
101.012130
0
LINE
8
Layer 1
10
182.548952
20
101.012130
11
183.293741
21
101.779999
0
LINE
8
Layer 1
10
183.293741
20
101.779999
11
183.745827
21
102.171787
0
LINE
8
Layer 1
10
183.745827
20
102.171787
11
184.488847
21
102.560359
0
LINE
8
Layer 1
10
184.488847
20
102.560359
11
186.752283
21
103.303162
0
LINE
8
Layer 1
10
186.752283
20
103.303162
11
189.893236
21
103.959029
0
LINE
8
Layer 1
10
189.893236
20
103.959029
11
193.720892
21
104.478579
0
LINE
8
Layer 1
10
193.720892
20
104.478579
11
198.602093
21
105.076197
0
LINE
8
Layer 1
10
198.602093
20
105.076197
11
201.400054
21
105.731226
0
LINE
8
Layer 1
10
201.400054
20
105.731226
11
202.210457
21
106.155266
0
LINE
8
Layer 1
10
202.210457
20
106.155266
11
202.731216
21
106.683652
0
LINE
8
Layer 1
10
202.731216
20
106.683652
11
203.039386
21
107.346385
0
LINE
8
Layer 1
10
203.039386
20
107.346385
11
203.212023
21
108.173461
0
LINE
8
Layer 1
10
203.212023
20
108.173461
11
203.579327
21
109.539282
0
LINE
8
Layer 1
10
203.579327
20
109.539282
11
203.896250
21
110.015795
0
LINE
8
Layer 1
10
203.896250
20
110.015795
11
204.333691
21
110.373711
0
LINE
8
Layer 1
10
204.333691
20
110.373711
11
205.665129
21
110.790760
0
LINE
8
Layer 1
10
205.665129
20
110.790760
11
207.763658
21
110.904441
0
LINE
8
Layer 1
10
207.763658
20
110.904441
11
210.031298
21
111.003705
0
LINE
8
Layer 1
10
210.031298
20
111.003705
11
210.765530
21
111.177384
0
LINE
8
Layer 1
10
210.765530
20
111.177384
11
211.282923
21
111.477849
0
LINE
8
Layer 1
10
211.282923
20
111.477849
11
211.620644
21
111.938167
0
LINE
8
Layer 1
10
211.620644
20
111.938167
11
211.815859
21
112.591403
0
LINE
8
Layer 1
10
211.815859
20
112.591403
11
211.927432
21
114.608892
0
LINE
8
Layer 1
10
211.927432
20
114.608892
11
212.078535
21
116.518896
0
LINE
8
Layer 1
10
212.078535
20
116.518896
11
212.296694
21
117.241508
0
LINE
8
Layer 1
10
212.296694
20
117.241508
11
212.635951
21
117.844560
0
LINE
8
Layer 1
10
212.635951
20
117.844560
11
213.115826
21
118.354574
0
LINE
8
Layer 1
10
213.115826
20
118.354574
11
213.755840
21
118.798075
0
LINE
8
Layer 1
10
213.755840
20
118.798075
11
215.594362
21
119.591633
0
LINE
8
Layer 1
10
215.594362
20
119.591633
11
217.111914
21
120.263150
0
LINE
8
Layer 1
10
217.111914
20
120.263150
11
218.533150
21
121.146580
0
LINE
8
Layer 1
10
218.533150
20
121.146580
11
219.698760
21
122.127129
0
LINE
8
Layer 1
10
219.698760
20
122.127129
11
220.449439
21
123.090009
0
LINE
8
Layer 1
10
220.449439
20
123.090009
11
220.942819
21
124.223770
0
LINE
8
Layer 1
10
220.942819
20
124.223770
11
221.298630
21
125.483394
0
LINE
8
Layer 1
10
221.298630
20
125.483394
11
221.595666
21
128.131790
0
LINE
8
Layer 1
10
221.595666
20
128.131790
11
221.535954
21
129.396342
0
LINE
8
Layer 1
10
221.535954
20
129.396342
11
221.336797
21
130.538317
0
LINE
8
Layer 1
10
221.336797
20
130.538317
11
220.997727
21
131.495605
0
LINE
8
Layer 1
10
220.997727
20
131.495605
11
220.518273
21
132.206094
0
LINE
8
Layer 1
10
220.518273
20
132.206094
11
220.018526
21
133.008344
0
LINE
8
Layer 1
10
220.018526
20
133.008344
11
219.485278
21
134.340292
0
LINE
8
Layer 1
10
219.485278
20
134.340292
11
218.573522
21
137.852223
0
LINE
8
Layer 1
10
218.573522
20
137.852223
11
217.748098
21
142.345258
0
LINE
8
Layer 1
10
217.748098
20
142.345258
11
221.461372
21
140.943657
0
LINE
8
Layer 1
10
221.461372
20
140.943657
11
223.000638
21
140.192319
0
LINE
8
Layer 1
10
223.000638
20
140.192319
11
224.245953
21
139.242521
0
LINE
8
Layer 1
10
224.245953
20
139.242521
11
225.116185
21
138.171751
0
LINE
8
Layer 1
10
225.116185
20
138.171751
11
225.530204
21
137.057494
0
LINE
8
Layer 1
10
225.530204
20
137.057494
11
226.020174
21
135.864754
0
LINE
8
Layer 1
10
226.020174
20
135.864754
11
227.108718
21
134.607259
0
LINE
8
Layer 1
10
227.108718
20
134.607259
11
228.710668
21
133.364168
0
LINE
8
Layer 1
10
228.710668
20
133.364168
11
230.740856
21
132.214640
0
LINE
8
Layer 1
10
230.740856
20
132.214640
11
234.666692
21
130.057282
0
LINE
8
Layer 1
10
234.666692
20
130.057282
11
236.247683
21
129.018260
0
LINE
8
Layer 1
10
236.247683
20
129.018260
11
237.287638
21
128.182096
0
LINE
8
Layer 1
10
237.287638
20
128.182096
11
238.173524
21
127.564108
0
LINE
8
Layer 1
10
238.173524
20
127.564108
11
239.288882
21
127.179509
0
LINE
8
Layer 1
10
239.288882
20
127.179509
11
240.522928
21
127.052428
0
LINE
8
Layer 1
10
240.522928
20
127.052428
11
241.764879
21
127.206993
0
LINE
8
Layer 1
10
241.764879
20
127.206993
11
242.905868
21
127.382327
0
LINE
8
Layer 1
10
242.905868
20
127.382327
11
243.953344
21
127.342901
0
LINE
8
Layer 1
10
243.953344
20
127.342901
11
244.791201
21
127.105747
0
LINE
8
Layer 1
10
244.791201
20
127.105747
11
245.303334
21
126.687899
0
LINE
8
Layer 1
10
245.303334
20
126.687899
11
245.851072
21
126.151832
0
LINE
8
Layer 1
10
245.851072
20
126.151832
11
246.676149
21
125.778111
0
LINE
8
Layer 1
10
246.676149
20
125.778111
11
247.696852
21
125.565005
0
LINE
8
Layer 1
10
247.696852
20
125.565005
11
248.831468
21
125.510785
0
LINE
8
Layer 1
10
248.831468
20
125.510785
11
249.998283
21
125.613720
0
LINE
8
Layer 1
10
249.998283
20
125.613720
11
251.115586
21
125.872082
0
LINE
8
Layer 1
10
251.115586
20
125.872082
11
252.101664
21
126.284140
0
LINE
8
Layer 1
10
252.101664
20
126.284140
11
252.874803
21
126.848164
0
LINE
8
Layer 1
10
252.874803
20
126.848164
11
253.626070
21
127.395743
0
LINE
8
Layer 1
10
253.626070
20
127.395743
11
254.386892
21
127.486188
0
LINE
8
Layer 1
10
254.386892
20
127.486188
11
255.232640
21
127.105900
0
LINE
8
Layer 1
10
255.232640
20
127.105900
11
256.238680
21
126.241279
0
LINE
8
Layer 1
10
256.238680
20
126.241279
11
257.778548
21
124.884179
0
LINE
8
Layer 1
10
257.778548
20
124.884179
11
258.424718
21
124.523988
0
LINE
8
Layer 1
10
258.424718
20
124.523988
11
259.043965
21
124.371587
0
LINE
8
Layer 1
10
259.043965
20
124.371587
11
259.677977
21
124.423637
0
LINE
8
Layer 1
10
259.677977
20
124.423637
11
260.368443
21
124.676801
0
LINE
8
Layer 1
10
260.368443
20
124.676801
11
262.085492
21
125.773118
0
LINE
8
Layer 1
10
262.085492
20
125.773118
11
262.520210
21
126.232201
0
LINE
8
Layer 1
10
262.520210
20
126.232201
11
262.937530
21
126.942135
0
LINE
8
Layer 1
10
262.937530
20
126.942135
11
263.704714
21
128.997149
0
LINE
8
Layer 1
10
263.704714
20
128.997149
11
264.356520
21
131.703342
0
LINE
8
Layer 1
10
264.356520
20
131.703342
11
264.862426
21
134.825900
0
LINE
8
Layer 1
10
264.862426
20
134.825900
11
265.191908
21
138.130006
0
LINE
8
Layer 1
10
265.191908
20
138.130006
11
265.314443
21
141.380844
0
LINE
8
Layer 1
10
265.314443
20
141.380844
11
265.199509
21
144.343598
0
LINE
8
Layer 1
10
265.199509
20
144.343598
11
264.816582
21
146.783453
0
LINE
8
Layer 1
10
264.816582
20
146.783453
11
263.972672
21
150.145849
0
LINE
8
Layer 1
10
263.972672
20
150.145849
11
261.636397
21
146.304147
0
LINE
8
Layer 1
10
261.636397
20
146.304147
11
260.705957
21
144.975082
0
LINE
8
Layer 1
10
260.705957
20
144.975082
11
259.711247
21
143.923780
0
LINE
8
Layer 1
10
259.711247
20
143.923780
11
258.672936
21
143.156625
0
LINE
8
Layer 1
10
258.672936
20
143.156625
11
257.611694
21
142.680002
0
LINE
8
Layer 1
10
257.611694
20
142.680002
11
256.548188
21
142.500296
0
LINE
8
Layer 1
10
256.548188
20
142.500296
11
255.503089
21
142.623891
0
LINE
8
Layer 1
10
255.503089
20
142.623891
11
254.497066
21
143.057172
0
LINE
8
Layer 1
10
254.497066
20
143.057172
11
253.550787
21
143.806525
0
LINE
8
Layer 1
10
253.550787
20
143.806525
11
252.852989
21
144.294591
0
LINE
8
Layer 1
10
252.852989
20
144.294591
11
252.201104
21
144.269694
0
LINE
8
Layer 1
10
252.201104
20
144.269694
11
251.545811
21
143.709770
0
LINE
8
Layer 1
10
251.545811
20
143.709770
11
250.837793
21
142.592755
0
LINE
8
Layer 1
10
250.837793
20
142.592755
11
250.105889
21
141.474454
0
LINE
8
Layer 1
10
250.105889
20
141.474454
11
249.312370
21
140.694305
0
LINE
8
Layer 1
10
249.312370
20
140.694305
11
248.492287
21
140.249894
0
LINE
8
Layer 1
10
248.492287
20
140.249894
11
247.680691
21
140.138809
0
LINE
8
Layer 1
10
247.680691
20
140.138809
11
246.912633
21
140.358637
0
LINE
8
Layer 1
10
246.912633
20
140.358637
11
246.223163
21
140.906963
0
LINE
8
Layer 1
10
246.223163
20
140.906963
11
245.647332
21
141.781376
0
LINE
8
Layer 1
10
245.647332
20
141.781376
11
245.220191
21
142.979462
0
LINE
8
Layer 1
10
245.220191
20
142.979462
11
244.710603
21
144.387479
0
LINE
8
Layer 1
10
244.710603
20
144.387479
11
243.959306
21
145.258407
0
LINE
8
Layer 1
10
243.959306
20
145.258407
11
242.849945
21
145.672608
0
LINE
8
Layer 1
10
242.849945
20
145.672608
11
241.266167
21
145.710444
0
LINE
8
Layer 1
10
241.266167
20
145.710444
11
239.730502
21
145.766359
0
LINE
8
Layer 1
10
239.730502
20
145.766359
11
238.518130
21
146.183326
0
LINE
8
Layer 1
10
238.518130
20
146.183326
11
237.573028
21
146.993203
0
LINE
8
Layer 1
10
237.573028
20
146.993203
11
236.839173
21
148.227850
0
LINE
8
Layer 1
10
236.839173
20
148.227850
11
236.226962
21
149.449336
0
LINE
8
Layer 1
10
236.226962
20
149.449336
11
235.654311
21
150.287348
0
LINE
8
Layer 1
10
235.654311
20
150.287348
11
235.134188
21
150.745187
0
LINE
8
Layer 1
10
235.134188
20
150.745187
11
234.679557
21
150.826156
0
LINE
8
Layer 1
10
234.679557
20
150.826156
11
234.303385
21
150.533558
0
LINE
8
Layer 1
10
234.303385
20
150.533558
11
234.018638
21
149.870695
0
LINE
8
Layer 1
10
234.018638
20
149.870695
11
233.838281
21
148.840869
0
LINE
8
Layer 1
10
233.838281
20
148.840869
11
233.775281
21
147.447384
0
LINE
8
Layer 1
10
233.775281
20
147.447384
11
233.693844
21
146.330870
0
LINE
8
Layer 1
10
233.693844
20
146.330870
11
233.453572
21
145.342633
0
LINE
8
Layer 1
10
233.453572
20
145.342633
11
233.060525
21
144.489020
0
LINE
8
Layer 1
10
233.060525
20
144.489020
11
232.520763
21
143.776378
0
LINE
8
Layer 1
10
232.520763
20
143.776378
11
231.840346
21
143.211052
0
LINE
8
Layer 1
10
231.840346
20
143.211052
11
231.025334
21
142.799390
0
LINE
8
Layer 1
10
231.025334
20
142.799390
11
230.081786
21
142.547739
0
LINE
8
Layer 1
10
230.081786
20
142.547739
11
229.015761
21
142.462445
0
LINE
8
Layer 1
10
229.015761
20
142.462445
11
228.393838
21
142.730228
0
LINE
8
Layer 1
10
228.393838
20
142.730228
11
227.753588
21
143.475895
0
LINE
8
Layer 1
10
227.753588
20
143.475895
11
227.125605
21
144.612920
0
LINE
8
Layer 1
10
227.125605
20
144.612920
11
226.540482
21
146.054778
0
LINE
8
Layer 1
10
226.540482
20
146.054778
11
225.621186
21
149.506892
0
LINE
8
Layer 1
10
225.621186
20
149.506892
11
225.348199
21
151.344097
0
LINE
8
Layer 1
10
225.348199
20
151.344097
11
225.240444
21
153.140035
0
LINE
8
Layer 1
10
225.240444
20
153.140035
11
225.201991
21
157.634562
0
LINE
8
Layer 1
10
225.201991
20
157.634562
11
222.711662
21
154.296697
0
LINE
8
Layer 1
10
222.711662
20
154.296697
11
221.584488
21
152.935420
0
LINE
8
Layer 1
10
221.584488
20
152.935420
11
220.502257
21
151.953809
0
LINE
8
Layer 1
10
220.502257
20
151.953809
11
219.441560
21
151.351080
0
LINE
8
Layer 1
10
219.441560
20
151.351080
11
218.378989
21
151.126449
0
LINE
8
Layer 1
10
218.378989
20
151.126449
11
217.291134
21
151.279135
0
LINE
8
Layer 1
10
217.291134
20
151.279135
11
216.154588
21
151.808353
0
LINE
8
Layer 1
10
216.154588
20
151.808353
11
214.945941
21
152.713321
0
LINE
8
Layer 1
10
214.945941
20
152.713321
11
213.641785
21
153.993255
0
LINE
8
Layer 1
10
213.641785
20
153.993255
11
212.195998
21
155.291834
0
LINE
8
Layer 1
10
212.195998
20
155.291834
11
210.602940
21
156.243311
0
LINE
8
Layer 1
10
210.602940
20
156.243311
11
208.904007
21
156.828365
0
LINE
8
Layer 1
10
208.904007
20
156.828365
11
207.140593
21
157.027677
0
LINE
8
Layer 1
10
207.140593
20
157.027677
11
205.462810
21
157.187250
0
LINE
8
Layer 1
10
205.462810
20
157.187250
11
204.013602
21
157.655501
0
LINE
8
Layer 1
10
204.013602
20
157.655501
11
202.826639
21
158.416724
0
LINE
8
Layer 1
10
202.826639
20
158.416724
11
201.935596
21
159.455217
0
LINE
8
Layer 1
10
201.935596
20
159.455217
11
201.142529
21
160.397784
0
LINE
8
Layer 1
10
201.142529
20
160.397784
11
200.103876
21
161.169665
0
LINE
8
Layer 1
10
200.103876
20
161.169665
11
198.954393
21
161.691206
0
LINE
8
Layer 1
10
198.954393
20
161.691206
11
197.828834
21
161.882754
0
LINE
8
Layer 1
10
197.828834
20
161.882754
11
196.581834
21
162.074390
0
LINE
8
Layer 1
10
196.581834
20
162.074390
11
195.656245
21
162.696120
0
LINE
8
Layer 1
10
195.656245
20
162.696120
11
194.987867
21
163.818175
0
LINE
8
Layer 1
10
194.987867
20
163.818175
11
194.512500
21
165.510786
0
LINE
8
Layer 1
10
194.512500
20
165.510786
11
194.290563
21
167.075337
0
LINE
8
Layer 1
10
194.290563
20
167.075337
11
194.222677
21
168.653284
0
LINE
8
Layer 1
10
194.222677
20
168.653284
11
194.307784
21
170.060775
0
LINE
8
Layer 1
10
194.307784
20
170.060775
11
194.544823
21
171.113955
0
LINE
8
Layer 1
10
194.544823
20
171.113955
11
194.835480
21
172.066350
0
LINE
8
Layer 1
10
194.835480
20
172.066350
11
194.829151
21
172.337311
0
LINE
8
Layer 1
10
194.829151
20
172.337311
11
194.708845
21
172.476801
0
LINE
8
Layer 1
10
194.708845
20
172.476801
11
194.087689
21
172.377435
0
LINE
8
Layer 1
10
194.087689
20
172.377435
11
192.894788
21
171.800379
0
LINE
8
Layer 1
10
192.894788
20
171.800379
11
190.737643
21
170.340166
0
LINE
8
Layer 1
10
190.737643
20
170.340166
11
188.932730
21
168.639117
0
LINE
8
Layer 1
10
188.932730
20
168.639117
11
188.223672
21
167.671513
0
LINE
8
Layer 1
10
188.223672
20
167.671513
11
188.013007
21
166.998542
0
LINE
8
Layer 1
10
188.013007
20
166.998542
11
188.308758
21
166.510767
0
LINE
8
Layer 1
10
188.308758
20
166.510767
11
189.118946
21
166.098748
0
LINE
8
Layer 1
10
189.118946
20
166.098748
11
189.844301
21
165.581056
0
LINE
8
Layer 1
10
189.844301
20
165.581056
11
190.289064
21
164.695048
0
LINE
8
Layer 1
10
190.289064
20
164.695048
11
190.451947
21
163.445248
0
LINE
8
Layer 1
10
190.451947
20
163.445248
11
190.331660
21
161.836182
0
LINE
8
Layer 1
10
190.331660
20
161.836182
11
190.141835
21
159.870901
0
LINE
8
Layer 1
10
190.141835
20
159.870901
11
190.223617
21
159.236698
0
LINE
8
Layer 1
10
190.223617
20
159.236698
11
190.462651
21
158.791166
0
LINE
8
Layer 1
10
190.462651
20
158.791166
11
190.888527
21
158.501591
0
LINE
8
Layer 1
10
190.888527
20
158.501591
11
191.530838
21
158.335256
0
LINE
8
Layer 1
10
191.530838
20
158.335256
11
193.583128
21
158.241447
0
LINE
8
Layer 1
10
193.583128
20
158.241447
11
195.050474
21
158.145673
0
LINE
8
Layer 1
10
195.050474
20
158.145673
11
196.252100
21
157.884902
0
LINE
8
Layer 1
10
196.252100
20
157.884902
11
197.064008
21
157.498961
0
LINE
8
Layer 1
10
197.064008
20
157.498961
11
197.362199
21
157.027677
0
LINE
8
Layer 1
10
197.362199
20
157.027677
11
197.553747
21
156.556394
0
LINE
8
Layer 1
10
197.553747
20
156.556394
11
198.075289
21
156.170454
0
LINE
8
Layer 1
10
198.075289
20
156.170454
11
198.847171
21
155.909683
0
LINE
8
Layer 1
10
198.847171
20
155.909683
11
199.789740
21
155.813910
0
LINE
8
Layer 1
10
199.789740
20
155.813910
11
200.732307
21
155.737116
0
LINE
8
Layer 1
10
200.732307
20
155.737116
11
201.504188
21
155.528026
0
LINE
8
Layer 1
10
201.504188
20
155.528026
11
202.025729
21
155.218574
0
LINE
8
Layer 1
10
202.025729
20
155.218574
11
202.217277
21
154.840697
0
LINE
8
Layer 1
10
202.217277
20
154.840697
11
202.573467
21
154.452717
0
LINE
8
Layer 1
10
202.573467
20
154.452717
11
203.543292
21
154.115776
0
LINE
8
Layer 1
10
203.543292
20
154.115776
11
204.978636
21
153.866002
0
LINE
8
Layer 1
10
204.978636
20
153.866002
11
206.731382
21
153.739528
0
LINE
8
Layer 1
10
206.731382
20
153.739528
11
208.524782
21
153.567861
0
LINE
8
Layer 1
10
208.524782
20
153.567861
11
210.070832
21
153.195052
0
LINE
8
Layer 1
10
210.070832
20
153.195052
11
211.204504
21
152.676022
0
LINE
8
Layer 1
10
211.204504
20
152.676022
11
211.760768
21
152.065691
0
LINE
8
Layer 1
10
211.760768
20
152.065691
11
212.201919
21
151.242041
0
LINE
8
Layer 1
10
212.201919
20
151.242041
11
213.022144
21
150.142189
0
LINE
8
Layer 1
10
213.022144
20
150.142189
11
215.331207
21
147.688402
0
LINE
8
Layer 1
10
215.331207
20
147.688402
11
218.386347
21
144.856993
0
LINE
8
Layer 1
10
218.386347
20
144.856993
11
215.268381
21
139.187211
0
LINE
8
Layer 1
10
215.268381
20
139.187211
11
213.179410
21
135.630406
0
LINE
8
Layer 1
10
213.179410
20
135.630406
11
210.922241
21
132.227573
0
LINE
8
Layer 1
10
210.922241
20
132.227573
11
208.548610
21
129.037020
0
LINE
8
Layer 1
10
208.548610
20
129.037020
11
206.110254
21
126.117060
0
LINE
8
Layer 1
10
206.110254
20
126.117060
11
203.658910
21
123.526003
0
LINE
8
Layer 1
10
203.658910
20
123.526003
11
201.246315
21
121.322158
0
LINE
8
Layer 1
10
201.246315
20
121.322158
11
198.924206
21
119.563836
0
LINE
8
Layer 1
10
198.924206
20
119.563836
11
196.744319
21
118.309348
0
LINE
8
Layer 1
10
196.744319
20
118.309348
11
193.498233
21
116.876290
0
LINE
8
Layer 1
10
193.498233
20
116.876290
11
190.434761
21
115.710060
0
LINE
8
Layer 1
10
190.434761
20
115.710060
11
187.578565
21
114.815381
0
LINE
8
Layer 1
10
187.578565
20
114.815381
11
184.954311
21
114.196976
0
LINE
8
Layer 1
10
184.954311
20
114.196976
11
182.586663
21
113.859566
0
LINE
8
Layer 1
10
182.586663
20
113.859566
11
180.500284
21
113.807875
0
LINE
8
Layer 1
10
180.500284
20
113.807875
11
178.719840
21
114.046625
0
LINE
8
Layer 1
10
178.719840
20
114.046625
11
177.269995
21
114.580537
0
LINE
8
Layer 1
10
177.269995
20
114.580537
11
175.595372
21
115.307259
0
LINE
8
Layer 1
10
175.595372
20
115.307259
11
173.970993
21
115.548953
0
LINE
8
Layer 1
10
173.970993
20
115.548953
11
172.063333
21
115.305447
0
LINE
8
Layer 1
10
172.063333
20
115.305447
11
169.538867
21
114.576569
0
LINE
8
Layer 1
10
169.538867
20
114.576569
11
166.825366
21
113.798018
0
LINE
8
Layer 1
10
166.825366
20
113.798018
11
165.765306
21
113.647661
0
LINE
8
Layer 1
10
165.765306
20
113.647661
11
164.796899
21
113.668896
0
LINE
8
Layer 1
10
164.796899
20
113.668896
11
163.840539
21
113.870961
0
LINE
8
Layer 1
10
163.840539
20
113.870961
11
162.816620
21
114.263089
0
LINE
8
Layer 1
10
162.816620
20
114.263089
11
160.247683
21
115.654480
0
LINE
8
Layer 1
10
160.247683
20
115.654480
11
157.671863
21
116.980473
0
LINE
8
Layer 1
10
157.671863
20
116.980473
11
155.603297
21
117.639587
0
LINE
8
Layer 1
10
155.603297
20
117.639587
11
154.764294
21
117.725439
0
LINE
8
Layer 1
10
154.764294
20
117.725439
11
154.058178
21
117.652219
0
LINE
8
Layer 1
10
154.058178
20
117.652219
11
153.486973
21
117.422477
0
LINE
8
Layer 1
10
153.486973
20
117.422477
11
153.052702
21
117.038763
0
LINE
8
Layer 1
10
153.052702
20
117.038763
11
152.757391
21
116.503626
0
LINE
8
Layer 1
10
152.757391
20
116.503626
11
152.603064
21
115.819616
0
LINE
8
Layer 1
10
152.603064
20
115.819616
11
152.725457
21
114.015172
0
LINE
8
Layer 1
10
152.725457
20
114.015172
11
153.436076
21
111.645828
0
LINE
8
Layer 1
10
153.436076
20
111.645828
11
154.751117
21
108.731979
0
LINE
8
Layer 1
10
154.751117
20
108.731979
11
155.954538
21
106.565878
0
LINE
8
Layer 1
10
155.954538
20
106.565878
11
157.205373
21
104.696159
0
LINE
8
Layer 1
10
157.205373
20
104.696159
11
158.511165
21
103.116605
0
LINE
8
Layer 1
10
158.511165
20
103.116605
11
159.879458
21
101.820998
0
LINE
8
Layer 1
10
159.879458
20
101.820998
11
161.317794
21
100.803122
0
LINE
8
Layer 1
10
161.317794
20
100.803122
11
162.833716
21
100.056759
0
LINE
8
Layer 1
10
162.833716
20
100.056759
11
164.434767
21
99.575693
0
LINE
8
Layer 1
10
164.434767
20
99.575693
11
166.128491
21
99.353706
0
LINE
8
Layer 1
10
166.128491
20
99.353706
11
169.791107
21
98.985074
0
LINE
8
Layer 1
10
169.791107
20
98.985074
11
173.086813
21
98.397706
0
LINE
8
Layer 1
10
173.086813
20
98.397706
11
174.495769
21
98.203490
0
LINE
8
Layer 1
10
174.495769
20
98.203490
11
176.088892
21
98.224020
0
LINE
8
Layer 1
10
176.088892
20
98.224020
11
177.670658
21
98.444458
0
LINE
8
Layer 1
10
177.670658
20
98.444458
11
179.045545
21
98.849967
0
LINE
8
Layer 1
10
179.045545
20
98.849967
11
179.045545
21
98.849967
0
LINE
8
Layer 1
10
152.466692
20
149.621974
11
154.680366
21
152.036950
0
LINE
8
Layer 1
10
154.680366
20
152.036950
11
156.979412
21
154.190858
0
LINE
8
Layer 1
10
156.979412
20
154.190858
11
159.092135
21
155.848940
0
LINE
8
Layer 1
10
159.092135
20
155.848940
11
160.746846
21
156.776440
0
LINE
8
Layer 1
10
160.746846
20
156.776440
11
170.746496
21
160.462305
0
LINE
8
Layer 1
10
170.746496
20
160.462305
11
177.506243
21
163.111321
0
LINE
8
Layer 1
10
177.506243
20
163.111321
11
181.463024
21
164.904611
0
LINE
8
Layer 1
10
181.463024
20
164.904611
11
182.526846
21
165.536960
0
LINE
8
Layer 1
10
182.526846
20
165.536960
11
183.053778
21
166.023298
0
LINE
8
Layer 1
10
183.053778
20
166.023298
11
183.116490
21
166.351309
0
LINE
8
Layer 1
10
183.116490
20
166.351309
11
182.883565
21
166.690447
0
LINE
8
Layer 1
10
182.883565
20
166.690447
11
181.544732
21
167.396842
0
LINE
8
Layer 1
10
181.544732
20
167.396842
11
179.065146
21
168.131967
0
LINE
8
Layer 1
10
179.065146
20
168.131967
11
175.472671
21
168.885306
0
LINE
8
Layer 1
10
175.472671
20
168.885306
11
170.691271
21
169.674931
0
LINE
8
Layer 1
10
170.691271
20
169.674931
11
168.967580
21
169.832063
0
LINE
8
Layer 1
10
168.967580
20
169.832063
11
167.516733
21
169.817641
0
LINE
8
Layer 1
10
167.516733
20
169.817641
11
166.209862
21
169.621843
0
LINE
8
Layer 1
10
166.209862
20
169.621843
11
164.918094
21
169.234844
0
LINE
8
Layer 1
10
164.918094
20
169.234844
11
161.864387
21
167.847947
0
LINE
8
Layer 1
10
161.864387
20
167.847947
11
158.423105
21
165.900002
0
LINE
8
Layer 1
10
158.423105
20
165.900002
11
155.253368
21
163.664894
0
LINE
8
Layer 1
10
155.253368
20
163.664894
11
152.412904
21
161.211061
0
LINE
8
Layer 1
10
152.412904
20
161.211061
11
149.959440
21
158.606940
0
LINE
8
Layer 1
10
149.959440
20
158.606940
11
147.950702
21
155.920969
0
LINE
8
Layer 1
10
147.950702
20
155.920969
11
146.444418
21
153.221584
0
LINE
8
Layer 1
10
146.444418
20
153.221584
11
145.498315
21
150.577222
0
LINE
8
Layer 1
10
145.498315
20
150.577222
11
145.253370
21
149.297061
0
LINE
8
Layer 1
10
145.253370
20
149.297061
11
145.170119
21
148.056321
0
LINE
8
Layer 1
10
145.170119
20
148.056321
11
145.267895
21
146.400731
0
LINE
8
Layer 1
10
145.267895
20
146.400731
11
145.570500
21
145.268113
0
LINE
8
Layer 1
10
145.570500
20
145.268113
11
146.091847
21
144.661452
0
LINE
8
Layer 1
10
146.091847
20
144.661452
11
146.845850
21
144.583732
0
LINE
8
Layer 1
10
146.845850
20
144.583732
11
147.846422
21
145.037939
0
LINE
8
Layer 1
10
147.846422
20
145.037939
11
149.107477
21
146.027058
0
LINE
8
Layer 1
10
149.107477
20
146.027058
11
150.642929
21
147.554074
0
LINE
8
Layer 1
10
150.642929
20
147.554074
11
152.466692
21
149.621974
0
LINE
8
Layer 1
10
152.466692
20
149.621974
11
152.466692
21
149.621974
0
LINE
8
Layer 1
10
253.003947
20
152.172599
11
252.824107
21
153.869980
0
LINE
8
Layer 1
10
252.824107
20
153.869980
11
252.629442
21
154.039482
0
LINE
8
Layer 1
10
252.629442
20
154.039482
11
252.391734
21
153.689812
0
LINE
8
Layer 1
10
252.391734
20
153.689812
11
252.139201
21
152.172601
0
LINE
8
Layer 1
10
252.139201
20
152.172601
11
252.391734
21
150.655390
0
LINE
8
Layer 1
10
252.391734
20
150.655390
11
252.629442
21
150.305720
0
LINE
8
Layer 1
10
252.629442
20
150.305720
11
252.824107
21
150.475220
0
LINE
8
Layer 1
10
252.824107
20
150.475220
11
253.003947
21
152.172599
0
LINE
8
Layer 1
10
253.003947
20
152.172599
11
253.003947
21
152.172599
0
LINE
8
Layer 1
10
246.224730
20
153.386369
11
246.807417
21
156.777338
0
LINE
8
Layer 1
10
246.807417
20
156.777338
11
246.988240
21
160.668987
0
LINE
8
Layer 1
10
246.988240
20
160.668987
11
246.882897
21
164.917179
0
LINE
8
Layer 1
10
246.882897
20
164.917179
11
245.746674
21
160.062102
0
LINE
8
Layer 1
10
245.746674
20
160.062102
11
245.044722
21
155.856966
0
LINE
8
Layer 1
10
245.044722
20
155.856966
11
244.938721
21
152.668038
0
LINE
8
Layer 1
10
244.938721
20
152.668038
11
245.086559
21
151.770867
0
LINE
8
Layer 1
10
245.086559
20
151.770867
11
245.356211
21
151.507208
0
LINE
8
Layer 1
10
245.356211
20
151.507208
11
245.738621
21
152.003547
0
LINE
8
Layer 1
10
245.738621
20
152.003547
11
246.224730
21
153.386369
0
LINE
8
Layer 1
10
246.224730
20
153.386369
11
246.224730
21
153.386369
0
LINE
8
Layer 1
10
264.112654
20
157.331119
11
263.253807
21
161.076736
0
LINE
8
Layer 1
10
263.253807
20
161.076736
11
261.198552
21
167.951602
0
LINE
8
Layer 1
10
261.198552
20
167.951602
11
259.567726
21
172.942986
0
LINE
8
Layer 1
10
259.567726
20
172.942986
11
258.684440
21
175.073624
0
LINE
8
Layer 1
10
258.684440
20
175.073624
11
258.445820
21
175.172407
0
LINE
8
Layer 1
10
258.445820
20
175.172407
11
258.301321
21
174.683494
0
LINE
8
Layer 1
10
258.301321
20
174.683494
11
258.170999
21
172.112573
0
LINE
8
Layer 1
10
258.170999
20
172.112573
11
258.269796
21
169.854483
0
LINE
8
Layer 1
10
258.269796
20
169.854483
11
258.627335
21
167.276958
0
LINE
8
Layer 1
10
258.627335
20
167.276958
11
259.186717
21
164.571252
0
LINE
8
Layer 1
10
259.186717
20
164.571252
11
259.891044
21
161.928620
0
LINE
8
Layer 1
10
259.891044
20
161.928620
11
260.683418
21
159.540315
0
LINE
8
Layer 1
10
260.683418
20
159.540315
11
261.506941
21
157.597593
0
LINE
8
Layer 1
10
261.506941
20
157.597593
11
262.304714
21
156.291706
0
LINE
8
Layer 1
10
262.304714
20
156.291706
11
262.676164
21
155.937343
0
LINE
8
Layer 1
10
262.676164
20
155.937343
11
263.019839
21
155.813910
0
LINE
8
Layer 1
10
263.019839
20
155.813910
11
263.446281
21
155.933627
0
LINE
8
Layer 1
10
263.446281
20
155.933627
11
263.794470
21
156.259590
0
LINE
8
Layer 1
10
263.794470
20
156.259590
11
264.028548
21
156.742015
0
LINE
8
Layer 1
10
264.028548
20
156.742015
11
264.112654
21
157.331119
0
LINE
8
Layer 1
10
264.112654
20
157.331119
11
264.112654
21
157.331119
0
LINE
8
Layer 1
10
249.226649
20
174.873875
11
250.460948
21
175.309910
0
LINE
8
Layer 1
10
250.460948
20
175.309910
11
251.820700
21
176.110628
0
LINE
8
Layer 1
10
251.820700
20
176.110628
11
253.140867
21
177.161974
0
LINE
8
Layer 1
10
253.140867
20
177.161974
11
254.256410
21
178.349890
0
LINE
8
Layer 1
10
254.256410
20
178.349890
11
255.488594
21
179.624960
0
LINE
8
Layer 1
10
255.488594
20
179.624960
11
256.894565
21
180.549709
0
LINE
8
Layer 1
10
256.894565
20
180.549709
11
258.451825
21
181.112842
0
LINE
8
Layer 1
10
258.451825
20
181.112842
11
260.137876
21
181.303064
0
LINE
8
Layer 1
10
260.137876
20
181.303064
11
262.184937
21
181.497910
0
LINE
8
Layer 1
10
262.184937
20
181.497910
11
263.956355
21
182.068726
0
LINE
8
Layer 1
10
263.956355
20
182.068726
11
265.452270
21
182.994922
0
LINE
8
Layer 1
10
265.452270
20
182.994922
11
266.672819
21
184.255912
0
LINE
8
Layer 1
10
266.672819
20
184.255912
11
267.618140
21
185.831108
0
LINE
8
Layer 1
10
267.618140
20
185.831108
11
268.288373
21
187.699923
0
LINE
8
Layer 1
10
268.288373
20
187.699923
11
268.683654
21
189.841769
0
LINE
8
Layer 1
10
268.683654
20
189.841769
11
268.804124
21
192.236058
0
LINE
8
Layer 1
10
268.804124
20
192.236058
11
268.649920
21
194.862203
0
LINE
8
Layer 1
10
268.649920
20
194.862203
11
268.221180
21
197.699617
0
LINE
8
Layer 1
10
268.221180
20
197.699617
11
267.518042
21
200.727711
0
LINE
8
Layer 1
10
267.518042
20
200.727711
11
266.540646
21
203.925899
0
LINE
8
Layer 1
10
266.540646
20
203.925899
11
265.289129
21
207.273593
0
LINE
8
Layer 1
10
265.289129
20
207.273593
11
263.763631
21
210.750206
0
LINE
8
Layer 1
10
263.763631
20
210.750206
11
261.964288
21
214.335149
0
LINE
8
Layer 1
10
261.964288
20
214.335149
11
259.891239
21
218.007836
0
LINE
8
Layer 1
10
259.891239
20
218.007836
11
256.876883
21
223.342305
0
LINE
8
Layer 1
10
256.876883
20
223.342305
11
255.959907
21
225.178506
0
LINE
8
Layer 1
10
255.959907
20
225.178506
11
255.623128
21
226.106372
0
LINE
8
Layer 1
10
255.623128
20
226.106372
11
255.820605
21
226.431754
0
LINE
8
Layer 1
10
255.820605
20
226.431754
11
256.449203
21
226.792085
0
LINE
8
Layer 1
10
256.449203
20
226.792085
11
259.216772
21
227.674532
0
LINE
8
Layer 1
10
259.216772
20
227.674532
11
264.359851
21
228.867583
0
LINE
8
Layer 1
10
264.359851
20
228.867583
11
272.312455
21
230.485106
0
LINE
8
Layer 1
10
272.312455
20
230.485106
11
273.906749
21
230.903234
0
LINE
8
Layer 1
10
273.906749
20
230.903234
11
275.071647
21
231.433623
0
LINE
8
Layer 1
10
275.071647
20
231.433623
11
275.804927
21
232.056569
0
LINE
8
Layer 1
10
275.804927
20
232.056569
11
276.104369
21
232.752366
0
LINE
8
Layer 1
10
276.104369
20
232.752366
11
275.967752
21
233.501310
0
LINE
8
Layer 1
10
275.967752
20
233.501310
11
275.392855
21
234.283695
0
LINE
8
Layer 1
10
275.392855
20
234.283695
11
274.377458
21
235.079817
0
LINE
8
Layer 1
10
274.377458
20
235.079817
11
272.919340
21
235.869971
0
LINE
8
Layer 1
10
272.919340
20
235.869971
11
267.958833
21
237.928350
0
LINE
8
Layer 1
10
267.958833
20
237.928350
11
262.377630
21
239.900849
0
LINE
8
Layer 1
10
262.377630
20
239.900849
11
257.468144
21
241.364185
0
LINE
8
Layer 1
10
257.468144
20
241.364185
11
255.669173
21
241.772639
0
LINE
8
Layer 1
10
255.669173
20
241.772639
11
254.522786
21
241.895071
0
LINE
8
Layer 1
10
254.522786
20
241.895071
11
254.345840
21
241.841217
0
LINE
8
Layer 1
10
254.345840
20
241.841217
11
254.399478
21
241.712850
0
LINE
8
Layer 1
10
254.399478
20
241.712850
11
255.143817
21
241.254163
0
LINE
8
Layer 1
10
255.143817
20
241.254163
11
258.797944
21
239.680051
0
LINE
8
Layer 1
10
258.797944
20
239.680051
11
264.610189
21
237.518065
0
LINE
8
Layer 1
10
264.610189
20
237.518065
11
271.705572
21
235.113536
0
LINE
8
Layer 1
10
271.705572
20
235.113536
11
273.071295
21
234.592742
0
LINE
8
Layer 1
10
273.071295
20
234.592742
11
273.738106
21
234.142322
0
LINE
8
Layer 1
10
273.738106
20
234.142322
11
273.810444
21
233.943762
0
LINE
8
Layer 1
10
273.810444
20
233.943762
11
273.709283
21
233.763108
0
LINE
8
Layer 1
10
273.709283
20
233.763108
11
272.988102
21
233.455934
0
LINE
8
Layer 1
10
272.988102
20
233.455934
11
271.577841
21
233.221632
0
LINE
8
Layer 1
10
271.577841
20
233.221632
11
269.481776
21
233.061034
0
LINE
8
Layer 1
10
269.481776
20
233.061034
11
263.245343
21
232.964279
0
LINE
8
Layer 1
10
263.245343
20
232.964279
11
257.291125
21
233.070090
0
LINE
8
Layer 1
10
257.291125
20
233.070090
11
255.382926
21
233.208153
0
LINE
8
Layer 1
10
255.382926
20
233.208153
11
254.030837
21
233.444609
0
LINE
8
Layer 1
10
254.030837
20
233.444609
11
253.117486
21
233.810676
0
LINE
8
Layer 1
10
253.117486
20
233.810676
11
252.525501
21
234.337569
0
LINE
8
Layer 1
10
252.525501
20
234.337569
11
252.137511
21
235.056505
0
LINE
8
Layer 1
10
252.137511
20
235.056505
11
251.836143
21
235.998701
0
LINE
8
Layer 1
10
251.836143
20
235.998701
11
251.115526
21
239.096402
0
LINE
8
Layer 1
10
251.115526
20
239.096402
11
251.065447
21
240.164863
0
LINE
8
Layer 1
10
251.065447
20
240.164863
11
251.259128
21
240.996569
0
LINE
8
Layer 1
10
251.259128
20
240.996569
11
251.724275
21
241.654145
0
LINE
8
Layer 1
10
251.724275
20
241.654145
11
252.488594
21
242.200219
0
LINE
8
Layer 1
10
252.488594
20
242.200219
11
255.025565
21
243.208370
0
LINE
8
Layer 1
10
255.025565
20
243.208370
11
256.760603
21
243.913881
0
LINE
8
Layer 1
10
256.760603
20
243.913881
11
258.337429
21
244.796127
0
LINE
8
Layer 1
10
258.337429
20
244.796127
11
259.582273
21
245.742496
0
LINE
8
Layer 1
10
259.582273
20
245.742496
11
260.321363
21
246.640375
0
LINE
8
Layer 1
10
260.321363
20
246.640375
11
260.830168
21
248.067840
0
LINE
8
Layer 1
10
260.830168
20
248.067840
11
261.315007
21
250.183249
0
LINE
8
Layer 1
10
261.315007
20
250.183249
11
262.099386
21
255.454404
0
LINE
8
Layer 1
10
262.099386
20
255.454404
11
262.447708
21
260.406845
0
LINE
8
Layer 1
10
262.447708
20
260.406845
11
262.387474
21
262.123861
0
LINE
8
Layer 1
10
262.387474
20
262.123861
11
262.133179
21
262.993576
0
LINE
8
Layer 1
10
262.133179
20
262.993576
11
261.559609
21
263.138174
0
LINE
8
Layer 1
10
261.559609
20
263.138174
11
260.551583
21
262.978210
0
LINE
8
Layer 1
10
260.551583
20
262.978210
11
259.251256
21
262.549911
0
LINE
8
Layer 1
10
259.251256
20
262.549911
11
257.800788
21
261.889505
0
LINE
8
Layer 1
10
257.800788
20
261.889505
11
255.699063
21
260.915113
0
LINE
8
Layer 1
10
255.699063
20
260.915113
11
254.920710
21
260.748468
0
LINE
8
Layer 1
10
254.920710
20
260.748468
11
254.220904
21
260.826898
0
LINE
8
Layer 1
10
254.220904
20
260.826898
11
253.522303
21
261.173936
0
LINE
8
Layer 1
10
253.522303
20
261.173936
11
252.747563
21
261.813112
0
LINE
8
Layer 1
10
252.747563
20
261.813112
11
250.660292
21
264.062007
0
LINE
8
Layer 1
10
250.660292
20
264.062007
11
246.567624
21
268.994295
0
LINE
8
Layer 1
10
246.567624
20
268.994295
11
242.678222
21
274.160780
0
LINE
8
Layer 1
10
242.678222
20
274.160780
11
239.772372
21
278.473039
0
LINE
8
Layer 1
10
239.772372
20
278.473039
11
238.932118
21
279.968702
0
LINE
8
Layer 1
10
238.932118
20
279.968702
11
238.630358
21
280.842651
0
LINE
8
Layer 1
10
238.630358
20
280.842651
11
238.518776
21
281.599987
0
LINE
8
Layer 1
10
238.518776
20
281.599987
11
238.213952
21
282.014144
0
LINE
8
Layer 1
10
238.213952
20
282.014144
11
237.760772
21
282.110402
0
LINE
8
Layer 1
10
237.760772
20
282.110402
11
237.204123
21
281.914042
0
LINE
8
Layer 1
10
237.204123
20
281.914042
11
236.588888
21
281.450346
0
LINE
8
Layer 1
10
236.588888
20
281.450346
11
235.959954
21
280.744595
0
LINE
8
Layer 1
10
235.959954
20
280.744595
11
235.362207
21
279.822071
0
LINE
8
Layer 1
10
235.362207
20
279.822071
11
234.840532
21
278.708054
0
LINE
8
Layer 1
10
234.840532
20
278.708054
11
234.327877
21
277.007168
0
LINE
8
Layer 1
10
234.327877
20
277.007168
11
234.149350
21
275.352484
0
LINE
8
Layer 1
10
234.149350
20
275.352484
11
234.304555
21
273.688134
0
LINE
8
Layer 1
10
234.304555
20
273.688134
11
234.793099
21
271.958246
0
LINE
8
Layer 1
10
234.793099
20
271.958246
11
235.286735
21
270.205620
0
LINE
8
Layer 1
10
235.286735
20
270.205620
11
235.273070
21
269.128681
0
LINE
8
Layer 1
10
235.273070
20
269.128681
11
235.100456
21
268.831914
0
LINE
8
Layer 1
10
235.100456
20
268.831914
11
234.830363
21
268.690051
0
LINE
8
Layer 1
10
234.830363
20
268.690051
11
234.036870
21
268.852352
0
LINE
8
Layer 1
10
234.036870
20
268.852352
11
232.970849
21
269.578205
0
LINE
8
Layer 1
10
232.970849
20
269.578205
11
231.710560
21
270.830234
0
LINE
8
Layer 1
10
231.710560
20
270.830234
11
230.334259
21
272.571059
0
LINE
8
Layer 1
10
230.334259
20
272.571059
11
228.920204
21
274.763303
0
LINE
8
Layer 1
10
228.920204
20
274.763303
11
227.540379
21
276.918241
0
LINE
8
Layer 1
10
227.540379
20
276.918241
11
226.214605
21
278.606052
0
LINE
8
Layer 1
10
226.214605
20
278.606052
11
224.982928
21
279.809246
0
LINE
8
Layer 1
10
224.982928
20
279.809246
11
223.885393
21
280.510335
0
LINE
8
Layer 1
10
223.885393
20
280.510335
11
222.962046
21
280.691828
0
LINE
8
Layer 1
10
222.962046
20
280.691828
11
222.252932
21
280.336236
0
LINE
8
Layer 1
10
222.252932
20
280.336236
11
221.798097
21
279.426071
0
LINE
8
Layer 1
10
221.798097
20
279.426071
11
221.637586
21
277.943842
0
LINE
8
Layer 1
10
221.637586
20
277.943842
11
221.748918
21
276.508903
0
LINE
8
Layer 1
10
221.748918
20
276.508903
11
222.052049
21
274.868611
0
LINE
8
Layer 1
10
222.052049
20
274.868611
11
222.500682
21
273.225191
0
LINE
8
Layer 1
10
222.500682
20
273.225191
11
223.048520
21
271.780864
0
LINE
8
Layer 1
10
223.048520
20
271.780864
11
223.723840
21
270.050415
0
LINE
8
Layer 1
10
223.723840
20
270.050415
11
223.963916
21
268.827949
0
LINE
8
Layer 1
10
223.963916
20
268.827949
11
223.803312
21
268.111532
0
LINE
8
Layer 1
10
223.803312
20
268.111532
11
223.276592
21
267.899226
0
LINE
8
Layer 1
10
223.276592
20
267.899226
11
222.418322
21
268.189096
0
LINE
8
Layer 1
10
222.418322
20
268.189096
11
221.263065
21
268.979205
0
LINE
8
Layer 1
10
221.263065
20
268.979205
11
219.845387
21
270.267618
0
LINE
8
Layer 1
10
219.845387
20
270.267618
11
218.199851
21
272.052398
0
LINE
8
Layer 1
10
218.199851
20
272.052398
11
215.899062
21
274.489652
0
LINE
8
Layer 1
10
215.899062
20
274.489652
11
213.942937
21
276.108202
0
LINE
8
Layer 1
10
213.942937
20
276.108202
11
212.387214
21
276.929856
0
LINE
8
Layer 1
10
212.387214
20
276.929856
11
211.776921
21
277.048661
0
LINE
8
Layer 1
10
211.776921
20
277.048661
11
211.287632
21
276.976421
0
LINE
8
Layer 1
10
211.287632
20
276.976421
11
210.926312
21
276.715860
0
LINE
8
Layer 1
10
210.926312
20
276.715860
11
210.699929
21
276.269705
0
LINE
8
Layer 1
10
210.699929
20
276.269705
11
210.615451
21
275.640681
0
LINE
8
Layer 1
10
210.615451
20
275.640681
11
210.679845
21
274.831515
0
LINE
8
Layer 1
10
210.679845
20
274.831515
11
211.283117
21
272.683661
0
LINE
8
Layer 1
10
211.283117
20
272.683661
11
212.565485
21
269.847949
0
LINE
8
Layer 1
10
212.565485
20
269.847949
11
213.517769
21
267.898055
0
LINE
8
Layer 1
10
213.517769
20
267.898055
11
213.806966
21
266.821559
0
LINE
8
Layer 1
10
213.806966
20
266.821559
11
213.697623
21
266.531004
0
LINE
8
Layer 1
10
213.697623
20
266.531004
11
213.416166
21
266.363000
0
LINE
8
Layer 1
10
213.416166
20
266.363000
11
212.328461
21
266.266916
0
LINE
8
Layer 1
10
212.328461
20
266.266916
11
211.232902
21
266.530294
0
LINE
8
Layer 1
10
211.232902
20
266.530294
11
209.794093
21
267.247414
0
LINE
8
Layer 1
10
209.794093
20
267.247414
11
208.198880
21
268.308752
0
LINE
8
Layer 1
10
208.198880
20
268.308752
11
206.634111
21
269.604784
0
LINE
8
Layer 1
10
206.634111
20
269.604784
11
203.028598
21
272.942648
0
LINE
8
Layer 1
10
203.028598
20
272.942648
11
206.560872
21
268.190997
0
LINE
8
Layer 1
10
206.560872
20
268.190997
11
207.827554
21
266.351419
0
LINE
8
Layer 1
10
207.827554
20
266.351419
11
208.577425
21
264.968246
0
LINE
8
Layer 1
10
208.577425
20
264.968246
11
208.762097
21
264.155196
0
LINE
8
Layer 1
10
208.762097
20
264.155196
11
208.627362
21
263.998003
0
LINE
8
Layer 1
10
208.627362
20
263.998003
11
208.333182
21
264.025984
0
LINE
8
Layer 1
10
208.333182
20
264.025984
11
207.425485
21
264.677996
0
LINE
8
Layer 1
10
207.425485
20
264.677996
11
206.255060
21
266.019594
0
LINE
8
Layer 1
10
206.255060
20
266.019594
11
204.972942
21
267.855120
0
LINE
8
Layer 1
10
204.972942
20
267.855120
11
203.730169
21
269.988916
0
LINE
8
Layer 1
10
203.730169
20
269.988916
11
201.232413
21
274.431425
0
LINE
8
Layer 1
10
201.232413
20
274.431425
11
200.336419
21
275.739427
0
LINE
8
Layer 1
10
200.336419
20
275.739427
11
199.648703
21
276.458201
0
LINE
8
Layer 1
10
199.648703
20
276.458201
11
199.149033
21
276.602451
0
LINE
8
Layer 1
10
199.149033
20
276.602451
11
198.817176
21
276.186885
0
LINE
8
Layer 1
10
198.817176
20
276.186885
11
198.632899
21
275.226206
0
LINE
8
Layer 1
10
198.632899
20
275.226206
11
198.575970
21
273.735120
0
LINE
8
Layer 1
10
198.575970
20
273.735120
11
198.676537
21
272.692620
0
LINE
8
Layer 1
10
198.676537
20
272.692620
11
198.964835
21
271.413424
0
LINE
8
Layer 1
10
198.964835
20
271.413424
11
200.024199
21
268.295163
0
LINE
8
Layer 1
10
200.024199
20
268.295163
11
201.593212
21
264.680780
0
LINE
8
Layer 1
10
201.593212
20
264.680780
11
203.511023
21
260.870714
0
LINE
8
Layer 1
10
203.511023
20
260.870714
11
205.616784
21
257.165408
0
LINE
8
Layer 1
10
205.616784
20
257.165408
11
207.749643
21
253.865303
0
LINE
8
Layer 1
10
207.749643
20
253.865303
11
209.748753
21
251.270839
0
LINE
8
Layer 1
10
209.748753
20
251.270839
11
210.647885
21
250.332110
0
LINE
8
Layer 1
10
210.647885
20
250.332110
11
211.453262
21
249.682457
0
LINE
8
Layer 1
10
211.453262
20
249.682457
11
212.353147
21
249.170090
0
LINE
8
Layer 1
10
212.353147
20
249.170090
11
213.347113
21
248.778413
0
LINE
8
Layer 1
10
213.347113
20
248.778413
11
214.506855
21
248.502180
0
LINE
8
Layer 1
10
214.506855
20
248.502180
11
215.904069
21
248.336145
0
LINE
8
Layer 1
10
215.904069
20
248.336145
11
219.697698
21
248.313684
0
LINE
8
Layer 1
10
219.697698
20
248.313684
11
225.301567
21
248.669059
0
LINE
8
Layer 1
10
225.301567
20
248.669059
11
230.478313
21
248.976724
0
LINE
8
Layer 1
10
230.478313
20
248.976724
11
234.534716
21
248.979502
0
LINE
8
Layer 1
10
234.534716
20
248.979502
11
237.619506
21
248.671025
0
LINE
8
Layer 1
10
237.619506
20
248.671025
11
239.881413
21
248.044925
0
LINE
8
Layer 1
10
239.881413
20
248.044925
11
242.377592
21
246.816731
0
LINE
8
Layer 1
10
242.377592
20
246.816731
11
243.030007
21
246.268630
0
LINE
8
Layer 1
10
243.030007
20
246.268630
11
243.289162
21
245.731767
0
LINE
8
Layer 1
10
243.289162
20
245.731767
11
243.157948
21
245.181571
0
LINE
8
Layer 1
10
243.157948
20
245.181571
11
242.639257
21
244.593474
0
LINE
8
Layer 1
10
242.639257
20
244.593474
11
240.451011
21
243.205299
0
LINE
8
Layer 1
10
240.451011
20
243.205299
11
238.526365
21
241.983015
0
LINE
8
Layer 1
10
238.526365
20
241.983015
11
237.935712
21
241.421963
0
LINE
8
Layer 1
10
237.935712
20
241.421963
11
237.590546
21
240.888956
0
LINE
8
Layer 1
10
237.590546
20
240.888956
11
237.489147
21
240.379979
0
LINE
8
Layer 1
10
237.489147
20
240.379979
11
237.629796
21
239.891020
0
LINE
8
Layer 1
10
237.629796
20
239.891020
11
238.010773
21
239.418067
0
LINE
8
Layer 1
10
238.010773
20
239.418067
11
238.630358
21
238.957107
0
LINE
8
Layer 1
10
238.630358
20
238.957107
11
239.101641
21
238.393536
0
LINE
8
Layer 1
10
239.101641
20
238.393536
11
239.487581
21
237.413598
0
LINE
8
Layer 1
10
239.487581
20
237.413598
11
239.748352
21
236.155143
0
LINE
8
Layer 1
10
239.748352
20
236.155143
11
239.844126
21
234.756020
0
LINE
8
Layer 1
10
239.844126
20
234.756020
11
240.006050
21
233.003110
0
LINE
8
Layer 1
10
240.006050
20
233.003110
11
240.233076
21
232.323059
0
LINE
8
Layer 1
10
240.233076
20
232.323059
11
240.579366
21
231.745573
0
LINE
8
Layer 1
10
240.579366
20
231.745573
11
241.695389
21
230.813182
0
LINE
8
Layer 1
10
241.695389
20
230.813182
11
243.485436
21
230.035710
0
LINE
8
Layer 1
10
243.485436
20
230.035710
11
245.400598
21
229.214625
0
LINE
8
Layer 1
10
245.400598
20
229.214625
11
246.039868
21
228.748558
0
LINE
8
Layer 1
10
246.039868
20
228.748558
11
246.502718
21
228.187315
0
LINE
8
Layer 1
10
246.502718
20
228.187315
11
246.815990
21
227.487277
0
LINE
8
Layer 1
10
246.815990
20
227.487277
11
247.006525
21
226.604826
0
LINE
8
Layer 1
10
247.006525
20
226.604826
11
247.126743
21
224.118207
0
LINE
8
Layer 1
10
247.126743
20
224.118207
11
247.045075
21
222.383072
0
LINE
8
Layer 1
10
247.045075
20
222.383072
11
246.781677
21
220.741493
0
LINE
8
Layer 1
10
246.781677
20
220.741493
11
246.308964
21
219.139363
0
LINE
8
Layer 1
10
246.308964
20
219.139363
11
245.599347
21
217.522572
0
LINE
8
Layer 1
10
245.599347
20
217.522572
11
244.625239
21
215.837012
0
LINE
8
Layer 1
10
244.625239
20
215.837012
11
243.359053
21
214.028577
0
LINE
8
Layer 1
10
243.359053
20
214.028577
11
239.840095
21
209.826643
0
LINE
8
Layer 1
10
239.840095
20
209.826643
11
238.249751
21
207.845076
0
LINE
8
Layer 1
10
238.249751
20
207.845076
11
236.825538
21
205.633176
0
LINE
8
Layer 1
10
236.825538
20
205.633176
11
235.581607
21
203.230047
0
LINE
8
Layer 1
10
235.581607
20
203.230047
11
234.532111
21
200.674794
0
LINE
8
Layer 1
10
234.532111
20
200.674794
11
233.691201
21
198.006519
0
LINE
8
Layer 1
10
233.691201
20
198.006519
11
233.073030
21
195.264327
0
LINE
8
Layer 1
10
233.073030
20
195.264327
11
232.691749
21
192.487322
0
LINE
8
Layer 1
10
232.691749
20
192.487322
11
232.561511
21
189.714607
0
LINE
8
Layer 1
10
232.561511
20
189.714607
11
232.679144
21
186.935009
0
LINE
8
Layer 1
10
232.679144
20
186.935009
11
233.031136
21
184.431864
0
LINE
8
Layer 1
10
233.031136
20
184.431864
11
233.616124
21
182.207802
0
LINE
8
Layer 1
10
233.616124
20
182.207802
11
234.432748
21
180.265454
0
LINE
8
Layer 1
10
234.432748
20
180.265454
11
235.479646
21
178.607450
0
LINE
8
Layer 1
10
235.479646
20
178.607450
11
236.755457
21
177.236422
0
LINE
8
Layer 1
10
236.755457
20
177.236422
11
238.258818
21
176.154999
0
LINE
8
Layer 1
10
238.258818
20
176.154999
11
239.988369
21
175.365814
0
LINE
8
Layer 1
10
239.988369
20
175.365814
11
242.429770
21
174.581334
0
LINE
8
Layer 1
10
242.429770
20
174.581334
11
244.314079
21
174.262834
0
LINE
8
Layer 1
10
244.314079
20
174.262834
11
246.345102
21
174.372840
0
LINE
8
Layer 1
10
246.345102
20
174.372840
11
249.226649
21
174.873875
0
LINE
8
Layer 1
10
249.226649
20
174.873875
11
249.226649
21
174.873875
0
LINE
8
Layer 1
10
244.698258
20
183.427161
11
244.918884
21
186.239094
0
LINE
8
Layer 1
10
244.918884
20
186.239094
11
245.510122
21
190.291022
0
LINE
8
Layer 1
10
245.510122
20
190.291022
11
247.373719
21
200.085260
0
LINE
8
Layer 1
10
247.373719
20
200.085260
11
249.427607
21
208.750669
0
LINE
8
Layer 1
10
249.427607
20
208.750669
11
250.256712
21
211.391559
0
LINE
8
Layer 1
10
250.256712
20
211.391559
11
250.574694
21
212.067062
0
LINE
8
Layer 1
10
250.574694
20
212.067062
11
250.810350
21
212.228038
0
LINE
8
Layer 1
10
250.810350
20
212.228038
11
251.498733
21
211.333342
0
LINE
8
Layer 1
10
251.498733
20
211.333342
11
252.175958
21
209.620682
0
LINE
8
Layer 1
10
252.175958
20
209.620682
11
252.809047
21
207.280909
0
LINE
8
Layer 1
10
252.809047
20
207.280909
11
253.365017
21
204.504871
0
LINE
8
Layer 1
10
253.365017
20
204.504871
11
253.810890
21
201.483421
0
LINE
8
Layer 1
10
253.810890
20
201.483421
11
254.113685
21
198.407410
0
LINE
8
Layer 1
10
254.113685
20
198.407410
11
254.240422
21
195.467686
0
LINE
8
Layer 1
10
254.240422
20
195.467686
11
254.158121
21
192.855102
0
LINE
8
Layer 1
10
254.158121
20
192.855102
11
253.821175
21
190.175954
0
LINE
8
Layer 1
10
253.821175
20
190.175954
11
253.286013
21
187.729741
0
LINE
8
Layer 1
10
253.286013
20
187.729741
11
252.573818
21
185.554771
0
LINE
8
Layer 1
10
252.573818
20
185.554771
11
251.705774
21
183.689351
0
LINE
8
Layer 1
10
251.705774
20
183.689351
11
250.703063
21
182.171786
0
LINE
8
Layer 1
10
250.703063
20
182.171786
11
249.586869
21
181.040383
0
LINE
8
Layer 1
10
249.586869
20
181.040383
11
248.378375
21
180.333450
0
LINE
8
Layer 1
10
248.378375
20
180.333450
11
247.098764
21
180.089294
0
LINE
8
Layer 1
10
247.098764
20
180.089294
11
245.960910
21
180.257108
0
LINE
8
Layer 1
10
245.960910
20
180.257108
11
245.220668
21
180.814955
0
LINE
8
Layer 1
10
245.220668
20
180.814955
11
244.819347
21
181.844438
0
LINE
8
Layer 1
10
244.819347
20
181.844438
11
244.698258
21
183.427161
0
LINE
8
Layer 1
10
244.698258
20
183.427161
11
244.698258
21
183.427161
0
LINE
8
Layer 1
10
256.836898
20
183.938472
11
257.004502
21
184.675905
0
LINE
8
Layer 1
10
257.004502
20
184.675905
11
257.460850
21
185.632847
0
LINE
8
Layer 1
10
257.460850
20
185.632847
11
258.960993
21
187.710214
0
LINE
8
Layer 1
10
258.960993
20
187.710214
11
259.828062
21
189.160229
0
LINE
8
Layer 1
10
259.828062
20
189.160229
11
260.468438
21
191.235407
0
LINE
8
Layer 1
10
260.468438
20
191.235407
11
260.878847
21
193.774030
0
LINE
8
Layer 1
10
260.878847
20
193.774030
11
261.056015
21
196.614385
0
LINE
8
Layer 1
10
261.056015
20
196.614385
11
260.996670
21
199.594756
0
LINE
8
Layer 1
10
260.996670
20
199.594756
11
260.697537
21
202.553429
0
LINE
8
Layer 1
10
260.697537
20
202.553429
11
260.155344
21
205.328687
0
LINE
8
Layer 1
10
260.155344
20
205.328687
11
259.366817
21
207.758817
0
LINE
8
Layer 1
10
259.366817
20
207.758817
11
258.661147
21
209.633307
0
LINE
8
Layer 1
10
258.661147
20
209.633307
11
258.287643
21
211.005813
0
LINE
8
Layer 1
10
258.287643
20
211.005813
11
258.222847
21
211.870302
0
LINE
8
Layer 1
10
258.222847
20
211.870302
11
258.443302
21
212.220738
0
LINE
8
Layer 1
10
258.443302
20
212.220738
11
258.925552
21
212.051086
0
LINE
8
Layer 1
10
258.925552
20
212.051086
11
259.646138
21
211.355313
0
LINE
8
Layer 1
10
259.646138
20
211.355313
11
260.581605
21
210.127382
0
LINE
8
Layer 1
10
260.581605
20
210.127382
11
261.708494
21
208.361260
0
LINE
8
Layer 1
10
261.708494
20
208.361260
11
263.902039
21
204.195508
0
LINE
8
Layer 1
10
263.902039
20
204.195508
11
265.477233
21
200.155353
0
LINE
8
Layer 1
10
265.477233
20
200.155353
11
266.433325
21
196.336224
0
LINE
8
Layer 1
10
266.433325
20
196.336224
11
266.769564
21
192.833554
0
LINE
8
Layer 1
10
266.769564
20
192.833554
11
266.705003
21
191.230713
0
LINE
8
Layer 1
10
266.705003
20
191.230713
11
266.485198
21
189.742774
0
LINE
8
Layer 1
10
266.485198
20
189.742774
11
266.110053
21
188.381665
0
LINE
8
Layer 1
10
266.110053
20
188.381665
11
265.579476
21
187.159315
0
LINE
8
Layer 1
10
265.579476
20
187.159315
11
264.893372
21
186.087654
0
LINE
8
Layer 1
10
264.893372
20
186.087654
11
264.051647
21
185.178609
0
LINE
8
Layer 1
10
264.051647
20
185.178609
11
263.054208
21
184.444111
0
LINE
8
Layer 1
10
263.054208
20
184.444111
11
261.900961
21
183.896087
0
LINE
8
Layer 1
10
261.900961
20
183.896087
11
259.249636
21
182.989414
0
LINE
8
Layer 1
10
259.249636
20
182.989414
11
257.715538
21
182.692631
0
LINE
8
Layer 1
10
257.715538
20
182.692631
11
257.276659
21
182.773709
0
LINE
8
Layer 1
10
257.276659
20
182.773709
11
257.008136
21
183.008173
0
LINE
8
Layer 1
10
257.008136
20
183.008173
11
256.836898
21
183.938472
0
LINE
8
Layer 1
10
256.836898
20
183.938472
11
256.836898
21
183.938472
0
LINE
8
Layer 1
10
253.195588
20
229.853837
11
253.324417
21
230.096396
0
LINE
8
Layer 1
10
253.324417
20
230.096396
11
253.694184
21
230.316297
0
LINE
8
Layer 1
10
253.694184
20
230.316297
11
255.056201
21
230.671277
0
LINE
8
Layer 1
10
255.056201
20
230.671277
11
257.080984
21
230.885080
0
LINE
8
Layer 1
10
257.080984
20
230.885080
11
259.567878
21
230.924007
0
LINE
8
Layer 1
10
259.567878
20
230.924007
11
262.730178
21
230.816378
0
LINE
8
Layer 1
10
262.730178
20
230.816378
11
264.143122
21
230.639886
0
LINE
8
Layer 1
10
264.143122
20
230.639886
11
264.238736
21
230.508123
0
LINE
8
Layer 1
10
264.238736
20
230.508123
11
263.951190
21
230.337912
0
LINE
8
Layer 1
10
263.951190
20
230.337912
11
262.298860
21
229.853837
0
LINE
8
Layer 1
10
262.298860
20
229.853837
11
258.601053
21
229.081844
0
LINE
8
Layer 1
10
258.601053
20
229.081844
11
255.724627
21
228.824513
0
LINE
8
Layer 1
10
255.724627
20
228.824513
11
254.653782
21
228.888845
0
LINE
8
Layer 1
10
254.653782
20
228.888845
11
253.859500
21
229.081844
0
LINE
8
Layer 1
10
253.859500
20
229.081844
11
253.365522
21
229.403508
0
LINE
8
Layer 1
10
253.365522
20
229.403508
11
253.195588
21
229.853837
0
LINE
8
Layer 1
10
253.195588
20
229.853837
11
253.195588
21
229.853837
0
LINE
8
Layer 1
10
256.158557
20
259.629783
11
257.222679
21
260.318677
0
LINE
8
Layer 1
10
257.222679
20
260.318677
11
258.378348
21
260.877023
0
LINE
8
Layer 1
10
258.378348
20
260.877023
11
259.486169
21
261.247613
0
LINE
8
Layer 1
10
259.486169
20
261.247613
11
260.406749
21
261.373242
0
LINE
8
Layer 1
10
260.406749
20
261.373242
11
261.237294
21
261.276089
0
LINE
8
Layer 1
10
261.237294
20
261.276089
11
261.421347
21
261.159260
0
LINE
8
Layer 1
10
261.421347
20
261.159260
11
261.448365
21
260.985597
0
LINE
8
Layer 1
10
261.448365
20
260.985597
11
261.022635
21
260.433763
0
LINE
8
Layer 1
10
261.022635
20
260.433763
11
259.942776
21
259.552587
0
LINE
8
Layer 1
10
259.942776
20
259.552587
11
258.878654
21
258.863694
0
LINE
8
Layer 1
10
258.878654
20
258.863694
11
257.722985
21
258.305349
0
LINE
8
Layer 1
10
257.722985
20
258.305349
11
256.615164
21
257.934759
0
LINE
8
Layer 1
10
256.615164
20
257.934759
11
255.694584
21
257.809131
0
LINE
8
Layer 1
10
255.694584
20
257.809131
11
254.864039
21
257.906282
0
LINE
8
Layer 1
10
254.864039
20
257.906282
11
254.679986
21
258.023110
0
LINE
8
Layer 1
10
254.679986
20
258.023110
11
254.652968
21
258.196774
0
LINE
8
Layer 1
10
254.652968
20
258.196774
11
255.078698
21
258.748607
0
LINE
8
Layer 1
10
255.078698
20
258.748607
11
256.158557
21
259.629783
0
LINE
8
Layer 1
10
256.158557
20
259.629783
11
256.158557
21
259.629783
0
LINE
8
Layer 1
10
215.529281
20
270.578955
11
213.827183
21
273.804376
0
LINE
8
Layer 1
10
213.827183
20
273.804376
11
213.449517
21
274.925679
0
LINE
8
Layer 1
10
213.449517
20
274.925679
11
213.477221
21
275.503908
0
LINE
8
Layer 1
10
213.477221
20
275.503908
11
213.667388
21
275.560843
0
LINE
8
Layer 1
10
213.667388
20
275.560843
11
213.942698
21
275.457779
0
LINE
8
Layer 1
10
213.942698
20
275.457779
11
214.694983
21
274.845807
0
LINE
8
Layer 1
10
214.694983
20
274.845807
11
216.629864
21
272.517583
0
LINE
8
Layer 1
10
216.629864
20
272.517583
11
218.421631
21
269.705735
0
LINE
8
Layer 1
10
218.421631
20
269.705735
11
218.995023
21
268.489231
0
LINE
8
Layer 1
10
218.995023
20
268.489231
11
219.210049
21
267.596758
0
LINE
8
Layer 1
10
219.210049
20
267.596758
11
219.025505
21
266.484211
0
LINE
8
Layer 1
10
219.025505
20
266.484211
11
218.777761
21
266.369420
0
LINE
8
Layer 1
10
218.777761
20
266.369420
11
218.411202
21
266.561239
0
LINE
8
Layer 1
10
218.411202
20
266.561239
11
217.276130
21
267.901576
0
LINE
8
Layer 1
10
217.276130
20
267.901576
11
215.529281
21
270.578955
0
LINE
8
Layer 1
10
215.529281
20
270.578955
11
215.529281
21
270.578955
0
LINE
8
Layer 1
10
239.516505
20
270.818554
11
238.062095
21
275.370188
0
LINE
8
Layer 1
10
238.062095
20
275.370188
11
237.605728
21
276.735679
0
LINE
8
Layer 1
10
237.605728
20
276.735679
11
237.574960
21
277.190842
0
LINE
8
Layer 1
10
237.574960
20
277.190842
11
238.079009
21
276.735679
0
LINE
8
Layer 1
10
238.079009
20
276.735679
11
239.227095
21
275.370188
0
LINE
8
Layer 1
10
239.227095
20
275.370188
11
241.430524
21
272.482356
0
LINE
8
Layer 1
10
241.430524
20
272.482356
11
242.607718
21
270.392545
0
LINE
8
Layer 1
10
242.607718
20
270.392545
11
242.808793
21
269.653731
0
LINE
8
Layer 1
10
242.808793
20
269.653731
11
242.750090
21
269.122623
0
LINE
8
Layer 1
10
242.750090
20
269.122623
11
242.430535
21
268.801953
0
LINE
8
Layer 1
10
242.430535
20
268.801953
11
241.849055
21
268.694456
0
LINE
8
Layer 1
10
241.849055
20
268.694456
11
241.132319
21
268.862061
0
LINE
8
Layer 1
10
241.132319
20
268.862061
11
240.453624
21
269.318410
0
LINE
8
Layer 1
10
240.453624
20
269.318410
11
239.889508
21
269.993806
0
LINE
8
Layer 1
10
239.889508
20
269.993806
11
239.516505
21
270.818554
0
LINE
8
Layer 1
10
239.516505
20
270.818554
11
239.516505
21
270.818554
0
LINE
8
Layer 1
10
225.744363
20
273.921299
11
225.218756
21
275.693807
0
LINE
8
Layer 1
10
225.218756
20
275.693807
11
224.969038
21
277.115835
0
LINE
8
Layer 1
10
224.969038
20
277.115835
11
225.006500
21
278.061424
0
LINE
8
Layer 1
10
225.006500
20
278.061424
11
225.136453
21
278.316191
0
LINE
8
Layer 1
10
225.136453
20
278.316191
11
225.342436
21
278.404612
0
LINE
8
Layer 1
10
225.342436
20
278.404612
11
226.154786
21
278.269884
0
LINE
8
Layer 1
10
226.154786
20
278.269884
11
226.492664
21
277.945953
0
LINE
8
Layer 1
10
226.492664
20
277.945953
11
228.381337
21
272.967058
0
LINE
8
Layer 1
10
228.381337
20
272.967058
11
229.162430
21
270.926657
0
LINE
8
Layer 1
10
229.162430
20
270.926657
11
229.486208
21
269.611542
0
LINE
8
Layer 1
10
229.486208
20
269.611542
11
229.358036
21
268.968019
0
LINE
8
Layer 1
10
229.358036
20
268.968019
11
229.126145
21
268.881325
0
LINE
8
Layer 1
10
229.126145
20
268.881325
11
228.783278
21
268.942394
0
LINE
8
Layer 1
10
228.783278
20
268.942394
11
228.083524
21
269.488583
0
LINE
8
Layer 1
10
228.083524
20
269.488583
11
227.277312
21
270.609374
0
LINE
8
Layer 1
10
227.277312
20
270.609374
11
226.464354
21
272.141402
0
LINE
8
Layer 1
10
226.464354
20
272.141402
11
225.744363
21
273.921299
0
LINE
8
Layer 1
10
225.744363
20
273.921299
11
225.744363
21
273.921299
0
LINE
8
Layer 1
10
222.851356
20
198.670731
11
222.995251
21
199.473492
0
LINE
8
Layer 1
10
222.995251
20
199.473492
11
223.387045
21
200.484828
0
LINE
8
Layer 1
10
223.387045
20
200.484828
11
224.674983
21
202.615481
0
LINE
8
Layer 1
10
224.674983
20
202.615481
11
225.704995
21
203.919756
0
LINE
8
Layer 1
10
225.704995
20
203.919756
11
226.166075
21
204.346873
0
LINE
8
Layer 1
10
226.166075
20
204.346873
11
226.156807
21
203.890431
0
LINE
8
Layer 1
10
226.156807
20
203.890431
11
225.775774
21
202.544028
0
LINE
8
Layer 1
10
225.775774
20
202.544028
11
225.505130
21
201.427801
0
LINE
8
Layer 1
10
225.505130
20
201.427801
11
225.521911
21
201.177710
0
LINE
8
Layer 1
10
225.521911
20
201.177710
11
225.654030
21
201.137749
0
LINE
8
Layer 1
10
225.654030
20
201.137749
11
226.306101
21
201.702558
0
LINE
8
Layer 1
10
226.306101
20
201.702558
11
227.544966
21
203.150913
0
LINE
8
Layer 1
10
227.544966
20
203.150913
11
230.037016
21
206.185335
0
LINE
8
Layer 1
10
230.037016
20
206.185335
11
229.411499
21
203.150913
0
LINE
8
Layer 1
10
229.411499
20
203.150913
11
229.202491
21
201.825172
0
LINE
8
Layer 1
10
229.202491
20
201.825172
11
229.238191
21
201.554592
0
LINE
8
Layer 1
10
229.238191
20
201.554592
11
229.378904
21
201.553525
0
LINE
8
Layer 1
10
229.378904
20
201.553525
11
230.009998
21
202.383892
0
LINE
8
Layer 1
10
230.009998
20
202.383892
11
231.165033
21
204.364195
0
LINE
8
Layer 1
10
231.165033
20
204.364195
11
232.735109
21
207.542554
0
LINE
8
Layer 1
10
232.735109
20
207.542554
11
233.127037
21
208.648272
0
LINE
8
Layer 1
10
233.127037
20
208.648272
11
233.169209
21
209.219272
0
LINE
8
Layer 1
10
233.169209
20
209.219272
11
232.367991
21
209.445437
0
LINE
8
Layer 1
10
232.367991
20
209.445437
11
230.463580
21
209.612242
0
LINE
8
Layer 1
10
230.463580
20
209.612242
11
224.484980
21
209.704138
0
LINE
8
Layer 1
10
224.484980
20
209.704138
11
220.251177
21
209.557968
0
LINE
8
Layer 1
10
220.251177
20
209.557968
11
217.656747
21
209.201869
0
LINE
8
Layer 1
10
217.656747
20
209.201869
11
216.846913
21
208.912003
0
LINE
8
Layer 1
10
216.846913
20
208.912003
11
216.294064
21
208.529943
0
LINE
8
Layer 1
10
216.294064
20
208.529943
11
215.947244
21
208.042452
0
LINE
8
Layer 1
10
215.947244
20
208.042452
11
215.755502
21
207.436294
0
LINE
8
Layer 1
10
215.755502
20
207.436294
11
215.674412
21
206.603894
0
LINE
8
Layer 1
10
215.674412
20
206.603894
11
215.808265
21
206.092598
0
LINE
8
Layer 1
10
215.808265
20
206.092598
11
216.143319
21
205.922382
0
LINE
8
Layer 1
10
216.143319
20
205.922382
11
216.665830
21
206.113225
0
LINE
8
Layer 1
10
216.665830
20
206.113225
11
217.192382
21
206.288590
0
LINE
8
Layer 1
10
217.192382
20
206.288590
11
217.614316
21
206.135596
0
LINE
8
Layer 1
10
217.614316
20
206.135596
11
217.894619
21
205.686002
0
LINE
8
Layer 1
10
217.894619
20
205.686002
11
217.996279
21
204.971565
0
LINE
8
Layer 1
10
217.996279
20
204.971565
11
218.092053
21
204.268203
0
LINE
8
Layer 1
10
218.092053
20
204.268203
11
218.352824
21
203.804903
0
LINE
8
Layer 1
10
218.352824
20
203.804903
11
218.738765
21
203.621492
0
LINE
8
Layer 1
10
218.738765
20
203.621492
11
219.210049
21
203.757798
0
LINE
8
Layer 1
10
219.210049
20
203.757798
11
219.682798
21
203.923698
0
LINE
8
Layer 1
10
219.682798
20
203.923698
11
220.072732
21
203.820871
0
LINE
8
Layer 1
10
220.072732
20
203.820871
11
220.339412
21
203.476834
0
LINE
8
Layer 1
10
220.339412
20
203.476834
11
220.442401
21
202.919107
0
LINE
8
Layer 1
10
220.442401
20
202.919107
11
220.518418
21
202.275766
0
LINE
8
Layer 1
10
220.518418
20
202.275766
11
220.742167
21
202.097045
0
LINE
8
Layer 1
10
220.742167
20
202.097045
11
221.137888
21
202.387306
0
LINE
8
Layer 1
10
221.137888
20
202.387306
11
221.729822
21
203.150913
0
LINE
8
Layer 1
10
221.729822
20
203.150913
11
222.286089
21
203.802941
0
LINE
8
Layer 1
10
222.286089
20
203.802941
11
222.452563
21
203.847592
0
LINE
8
Layer 1
10
222.452563
20
203.847592
11
222.546374
21
203.696988
0
LINE
8
Layer 1
10
222.546374
20
203.696988
11
222.521346
21
202.786973
0
LINE
8
Layer 1
10
222.521346
20
202.786973
11
222.221676
21
201.026816
0
LINE
8
Layer 1
10
222.221676
20
201.026816
11
221.879540
21
198.240836
0
LINE
8
Layer 1
10
221.879540
20
198.240836
11
221.936246
21
197.393331
0
LINE
8
Layer 1
10
221.936246
20
197.393331
11
222.148025
21
197.082066
0
LINE
8
Layer 1
10
222.148025
20
197.082066
11
222.421119
21
197.207421
0
LINE
8
Layer 1
10
222.421119
20
197.207421
11
222.644756
21
197.548735
0
LINE
8
Layer 1
10
222.644756
20
197.548735
11
222.851356
21
198.670731
0
LINE
8
Layer 1
10
222.851356
20
198.670731
11
222.851356
21
198.670731
0
LINE
8
Layer 1
10
237.234911
20
225.691615
11
237.936420
21
227.357553
0
LINE
8
Layer 1
10
237.936420
20
227.357553
11
238.052720
21
228.197955
0
LINE
8
Layer 1
10
238.052720
20
228.197955
11
237.870488
21
228.359344
0
LINE
8
Layer 1
10
237.870488
20
228.359344
11
237.516840
21
228.375263
0
LINE
8
Layer 1
10
237.516840
20
228.375263
11
236.261808
21
228.051913
0
LINE
8
Layer 1
10
236.261808
20
228.051913
11
235.128571
21
227.865619
0
LINE
8
Layer 1
10
235.128571
20
227.865619
11
233.813364
21
227.920277
0
LINE
8
Layer 1
10
233.813364
20
227.920277
11
232.479337
21
228.195566
0
LINE
8
Layer 1
10
232.479337
20
228.195566
11
231.289637
21
228.671165
0
LINE
8
Layer 1
10
231.289637
20
228.671165
11
229.560122
21
229.521640
0
LINE
8
Layer 1
10
229.560122
20
229.521640
11
228.986898
21
229.655441
0
LINE
8
Layer 1
10
228.986898
20
229.655441
11
228.543833
21
229.559026
0
LINE
8
Layer 1
10
228.543833
20
229.559026
11
228.182784
21
229.205454
0
LINE
8
Layer 1
10
228.182784
20
229.205454
11
227.855603
21
228.567781
0
LINE
8
Layer 1
10
227.855603
20
228.567781
11
227.110267
21
226.332364
0
LINE
8
Layer 1
10
227.110267
20
226.332364
11
226.742678
21
224.905570
0
LINE
8
Layer 1
10
226.742678
20
224.905570
11
226.767657
21
224.129926
0
LINE
8
Layer 1
10
226.767657
20
224.129926
11
226.941261
21
223.958010
0
LINE
8
Layer 1
10
226.941261
20
223.958010
11
227.229687
21
223.914952
0
LINE
8
Layer 1
10
227.229687
20
223.914952
11
228.173249
21
224.170169
0
LINE
8
Layer 1
10
228.173249
20
224.170169
11
228.934560
21
224.357818
0
LINE
8
Layer 1
10
228.934560
20
224.357818
11
229.558009
21
224.312541
0
LINE
8
Layer 1
10
229.558009
20
224.312541
11
229.979258
21
224.053106
0
LINE
8
Layer 1
10
229.979258
20
224.053106
11
230.133971
21
223.598277
0
LINE
8
Layer 1
10
230.133971
20
223.598277
11
230.249559
21
223.118753
0
LINE
8
Layer 1
10
230.249559
20
223.118753
11
230.593928
21
222.990277
0
LINE
8
Layer 1
10
230.593928
20
222.990277
11
231.163482
21
223.212479
0
LINE
8
Layer 1
10
231.163482
20
223.212479
11
231.954626
21
223.784990
0
LINE
8
Layer 1
10
231.954626
20
223.784990
11
232.769780
21
224.381002
0
LINE
8
Layer 1
10
232.769780
20
224.381002
11
233.336666
21
224.603767
0
LINE
8
Layer 1
10
233.336666
20
224.603767
11
233.667696
21
224.454298
0
LINE
8
Layer 1
10
233.667696
20
224.454298
11
233.775281
21
223.933605
0
LINE
8
Layer 1
10
233.775281
20
223.933605
11
233.864348
21
223.174841
0
LINE
8
Layer 1
10
233.864348
20
223.174841
11
234.111544
21
222.726150
0
LINE
8
Layer 1
10
234.111544
20
222.726150
11
234.486859
21
222.572284
0
LINE
8
Layer 1
10
234.486859
20
222.572284
11
234.960284
21
222.697994
0
LINE
8
Layer 1
10
234.960284
20
222.697994
11
235.501811
21
223.088030
0
LINE
8
Layer 1
10
235.501811
20
223.088030
11
236.081430
21
223.727146
0
LINE
8
Layer 1
10
236.081430
20
223.727146
11
237.234911
21
225.691615
0
LINE
8
Layer 1
10
237.234911
20
225.691615
11
237.234911
21
225.691615
0
LINE
8
Layer 1
10
237.416588
20
234.637278
11
237.322970
21
235.697062
0
LINE
8
Layer 1
10
237.322970
20
235.697062
11
237.057852
21
236.571941
0
LINE
8
Layer 1
10
237.057852
20
236.571941
11
236.644835
21
237.247879
0
LINE
8
Layer 1
10
236.644835
20
237.247879
11
236.107523
21
237.710841
0
LINE
8
Layer 1
10
236.107523
20
237.710841
11
235.469519
21
237.946790
0
LINE
8
Layer 1
10
235.469519
20
237.946790
11
234.754425
21
237.941692
0
LINE
8
Layer 1
10
234.754425
20
237.941692
11
233.985844
21
237.681510
0
LINE
8
Layer 1
10
233.985844
20
237.681510
11
233.187378
21
237.152208
0
LINE
8
Layer 1
10
233.187378
20
237.152208
11
232.515384
21
236.416316
0
LINE
8
Layer 1
10
232.515384
20
236.416316
11
232.143771
21
235.617363
0
LINE
8
Layer 1
10
232.143771
20
235.617363
11
232.052840
21
234.805028
0
LINE
8
Layer 1
10
232.052840
20
234.805028
11
232.222891
21
234.028990
0
LINE
8
Layer 1
10
232.222891
20
234.028990
11
232.634224
21
233.338928
0
LINE
8
Layer 1
10
232.634224
20
233.338928
11
233.267138
21
232.784519
0
LINE
8
Layer 1
10
233.267138
20
232.784519
11
234.101933
21
232.415442
0
LINE
8
Layer 1
10
234.101933
20
232.415442
11
235.118910
21
232.281377
0
LINE
8
Layer 1
10
235.118910
20
232.281377
11
236.096059
21
232.438220
0
LINE
8
Layer 1
10
236.096059
20
232.438220
11
236.817204
21
232.895949
0
LINE
8
Layer 1
10
236.817204
20
232.895949
11
237.263622
21
233.635368
0
LINE
8
Layer 1
10
237.263622
20
233.635368
11
237.416588
21
234.637278
0
LINE
8
Layer 1
10
237.416588
20
234.637278
11
237.416588
21
234.637278
 0 
ENDSEC
 0 
EOF
