999
"DXF R12 Output" (www.mydxf.blogspot.com)
 0 
SECTION
 2 
HEADER
 9 
$ACADVER
 1 
AC1009
 9 
$EXTMIN
 10 
 0 
 20 
 0 
 9 
$EXTMAX
 10 
 8.5 
 20 
 11 
 0 
ENDSEC
 0 
SECTION
 2 
ENTITIES
0
LINE
8
Layer 1
10
17.449853
20
-26.082073
11
19.705302
21
-24.533434
0
LINE
8
Layer 1
10
19.705302
20
-24.533434
11
22.858071
21
-22.667438
0
LINE
8
Layer 1
10
22.858071
20
-22.667438
11
26.490316
21
-20.718998
0
LINE
8
Layer 1
10
26.490316
20
-20.718998
11
30.184189
21
-18.923027
0
LINE
8
Layer 1
10
30.184189
20
-18.923027
11
33.559075
21
-17.293968
0
LINE
8
Layer 1
10
33.559075
20
-17.293968
11
36.322817
21
-15.800026
0
LINE
8
Layer 1
10
36.322817
20
-15.800026
11
38.190211
21
-14.606694
0
LINE
8
Layer 1
10
38.190211
20
-14.606694
11
38.698652
21
-14.174472
0
LINE
8
Layer 1
10
38.698652
20
-14.174472
11
38.876055
21
-13.879462
0
LINE
8
Layer 1
10
38.876055
20
-13.879462
11
38.433145
21
-12.848997
0
LINE
8
Layer 1
10
38.433145
20
-12.848997
11
37.227202
21
-10.830068
0
LINE
8
Layer 1
10
37.227202
20
-10.830068
11
33.262943
21
-4.993131
0
LINE
8
Layer 1
10
33.262943
20
-4.993131
11
30.631188
21
-1.091348
0
LINE
8
Layer 1
10
30.631188
20
-1.091348
11
27.614930
21
3.750026
0
LINE
8
Layer 1
10
27.614930
20
3.750026
11
24.586426
21
8.914778
0
LINE
8
Layer 1
10
24.586426
20
8.914778
11
21.917933
21
13.786698
0
LINE
8
Layer 1
10
21.917933
20
13.786698
11
20.055132
21
17.396107
0
LINE
8
Layer 1
10
20.055132
20
17.396107
11
18.646989
21
20.365895
0
LINE
8
Layer 1
10
18.646989
20
20.365895
11
17.629859
21
23.017385
0
LINE
8
Layer 1
10
17.629859
20
23.017385
11
16.940100
21
25.671899
0
LINE
8
Layer 1
10
16.940100
20
25.671899
11
16.514067
21
28.650761
0
LINE
8
Layer 1
10
16.514067
20
28.650761
11
16.288117
21
32.275292
0
LINE
8
Layer 1
10
16.288117
20
32.275292
11
16.181891
21
42.746655
0
LINE
8
Layer 1
10
16.181891
20
42.746655
11
16.297225
21
52.952948
0
LINE
8
Layer 1
10
16.297225
20
52.952948
11
16.514563
21
56.594080
0
LINE
8
Layer 1
10
16.514563
20
56.594080
11
16.901426
21
59.625117
0
LINE
8
Layer 1
10
16.901426
20
59.625117
11
17.505122
21
62.319496
0
LINE
8
Layer 1
10
17.505122
20
62.319496
11
18.372956
21
64.950652
0
LINE
8
Layer 1
10
18.372956
20
64.950652
11
19.552238
21
67.792023
0
LINE
8
Layer 1
10
19.552238
20
67.792023
11
21.090274
21
71.117044
0
LINE
8
Layer 1
10
21.090274
20
71.117044
11
23.264189
21
75.341347
0
LINE
8
Layer 1
10
23.264189
20
75.341347
11
25.704039
21
79.438092
0
LINE
8
Layer 1
10
25.704039
20
79.438092
11
28.344510
21
83.327804
0
LINE
8
Layer 1
10
28.344510
20
83.327804
11
31.120289
21
86.931006
0
LINE
8
Layer 1
10
31.120289
20
86.931006
11
33.966062
21
90.168223
0
LINE
8
Layer 1
10
33.966062
20
90.168223
11
36.816515
21
92.959980
0
LINE
8
Layer 1
10
36.816515
20
92.959980
11
39.606335
21
95.226801
0
LINE
8
Layer 1
10
39.606335
20
95.226801
11
42.270209
21
96.889210
0
LINE
8
Layer 1
10
42.270209
20
96.889210
11
46.682341
21
99.170836
0
LINE
8
Layer 1
10
46.682341
20
99.170836
11
40.001407
21
107.373229
0
LINE
8
Layer 1
10
40.001407
20
107.373229
11
37.288675
21
110.952807
0
LINE
8
Layer 1
10
37.288675
20
110.952807
11
34.731573
21
114.813282
0
LINE
8
Layer 1
10
34.731573
20
114.813282
11
32.374924
21
118.860322
0
LINE
8
Layer 1
10
32.374924
20
118.860322
11
30.263552
21
122.999595
0
LINE
8
Layer 1
10
30.263552
20
122.999595
11
28.442278
21
127.136768
0
LINE
8
Layer 1
10
28.442278
20
127.136768
11
26.955928
21
131.177510
0
LINE
8
Layer 1
10
26.955928
20
131.177510
11
25.849323
21
135.027488
0
LINE
8
Layer 1
10
25.849323
20
135.027488
11
25.167287
21
138.592369
0
LINE
8
Layer 1
10
25.167287
20
138.592369
11
24.553458
21
142.760044
0
LINE
8
Layer 1
10
24.553458
20
142.760044
11
24.189960
21
144.487455
0
LINE
8
Layer 1
10
24.189960
20
144.487455
11
10.072954
21
137.587150
0
LINE
8
Layer 1
10
10.072954
20
137.587150
11
-3.858800
21
130.697231
0
LINE
8
Layer 1
10
-3.858800
20
130.697231
11
-18.545813
21
110.742088
0
LINE
8
Layer 1
10
-18.545813
20
110.742088
11
-33.232810
21
90.786917
0
LINE
8
Layer 1
10
-33.232810
20
90.786917
11
-32.210008
21
81.246761
0
LINE
8
Layer 1
10
-32.210008
20
81.246761
11
-31.366445
21
74.762862
0
LINE
8
Layer 1
10
-31.366445
20
74.762862
11
-30.823197
21
72.634499
0
LINE
8
Layer 1
10
-30.823197
20
72.634499
11
-30.061296
21
71.038342
0
LINE
8
Layer 1
10
-30.061296
20
71.038342
11
-28.977483
21
69.816755
0
LINE
8
Layer 1
10
-28.977483
20
69.816755
11
-27.468503
21
68.812100
0
LINE
8
Layer 1
10
-27.468503
20
68.812100
11
-25.431096
21
67.866738
0
LINE
8
Layer 1
10
-25.431096
20
67.866738
11
-22.762007
21
66.823033
0
LINE
8
Layer 1
10
-22.762007
20
66.823033
11
-16.695742
21
64.521764
0
LINE
8
Layer 1
10
-16.695742
20
64.521764
11
-22.566004
21
65.276314
0
LINE
8
Layer 1
10
-22.566004
20
65.276314
11
-28.436260
21
66.030863
0
LINE
8
Layer 1
10
-28.436260
20
66.030863
11
-28.486041
21
57.910906
0
LINE
8
Layer 1
10
-28.486041
20
57.910906
11
-28.584017
21
53.805422
0
LINE
8
Layer 1
10
-28.584017
20
53.805422
11
-28.887154
21
51.718873
0
LINE
8
Layer 1
10
-28.887154
20
51.718873
11
-29.149935
21
51.341701
0
LINE
8
Layer 1
10
-29.149935
20
51.341701
11
-29.505139
21
51.360064
0
LINE
8
Layer 1
10
-29.505139
20
51.360064
11
-30.547660
21
52.437799
0
LINE
8
Layer 1
10
-30.547660
20
52.437799
11
-31.542730
21
54.461002
0
LINE
8
Layer 1
10
-31.542730
20
54.461002
11
-32.764870
21
58.013057
0
LINE
8
Layer 1
10
-32.764870
20
58.013057
11
-34.059114
21
62.593156
0
LINE
8
Layer 1
10
-34.059114
20
62.593156
11
-35.270496
21
67.700490
0
LINE
8
Layer 1
10
-35.270496
20
67.700490
11
-36.406637
21
72.598981
0
LINE
8
Layer 1
10
-36.406637
20
72.598981
11
-37.496034
21
76.610415
0
LINE
8
Layer 1
10
-37.496034
20
76.610415
11
-38.415003
21
79.320839
0
LINE
8
Layer 1
10
-38.415003
20
79.320839
11
-38.771926
21
80.058813
0
LINE
8
Layer 1
10
-38.771926
20
80.058813
11
-39.039859
21
80.316303
0
LINE
8
Layer 1
10
-39.039859
20
80.316303
11
-40.304662
21
79.482543
0
LINE
8
Layer 1
10
-40.304662
20
79.482543
11
-42.966063
21
77.212405
0
LINE
8
Layer 1
10
-42.966063
20
77.212405
11
-50.919465
21
69.749846
0
LINE
8
Layer 1
10
-50.919465
20
69.749846
11
-57.833602
21
63.137121
0
LINE
8
Layer 1
10
-57.833602
20
63.137121
11
-59.428627
21
61.902234
0
LINE
8
Layer 1
10
-59.428627
20
61.902234
11
-59.740436
21
61.865926
0
LINE
8
Layer 1
10
-59.740436
20
61.865926
11
-59.720750
21
62.241144
0
LINE
8
Layer 1
10
-59.720750
20
62.241144
11
-58.663815
21
64.298461
0
LINE
8
Layer 1
10
-58.663815
20
64.298461
11
-56.211667
21
68.218794
0
LINE
8
Layer 1
10
-56.211667
20
68.218794
11
-46.937112
21
82.226947
0
LINE
8
Layer 1
10
-46.937112
20
82.226947
11
-38.293150
21
95.618900
0
LINE
8
Layer 1
10
-38.293150
20
95.618900
11
-35.663624
21
100.030664
0
LINE
8
Layer 1
10
-35.663624
20
100.030664
11
-34.697870
21
102.052268
0
LINE
8
Layer 1
10
-34.697870
20
102.052268
11
-34.945484
21
102.373495
0
LINE
8
Layer 1
10
-34.945484
20
102.373495
11
-35.655151
21
102.720211
0
LINE
8
Layer 1
10
-35.655151
20
102.720211
11
-38.261608
21
103.446301
0
LINE
8
Layer 1
10
-38.261608
20
103.446301
11
-42.119163
21
104.142922
0
LINE
8
Layer 1
10
-42.119163
20
104.142922
11
-46.829740
21
104.722457
0
LINE
8
Layer 1
10
-46.829740
20
104.722457
11
-58.961613
21
105.914677
0
LINE
8
Layer 1
10
-58.961613
20
105.914677
11
-43.419276
21
108.378166
0
LINE
8
Layer 1
10
-43.419276
20
108.378166
11
-27.876930
21
110.841656
0
LINE
8
Layer 1
10
-27.876930
20
110.841656
11
-18.283908
21
124.105733
0
LINE
8
Layer 1
10
-18.283908
20
124.105733
11
-14.846071
21
128.770289
0
LINE
8
Layer 1
10
-14.846071
20
128.770289
11
-11.838107
21
132.464563
0
LINE
8
Layer 1
10
-11.838107
20
132.464563
11
-8.850929
21
135.456987
0
LINE
8
Layer 1
10
-8.850929
20
135.456987
11
-7.237295
21
136.773891
0
LINE
8
Layer 1
10
-7.237295
20
136.773891
11
-5.475450
21
138.015994
0
LINE
8
Layer 1
10
-5.475450
20
138.015994
11
-1.302583
21
140.410014
0
LINE
8
Layer 1
10
-1.302583
20
140.410014
11
4.076760
21
142.907480
0
LINE
8
Layer 1
10
4.076760
20
142.907480
11
11.071665
21
145.776823
0
LINE
8
Layer 1
10
11.071665
20
145.776823
11
20.091219
21
149.286475
0
LINE
8
Layer 1
10
20.091219
20
149.286475
11
21.162437
21
149.795133
0
LINE
8
Layer 1
10
21.162437
20
149.795133
11
22.117366
21
150.472340
0
LINE
8
Layer 1
10
22.117366
20
150.472340
11
22.981858
21
151.360852
0
LINE
8
Layer 1
10
22.981858
20
151.360852
11
23.781764
21
152.503427
0
LINE
8
Layer 1
10
23.781764
20
152.503427
11
24.542933
21
153.942822
0
LINE
8
Layer 1
10
24.542933
20
153.942822
11
25.291218
21
155.721795
0
LINE
8
Layer 1
10
25.291218
20
155.721795
11
26.852538
21
160.469502
0
LINE
8
Layer 1
10
26.852538
20
160.469502
11
29.700955
21
169.034862
0
LINE
8
Layer 1
10
29.700955
20
169.034862
11
31.218958
21
172.988932
0
LINE
8
Layer 1
10
31.218958
20
172.988932
11
32.550216
21
176.042609
0
LINE
8
Layer 1
10
32.550216
20
176.042609
11
33.945588
21
179.190966
0
LINE
8
Layer 1
10
33.945588
20
179.190966
11
34.327759
21
180.378522
0
LINE
8
Layer 1
10
34.327759
20
180.378522
11
34.505949
21
181.384786
0
LINE
8
Layer 1
10
34.505949
20
181.384786
11
34.484932
21
182.267100
0
LINE
8
Layer 1
10
34.484932
20
182.267100
11
34.269479
21
183.082806
0
LINE
8
Layer 1
10
34.269479
20
183.082806
11
33.274356
21
184.743763
0
LINE
8
Layer 1
10
33.274356
20
184.743763
11
32.227536
21
186.498714
0
LINE
8
Layer 1
10
32.227536
20
186.498714
11
31.552642
21
188.492791
0
LINE
8
Layer 1
10
31.552642
20
188.492791
11
31.247048
21
190.699284
0
LINE
8
Layer 1
10
31.247048
20
190.699284
11
31.308127
21
193.091482
0
LINE
8
Layer 1
10
31.308127
20
193.091482
11
31.733251
21
195.642676
0
LINE
8
Layer 1
10
31.733251
20
195.642676
11
32.519795
21
198.326154
0
LINE
8
Layer 1
10
32.519795
20
198.326154
11
33.665130
21
201.115208
0
LINE
8
Layer 1
10
33.665130
20
201.115208
11
35.166630
21
203.983126
0
LINE
8
Layer 1
10
35.166630
20
203.983126
11
37.230308
21
207.972055
0
LINE
8
Layer 1
10
37.230308
20
207.972055
11
37.928311
21
209.806438
0
LINE
8
Layer 1
10
37.928311
20
209.806438
11
38.433785
21
211.672149
0
LINE
8
Layer 1
10
38.433785
20
211.672149
11
38.769248
21
213.672727
0
LINE
8
Layer 1
10
38.769248
20
213.672727
11
38.957221
21
215.911708
0
LINE
8
Layer 1
10
38.957221
20
215.911708
11
38.980779
21
221.519032
0
LINE
8
Layer 1
10
38.980779
20
221.519032
11
38.982812
21
226.388208
0
LINE
8
Layer 1
10
38.982812
20
226.388208
11
39.259694
21
230.855654
0
LINE
8
Layer 1
10
39.259694
20
230.855654
11
39.830619
21
234.990324
0
LINE
8
Layer 1
10
39.830619
20
234.990324
11
40.714782
21
238.861173
0
LINE
8
Layer 1
10
40.714782
20
238.861173
11
41.931376
21
242.537157
0
LINE
8
Layer 1
10
41.931376
20
242.537157
11
43.499598
21
246.087228
0
LINE
8
Layer 1
10
43.499598
20
246.087228
11
45.438640
21
249.580343
0
LINE
8
Layer 1
10
45.438640
20
249.580343
11
47.767697
21
253.085455
0
LINE
8
Layer 1
10
47.767697
20
253.085455
11
53.223126
21
260.704614
0
LINE
8
Layer 1
10
53.223126
20
260.704614
11
48.234939
21
265.851125
0
LINE
8
Layer 1
10
48.234939
20
265.851125
11
45.576696
21
268.812227
0
LINE
8
Layer 1
10
45.576696
20
268.812227
11
44.751479
21
270.033882
0
LINE
8
Layer 1
10
44.751479
20
270.033882
11
44.218250
21
271.214629
0
LINE
8
Layer 1
10
44.218250
20
271.214629
11
43.944048
21
272.453235
0
LINE
8
Layer 1
10
43.944048
20
272.453235
11
43.895909
21
273.848467
0
LINE
8
Layer 1
10
43.895909
20
273.848467
11
44.345979
21
277.503874
0
LINE
8
Layer 1
10
44.345979
20
277.503874
11
45.197823
21
280.790919
0
LINE
8
Layer 1
10
45.197823
20
280.790919
11
46.647324
21
283.981137
0
LINE
8
Layer 1
10
46.647324
20
283.981137
11
48.739736
21
287.155853
0
LINE
8
Layer 1
10
48.739736
20
287.155853
11
51.520313
21
290.396389
0
LINE
8
Layer 1
10
51.520313
20
290.396389
11
55.166532
21
294.058392
0
LINE
8
Layer 1
10
55.166532
20
294.058392
11
56.587047
21
295.157695
0
LINE
8
Layer 1
10
56.587047
20
295.157695
11
57.971350
21
295.853049
0
LINE
8
Layer 1
10
57.971350
20
295.853049
11
59.493581
21
296.207341
0
LINE
8
Layer 1
10
59.493581
20
296.207341
11
61.327876
21
296.283460
0
LINE
8
Layer 1
10
61.327876
20
296.283460
11
66.629218
21
295.852726
0
LINE
8
Layer 1
10
66.629218
20
295.852726
11
74.045884
21
294.890431
0
LINE
8
Layer 1
10
74.045884
20
294.890431
11
79.191685
21
293.882666
0
LINE
8
Layer 1
10
79.191685
20
293.882666
11
80.242505
21
293.633267
0
LINE
8
Layer 1
10
80.242505
20
293.633267
11
81.138618
21
293.587341
0
LINE
8
Layer 1
10
81.138618
20
293.587341
11
81.926347
21
293.786975
0
LINE
8
Layer 1
10
81.926347
20
293.786975
11
82.652018
21
294.274255
0
LINE
8
Layer 1
10
82.652018
20
294.274255
11
83.361954
21
295.091269
0
LINE
8
Layer 1
10
83.361954
20
295.091269
11
84.102480
21
296.280105
0
LINE
8
Layer 1
10
84.102480
20
296.280105
11
85.860596
21
299.941587
0
LINE
8
Layer 1
10
85.860596
20
299.941587
11
87.203607
21
303.350318
0
LINE
8
Layer 1
10
87.203607
20
303.350318
11
88.538937
21
307.383672
0
LINE
8
Layer 1
10
88.538937
20
307.383672
11
89.712104
21
311.537454
0
LINE
8
Layer 1
10
89.712104
20
311.537454
11
90.568625
21
315.307470
0
LINE
8
Layer 1
10
90.568625
20
315.307470
11
91.330315
21
318.614473
0
LINE
8
Layer 1
10
91.330315
20
318.614473
11
92.245278
21
321.507573
0
LINE
8
Layer 1
10
92.245278
20
321.507573
11
93.198467
21
323.675114
0
LINE
8
Layer 1
10
93.198467
20
323.675114
11
93.653442
21
324.389408
0
LINE
8
Layer 1
10
93.653442
20
324.389408
11
94.074829
21
324.805441
0
LINE
8
Layer 1
10
94.074829
20
324.805441
11
94.910950
21
325.190884
0
LINE
8
Layer 1
10
94.910950
20
325.190884
11
96.065964
21
325.503306
0
LINE
8
Layer 1
10
96.065964
20
325.503306
11
99.195775
21
325.915966
0
LINE
8
Layer 1
10
99.195775
20
325.915966
11
103.190460
21
326.057180
0
LINE
8
Layer 1
10
103.190460
20
326.057180
11
107.776215
21
325.940710
0
LINE
8
Layer 1
10
107.776215
20
325.940710
11
112.679239
21
325.580315
0
LINE
8
Layer 1
10
112.679239
20
325.580315
11
117.625729
21
324.989755
0
LINE
8
Layer 1
10
117.625729
20
324.989755
11
122.341883
21
324.182790
0
LINE
8
Layer 1
10
122.341883
20
324.182790
11
126.553897
21
323.173181
0
LINE
8
Layer 1
10
126.553897
20
323.173181
11
131.527532
21
321.627135
0
LINE
8
Layer 1
10
131.527532
20
321.627135
11
136.241099
21
319.912343
0
LINE
8
Layer 1
10
136.241099
20
319.912343
11
140.667663
21
318.042966
0
LINE
8
Layer 1
10
140.667663
20
318.042966
11
144.780295
21
316.033166
0
LINE
8
Layer 1
10
144.780295
20
316.033166
11
148.552061
21
313.897105
0
LINE
8
Layer 1
10
148.552061
20
313.897105
11
151.956030
21
311.648944
0
LINE
8
Layer 1
10
151.956030
20
311.648944
11
154.965269
21
309.302845
0
LINE
8
Layer 1
10
154.965269
20
309.302845
11
157.552847
21
306.872971
0
LINE
8
Layer 1
10
157.552847
20
306.872971
11
162.737947
21
301.470470
0
LINE
8
Layer 1
10
162.737947
20
301.470470
11
155.596093
21
289.706860
0
LINE
8
Layer 1
10
155.596093
20
289.706860
11
150.552160
21
281.121519
0
LINE
8
Layer 1
10
150.552160
20
281.121519
11
149.017777
21
278.294022
0
LINE
8
Layer 1
10
149.017777
20
278.294022
11
148.454240
21
276.999266
0
LINE
8
Layer 1
10
148.454240
20
276.999266
11
148.946344
21
276.381678
0
LINE
8
Layer 1
10
148.946344
20
276.381678
11
150.286231
21
275.397960
0
LINE
8
Layer 1
10
150.286231
20
275.397960
11
154.690806
21
272.873614
0
LINE
8
Layer 1
10
154.690806
20
272.873614
11
157.064616
21
271.501396
0
LINE
8
Layer 1
10
157.064616
20
271.501396
11
158.976780
21
270.018959
0
LINE
8
Layer 1
10
158.976780
20
270.018959
11
160.446658
21
268.381407
0
LINE
8
Layer 1
10
160.446658
20
268.381407
11
161.493610
21
266.543845
0
LINE
8
Layer 1
10
161.493610
20
266.543845
11
162.136995
21
264.461378
0
LINE
8
Layer 1
10
162.136995
20
264.461378
11
162.396173
21
262.089110
0
LINE
8
Layer 1
10
162.396173
20
262.089110
11
162.290502
21
259.382148
0
LINE
8
Layer 1
10
162.290502
20
259.382148
11
161.839343
21
256.295594
0
LINE
8
Layer 1
10
161.839343
20
256.295594
11
161.485992
21
254.697722
0
LINE
8
Layer 1
10
161.485992
20
254.697722
11
161.049216
21
253.348807
0
LINE
8
Layer 1
10
161.049216
20
253.348807
11
160.485349
21
252.199689
0
LINE
8
Layer 1
10
160.485349
20
252.199689
11
159.750727
21
251.201213
0
LINE
8
Layer 1
10
159.750727
20
251.201213
11
158.801685
21
250.304219
0
LINE
8
Layer 1
10
158.801685
20
250.304219
11
157.594559
21
249.459550
0
LINE
8
Layer 1
10
157.594559
20
249.459550
11
154.231391
21
247.730556
0
LINE
8
Layer 1
10
154.231391
20
247.730556
11
151.336231
21
246.571466
0
LINE
8
Layer 1
10
151.336231
20
246.571466
11
148.302633
21
245.617104
0
LINE
8
Layer 1
10
148.302633
20
245.617104
11
145.490589
21
244.966321
0
LINE
8
Layer 1
10
145.490589
20
244.966321
11
143.260095
21
244.717972
0
LINE
8
Layer 1
10
143.260095
20
244.717972
11
138.848632
21
244.683595
0
LINE
8
Layer 1
10
138.848632
20
244.683595
11
142.182032
21
240.002259
0
LINE
8
Layer 1
10
142.182032
20
240.002259
11
143.545470
21
237.758572
0
LINE
8
Layer 1
10
143.545470
20
237.758572
11
144.793625
21
235.110112
0
LINE
8
Layer 1
10
144.793625
20
235.110112
11
145.788372
21
232.387642
0
LINE
8
Layer 1
10
145.788372
20
232.387642
11
146.391588
21
229.921927
0
LINE
8
Layer 1
10
146.391588
20
229.921927
11
146.871222
21
227.774522
0
LINE
8
Layer 1
10
146.871222
20
227.774522
11
147.529503
21
225.918740
0
LINE
8
Layer 1
10
147.529503
20
225.918740
11
148.279688
21
224.552974
0
LINE
8
Layer 1
10
148.279688
20
224.552974
11
149.035036
21
223.875621
0
LINE
8
Layer 1
10
149.035036
20
223.875621
11
150.558217
21
223.716369
0
LINE
8
Layer 1
10
150.558217
20
223.716369
11
153.360004
21
223.776862
0
LINE
8
Layer 1
10
153.360004
20
223.776862
11
161.398881
21
224.414695
0
LINE
8
Layer 1
10
161.398881
20
224.414695
11
170.350623
21
225.504333
0
LINE
8
Layer 1
10
170.350623
20
225.504333
11
174.293494
21
226.129582
0
LINE
8
Layer 1
10
174.293494
20
226.129582
11
177.414191
21
226.760988
0
LINE
8
Layer 1
10
177.414191
20
226.760988
11
182.110394
21
227.888655
0
LINE
8
Layer 1
10
182.110394
20
227.888655
11
177.634051
21
223.106899
0
LINE
8
Layer 1
10
177.634051
20
223.106899
11
175.418833
21
221.049683
0
LINE
8
Layer 1
10
175.418833
20
221.049683
11
172.530844
21
218.843131
0
LINE
8
Layer 1
10
172.530844
20
218.843131
11
169.115838
21
216.569528
0
LINE
8
Layer 1
10
169.115838
20
216.569528
11
165.319569
21
214.311155
0
LINE
8
Layer 1
10
165.319569
20
214.311155
11
161.287790
21
212.150298
0
LINE
8
Layer 1
10
161.287790
20
212.150298
11
157.166257
21
210.169240
0
LINE
8
Layer 1
10
157.166257
20
210.169240
11
153.100723
21
208.450265
0
LINE
8
Layer 1
10
153.100723
20
208.450265
11
149.236944
21
207.075658
0
LINE
8
Layer 1
10
149.236944
20
207.075658
11
145.719735
21
205.783323
0
LINE
8
Layer 1
10
145.719735
20
205.783323
11
143.107694
21
204.455229
0
LINE
8
Layer 1
10
143.107694
20
204.455229
11
141.415753
21
203.152004
0
LINE
8
Layer 1
10
141.415753
20
203.152004
11
140.919487
21
202.528664
0
LINE
8
Layer 1
10
140.919487
20
202.528664
11
140.658845
21
201.934276
0
LINE
8
Layer 1
10
140.658845
20
201.934276
11
140.635695
21
201.376419
0
LINE
8
Layer 1
10
140.635695
20
201.376419
11
140.851903
21
200.862671
0
LINE
8
Layer 1
10
140.851903
20
200.862671
11
141.309335
21
200.400611
0
LINE
8
Layer 1
10
141.309335
20
200.400611
11
142.009857
21
199.997818
0
LINE
8
Layer 1
10
142.009857
20
199.997818
11
144.147642
21
199.400345
0
LINE
8
Layer 1
10
144.147642
20
199.400345
11
147.280190
21
199.130879
0
LINE
8
Layer 1
10
147.280190
20
199.130879
11
153.128435
21
198.678446
0
LINE
8
Layer 1
10
153.128435
20
198.678446
11
155.802155
21
198.274471
0
LINE
8
Layer 1
10
155.802155
20
198.274471
11
157.846657
21
197.809788
0
LINE
8
Layer 1
10
157.846657
20
197.809788
11
159.050058
21
197.586522
0
LINE
8
Layer 1
10
159.050058
20
197.586522
11
160.442153
21
197.606308
0
LINE
8
Layer 1
10
160.442153
20
197.606308
11
162.092123
21
197.892433
0
LINE
8
Layer 1
10
162.092123
20
197.892433
11
164.069151
21
198.468188
0
LINE
8
Layer 1
10
164.069151
20
198.468188
11
169.281110
21
200.581737
0
LINE
8
Layer 1
10
169.281110
20
200.581737
11
176.631490
21
204.133262
0
LINE
8
Layer 1
10
176.631490
20
204.133262
11
188.353723
21
209.880972
0
LINE
8
Layer 1
10
188.353723
20
209.880972
11
195.653835
21
213.184140
0
LINE
8
Layer 1
10
195.653835
20
213.184140
11
197.604053
21
214.234497
0
LINE
8
Layer 1
10
197.604053
20
214.234497
11
199.845477
21
215.939454
0
LINE
8
Layer 1
10
199.845477
20
215.939454
11
202.101157
21
218.063222
0
LINE
8
Layer 1
10
202.101157
20
218.063222
11
204.094142
21
220.370012
0
LINE
8
Layer 1
10
204.094142
20
220.370012
11
206.401478
21
223.691863
0
LINE
8
Layer 1
10
206.401478
20
223.691863
11
207.113087
21
225.141830
0
LINE
8
Layer 1
10
207.113087
20
225.141830
11
207.569497
21
226.632753
0
LINE
8
Layer 1
10
207.569497
20
226.632753
11
207.800339
21
228.300827
0
LINE
8
Layer 1
10
207.800339
20
228.300827
11
207.835245
21
230.282248
0
LINE
8
Layer 1
10
207.835245
20
230.282248
11
207.435766
21
235.729914
0
LINE
8
Layer 1
10
207.435766
20
235.729914
11
206.908831
21
240.076856
0
LINE
8
Layer 1
10
206.908831
20
240.076856
11
206.166063
21
244.660948
0
LINE
8
Layer 1
10
206.166063
20
244.660948
11
205.244331
21
249.333340
0
LINE
8
Layer 1
10
205.244331
20
249.333340
11
204.180506
21
253.945184
0
LINE
8
Layer 1
10
204.180506
20
253.945184
11
203.011457
21
258.347631
0
LINE
8
Layer 1
10
203.011457
20
258.347631
11
201.774054
21
262.391832
0
LINE
8
Layer 1
10
201.774054
20
262.391832
11
200.505169
21
265.928937
0
LINE
8
Layer 1
10
200.505169
20
265.928937
11
199.241670
21
268.810097
0
LINE
8
Layer 1
10
199.241670
20
268.810097
11
198.414326
21
270.615683
0
LINE
8
Layer 1
10
198.414326
20
270.615683
11
197.897366
21
272.074898
0
LINE
8
Layer 1
10
197.897366
20
272.074898
11
197.684824
21
273.174072
0
LINE
8
Layer 1
10
197.684824
20
273.174072
11
197.770731
21
273.899535
0
LINE
8
Layer 1
10
197.770731
20
273.899535
11
198.149120
21
274.237617
0
LINE
8
Layer 1
10
198.149120
20
274.237617
11
198.814025
21
274.174650
0
LINE
8
Layer 1
10
198.814025
20
274.174650
11
199.759477
21
273.696962
0
LINE
8
Layer 1
10
199.759477
20
273.696962
11
200.979509
21
272.790884
0
LINE
8
Layer 1
10
200.979509
20
272.790884
11
202.631263
21
271.050908
0
LINE
8
Layer 1
10
202.631263
20
271.050908
11
204.357937
21
268.567603
0
LINE
8
Layer 1
10
204.357937
20
268.567603
11
206.099943
21
265.476134
0
LINE
8
Layer 1
10
206.099943
20
265.476134
11
207.797695
21
261.911668
0
LINE
8
Layer 1
10
207.797695
20
261.911668
11
209.391606
21
258.009371
0
LINE
8
Layer 1
10
209.391606
20
258.009371
11
210.822089
21
253.904407
0
LINE
8
Layer 1
10
210.822089
20
253.904407
11
212.029557
21
249.731942
0
LINE
8
Layer 1
10
212.029557
20
249.731942
11
212.954424
21
245.627143
0
LINE
8
Layer 1
10
212.954424
20
245.627143
11
214.895012
21
235.397281
0
LINE
8
Layer 1
10
214.895012
20
235.397281
11
218.510561
21
238.793908
0
LINE
8
Layer 1
10
218.510561
20
238.793908
11
219.482579
21
239.820929
0
LINE
8
Layer 1
10
219.482579
20
239.820929
11
220.399538
21
241.022843
0
LINE
8
Layer 1
10
220.399538
20
241.022843
11
222.066252
21
243.942865
0
LINE
8
Layer 1
10
222.066252
20
243.942865
11
223.506648
21
247.537013
0
LINE
8
Layer 1
10
223.506648
20
247.537013
11
224.716674
21
251.788328
0
LINE
8
Layer 1
10
224.716674
20
251.788328
11
225.692274
21
256.679848
0
LINE
8
Layer 1
10
225.692274
20
256.679848
11
226.429396
21
262.194615
0
LINE
8
Layer 1
10
226.429396
20
262.194615
11
226.923986
21
268.315667
0
LINE
8
Layer 1
10
226.923986
20
268.315667
11
227.171989
21
275.026044
0
LINE
8
Layer 1
10
227.171989
20
275.026044
11
227.388252
21
282.065401
0
LINE
8
Layer 1
10
227.388252
20
282.065401
11
227.746728
21
286.714274
0
LINE
8
Layer 1
10
227.746728
20
286.714274
11
227.979241
21
288.141842
0
LINE
8
Layer 1
10
227.979241
20
288.141842
11
228.247243
21
288.971265
0
LINE
8
Layer 1
10
228.247243
20
288.971265
11
228.550710
21
289.202369
0
LINE
8
Layer 1
10
228.550710
20
289.202369
11
228.889622
21
288.834977
0
LINE
8
Layer 1
10
228.889622
20
288.834977
11
230.801141
21
285.582118
0
LINE
8
Layer 1
10
230.801141
20
285.582118
11
231.497510
21
285.620086
0
LINE
8
Layer 1
10
231.497510
20
285.620086
11
233.035632
21
286.155646
0
LINE
8
Layer 1
10
233.035632
20
286.155646
11
237.727975
21
288.355541
0
LINE
8
Layer 1
10
237.727975
20
288.355541
11
240.022912
21
289.505081
0
LINE
8
Layer 1
10
240.022912
20
289.505081
11
241.639587
21
290.175607
0
LINE
8
Layer 1
10
241.639587
20
290.175607
11
242.570153
21
290.314755
0
LINE
8
Layer 1
10
242.570153
20
290.314755
11
242.775693
21
290.168698
0
LINE
8
Layer 1
10
242.775693
20
290.168698
11
242.806764
21
289.870161
0
LINE
8
Layer 1
10
242.806764
20
289.870161
11
242.341573
21
288.789462
0
LINE
8
Layer 1
10
242.341573
20
288.789462
11
241.166732
21
287.020295
0
LINE
8
Layer 1
10
241.166732
20
287.020295
11
236.656716
21
281.207100
0
LINE
8
Layer 1
10
236.656716
20
281.207100
11
234.055480
21
277.659017
0
LINE
8
Layer 1
10
234.055480
20
277.659017
11
233.142586
21
276.085093
0
LINE
8
Layer 1
10
233.142586
20
276.085093
11
232.453683
21
274.554354
0
LINE
8
Layer 1
10
232.453683
20
274.554354
11
231.962901
21
272.999129
0
LINE
8
Layer 1
10
231.962901
20
272.999129
11
231.644372
21
271.351747
0
LINE
8
Layer 1
10
231.644372
20
271.351747
11
231.420591
21
267.509827
0
LINE
8
Layer 1
10
231.420591
20
267.509827
11
231.534530
21
264.724997
0
LINE
8
Layer 1
10
231.534530
20
264.724997
11
231.844760
21
262.444459
0
LINE
8
Layer 1
10
231.844760
20
262.444459
11
232.303904
21
260.903553
0
LINE
8
Layer 1
10
232.303904
20
260.903553
11
232.574512
21
260.484006
0
LINE
8
Layer 1
10
232.574512
20
260.484006
11
232.864581
21
260.337620
0
LINE
8
Layer 1
10
232.864581
20
260.337620
11
233.990680
21
260.983979
0
LINE
8
Layer 1
10
233.990680
20
260.983979
11
235.989339
21
262.743866
0
LINE
8
Layer 1
10
235.989339
20
262.743866
11
238.578050
21
265.348498
0
LINE
8
Layer 1
10
238.578050
20
265.348498
11
241.474309
21
268.529092
0
LINE
8
Layer 1
10
241.474309
20
268.529092
11
246.535083
21
273.983760
0
LINE
8
Layer 1
10
246.535083
20
273.983760
11
248.074594
21
275.385826
0
LINE
8
Layer 1
10
248.074594
20
275.385826
11
248.493762
21
275.654106
0
LINE
8
Layer 1
10
248.493762
20
275.654106
11
248.640016
21
275.595241
0
LINE
8
Layer 1
10
248.640016
20
275.595241
11
248.524593
21
275.022338
0
LINE
8
Layer 1
10
248.524593
20
275.022338
11
248.010170
21
273.949344
0
LINE
8
Layer 1
10
248.010170
20
273.949344
11
244.775384
21
268.752750
0
LINE
8
Layer 1
10
244.775384
20
268.752750
11
222.419508
21
235.304845
0
LINE
8
Layer 1
10
222.419508
20
235.304845
11
211.087464
21
218.041498
0
LINE
8
Layer 1
10
211.087464
20
218.041498
11
207.640213
21
212.475048
0
LINE
8
Layer 1
10
207.640213
20
212.475048
11
206.374131
21
210.056683
0
LINE
8
Layer 1
10
206.374131
20
210.056683
11
206.122168
21
209.521884
0
LINE
8
Layer 1
10
206.122168
20
209.521884
11
205.436133
21
209.083930
0
LINE
8
Layer 1
10
205.436133
20
209.083930
11
204.420803
21
208.788016
0
LINE
8
Layer 1
10
204.420803
20
208.788016
11
203.180956
21
208.679334
0
LINE
8
Layer 1
10
203.180956
20
208.679334
11
201.588708
21
208.471253
0
LINE
8
Layer 1
10
201.588708
20
208.471253
11
199.505417
21
207.871362
0
LINE
8
Layer 1
10
199.505417
20
207.871362
11
197.007657
21
206.916188
0
LINE
8
Layer 1
10
197.007657
20
206.916188
11
194.172001
21
205.642260
0
LINE
8
Layer 1
10
194.172001
20
205.642260
11
187.793295
21
202.284251
0
LINE
8
Layer 1
10
187.793295
20
202.284251
11
180.981883
21
198.089558
0
LINE
8
Layer 1
10
180.981883
20
198.089558
11
175.087173
21
194.188620
0
LINE
8
Layer 1
10
175.087173
20
194.188620
11
182.512281
21
189.463594
0
LINE
8
Layer 1
10
182.512281
20
189.463594
11
189.340529
21
185.460626
0
LINE
8
Layer 1
10
189.340529
20
185.460626
11
192.650637
21
183.724670
0
LINE
8
Layer 1
10
192.650637
20
183.724670
11
195.330606
21
182.471629
0
LINE
8
Layer 1
10
195.330606
20
182.471629
11
197.099243
21
181.766190
0
LINE
8
Layer 1
10
197.099243
20
181.766190
11
198.620600
21
181.320552
0
LINE
8
Layer 1
10
198.620600
20
181.320552
11
200.080132
21
181.176576
0
LINE
8
Layer 1
10
200.080132
20
181.176576
11
201.663295
21
181.376124
0
LINE
8
Layer 1
10
201.663295
20
181.376124
11
203.555546
21
181.961059
0
LINE
8
Layer 1
10
203.555546
20
181.961059
11
205.942341
21
182.973244
0
LINE
8
Layer 1
10
205.942341
20
182.973244
11
212.941385
21
186.446810
0
LINE
8
Layer 1
10
212.941385
20
186.446810
11
225.158955
21
192.688934
0
LINE
8
Layer 1
10
225.158955
20
192.688934
11
225.158955
21
185.741661
0
LINE
8
Layer 1
10
225.158955
20
185.741661
11
225.390474
21
182.142720
0
LINE
8
Layer 1
10
225.390474
20
182.142720
11
225.684744
21
180.550280
0
LINE
8
Layer 1
10
225.684744
20
180.550280
11
226.102351
21
179.092060
0
LINE
8
Layer 1
10
226.102351
20
179.092060
11
226.646542
21
177.765205
0
LINE
8
Layer 1
10
226.646542
20
177.765205
11
227.320564
21
176.566865
0
LINE
8
Layer 1
10
227.320564
20
176.566865
11
228.127665
21
175.494188
0
LINE
8
Layer 1
10
228.127665
20
175.494188
11
229.071091
21
174.544320
0
LINE
8
Layer 1
10
229.071091
20
174.544320
11
230.154091
21
173.714411
0
LINE
8
Layer 1
10
230.154091
20
173.714411
11
231.379910
21
173.001608
0
LINE
8
Layer 1
10
231.379910
20
173.001608
11
232.751798
21
172.403059
0
LINE
8
Layer 1
10
232.751798
20
172.403059
11
234.273000
21
171.915912
0
LINE
8
Layer 1
10
234.273000
20
171.915912
11
237.776338
21
171.264416
0
LINE
8
Layer 1
10
237.776338
20
171.264416
11
241.915902
21
171.024303
0
LINE
8
Layer 1
10
241.915902
20
171.024303
11
250.988105
21
170.938959
0
LINE
8
Layer 1
10
250.988105
20
170.938959
11
243.161095
21
167.713639
0
LINE
8
Layer 1
10
243.161095
20
167.713639
11
237.847615
21
165.715275
0
LINE
8
Layer 1
10
237.847615
20
165.715275
11
231.843931
21
163.781725
0
LINE
8
Layer 1
10
231.843931
20
163.781725
11
225.421817
21
161.975280
0
LINE
8
Layer 1
10
225.421817
20
161.975280
11
218.853049
21
160.358229
0
LINE
8
Layer 1
10
218.853049
20
160.358229
11
212.409400
21
158.992863
0
LINE
8
Layer 1
10
212.409400
20
158.992863
11
206.362647
21
157.941473
0
LINE
8
Layer 1
10
206.362647
20
157.941473
11
200.984565
21
157.266348
0
LINE
8
Layer 1
10
200.984565
20
157.266348
11
196.546927
21
157.029778
0
LINE
8
Layer 1
10
196.546927
20
157.029778
11
192.040256
21
157.132912
0
LINE
8
Layer 1
10
192.040256
20
157.132912
11
187.980358
21
157.454318
0
LINE
8
Layer 1
10
187.980358
20
157.454318
11
184.262701
21
158.024791
0
LINE
8
Layer 1
10
184.262701
20
158.024791
11
180.782753
21
158.875130
0
LINE
8
Layer 1
10
180.782753
20
158.875130
11
177.435980
21
160.036132
0
LINE
8
Layer 1
10
177.435980
20
160.036132
11
174.117851
21
161.538595
0
LINE
8
Layer 1
10
174.117851
20
161.538595
11
170.723832
21
163.413316
0
LINE
8
Layer 1
10
170.723832
20
163.413316
11
167.149391
21
165.691093
0
LINE
8
Layer 1
10
167.149391
20
165.691093
11
163.577893
21
167.981428
0
LINE
8
Layer 1
10
163.577893
20
167.981428
11
161.279813
21
169.177247
0
LINE
8
Layer 1
10
161.279813
20
169.177247
11
160.589464
21
169.372066
0
LINE
8
Layer 1
10
160.589464
20
169.372066
11
160.194860
21
169.302080
0
LINE
8
Layer 1
10
160.194860
20
169.302080
11
160.088466
21
168.970230
0
LINE
8
Layer 1
10
160.088466
20
168.970230
11
160.262745
21
168.379457
0
LINE
8
Layer 1
10
160.262745
20
168.379457
11
162.666128
21
162.297965
0
LINE
8
Layer 1
10
162.666128
20
162.297965
11
164.571317
21
156.294355
0
LINE
8
Layer 1
10
164.571317
20
156.294355
11
165.974765
21
150.399858
0
LINE
8
Layer 1
10
165.974765
20
150.399858
11
166.872927
21
144.645704
0
LINE
8
Layer 1
10
166.872927
20
144.645704
11
167.262255
21
139.063125
0
LINE
8
Layer 1
10
167.262255
20
139.063125
11
167.139204
21
133.683351
0
LINE
8
Layer 1
10
167.139204
20
133.683351
11
166.500225
21
128.537613
0
LINE
8
Layer 1
10
166.500225
20
128.537613
11
165.341774
21
123.657141
0
LINE
8
Layer 1
10
165.341774
20
123.657141
11
164.510285
21
120.558463
0
LINE
8
Layer 1
10
164.510285
20
120.558463
11
164.231107
21
118.511465
0
LINE
8
Layer 1
10
164.231107
20
118.511465
11
164.298499
21
117.813924
0
LINE
8
Layer 1
10
164.298499
20
117.813924
11
164.503806
21
117.297199
0
LINE
8
Layer 1
10
164.503806
20
117.297199
11
164.846975
21
116.933922
0
LINE
8
Layer 1
10
164.846975
20
116.933922
11
165.327951
21
116.696723
0
LINE
8
Layer 1
10
165.327951
20
116.696723
11
166.617191
21
116.137060
0
LINE
8
Layer 1
10
166.617191
20
116.137060
11
168.237759
21
115.224949
0
LINE
8
Layer 1
10
168.237759
20
115.224949
11
172.265322
21
112.519526
0
LINE
8
Layer 1
10
172.265322
20
112.519526
11
176.995532
21
108.932743
0
LINE
8
Layer 1
10
176.995532
20
108.932743
11
182.013279
21
104.816889
0
LINE
8
Layer 1
10
182.013279
20
104.816889
11
186.903453
21
100.524250
0
LINE
8
Layer 1
10
186.903453
20
100.524250
11
191.250945
21
96.407115
0
LINE
8
Layer 1
10
191.250945
20
96.407115
11
194.640646
21
92.817773
0
LINE
8
Layer 1
10
194.640646
20
92.817773
11
195.846602
21
91.331114
0
LINE
8
Layer 1
10
195.846602
20
91.331114
11
196.657445
21
90.108511
0
LINE
8
Layer 1
10
196.657445
20
90.108511
11
198.631262
21
85.894477
0
LINE
8
Layer 1
10
198.631262
20
85.894477
11
200.608247
21
80.503934
0
LINE
8
Layer 1
10
200.608247
20
80.503934
11
202.506310
21
74.281470
0
LINE
8
Layer 1
10
202.506310
20
74.281470
11
204.243357
21
67.571676
0
LINE
8
Layer 1
10
204.243357
20
67.571676
11
205.737295
21
60.719143
0
LINE
8
Layer 1
10
205.737295
20
60.719143
11
206.906032
21
54.068459
0
LINE
8
Layer 1
10
206.906032
20
54.068459
11
207.667475
21
47.964215
0
LINE
8
Layer 1
10
207.667475
20
47.964215
11
207.939533
21
42.751001
0
LINE
8
Layer 1
10
207.939533
20
42.751001
11
207.759155
21
37.263942
0
LINE
8
Layer 1
10
207.759155
20
37.263942
11
207.255007
21
31.192003
0
LINE
8
Layer 1
10
207.255007
20
31.192003
11
206.482566
21
24.853384
0
LINE
8
Layer 1
10
206.482566
20
24.853384
11
205.497312
21
18.566286
0
LINE
8
Layer 1
10
205.497312
20
18.566286
11
204.354722
21
12.648910
0
LINE
8
Layer 1
10
204.354722
20
12.648910
11
203.110274
21
7.419457
0
LINE
8
Layer 1
10
203.110274
20
7.419457
11
201.819447
21
3.196129
0
LINE
8
Layer 1
10
201.819447
20
3.196129
11
200.537719
21
0.297125
0
LINE
8
Layer 1
10
200.537719
20
0.297125
11
199.477687
21
-1.641207
0
LINE
8
Layer 1
10
199.477687
20
-1.641207
11
198.866591
21
-3.132988
0
LINE
8
Layer 1
10
198.866591
20
-3.132988
11
198.720371
21
-4.189923
0
LINE
8
Layer 1
10
198.720371
20
-4.189923
11
198.826570
21
-4.558980
0
LINE
8
Layer 1
10
198.826570
20
-4.558980
11
199.054966
21
-4.823716
0
LINE
8
Layer 1
10
199.054966
20
-4.823716
11
199.886316
21
-5.046074
0
LINE
8
Layer 1
10
199.886316
20
-5.046074
11
201.230361
21
-4.868699
0
LINE
8
Layer 1
10
201.230361
20
-4.868699
11
203.103041
21
-4.303298
0
LINE
8
Layer 1
10
203.103041
20
-4.303298
11
205.520296
21
-3.361576
0
LINE
8
Layer 1
10
205.520296
20
-3.361576
11
208.400261
21
-2.222807
0
LINE
8
Layer 1
10
208.400261
20
-2.222807
11
210.377968
21
-1.582651
0
LINE
8
Layer 1
10
210.377968
20
-1.582651
11
211.459794
21
-1.427190
0
LINE
8
Layer 1
10
211.459794
20
-1.427190
11
211.666746
21
-1.526870
0
LINE
8
Layer 1
10
211.666746
20
-1.526870
11
211.652120
21
-1.742506
0
LINE
8
Layer 1
10
211.652120
20
-1.742506
11
210.961324
21
-2.514682
0
LINE
8
Layer 1
10
210.961324
20
-2.514682
11
209.393784
21
-3.729800
0
LINE
8
Layer 1
10
209.393784
20
-3.729800
11
203.653988
21
-7.433196
0
LINE
8
Layer 1
10
203.653988
20
-7.433196
11
199.984349
21
-9.569451
0
LINE
8
Layer 1
10
199.984349
20
-9.569451
11
196.376286
21
-11.475007
0
LINE
8
Layer 1
10
196.376286
20
-11.475007
11
192.777120
21
-13.156533
0
LINE
8
Layer 1
10
192.777120
20
-13.156533
11
189.134169
21
-14.620696
0
LINE
8
Layer 1
10
189.134169
20
-14.620696
11
185.394753
21
-15.874164
0
LINE
8
Layer 1
10
185.394753
20
-15.874164
11
181.506192
21
-16.923606
0
LINE
8
Layer 1
10
181.506192
20
-16.923606
11
177.415804
21
-17.775688
0
LINE
8
Layer 1
10
177.415804
20
-17.775688
11
173.070909
21
-18.437079
0
LINE
8
Layer 1
10
173.070909
20
-18.437079
11
168.418827
21
-18.914447
0
LINE
8
Layer 1
10
168.418827
20
-18.914447
11
163.406876
21
-19.214459
0
LINE
8
Layer 1
10
163.406876
20
-19.214459
11
157.982376
21
-19.343784
0
LINE
8
Layer 1
10
157.982376
20
-19.343784
11
152.092646
21
-19.309089
0
LINE
8
Layer 1
10
152.092646
20
-19.309089
11
138.706775
21
-18.774311
0
LINE
8
Layer 1
10
138.706775
20
-18.774311
11
122.827816
21
-17.663469
0
LINE
8
Layer 1
10
122.827816
20
-17.663469
11
108.958624
21
-16.689362
0
LINE
8
Layer 1
10
108.958624
20
-16.689362
11
96.251383
21
-16.041245
0
LINE
8
Layer 1
10
96.251383
20
-16.041245
11
86.113005
21
-15.775404
0
LINE
8
Layer 1
10
86.113005
20
-15.775404
11
82.446800
21
-15.803425
0
LINE
8
Layer 1
10
82.446800
20
-15.803425
11
79.950403
21
-15.948122
0
LINE
8
Layer 1
10
79.950403
20
-15.948122
11
74.592978
21
-16.644484
0
LINE
8
Layer 1
10
74.592978
20
-16.644484
11
68.205152
21
-17.641151
0
LINE
8
Layer 1
10
68.205152
20
-17.641151
11
53.690242
21
-20.271852
0
LINE
8
Layer 1
10
53.690242
20
-20.271852
11
39.109560
21
-23.313122
0
LINE
8
Layer 1
10
39.109560
20
-23.313122
11
32.639520
21
-24.823002
0
LINE
8
Layer 1
10
32.639520
20
-24.823002
11
27.166996
21
-26.237860
0
LINE
8
Layer 1
10
27.166996
20
-26.237860
11
19.164013
21
-28.366680
0
LINE
8
Layer 1
10
19.164013
20
-28.366680
11
16.751692
21
-28.892287
0
LINE
8
Layer 1
10
16.751692
20
-28.892287
11
15.294420
21
-29.057017
0
LINE
8
Layer 1
10
15.294420
20
-29.057017
11
14.899459
21
-29.003661
0
LINE
8
Layer 1
10
14.899459
20
-29.003661
11
14.713898
21
-28.859615
0
LINE
8
Layer 1
10
14.713898
20
-28.859615
11
14.931829
21
-28.298828
0
LINE
8
Layer 1
10
14.931829
20
-28.298828
11
15.869913
21
-27.373399
0
LINE
8
Layer 1
10
15.869913
20
-27.373399
11
17.449853
21
-26.082073
0
LINE
8
Layer 1
10
17.449853
20
-26.082073
11
17.449853
21
-26.082073
0
LINE
8
Layer 1
10
181.717843
20
-10.263236
11
184.085865
21
-9.469910
0
LINE
8
Layer 1
10
184.085865
20
-9.469910
11
186.169239
21
-8.282112
0
LINE
8
Layer 1
10
186.169239
20
-8.282112
11
188.042983
21
-6.580945
0
LINE
8
Layer 1
10
188.042983
20
-6.580945
11
189.782117
21
-4.247517
0
LINE
8
Layer 1
10
189.782117
20
-4.247517
11
191.461662
21
-1.162933
0
LINE
8
Layer 1
10
191.461662
20
-1.162933
11
193.156638
21
2.791702
0
LINE
8
Layer 1
10
193.156638
20
2.791702
11
194.942063
21
7.735281
0
LINE
8
Layer 1
10
194.942063
20
7.735281
11
196.892960
21
13.786698
0
LINE
8
Layer 1
10
196.892960
20
13.786698
11
198.669410
21
20.208286
0
LINE
8
Layer 1
10
198.669410
20
20.208286
11
200.003815
21
26.560152
0
LINE
8
Layer 1
10
200.003815
20
26.560152
11
200.895043
21
32.811819
0
LINE
8
Layer 1
10
200.895043
20
32.811819
11
201.341964
21
38.932809
0
LINE
8
Layer 1
10
201.341964
20
38.932809
11
201.343447
21
44.892643
0
LINE
8
Layer 1
10
201.343447
20
44.892643
11
200.898361
21
50.660844
0
LINE
8
Layer 1
10
200.898361
20
50.660844
11
200.005576
21
56.206934
0
LINE
8
Layer 1
10
200.005576
20
56.206934
11
198.663961
21
61.500434
0
LINE
8
Layer 1
10
198.663961
20
61.500434
11
196.733900
21
67.563055
0
LINE
8
Layer 1
10
196.733900
20
67.563055
11
194.808894
21
72.993931
0
LINE
8
Layer 1
10
194.808894
20
72.993931
11
192.851759
21
77.867956
0
LINE
8
Layer 1
10
192.851759
20
77.867956
11
190.825308
21
82.260020
0
LINE
8
Layer 1
10
190.825308
20
82.260020
11
188.692356
21
86.245016
0
LINE
8
Layer 1
10
188.692356
20
86.245016
11
186.415719
21
89.897837
0
LINE
8
Layer 1
10
186.415719
20
89.897837
11
183.958210
21
93.293373
0
LINE
8
Layer 1
10
183.958210
20
93.293373
11
181.282645
21
96.506517
0
LINE
8
Layer 1
10
181.282645
20
96.506517
11
178.638925
21
99.301767
0
LINE
8
Layer 1
10
178.638925
20
99.301767
11
175.772133
21
102.021480
0
LINE
8
Layer 1
10
175.772133
20
102.021480
11
172.806199
21
104.574066
0
LINE
8
Layer 1
10
172.806199
20
104.574066
11
169.865054
21
106.867932
0
LINE
8
Layer 1
10
169.865054
20
106.867932
11
167.072626
21
108.811487
0
LINE
8
Layer 1
10
167.072626
20
108.811487
11
164.552846
21
110.313139
0
LINE
8
Layer 1
10
164.552846
20
110.313139
11
162.429644
21
111.281298
0
LINE
8
Layer 1
10
162.429644
20
111.281298
11
160.826950
21
111.624371
0
LINE
8
Layer 1
10
160.826950
20
111.624371
11
159.564145
21
111.207271
0
LINE
8
Layer 1
10
159.564145
20
111.207271
11
157.440267
21
110.071602
0
LINE
8
Layer 1
10
157.440267
20
110.071602
11
154.751689
21
108.390812
0
LINE
8
Layer 1
10
154.751689
20
108.390812
11
151.794780
21
106.338349
0
LINE
8
Layer 1
10
151.794780
20
106.338349
11
146.877266
21
103.014177
0
LINE
8
Layer 1
10
146.877266
20
103.014177
11
141.406713
21
99.776549
0
LINE
8
Layer 1
10
141.406713
20
99.776549
11
135.533766
21
96.691878
0
LINE
8
Layer 1
10
135.533766
20
96.691878
11
129.409068
21
93.826577
0
LINE
8
Layer 1
10
129.409068
20
93.826577
11
123.183265
21
91.247057
0
LINE
8
Layer 1
10
123.183265
20
91.247057
11
117.007000
21
89.019732
0
LINE
8
Layer 1
10
117.007000
20
89.019732
11
111.030920
21
87.211013
0
LINE
8
Layer 1
10
111.030920
20
87.211013
11
105.405668
21
85.887313
0
LINE
8
Layer 1
10
105.405668
20
85.887313
11
103.669861
21
85.651690
0
LINE
8
Layer 1
10
103.669861
20
85.651690
11
101.463537
21
85.519335
0
LINE
8
Layer 1
10
101.463537
20
85.519335
11
95.922990
21
85.535393
0
LINE
8
Layer 1
10
95.922990
20
85.535393
11
89.351335
21
85.877420
0
LINE
8
Layer 1
10
89.351335
20
85.877420
11
82.315877
21
86.487346
0
LINE
8
Layer 1
10
82.315877
20
86.487346
11
75.383924
21
87.307102
0
LINE
8
Layer 1
10
75.383924
20
87.307102
11
69.122782
21
88.278620
0
LINE
8
Layer 1
10
69.122782
20
88.278620
11
64.099757
21
89.343831
0
LINE
8
Layer 1
10
64.099757
20
89.343831
11
62.229823
21
89.893424
0
LINE
8
Layer 1
10
62.229823
20
89.893424
11
60.882157
21
90.444666
0
LINE
8
Layer 1
10
60.882157
20
90.444666
11
58.554620
21
91.498699
0
LINE
8
Layer 1
10
58.554620
20
91.498699
11
56.651097
21
92.038897
0
LINE
8
Layer 1
10
56.651097
20
92.038897
11
55.191172
21
92.061971
0
LINE
8
Layer 1
10
55.191172
20
92.061971
11
54.633678
21
91.878560
0
LINE
8
Layer 1
10
54.633678
20
91.878560
11
54.194428
21
91.564636
0
LINE
8
Layer 1
10
54.194428
20
91.564636
11
53.954499
21
91.139603
0
LINE
8
Layer 1
10
53.954499
20
91.139603
11
53.991939
21
90.624532
0
LINE
8
Layer 1
10
53.991939
20
90.624532
11
54.304653
21
90.021548
0
LINE
8
Layer 1
10
54.304653
20
90.021548
11
54.890542
21
89.332777
0
LINE
8
Layer 1
10
54.890542
20
89.332777
11
56.873458
21
87.706372
0
LINE
8
Layer 1
10
56.873458
20
87.706372
11
59.923911
21
85.762317
0
LINE
8
Layer 1
10
59.923911
20
85.762317
11
62.876360
21
83.945527
0
LINE
8
Layer 1
10
62.876360
20
83.945527
11
64.902889
21
82.517781
0
LINE
8
Layer 1
10
64.902889
20
82.517781
11
66.017017
21
81.500419
0
LINE
8
Layer 1
10
66.017017
20
81.500419
11
66.236153
21
81.152302
0
LINE
8
Layer 1
10
66.236153
20
81.152302
11
66.232258
21
80.914783
0
LINE
8
Layer 1
10
66.232258
20
80.914783
11
66.007021
21
80.790532
0
LINE
8
Layer 1
10
66.007021
20
80.790532
11
65.562130
21
80.782215
0
LINE
8
Layer 1
10
65.562130
20
80.782215
11
64.020150
21
81.124054
0
LINE
8
Layer 1
10
64.020150
20
81.124054
11
61.619832
21
81.961644
0
LINE
8
Layer 1
10
61.619832
20
81.961644
11
58.374695
21
83.316325
0
LINE
8
Layer 1
10
58.374695
20
83.316325
11
52.694578
21
85.619840
0
LINE
8
Layer 1
10
52.694578
20
85.619840
11
50.598824
21
86.320577
0
LINE
8
Layer 1
10
50.598824
20
86.320577
11
49.392259
21
86.577939
0
LINE
8
Layer 1
10
49.392259
20
86.577939
11
49.009815
21
86.506125
0
LINE
8
Layer 1
10
49.009815
20
86.506125
11
48.825727
21
86.299821
0
LINE
8
Layer 1
10
48.825727
20
86.299821
11
48.996540
21
85.538569
0
LINE
8
Layer 1
10
48.996540
20
85.538569
11
49.792537
21
84.403832
0
LINE
8
Layer 1
10
49.792537
20
84.403832
11
51.101558
21
83.005263
0
LINE
8
Layer 1
10
51.101558
20
83.005263
11
52.811440
21
81.452512
0
LINE
8
Layer 1
10
52.811440
20
81.452512
11
54.810023
21
79.855230
0
LINE
8
Layer 1
10
54.810023
20
79.855230
11
56.985145
21
78.323067
0
LINE
8
Layer 1
10
56.985145
20
78.323067
11
59.224647
21
76.965676
0
LINE
8
Layer 1
10
59.224647
20
76.965676
11
64.705199
21
73.940113
0
LINE
8
Layer 1
10
64.705199
20
73.940113
11
55.458724
21
74.923403
0
LINE
8
Layer 1
10
55.458724
20
74.923403
11
48.195768
21
75.891781
0
LINE
8
Layer 1
10
48.195768
20
75.891781
11
45.416195
21
76.399536
0
LINE
8
Layer 1
10
45.416195
20
76.399536
11
43.718206
21
76.839184
0
LINE
8
Layer 1
10
43.718206
20
76.839184
11
42.172244
21
77.245480
0
LINE
8
Layer 1
10
42.172244
20
77.245480
11
41.830686
21
77.175240
0
LINE
8
Layer 1
10
41.830686
20
77.175240
11
41.746489
21
76.948906
0
LINE
8
Layer 1
10
41.746489
20
76.948906
11
42.259420
21
76.106444
0
LINE
8
Layer 1
10
42.259420
20
76.106444
11
43.529517
21
74.875079
0
LINE
8
Layer 1
10
43.529517
20
74.875079
11
45.375261
21
73.411794
0
LINE
8
Layer 1
10
45.375261
20
73.411794
11
47.615129
21
71.873571
0
LINE
8
Layer 1
10
47.615129
20
71.873571
11
50.067603
21
70.417394
0
LINE
8
Layer 1
10
50.067603
20
70.417394
11
52.551161
21
69.200247
0
LINE
8
Layer 1
10
52.551161
20
69.200247
11
57.265472
21
67.009303
0
LINE
8
Layer 1
10
57.265472
20
67.009303
11
58.699580
21
66.210385
0
LINE
8
Layer 1
10
58.699580
20
66.210385
11
59.226289
21
65.759704
0
LINE
8
Layer 1
10
59.226289
20
65.759704
11
58.417807
21
65.639079
0
LINE
8
Layer 1
10
58.417807
20
65.639079
11
56.262171
21
65.756424
0
LINE
8
Layer 1
10
56.262171
20
65.756424
11
49.528283
21
66.496269
0
LINE
8
Layer 1
10
49.528283
20
66.496269
11
42.262326
21
67.561731
0
LINE
8
Layer 1
10
42.262326
20
67.561731
11
39.441604
21
68.086097
0
LINE
8
Layer 1
10
39.441604
20
68.086097
11
37.702002
21
68.535303
0
LINE
8
Layer 1
10
37.702002
20
68.535303
11
36.274080
21
68.953046
0
LINE
8
Layer 1
10
36.274080
20
68.953046
11
35.608660
21
68.885449
0
LINE
8
Layer 1
10
35.608660
20
68.885449
11
35.547955
21
68.684033
0
LINE
8
Layer 1
10
35.547955
20
68.684033
11
35.661154
21
68.378543
0
LINE
8
Layer 1
10
35.661154
20
68.378543
11
36.386972
21
67.478360
0
LINE
8
Layer 1
10
36.386972
20
67.478360
11
37.741526
21
66.230929
0
LINE
8
Layer 1
10
37.741526
20
66.230929
11
39.680224
21
64.682282
0
LINE
8
Layer 1
10
39.680224
20
64.682282
11
45.131702
21
60.865463
0
LINE
8
Layer 1
10
45.131702
20
60.865463
11
51.617567
21
56.393323
0
LINE
8
Layer 1
10
51.617567
20
56.393323
11
53.487633
21
54.929915
0
LINE
8
Layer 1
10
53.487633
20
54.929915
11
54.052179
21
54.270155
0
LINE
8
Layer 1
10
54.052179
20
54.270155
11
53.203687
21
54.274549
0
LINE
8
Layer 1
10
53.203687
20
54.274549
11
51.226374
21
54.619444
0
LINE
8
Layer 1
10
51.226374
20
54.619444
11
45.064875
21
56.091645
0
LINE
8
Layer 1
10
45.064875
20
56.091645
11
38.475303
21
57.701621
0
LINE
8
Layer 1
10
38.475303
20
57.701621
11
34.620335
21
58.382105
0
LINE
8
Layer 1
10
34.620335
20
58.382105
11
33.463553
21
58.181927
0
LINE
8
Layer 1
10
33.463553
20
58.181927
11
33.164590
21
57.932925
0
LINE
8
Layer 1
10
33.164590
20
57.932925
11
33.041773
21
57.595759
0
LINE
8
Layer 1
10
33.041773
20
57.595759
11
33.294152
21
56.690266
0
LINE
8
Layer 1
10
33.294152
20
56.690266
11
34.159844
21
55.532112
0
LINE
8
Layer 1
10
34.159844
20
55.532112
11
35.578006
21
54.187960
0
LINE
8
Layer 1
10
35.578006
20
54.187960
11
37.487792
21
52.724477
0
LINE
8
Layer 1
10
37.487792
20
52.724477
11
39.828359
21
51.208325
0
LINE
8
Layer 1
10
39.828359
20
51.208325
11
42.538862
21
49.706170
0
LINE
8
Layer 1
10
42.538862
20
49.706170
11
50.616575
21
45.568002
0
LINE
8
Layer 1
10
50.616575
20
45.568002
11
40.050108
21
46.325148
0
LINE
8
Layer 1
10
40.050108
20
46.325148
11
35.947345
21
46.523412
0
LINE
8
Layer 1
10
35.947345
20
46.523412
11
32.587537
21
46.503505
0
LINE
8
Layer 1
10
32.587537
20
46.503505
11
30.317397
21
46.280388
0
LINE
8
Layer 1
10
30.317397
20
46.280388
11
29.699300
21
46.097301
0
LINE
8
Layer 1
10
29.699300
20
46.097301
11
29.483637
21
45.869020
0
LINE
8
Layer 1
10
29.483637
20
45.869020
11
29.693213
21
45.551299
0
LINE
8
Layer 1
10
29.693213
20
45.551299
11
30.293863
21
45.111872
0
LINE
8
Layer 1
10
30.293863
20
45.111872
11
32.499924
21
43.947274
0
LINE
8
Layer 1
10
32.499924
20
43.947274
11
35.764895
21
42.533973
0
LINE
8
Layer 1
10
35.764895
20
42.533973
11
39.751849
21
41.030715
0
LINE
8
Layer 1
10
39.751849
20
41.030715
11
45.081672
21
39.065402
0
LINE
8
Layer 1
10
45.081672
20
39.065402
11
46.701470
21
38.358208
0
LINE
8
Layer 1
10
46.701470
20
38.358208
11
47.693042
21
37.783184
0
LINE
8
Layer 1
10
47.693042
20
37.783184
11
48.107775
21
37.301728
0
LINE
8
Layer 1
10
48.107775
20
37.301728
11
47.997057
21
36.875236
0
LINE
8
Layer 1
10
47.997057
20
36.875236
11
47.412273
21
36.465104
0
LINE
8
Layer 1
10
47.412273
20
36.465104
11
46.404812
21
36.032729
0
LINE
8
Layer 1
10
46.404812
20
36.032729
11
44.414357
21
35.553507
0
LINE
8
Layer 1
10
44.414357
20
35.553507
11
41.667314
21
35.263649
0
LINE
8
Layer 1
10
41.667314
20
35.263649
11
38.526293
21
35.185802
0
LINE
8
Layer 1
10
38.526293
20
35.185802
11
35.353899
21
35.342611
0
LINE
8
Layer 1
10
35.353899
20
35.342611
11
32.466770
21
35.511332
0
LINE
8
Layer 1
10
32.466770
20
35.511332
11
30.102460
21
35.465921
0
LINE
8
Layer 1
10
30.102460
20
35.465921
11
28.504953
21
35.224073
0
LINE
8
Layer 1
10
28.504953
20
35.224073
11
28.069995
21
35.035014
0
LINE
8
Layer 1
10
28.069995
20
35.035014
11
27.918232
21
34.803482
0
LINE
8
Layer 1
10
27.918232
20
34.803482
11
28.284701
21
33.810805
0
LINE
8
Layer 1
10
28.284701
20
33.810805
11
29.305876
21
32.602247
0
LINE
8
Layer 1
10
29.305876
20
32.602247
11
30.864408
21
31.254993
0
LINE
8
Layer 1
10
30.864408
20
31.254993
11
32.842945
21
29.846231
0
LINE
8
Layer 1
10
32.842945
20
29.846231
11
35.124140
21
28.453147
0
LINE
8
Layer 1
10
35.124140
20
28.453147
11
37.590641
21
27.152927
0
LINE
8
Layer 1
10
37.590641
20
27.152927
11
40.125099
21
26.022758
0
LINE
8
Layer 1
10
40.125099
20
26.022758
11
42.610165
21
25.139826
0
LINE
8
Layer 1
10
42.610165
20
25.139826
11
49.051170
21
23.188373
0
LINE
8
Layer 1
10
49.051170
20
23.188373
11
39.658756
21
21.550693
0
LINE
8
Layer 1
10
39.658756
20
21.550693
11
30.266341
21
19.913043
0
LINE
8
Layer 1
10
30.266341
20
19.913043
11
34.588746
21
17.049672
0
LINE
8
Layer 1
10
34.588746
20
17.049672
11
37.099435
21
15.718389
0
LINE
8
Layer 1
10
37.099435
20
15.718389
11
40.740195
21
14.210271
0
LINE
8
Layer 1
10
40.740195
20
14.210271
11
45.023062
21
12.710550
0
LINE
8
Layer 1
10
45.023062
20
12.710550
11
49.460071
21
11.404460
0
LINE
8
Layer 1
10
49.460071
20
11.404460
11
60.008990
21
8.622624
0
LINE
8
Layer 1
10
60.008990
20
8.622624
11
49.833874
21
7.422530
0
LINE
8
Layer 1
10
49.833874
20
7.422530
11
44.091820
21
6.700223
0
LINE
8
Layer 1
10
44.091820
20
6.700223
11
42.467870
21
6.408984
0
LINE
8
Layer 1
10
42.467870
20
6.408984
11
41.593175
21
6.116120
0
LINE
8
Layer 1
10
41.593175
20
6.116120
11
41.417548
21
5.957775
0
LINE
8
Layer 1
10
41.417548
20
5.957775
11
41.406136
21
5.785457
0
LINE
8
Layer 1
10
41.406136
20
5.785457
11
41.845153
21
5.380819
0
LINE
8
Layer 1
10
41.845153
20
5.380819
11
44.354964
21
4.204915
0
LINE
8
Layer 1
10
44.354964
20
4.204915
11
46.710665
21
3.415975
0
LINE
8
Layer 1
10
46.710665
20
3.415975
11
49.653109
21
2.759295
0
LINE
8
Layer 1
10
49.653109
20
2.759295
11
52.806870
21
2.303392
0
LINE
8
Layer 1
10
52.806870
20
2.303392
11
55.796524
21
2.116781
0
LINE
8
Layer 1
10
55.796524
20
2.116781
11
58.504174
21
1.976374
0
LINE
8
Layer 1
10
58.504174
20
1.976374
11
60.436181
21
1.638076
0
LINE
8
Layer 1
10
60.436181
20
1.638076
11
61.492826
21
1.130126
0
LINE
8
Layer 1
10
61.492826
20
1.130126
11
61.661726
21
0.821357
0
LINE
8
Layer 1
10
61.661726
20
0.821357
11
61.574392
21
0.480767
0
LINE
8
Layer 1
10
61.574392
20
0.480767
11
61.199817
21
0.166309
0
LINE
8
Layer 1
10
61.199817
20
0.166309
11
60.501965
21
-0.127051
0
LINE
8
Layer 1
10
60.501965
20
-0.127051
11
58.297180
21
-0.624800
0
LINE
8
Layer 1
10
58.297180
20
-0.624800
11
55.281529
21
-0.961116
0
LINE
8
Layer 1
10
55.281529
20
-0.961116
11
51.776506
21
-1.084635
0
LINE
8
Layer 1
10
51.776506
20
-1.084635
11
48.735060
21
-1.185951
0
LINE
8
Layer 1
10
48.735060
20
-1.185951
11
46.495844
21
-1.463899
0
LINE
8
Layer 1
10
46.495844
20
-1.463899
11
45.071522
21
-1.879479
0
LINE
8
Layer 1
10
45.071522
20
-1.879479
11
44.668904
21
-2.126692
0
LINE
8
Layer 1
10
44.668904
20
-2.126692
11
44.474759
21
-2.393688
0
LINE
8
Layer 1
10
44.474759
20
-2.393688
11
44.490669
21
-2.675591
0
LINE
8
Layer 1
10
44.490669
20
-2.675591
11
44.718218
21
-2.967526
0
LINE
8
Layer 1
10
44.718218
20
-2.967526
11
45.814565
21
-3.561992
0
LINE
8
Layer 1
10
45.814565
20
-3.561992
11
47.776462
21
-4.138086
0
LINE
8
Layer 1
10
47.776462
20
-4.138086
11
50.616575
21
-4.656806
0
LINE
8
Layer 1
10
50.616575
20
-4.656806
11
53.144376
21
-5.063790
0
LINE
8
Layer 1
10
53.144376
20
-5.063790
11
54.113588
21
-5.414478
0
LINE
8
Layer 1
10
54.113588
20
-5.414478
11
54.041097
21
-5.615198
0
LINE
8
Layer 1
10
54.041097
20
-5.615198
11
53.611805
21
-5.857627
0
LINE
8
Layer 1
10
53.611805
20
-5.857627
11
51.726617
21
-6.541994
0
LINE
8
Layer 1
10
51.726617
20
-6.541994
11
49.936021
21
-7.307631
0
LINE
8
Layer 1
10
49.936021
20
-7.307631
11
48.894864
21
-8.104016
0
LINE
8
Layer 1
10
48.894864
20
-8.104016
11
48.639094
21
-8.496714
0
LINE
8
Layer 1
10
48.639094
20
-8.496714
11
48.551209
21
-8.876668
0
LINE
8
Layer 1
10
48.551209
20
-8.876668
11
48.624715
21
-9.237068
0
LINE
8
Layer 1
10
48.624715
20
-9.237068
11
48.853121
21
-9.571103
0
LINE
8
Layer 1
10
48.853121
20
-9.571103
11
49.748665
21
-10.132841
0
LINE
8
Layer 1
10
49.748665
20
-10.132841
11
51.185905
21
-10.507399
0
LINE
8
Layer 1
10
51.185905
20
-10.507399
11
53.112905
21
-10.640295
0
LINE
8
Layer 1
10
53.112905
20
-10.640295
11
55.477729
21
-10.477047
0
LINE
8
Layer 1
10
55.477729
20
-10.477047
11
61.443019
21
-10.067296
0
LINE
8
Layer 1
10
61.443019
20
-10.067296
11
70.781149
21
-9.839567
0
LINE
8
Layer 1
10
70.781149
20
-9.839567
11
82.460064
21
-9.780658
0
LINE
8
Layer 1
10
82.460064
20
-9.780658
11
95.447710
21
-9.877367
0
LINE
8
Layer 1
10
95.447710
20
-9.877367
11
108.712033
21
-10.116491
0
LINE
8
Layer 1
10
108.712033
20
-10.116491
11
121.220980
21
-10.484826
0
LINE
8
Layer 1
10
121.220980
20
-10.484826
11
131.942495
21
-10.969170
0
LINE
8
Layer 1
10
131.942495
20
-10.969170
11
139.844526
21
-11.556321
0
LINE
8
Layer 1
10
139.844526
20
-11.556321
11
145.929731
21
-12.087516
0
LINE
8
Layer 1
10
145.929731
20
-12.087516
11
151.883968
21
-12.417294
0
LINE
8
Layer 1
10
151.883968
20
-12.417294
11
157.651144
21
-12.547388
0
LINE
8
Layer 1
10
157.651144
20
-12.547388
11
163.175165
21
-12.479530
0
LINE
8
Layer 1
10
163.175165
20
-12.479530
11
168.399939
21
-12.215453
0
LINE
8
Layer 1
10
168.399939
20
-12.215453
11
173.269371
21
-11.756890
0
LINE
8
Layer 1
10
173.269371
20
-11.756890
11
177.727371
21
-11.105573
0
LINE
8
Layer 1
10
177.727371
20
-11.105573
11
181.717843
21
-10.263236
0
LINE
8
Layer 1
10
181.717843
20
-10.263236
11
181.717843
21
-10.263236
0
LINE
8
Layer 1
10
119.218467
20
94.326068
11
124.225301
21
95.948330
0
LINE
8
Layer 1
10
124.225301
20
95.948330
11
129.358909
21
97.959335
0
LINE
8
Layer 1
10
129.358909
20
97.959335
11
134.456335
21
100.269904
0
LINE
8
Layer 1
10
134.456335
20
100.269904
11
139.354622
21
102.790858
0
LINE
8
Layer 1
10
139.354622
20
102.790858
11
143.890816
21
105.433017
0
LINE
8
Layer 1
10
143.890816
20
105.433017
11
147.901961
21
108.107203
0
LINE
8
Layer 1
10
147.901961
20
108.107203
11
151.225099
21
110.724236
0
LINE
8
Layer 1
10
151.225099
20
110.724236
11
153.697277
21
113.194938
0
LINE
8
Layer 1
10
153.697277
20
113.194938
11
154.933225
21
114.855569
0
LINE
8
Layer 1
10
154.933225
20
114.855569
11
156.013988
21
116.710396
0
LINE
8
Layer 1
10
156.013988
20
116.710396
11
156.939388
21
118.751765
0
LINE
8
Layer 1
10
156.939388
20
118.751765
11
157.709250
21
120.972024
0
LINE
8
Layer 1
10
157.709250
20
120.972024
11
158.323394
21
123.363521
0
LINE
8
Layer 1
10
158.323394
20
123.363521
11
158.781646
21
125.918603
0
LINE
8
Layer 1
10
158.781646
20
125.918603
11
159.083828
21
128.629618
0
LINE
8
Layer 1
10
159.083828
20
128.629618
11
159.229763
21
131.488914
0
LINE
8
Layer 1
10
159.229763
20
131.488914
11
159.219273
21
134.488837
0
LINE
8
Layer 1
10
159.219273
20
134.488837
11
159.052183
21
137.621736
0
LINE
8
Layer 1
10
159.052183
20
137.621736
11
158.247493
21
144.255852
0
LINE
8
Layer 1
10
158.247493
20
144.255852
11
156.814277
21
151.330040
0
LINE
8
Layer 1
10
156.814277
20
151.330040
11
154.751120
21
158.783083
0
LINE
8
Layer 1
10
154.751120
20
158.783083
11
153.153909
21
163.571939
0
LINE
8
Layer 1
10
153.153909
20
163.571939
11
151.556747
21
167.696316
0
LINE
8
Layer 1
10
151.556747
20
167.696316
11
149.954444
21
171.164217
0
LINE
8
Layer 1
10
149.954444
20
171.164217
11
148.341811
21
173.983645
0
LINE
8
Layer 1
10
148.341811
20
173.983645
11
146.713660
21
176.162603
0
LINE
8
Layer 1
10
146.713660
20
176.162603
11
145.064801
21
177.709093
0
LINE
8
Layer 1
10
145.064801
20
177.709093
11
143.390045
21
178.631119
0
LINE
8
Layer 1
10
143.390045
20
178.631119
11
142.541334
21
178.860458
0
LINE
8
Layer 1
10
142.541334
20
178.860458
11
141.684203
21
178.936682
0
LINE
8
Layer 1
10
141.684203
20
178.936682
11
139.981541
21
178.686523
0
LINE
8
Layer 1
10
139.981541
20
178.686523
11
138.490358
21
177.947066
0
LINE
8
Layer 1
10
138.490358
20
177.947066
11
137.233928
21
176.734839
0
LINE
8
Layer 1
10
137.233928
20
176.734839
11
136.235522
21
175.066374
0
LINE
8
Layer 1
10
136.235522
20
175.066374
11
135.203043
21
173.443171
0
LINE
8
Layer 1
10
135.203043
20
173.443171
11
133.738799
21
172.017757
0
LINE
8
Layer 1
10
133.738799
20
172.017757
11
131.992534
21
170.908367
0
LINE
8
Layer 1
10
131.992534
20
170.908367
11
130.113998
21
170.233234
0
LINE
8
Layer 1
10
130.113998
20
170.233234
11
126.013555
21
169.327869
0
LINE
8
Layer 1
10
126.013555
20
169.327869
11
122.982335
21
168.547716
0
LINE
8
Layer 1
10
122.982335
20
168.547716
11
120.865163
21
167.690389
0
LINE
8
Layer 1
10
120.865163
20
167.690389
11
120.100853
21
167.169542
0
LINE
8
Layer 1
10
120.100853
20
167.169542
11
119.506864
21
166.553508
0
LINE
8
Layer 1
10
119.506864
20
166.553508
11
119.063800
21
165.816989
0
LINE
8
Layer 1
10
119.063800
20
165.816989
11
118.752263
21
164.934688
0
LINE
8
Layer 1
10
118.752263
20
164.934688
11
118.446186
21
162.631546
0
LINE
8
Layer 1
10
118.446186
20
162.631546
11
118.433456
21
159.441699
0
LINE
8
Layer 1
10
118.433456
20
159.441699
11
118.558900
21
155.162765
0
LINE
8
Layer 1
10
118.558900
20
155.162765
11
118.579540
21
150.573451
0
LINE
8
Layer 1
10
118.579540
20
150.573451
11
118.339699
21
146.442327
0
LINE
8
Layer 1
10
118.339699
20
146.442327
11
117.811548
21
142.676137
0
LINE
8
Layer 1
10
117.811548
20
142.676137
11
116.967254
21
139.181625
0
LINE
8
Layer 1
10
116.967254
20
139.181625
11
115.778986
21
135.865533
0
LINE
8
Layer 1
10
115.778986
20
135.865533
11
114.218913
21
132.634604
0
LINE
8
Layer 1
10
114.218913
20
132.634604
11
112.259203
21
129.395583
0
LINE
8
Layer 1
10
112.259203
20
129.395583
11
109.872026
21
126.055212
0
LINE
8
Layer 1
10
109.872026
20
126.055212
11
108.293050
21
124.229084
0
LINE
8
Layer 1
10
108.293050
20
124.229084
11
106.464646
21
122.542529
0
LINE
8
Layer 1
10
106.464646
20
122.542529
11
104.416464
21
121.002245
0
LINE
8
Layer 1
10
104.416464
20
121.002245
11
102.178152
21
119.614929
0
LINE
8
Layer 1
10
102.178152
20
119.614929
11
99.779359
21
118.387281
0
LINE
8
Layer 1
10
99.779359
20
118.387281
11
97.249734
21
117.325997
0
LINE
8
Layer 1
10
97.249734
20
117.325997
11
94.618925
21
116.437777
0
LINE
8
Layer 1
10
94.618925
20
116.437777
11
91.916582
21
115.729318
0
LINE
8
Layer 1
10
91.916582
20
115.729318
11
89.172352
21
115.207318
0
LINE
8
Layer 1
10
89.172352
20
115.207318
11
86.415884
21
114.878477
0
LINE
8
Layer 1
10
86.415884
20
114.878477
11
83.676828
21
114.749491
0
LINE
8
Layer 1
10
83.676828
20
114.749491
11
80.984832
21
114.827058
0
LINE
8
Layer 1
10
80.984832
20
114.827058
11
78.369544
21
115.117878
0
LINE
8
Layer 1
10
78.369544
20
115.117878
11
75.860614
21
115.628648
0
LINE
8
Layer 1
10
75.860614
20
115.628648
11
73.487690
21
116.366066
0
LINE
8
Layer 1
10
73.487690
20
116.366066
11
71.280421
21
117.336831
0
LINE
8
Layer 1
10
71.280421
20
117.336831
11
68.812647
21
118.796194
0
LINE
8
Layer 1
10
68.812647
20
118.796194
11
65.898306
21
120.823153
0
LINE
8
Layer 1
10
65.898306
20
120.823153
11
62.704739
21
123.274647
0
LINE
8
Layer 1
10
62.704739
20
123.274647
11
59.399288
21
126.007611
0
LINE
8
Layer 1
10
59.399288
20
126.007611
11
53.122104
21
131.745699
0
LINE
8
Layer 1
10
53.122104
20
131.745699
11
50.485055
21
134.464697
0
LINE
8
Layer 1
10
50.485055
20
134.464697
11
48.405491
21
136.892912
0
LINE
8
Layer 1
10
48.405491
20
136.892912
11
45.176705
21
141.028512
0
LINE
8
Layer 1
10
45.176705
20
141.028512
11
51.027446
21
139.692500
0
LINE
8
Layer 1
10
51.027446
20
139.692500
11
55.236008
21
139.011754
0
LINE
8
Layer 1
10
55.236008
20
139.011754
11
59.430090
21
138.876674
0
LINE
8
Layer 1
10
59.430090
20
138.876674
11
63.557608
21
139.271864
0
LINE
8
Layer 1
10
63.557608
20
139.271864
11
67.566472
21
140.181926
0
LINE
8
Layer 1
10
67.566472
20
140.181926
11
71.404598
21
141.591462
0
LINE
8
Layer 1
10
71.404598
20
141.591462
11
75.019897
21
143.485073
0
LINE
8
Layer 1
10
75.019897
20
143.485073
11
78.360283
21
145.847363
0
LINE
8
Layer 1
10
78.360283
20
145.847363
11
81.373670
21
148.662933
0
LINE
8
Layer 1
10
81.373670
20
148.662933
11
84.860062
21
152.908030
0
LINE
8
Layer 1
10
84.860062
20
152.908030
11
88.341320
21
157.909084
0
LINE
8
Layer 1
10
88.341320
20
157.909084
11
91.018808
21
162.431178
0
LINE
8
Layer 1
10
91.018808
20
162.431178
11
91.806564
21
164.126704
0
LINE
8
Layer 1
10
91.806564
20
164.126704
11
92.093889
21
165.239397
0
LINE
8
Layer 1
10
92.093889
20
165.239397
11
91.879193
21
165.475247
0
LINE
8
Layer 1
10
91.879193
20
165.475247
11
91.261590
21
165.695272
0
LINE
8
Layer 1
10
91.261590
20
165.695272
11
88.991092
21
166.068590
0
LINE
8
Layer 1
10
88.991092
20
166.068590
11
85.629257
21
166.320829
0
LINE
8
Layer 1
10
85.629257
20
166.320829
11
81.522945
21
166.413469
0
LINE
8
Layer 1
10
81.522945
20
166.413469
11
77.015547
21
166.528368
0
LINE
8
Layer 1
10
77.015547
20
166.528368
11
72.561645
21
166.841209
0
LINE
8
Layer 1
10
72.561645
20
166.841209
11
68.674886
21
167.304211
0
LINE
8
Layer 1
10
68.674886
20
167.304211
11
65.868920
21
167.869595
0
LINE
8
Layer 1
10
65.868920
20
167.869595
11
63.635730
21
168.409223
0
LINE
8
Layer 1
10
63.635730
20
168.409223
11
62.050418
21
168.559674
0
LINE
8
Layer 1
10
62.050418
20
168.559674
11
61.105050
21
168.320663
0
LINE
8
Layer 1
10
61.105050
20
168.320663
11
60.869866
21
168.055021
0
LINE
8
Layer 1
10
60.869866
20
168.055021
11
60.791691
21
167.691908
0
LINE
8
Layer 1
10
60.791691
20
167.691908
11
60.568207
21
167.179308
0
LINE
8
Layer 1
10
60.568207
20
167.179308
11
59.913646
21
166.860565
0
LINE
8
Layer 1
10
59.913646
20
166.860565
11
58.851844
21
166.733394
0
LINE
8
Layer 1
10
58.851844
20
166.733394
11
57.406637
21
166.795513
0
LINE
8
Layer 1
10
57.406637
20
166.795513
11
53.461349
21
167.478492
0
LINE
8
Layer 1
10
53.461349
20
167.478492
11
48.268469
21
168.891239
0
LINE
8
Layer 1
10
48.268469
20
168.891239
11
46.154669
21
169.486553
0
LINE
8
Layer 1
10
46.154669
20
169.486553
11
45.654449
21
169.527487
0
LINE
8
Layer 1
10
45.654449
20
169.527487
11
45.536384
21
169.355100
0
LINE
8
Layer 1
10
45.536384
20
169.355100
11
46.479817
21
168.243841
0
LINE
8
Layer 1
10
46.479817
20
168.243841
11
49.051170
21
165.899740
0
LINE
8
Layer 1
10
49.051170
20
165.899740
11
50.689340
21
164.322299
0
LINE
8
Layer 1
10
50.689340
20
164.322299
11
51.678113
21
163.129507
0
LINE
8
Layer 1
10
51.678113
20
163.129507
11
51.940441
21
162.437438
0
LINE
8
Layer 1
10
51.940441
20
162.437438
11
51.775111
21
162.315449
0
LINE
8
Layer 1
10
51.775111
20
162.315449
11
51.399276
21
162.362169
0
LINE
8
Layer 1
10
51.399276
20
162.362169
11
44.354964
21
163.974843
0
LINE
8
Layer 1
10
44.354964
20
163.974843
11
39.658756
21
164.928501
0
LINE
8
Layer 1
10
39.658756
20
164.928501
11
43.572263
21
161.792278
0
LINE
8
Layer 1
10
43.572263
20
161.792278
11
45.222595
21
160.571803
0
LINE
8
Layer 1
10
45.222595
20
160.571803
11
46.823083
21
159.567111
0
LINE
8
Layer 1
10
46.823083
20
159.567111
11
48.190927
21
158.882247
0
LINE
8
Layer 1
10
48.190927
20
158.882247
11
49.143327
21
158.621257
0
LINE
8
Layer 1
10
49.143327
20
158.621257
11
50.026696
21
158.414808
0
LINE
8
Layer 1
10
50.026696
20
158.414808
11
51.206583
21
157.878413
0
LINE
8
Layer 1
10
51.206583
20
157.878413
11
52.528895
21
157.093447
0
LINE
8
Layer 1
10
52.528895
20
157.093447
11
53.839536
21
156.141286
0
LINE
8
Layer 1
10
53.839536
20
156.141286
11
55.382563
21
154.811041
0
LINE
8
Layer 1
10
55.382563
20
154.811041
11
55.664242
21
154.420195
0
LINE
8
Layer 1
10
55.664242
20
154.420195
11
55.584556
21
154.192707
0
LINE
8
Layer 1
10
55.584556
20
154.192707
11
54.236653
21
154.169321
0
LINE
8
Layer 1
10
54.236653
20
154.169321
11
51.129994
21
154.623918
0
LINE
8
Layer 1
10
51.129994
20
154.623918
11
48.902088
21
154.830075
0
LINE
8
Layer 1
10
48.902088
20
154.830075
11
46.976373
21
154.731568
0
LINE
8
Layer 1
10
46.976373
20
154.731568
11
45.438160
21
154.391104
0
LINE
8
Layer 1
10
45.438160
20
154.391104
11
44.372762
21
153.871390
0
LINE
8
Layer 1
10
44.372762
20
153.871390
11
43.865491
21
153.235134
0
LINE
8
Layer 1
10
43.865491
20
153.235134
11
43.847812
21
152.892899
0
LINE
8
Layer 1
10
43.847812
20
152.892899
11
44.001658
21
152.545043
0
LINE
8
Layer 1
10
44.001658
20
152.545043
11
44.866576
21
151.863824
0
LINE
8
Layer 1
10
44.866576
20
151.863824
11
46.545556
21
151.254185
0
LINE
8
Layer 1
10
46.545556
20
151.254185
11
48.512575
21
150.610829
0
LINE
8
Layer 1
10
48.512575
20
150.610829
11
49.647347
21
149.965754
0
LINE
8
Layer 1
10
49.647347
20
149.965754
11
49.921721
21
149.655673
0
LINE
8
Layer 1
10
49.921721
20
149.655673
11
50.010932
21
149.360883
0
LINE
8
Layer 1
10
50.010932
20
149.360883
11
49.922612
21
149.086624
0
LINE
8
Layer 1
10
49.922612
20
149.086624
11
49.664393
21
148.838137
0
LINE
8
Layer 1
10
49.664393
20
148.838137
11
48.668790
21
148.439438
0
LINE
8
Layer 1
10
48.668790
20
148.439438
11
47.085184
21
148.206709
0
LINE
8
Layer 1
10
47.085184
20
148.206709
11
44.974637
21
148.181870
0
LINE
8
Layer 1
10
44.974637
20
148.181870
11
42.398211
21
148.406845
0
LINE
8
Layer 1
10
42.398211
20
148.406845
11
38.426769
21
148.871404
0
LINE
8
Layer 1
10
38.426769
20
148.871404
11
36.571830
21
148.857240
0
LINE
8
Layer 1
10
36.571830
20
148.857240
11
36.338269
21
148.638884
0
LINE
8
Layer 1
10
36.338269
20
148.638884
11
36.514098
21
148.262743
0
LINE
8
Layer 1
10
36.514098
20
148.262743
11
37.934276
21
146.986307
0
LINE
8
Layer 1
10
37.934276
20
146.986307
11
39.401432
21
145.654114
0
LINE
8
Layer 1
10
39.401432
20
145.654114
11
39.805922
21
145.094853
0
LINE
8
Layer 1
10
39.805922
20
145.094853
11
39.998538
21
144.561705
0
LINE
8
Layer 1
10
39.998538
20
144.561705
11
39.984919
21
144.020834
0
LINE
8
Layer 1
10
39.984919
20
144.020834
11
39.770703
21
143.438408
0
LINE
8
Layer 1
10
39.770703
20
143.438408
11
38.763033
21
142.013552
0
LINE
8
Layer 1
10
38.763033
20
142.013552
11
38.167212
21
141.228087
0
LINE
8
Layer 1
10
38.167212
20
141.228087
11
37.794811
21
140.531193
0
LINE
8
Layer 1
10
37.794811
20
140.531193
11
37.664010
21
139.876442
0
LINE
8
Layer 1
10
37.664010
20
139.876442
11
37.792986
21
139.217403
0
LINE
8
Layer 1
10
37.792986
20
139.217403
11
38.199916
21
138.507648
0
LINE
8
Layer 1
10
38.199916
20
138.507648
11
38.902979
21
137.700747
0
LINE
8
Layer 1
10
38.902979
20
137.700747
11
41.270214
21
135.609789
0
LINE
8
Layer 1
10
41.270214
20
135.609789
11
43.522370
21
133.670864
0
LINE
8
Layer 1
10
43.522370
20
133.670864
11
44.477286
21
132.547692
0
LINE
8
Layer 1
10
44.477286
20
132.547692
11
44.491260
21
132.238345
0
LINE
8
Layer 1
10
44.491260
20
132.238345
11
44.208502
21
132.068536
0
LINE
8
Layer 1
10
44.208502
20
132.068536
11
42.789560
21
132.061663
0
LINE
8
Layer 1
10
42.789560
20
132.061663
11
39.588448
21
132.229368
0
LINE
8
Layer 1
10
39.588448
20
132.229368
11
37.434588
21
132.091792
0
LINE
8
Layer 1
10
37.434588
20
132.091792
11
36.747851
21
131.913426
0
LINE
8
Layer 1
10
36.747851
20
131.913426
11
36.319895
21
131.664622
0
LINE
8
Layer 1
10
36.319895
20
131.664622
11
36.149710
21
131.347342
0
LINE
8
Layer 1
10
36.149710
20
131.347342
11
36.236283
21
130.963546
0
LINE
8
Layer 1
10
36.236283
20
130.963546
11
37.175667
21
130.004252
0
LINE
8
Layer 1
10
37.175667
20
130.004252
11
39.129961
21
128.802426
0
LINE
8
Layer 1
10
39.129961
20
128.802426
11
42.091079
21
127.373756
0
LINE
8
Layer 1
10
42.091079
20
127.373756
11
46.050937
21
125.733930
0
LINE
8
Layer 1
10
46.050937
20
125.733930
11
49.790621
21
124.205107
0
LINE
8
Layer 1
10
49.790621
20
124.205107
11
51.496545
21
123.278537
0
LINE
8
Layer 1
10
51.496545
20
123.278537
11
51.636489
21
122.996037
0
LINE
8
Layer 1
10
51.636489
20
122.996037
11
51.327562
21
122.810029
0
LINE
8
Layer 1
10
51.327562
20
122.810029
11
49.442522
21
122.655393
0
LINE
8
Layer 1
10
49.442522
20
122.655393
11
47.378286
21
122.522135
0
LINE
8
Layer 1
10
47.378286
20
122.522135
11
46.027483
21
122.219295
0
LINE
8
Layer 1
10
46.027483
20
122.219295
11
45.377208
21
121.768552
0
LINE
8
Layer 1
10
45.377208
20
121.768552
11
45.310734
21
121.494490
0
LINE
8
Layer 1
10
45.310734
20
121.494490
11
45.414552
21
121.191581
0
LINE
8
Layer 1
10
45.414552
20
121.191581
11
46.126608
21
120.510058
0
LINE
8
Layer 1
10
46.126608
20
120.510058
11
47.500470
21
119.745661
0
LINE
8
Layer 1
10
47.500470
20
119.745661
11
49.523229
21
118.920064
0
LINE
8
Layer 1
10
49.523229
20
118.920064
11
52.181977
21
118.054945
0
LINE
8
Layer 1
10
52.181977
20
118.054945
11
54.789610
21
117.190827
0
LINE
8
Layer 1
10
54.789610
20
117.190827
11
56.802957
21
116.332213
0
LINE
8
Layer 1
10
56.802957
20
116.332213
11
58.200899
21
115.512919
0
LINE
8
Layer 1
10
58.200899
20
115.512919
11
58.962318
21
114.766760
0
LINE
8
Layer 1
10
58.962318
20
114.766760
11
59.097732
21
114.431673
0
LINE
8
Layer 1
10
59.097732
20
114.431673
11
59.066095
21
114.127551
0
LINE
8
Layer 1
10
59.066095
20
114.127551
11
58.491112
21
113.629107
0
LINE
8
Layer 1
10
58.491112
20
113.629107
11
57.216251
21
113.305242
0
LINE
8
Layer 1
10
57.216251
20
113.305242
11
55.220393
21
113.189773
0
LINE
8
Layer 1
10
55.220393
20
113.189773
11
53.389088
21
113.078705
0
LINE
8
Layer 1
10
53.389088
20
113.078705
11
52.323851
21
112.768555
0
LINE
8
Layer 1
10
52.323851
20
112.768555
11
52.067138
21
112.549632
0
LINE
8
Layer 1
10
52.067138
20
112.549632
11
51.988299
21
112.293907
0
LINE
8
Layer 1
10
51.988299
20
112.293907
11
52.346047
21
111.689342
0
LINE
8
Layer 1
10
52.346047
20
111.689342
11
53.360713
21
110.989444
0
LINE
8
Layer 1
10
53.360713
20
110.989444
11
54.995912
21
110.228796
0
LINE
8
Layer 1
10
54.995912
20
110.228796
11
57.215262
21
109.441979
0
LINE
8
Layer 1
10
57.215262
20
109.441979
11
59.982379
21
108.663578
0
LINE
8
Layer 1
10
59.982379
20
108.663578
11
63.099640
21
107.807892
0
LINE
8
Layer 1
10
63.099640
20
107.807892
11
65.266213
21
107.065582
0
LINE
8
Layer 1
10
65.266213
20
107.065582
11
66.491630
21
106.457456
0
LINE
8
Layer 1
10
66.491630
20
106.457456
11
66.754383
21
106.210215
0
LINE
8
Layer 1
10
66.754383
20
106.210215
11
66.785421
21
106.004325
0
LINE
8
Layer 1
10
66.785421
20
106.004325
11
66.157116
21
105.726999
0
LINE
8
Layer 1
10
66.157116
20
105.726999
11
64.616247
21
105.646288
0
LINE
8
Layer 1
10
64.616247
20
105.646288
11
62.172344
21
105.783002
0
LINE
8
Layer 1
10
62.172344
20
105.783002
11
58.834937
21
106.157952
0
LINE
8
Layer 1
10
58.834937
20
106.157952
11
55.166266
21
106.518661
0
LINE
8
Layer 1
10
55.166266
20
106.518661
11
52.885508
21
106.482200
0
LINE
8
Layer 1
10
52.885508
20
106.482200
11
52.241584
21
106.335818
0
LINE
8
Layer 1
10
52.241584
20
106.335818
11
51.915823
21
106.115091
0
LINE
8
Layer 1
10
51.915823
20
106.115091
11
51.898619
21
105.828334
0
LINE
8
Layer 1
10
51.898619
20
105.828334
11
52.180369
21
105.483861
0
LINE
8
Layer 1
10
52.180369
20
105.483861
11
53.602305
21
104.655033
0
LINE
8
Layer 1
10
53.602305
20
104.655033
11
56.104792
21
103.695133
0
LINE
8
Layer 1
10
56.104792
20
103.695133
11
59.610988
21
102.670684
0
LINE
8
Layer 1
10
59.610988
20
102.670684
11
64.044051
21
101.648211
0
LINE
8
Layer 1
10
64.044051
20
101.648211
11
68.799821
21
100.588463
0
LINE
8
Layer 1
10
68.799821
20
100.588463
11
71.324343
21
99.776029
0
LINE
8
Layer 1
10
71.324343
20
99.776029
11
71.819872
21
99.428342
0
LINE
8
Layer 1
10
71.819872
20
99.428342
11
71.841571
21
99.101428
0
LINE
8
Layer 1
10
71.841571
20
99.101428
11
71.417435
21
98.781601
0
LINE
8
Layer 1
10
71.417435
20
98.781601
11
70.575458
21
98.455177
0
LINE
8
Layer 1
10
70.575458
20
98.455177
11
69.207871
21
97.912649
0
LINE
8
Layer 1
10
69.207871
20
97.912649
11
68.087936
21
97.271120
0
LINE
8
Layer 1
10
68.087936
20
97.271120
11
67.331222
21
96.610763
0
LINE
8
Layer 1
10
67.331222
20
96.610763
11
67.053302
21
96.011753
0
LINE
8
Layer 1
10
67.053302
20
96.011753
11
67.219273
21
95.675981
0
LINE
8
Layer 1
10
67.219273
20
95.675981
11
67.692399
21
95.342379
0
LINE
8
Layer 1
10
67.692399
20
95.342379
11
69.411400
21
94.700926
0
LINE
8
Layer 1
10
69.411400
20
94.700926
11
71.912871
21
94.125871
0
LINE
8
Layer 1
10
71.912871
20
94.125871
11
74.899380
21
93.655695
0
LINE
8
Layer 1
10
74.899380
20
93.655695
11
78.073493
21
93.328877
0
LINE
8
Layer 1
10
78.073493
20
93.328877
11
81.137777
21
93.183896
0
LINE
8
Layer 1
10
81.137777
20
93.183896
11
83.794797
21
93.259231
0
LINE
8
Layer 1
10
83.794797
20
93.259231
11
85.747121
21
93.593363
0
LINE
8
Layer 1
10
85.747121
20
93.593363
11
87.259859
21
93.935127
0
LINE
8
Layer 1
10
87.259859
20
93.935127
11
88.255211
21
93.797956
0
LINE
8
Layer 1
10
88.255211
20
93.797956
11
88.580366
21
93.538780
0
LINE
8
Layer 1
10
88.580366
20
93.538780
11
88.801973
21
93.146684
0
LINE
8
Layer 1
10
88.801973
20
93.146684
11
88.968938
21
91.946144
0
LINE
8
Layer 1
10
88.968938
20
91.946144
11
89.037951
21
91.166950
0
LINE
8
Layer 1
10
89.037951
20
91.166950
11
89.293148
21
90.575447
0
LINE
8
Layer 1
10
89.293148
20
90.575447
11
89.806768
21
90.159376
0
LINE
8
Layer 1
10
89.806768
20
90.159376
11
90.651048
21
89.906482
0
LINE
8
Layer 1
10
90.651048
20
89.906482
11
91.898227
21
89.804506
0
LINE
8
Layer 1
10
91.898227
20
89.804506
11
93.620542
21
89.841191
0
LINE
8
Layer 1
10
93.620542
20
89.841191
11
98.779536
21
90.281513
0
LINE
8
Layer 1
10
98.779536
20
90.281513
11
103.427453
21
90.911613
0
LINE
8
Layer 1
10
103.427453
20
90.911613
11
108.830350
21
91.884214
0
LINE
8
Layer 1
10
108.830350
20
91.884214
11
114.317572
21
93.066603
0
LINE
8
Layer 1
10
114.317572
20
93.066603
11
119.218467
21
94.326068
0
LINE
8
Layer 1
10
119.218467
20
94.326068
11
119.218467
21
94.326068
0
LINE
8
Layer 1
10
131.670213
20
114.945929
11
131.102948
21
115.683899
0
LINE
8
Layer 1
10
131.102948
20
115.683899
11
130.756581
21
116.513372
0
LINE
8
Layer 1
10
130.756581
20
116.513372
11
130.612255
21
117.409699
0
LINE
8
Layer 1
10
130.612255
20
117.409699
11
130.651114
21
118.348227
0
LINE
8
Layer 1
10
130.651114
20
118.348227
11
131.202961
21
120.253287
0
LINE
8
Layer 1
10
131.202961
20
120.253287
11
132.261268
21
122.031344
0
LINE
8
Layer 1
10
132.261268
20
122.031344
11
133.675183
21
123.485191
0
LINE
8
Layer 1
10
133.675183
20
123.485191
11
134.468352
21
124.028908
0
LINE
8
Layer 1
10
134.468352
20
124.028908
11
135.293853
21
124.417621
0
LINE
8
Layer 1
10
135.293853
20
124.417621
11
136.132830
21
124.626677
0
LINE
8
Layer 1
10
136.132830
20
124.626677
11
136.966426
21
124.631427
0
LINE
8
Layer 1
10
136.966426
20
124.631427
11
137.775784
21
124.407218
0
LINE
8
Layer 1
10
137.775784
20
124.407218
11
138.542048
21
123.929401
0
LINE
8
Layer 1
10
138.542048
20
123.929401
11
139.473500
21
122.871792
0
LINE
8
Layer 1
10
139.473500
20
122.871792
11
140.116476
21
121.556775
0
LINE
8
Layer 1
10
140.116476
20
121.556775
11
140.475168
21
120.089328
0
LINE
8
Layer 1
10
140.475168
20
120.089328
11
140.553769
21
118.574432
0
LINE
8
Layer 1
10
140.553769
20
118.574432
11
140.356469
21
117.117067
0
LINE
8
Layer 1
10
140.356469
20
117.117067
11
139.887461
21
115.822213
0
LINE
8
Layer 1
10
139.887461
20
115.822213
11
139.150937
21
114.794850
0
LINE
8
Layer 1
10
139.150937
20
114.794850
11
138.151088
21
114.139959
0
LINE
8
Layer 1
10
138.151088
20
114.139959
11
135.960590
21
113.423056
0
LINE
8
Layer 1
10
135.960590
20
113.423056
11
134.365809
21
113.291613
0
LINE
8
Layer 1
10
134.365809
20
113.291613
11
133.690782
21
113.458003
0
LINE
8
Layer 1
10
133.690782
20
113.458003
11
133.043449
21
113.785835
0
LINE
8
Layer 1
10
133.043449
20
113.785835
11
131.670213
21
114.945929
0
LINE
8
Layer 1
10
131.670213
20
114.945929
11
131.670213
21
114.945929
0
LINE
8
Layer 1
10
135.409223
20
133.018198
11
134.819005
21
133.912074
0
LINE
8
Layer 1
10
134.819005
20
133.912074
11
134.473133
21
135.096851
0
LINE
8
Layer 1
10
134.473133
20
135.096851
11
134.358447
21
136.477587
0
LINE
8
Layer 1
10
134.358447
20
136.477587
11
134.461791
21
137.959338
0
LINE
8
Layer 1
10
134.461791
20
137.959338
11
134.770005
21
139.447161
0
LINE
8
Layer 1
10
134.770005
20
139.447161
11
135.269932
21
140.846113
0
LINE
8
Layer 1
10
135.269932
20
140.846113
11
135.948413
21
142.061251
0
LINE
8
Layer 1
10
135.948413
20
142.061251
11
136.792290
21
142.997633
0
LINE
8
Layer 1
10
136.792290
20
142.997633
11
138.118686
21
143.911059
0
LINE
8
Layer 1
10
138.118686
20
143.911059
11
138.691834
21
144.113521
0
LINE
8
Layer 1
10
138.691834
20
144.113521
11
139.241915
21
144.142520
0
LINE
8
Layer 1
10
139.241915
20
144.142520
11
139.796656
21
143.995082
0
LINE
8
Layer 1
10
139.796656
20
143.995082
11
140.383784
21
143.668236
0
LINE
8
Layer 1
10
140.383784
20
143.668236
11
141.766104
21
142.464430
0
LINE
8
Layer 1
10
141.766104
20
142.464430
11
142.969923
21
141.023185
0
LINE
8
Layer 1
10
142.969923
20
141.023185
11
143.307103
21
140.342774
0
LINE
8
Layer 1
10
143.307103
20
140.342774
11
143.473067
21
139.642606
0
LINE
8
Layer 1
10
143.473067
20
139.642606
11
143.471767
21
138.887762
0
LINE
8
Layer 1
10
143.471767
20
138.887762
11
143.307154
21
138.043318
0
LINE
8
Layer 1
10
143.307154
20
138.043318
11
142.503802
21
135.945943
0
LINE
8
Layer 1
10
142.503802
20
135.945943
11
141.789756
21
134.634656
0
LINE
8
Layer 1
10
141.789756
20
134.634656
11
140.970239
21
133.570307
0
LINE
8
Layer 1
10
140.970239
20
133.570307
11
140.073303
21
132.764473
0
LINE
8
Layer 1
10
140.073303
20
132.764473
11
139.127001
21
132.228731
0
LINE
8
Layer 1
10
139.127001
20
132.228731
11
138.159389
21
131.974656
0
LINE
8
Layer 1
10
138.159389
20
131.974656
11
137.198519
21
132.013825
0
LINE
8
Layer 1
10
137.198519
20
132.013825
11
136.272446
21
132.357814
0
LINE
8
Layer 1
10
136.272446
20
132.357814
11
135.409223
21
133.018198
0
LINE
8
Layer 1
10
135.409223
20
133.018198
11
135.409223
21
133.018198
0
LINE
8
Layer 1
10
126.004848
20
154.588669
11
125.657316
21
155.847432
0
LINE
8
Layer 1
10
125.657316
20
155.847432
11
125.569245
21
157.105353
0
LINE
8
Layer 1
10
125.569245
20
157.105353
11
125.731066
21
158.340994
0
LINE
8
Layer 1
10
125.731066
20
158.340994
11
126.133211
21
159.532920
0
LINE
8
Layer 1
10
126.133211
20
159.532920
11
126.766109
21
160.659695
0
LINE
8
Layer 1
10
126.766109
20
160.659695
11
127.620192
21
161.699883
0
LINE
8
Layer 1
10
127.620192
20
161.699883
11
128.685892
21
162.632048
0
LINE
8
Layer 1
10
128.685892
20
162.632048
11
129.953639
21
163.434755
0
LINE
8
Layer 1
10
129.953639
20
163.434755
11
131.479537
21
164.018547
0
LINE
8
Layer 1
10
131.479537
20
164.018547
11
132.918392
21
164.132500
0
LINE
8
Layer 1
10
132.918392
20
164.132500
11
134.224858
21
163.815997
0
LINE
8
Layer 1
10
134.224858
20
163.815997
11
135.353587
21
163.108421
0
LINE
8
Layer 1
10
135.353587
20
163.108421
11
136.259234
21
162.049156
0
LINE
8
Layer 1
10
136.259234
20
162.049156
11
136.896453
21
160.677585
0
LINE
8
Layer 1
10
136.896453
20
160.677585
11
137.219896
21
159.033090
0
LINE
8
Layer 1
10
137.219896
20
159.033090
11
137.184217
21
157.155056
0
LINE
8
Layer 1
10
137.184217
20
157.155056
11
136.741060
21
155.125760
0
LINE
8
Layer 1
10
136.741060
20
155.125760
11
136.361048
21
154.391173
0
LINE
8
Layer 1
10
136.361048
20
154.391173
11
135.840392
21
153.813729
0
LINE
8
Layer 1
10
135.840392
20
153.813729
11
135.152825
21
153.371253
0
LINE
8
Layer 1
10
135.152825
20
153.371253
11
134.272080
21
153.041574
0
LINE
8
Layer 1
10
134.272080
20
153.041574
11
131.825986
21
152.631909
0
LINE
8
Layer 1
10
131.825986
20
152.631909
11
129.612850
21
152.571226
0
LINE
8
Layer 1
10
129.612850
20
152.571226
11
127.914226
21
152.874006
0
LINE
8
Layer 1
10
127.914226
20
152.874006
11
126.716198
21
153.544928
0
LINE
8
Layer 1
10
126.716198
20
153.544928
11
126.300558
21
154.019903
0
LINE
8
Layer 1
10
126.300558
20
154.019903
11
126.004848
21
154.588669
0
LINE
8
Layer 1
10
126.004848
20
154.588669
11
126.004848
21
154.588669
0
LINE
8
Layer 1
10
92.606639
20
119.346507
11
94.544627
21
120.305565
0
LINE
8
Layer 1
10
94.544627
20
120.305565
11
96.981565
21
121.837157
0
LINE
8
Layer 1
10
96.981565
20
121.837157
11
99.605767
21
123.730377
0
LINE
8
Layer 1
10
99.605767
20
123.730377
11
102.105547
21
125.774316
0
LINE
8
Layer 1
10
102.105547
20
125.774316
11
104.802123
21
128.529047
0
LINE
8
Layer 1
10
104.802123
20
128.529047
11
107.066390
21
131.677529
0
LINE
8
Layer 1
10
107.066390
20
131.677529
11
108.897838
21
135.217978
0
LINE
8
Layer 1
10
108.897838
20
135.217978
11
110.295958
21
139.148612
0
LINE
8
Layer 1
10
110.295958
20
139.148612
11
111.260237
21
143.467647
0
LINE
8
Layer 1
10
111.260237
20
143.467647
11
111.790165
21
148.173302
0
LINE
8
Layer 1
10
111.790165
20
148.173302
11
111.885232
21
153.263792
0
LINE
8
Layer 1
10
111.885232
20
153.263792
11
111.544927
21
158.737335
0
LINE
8
Layer 1
10
111.544927
20
158.737335
11
111.098950
21
162.558941
0
LINE
8
Layer 1
10
111.098950
20
162.558941
11
110.620126
21
165.302331
0
LINE
8
Layer 1
10
110.620126
20
165.302331
11
110.108040
21
166.967542
0
LINE
8
Layer 1
10
110.108040
20
166.967542
11
109.839394
21
167.395842
0
LINE
8
Layer 1
10
109.839394
20
167.395842
11
109.562277
21
167.554610
0
LINE
8
Layer 1
10
109.562277
20
167.554610
11
109.276636
21
167.443852
0
LINE
8
Layer 1
10
109.276636
20
167.443852
11
108.982421
21
167.063571
0
LINE
8
Layer 1
10
108.982421
20
167.063571
11
108.368056
21
165.494461
0
LINE
8
Layer 1
10
108.368056
20
165.494461
11
107.718768
21
162.847317
0
LINE
8
Layer 1
10
107.718768
20
162.847317
11
107.034141
21
159.122173
0
LINE
8
Layer 1
10
107.034141
20
159.122173
11
106.440433
21
156.367468
0
LINE
8
Layer 1
10
106.440433
20
156.367468
11
105.616496
21
153.678371
0
LINE
8
Layer 1
10
105.616496
20
153.678371
11
104.671280
21
151.363073
0
LINE
8
Layer 1
10
104.671280
20
151.363073
11
103.713734
21
149.729761
0
LINE
8
Layer 1
10
103.713734
20
149.729761
11
102.548592
21
148.455482
0
LINE
8
Layer 1
10
102.548592
20
148.455482
11
102.205209
21
148.374979
0
LINE
8
Layer 1
10
102.205209
20
148.374979
11
102.008431
21
148.724295
0
LINE
8
Layer 1
10
102.008431
20
148.724295
11
102.016129
21
150.888573
0
LINE
8
Layer 1
10
102.016129
20
150.888573
11
102.494565
21
155.300687
0
LINE
8
Layer 1
10
102.494565
20
155.300687
11
102.876742
21
159.170601
0
LINE
8
Layer 1
10
102.876742
20
159.170601
11
102.885220
21
161.595544
0
LINE
8
Layer 1
10
102.885220
20
161.595544
11
102.744956
21
162.307827
0
LINE
8
Layer 1
10
102.744956
20
162.307827
11
102.506027
21
162.708879
0
LINE
8
Layer 1
10
102.506027
20
162.708879
11
102.166687
21
162.815369
0
LINE
8
Layer 1
10
102.166687
20
162.815369
11
101.725188
21
162.643968
0
LINE
8
Layer 1
10
101.725188
20
162.643968
11
101.026893
21
162.080730
0
LINE
8
Layer 1
10
101.026893
20
162.080730
11
100.455048
21
161.368814
0
LINE
8
Layer 1
10
100.455048
20
161.368814
11
100.068666
21
160.599447
0
LINE
8
Layer 1
10
100.068666
20
160.599447
11
99.926758
21
159.863853
0
LINE
8
Layer 1
10
99.926758
20
159.863853
11
99.584742
21
158.402766
0
LINE
8
Layer 1
10
99.584742
20
158.402766
11
98.668081
21
155.803072
0
LINE
8
Layer 1
10
98.668081
20
155.803072
11
95.767139
21
148.706787
0
LINE
8
Layer 1
10
95.767139
20
148.706787
11
92.536571
21
141.612846
0
LINE
8
Layer 1
10
92.536571
20
141.612846
11
91.207876
21
139.016082
0
LINE
8
Layer 1
10
91.207876
20
139.016082
11
90.289013
21
137.559097
0
LINE
8
Layer 1
10
90.289013
20
137.559097
11
90.065658
21
137.373407
0
LINE
8
Layer 1
10
90.065658
20
137.373407
11
89.916917
21
137.408088
0
LINE
8
Layer 1
10
89.916917
20
137.408088
11
89.839243
21
138.076061
0
LINE
8
Layer 1
10
89.839243
20
138.076061
11
90.047923
21
139.438011
0
LINE
8
Layer 1
10
90.047923
20
139.438011
11
90.534891
21
141.368928
0
LINE
8
Layer 1
10
90.534891
20
141.368928
11
91.435230
21
145.257643
0
LINE
8
Layer 1
10
91.435230
20
145.257643
11
91.579128
21
146.570590
0
LINE
8
Layer 1
10
91.579128
20
146.570590
11
91.477606
21
147.207175
0
LINE
8
Layer 1
10
91.477606
20
147.207175
11
91.242189
21
147.152154
0
LINE
8
Layer 1
10
91.242189
20
147.152154
11
90.788282
21
146.773665
0
LINE
8
Layer 1
10
90.788282
20
146.773665
11
89.331747
21
145.172991
0
LINE
8
Layer 1
10
89.331747
20
145.172991
11
84.971026
21
139.483853
0
LINE
8
Layer 1
10
84.971026
20
139.483853
11
80.114270
21
132.807076
0
LINE
8
Layer 1
10
80.114270
20
132.807076
11
78.588612
21
130.857249
0
LINE
8
Layer 1
10
78.588612
20
130.857249
11
77.576870
21
129.753935
0
LINE
8
Layer 1
10
77.576870
20
129.753935
11
77.013120
21
129.437736
0
LINE
8
Layer 1
10
77.013120
20
129.437736
11
76.878641
21
129.556243
0
LINE
8
Layer 1
10
76.878641
20
129.556243
11
76.831438
21
129.849256
0
LINE
8
Layer 1
10
76.831438
20
129.849256
11
76.965900
21
130.929098
0
LINE
8
Layer 1
10
76.965900
20
130.929098
11
77.350583
21
132.617866
0
LINE
8
Layer 1
10
77.350583
20
132.617866
11
77.938190
21
135.198811
0
LINE
8
Layer 1
10
77.938190
20
135.198811
11
77.997967
21
135.909982
0
LINE
8
Layer 1
10
77.997967
20
135.909982
11
77.862005
21
136.265013
0
LINE
8
Layer 1
10
77.862005
20
136.265013
11
77.500512
21
136.286448
0
LINE
8
Layer 1
10
77.500512
20
136.286448
11
76.883696
21
135.996832
0
LINE
8
Layer 1
10
76.883696
20
135.996832
11
74.764931
21
134.574626
0
LINE
8
Layer 1
10
74.764931
20
134.574626
11
71.970758
21
132.852377
0
LINE
8
Layer 1
10
71.970758
20
132.852377
11
69.975381
21
132.073054
0
LINE
8
Layer 1
10
69.975381
20
132.073054
11
69.356959
21
132.052365
0
LINE
8
Layer 1
10
69.356959
20
132.052365
11
69.033897
21
132.285859
0
LINE
8
Layer 1
10
69.033897
20
132.285859
11
69.038084
21
132.779687
0
LINE
8
Layer 1
10
69.038084
20
132.779687
11
69.401405
21
133.539999
0
LINE
8
Layer 1
10
69.401405
20
133.539999
11
69.484781
21
133.881787
0
LINE
8
Layer 1
10
69.484781
20
133.881787
11
69.299777
21
134.187977
0
LINE
8
Layer 1
10
69.299777
20
134.187977
11
68.173090
21
134.681263
0
LINE
8
Layer 1
10
68.173090
20
134.681263
11
66.118255
21
134.995268
0
LINE
8
Layer 1
10
66.118255
20
134.995268
11
63.232185
21
135.105401
0
LINE
8
Layer 1
10
63.232185
20
135.105401
11
60.461359
21
135.012762
0
LINE
8
Layer 1
10
60.461359
20
135.012762
11
58.192710
21
134.760525
0
LINE
8
Layer 1
10
58.192710
20
134.760525
11
56.660324
21
134.387216
0
LINE
8
Layer 1
10
56.660324
20
134.387216
11
56.243381
21
134.167197
0
LINE
8
Layer 1
10
56.243381
20
134.167197
11
56.098285
21
133.931357
0
LINE
8
Layer 1
10
56.098285
20
133.931357
11
56.250646
21
133.551151
0
LINE
8
Layer 1
10
56.250646
20
133.551151
11
56.687754
21
133.030044
0
LINE
8
Layer 1
10
56.687754
20
133.030044
11
58.305063
21
131.634934
0
LINE
8
Layer 1
10
58.305063
20
131.634934
11
60.727917
21
129.885639
0
LINE
8
Layer 1
10
60.727917
20
129.885639
11
63.734019
21
127.921773
0
LINE
8
Layer 1
10
63.734019
20
127.921773
11
70.606782
21
123.908786
0
LINE
8
Layer 1
10
70.606782
20
123.908786
11
74.028852
21
122.138893
0
LINE
8
Layer 1
10
74.028852
20
122.138893
11
77.144984
21
120.712886
0
LINE
8
Layer 1
10
77.144984
20
120.712886
11
81.960002
21
118.910167
0
LINE
8
Layer 1
10
81.960002
20
118.910167
11
83.923918
21
118.392308
0
LINE
8
Layer 1
10
83.923918
20
118.392308
11
85.702074
21
118.120400
0
LINE
8
Layer 1
10
85.702074
20
118.120400
11
87.376947
21
118.087153
0
LINE
8
Layer 1
10
87.376947
20
118.087153
11
89.031014
21
118.285281
0
LINE
8
Layer 1
10
89.031014
20
118.285281
11
90.746753
21
118.707495
0
LINE
8
Layer 1
10
90.746753
20
118.707495
11
92.606639
21
119.346507
0
LINE
8
Layer 1
10
92.606639
20
119.346507
11
92.606639
21
119.346507
0
LINE
8
Layer 1
10
210.330407
20
162.732981
11
210.887262
21
163.033903
0
LINE
8
Layer 1
10
210.887262
20
163.033903
11
211.103693
21
163.388287
0
LINE
8
Layer 1
10
211.103693
20
163.388287
11
210.967183
21
163.805758
0
LINE
8
Layer 1
10
210.967183
20
163.805758
11
210.465214
21
164.295942
0
LINE
8
Layer 1
10
210.465214
20
164.295942
11
208.314825
21
165.532950
0
LINE
8
Layer 1
10
208.314825
20
165.532950
11
204.552386
21
167.176316
0
LINE
8
Layer 1
10
204.552386
20
167.176316
11
200.250489
21
169.217100
0
LINE
8
Layer 1
10
200.250489
20
169.217100
11
194.765368
21
172.239848
0
LINE
8
Layer 1
10
194.765368
20
172.239848
11
188.802065
21
175.836889
0
LINE
8
Layer 1
10
188.802065
20
175.836889
11
183.065623
21
179.600554
0
LINE
8
Layer 1
10
183.065623
20
179.600554
11
177.827085
21
183.088727
0
LINE
8
Layer 1
10
177.827085
20
183.088727
11
173.051216
21
186.015222
0
LINE
8
Layer 1
10
173.051216
20
186.015222
11
168.720845
21
188.387262
0
LINE
8
Layer 1
10
168.720845
20
188.387262
11
164.818800
21
190.212069
0
LINE
8
Layer 1
10
164.818800
20
190.212069
11
161.327910
21
191.496866
0
LINE
8
Layer 1
10
161.327910
20
191.496866
11
158.231002
21
192.248875
0
LINE
8
Layer 1
10
158.231002
20
192.248875
11
155.510906
21
192.475318
0
LINE
8
Layer 1
10
155.510906
20
192.475318
11
153.150449
21
192.183417
0
LINE
8
Layer 1
10
153.150449
20
192.183417
11
151.990346
21
191.859755
0
LINE
8
Layer 1
10
151.990346
20
191.859755
11
151.242983
21
191.536890
0
LINE
8
Layer 1
10
151.242983
20
191.536890
11
150.949375
21
191.168560
0
LINE
8
Layer 1
10
150.949375
20
191.168560
11
151.150540
21
190.708504
0
LINE
8
Layer 1
10
151.150540
20
190.708504
11
151.887493
21
190.110458
0
LINE
8
Layer 1
10
151.887493
20
190.110458
11
153.201250
21
189.328161
0
LINE
8
Layer 1
10
153.201250
20
189.328161
11
157.723242
21
187.025761
0
LINE
8
Layer 1
10
157.723242
20
187.025761
11
160.644521
21
185.491124
0
LINE
8
Layer 1
10
160.644521
20
185.491124
11
162.614448
21
184.241199
0
LINE
8
Layer 1
10
162.614448
20
184.241199
11
163.642243
21
183.288136
0
LINE
8
Layer 1
10
163.642243
20
183.288136
11
163.805723
21
182.926725
0
LINE
8
Layer 1
10
163.805723
20
182.926725
11
163.737129
21
182.644087
0
LINE
8
Layer 1
10
163.737129
20
182.644087
11
163.437614
21
182.441739
0
LINE
8
Layer 1
10
163.437614
20
182.441739
11
162.908329
21
182.321202
0
LINE
8
Layer 1
10
162.908329
20
182.321202
11
161.165064
21
182.331632
0
LINE
8
Layer 1
10
161.165064
20
182.331632
11
158.516557
21
182.687527
0
LINE
8
Layer 1
10
158.516557
20
182.687527
11
154.972029
21
183.401040
0
LINE
8
Layer 1
10
154.972029
20
183.401040
11
152.441293
21
183.872363
0
LINE
8
Layer 1
10
152.441293
20
183.872363
11
150.368840
21
184.073081
0
LINE
8
Layer 1
10
150.368840
20
184.073081
11
148.968534
21
183.995604
0
LINE
8
Layer 1
10
148.968534
20
183.995604
11
148.587269
21
183.850171
0
LINE
8
Layer 1
10
148.587269
20
183.850171
11
148.454240
21
183.632344
0
LINE
8
Layer 1
10
148.454240
20
183.632344
11
148.754589
21
183.123293
0
LINE
8
Layer 1
10
148.754589
20
183.123293
11
149.610603
21
182.333132
0
LINE
8
Layer 1
10
149.610603
20
182.333132
11
152.719414
21
180.067773
0
LINE
8
Layer 1
10
152.719414
20
180.067773
11
157.240258
21
177.152857
0
LINE
8
Layer 1
10
157.240258
20
177.152857
11
162.632718
21
173.904975
0
LINE
8
Layer 1
10
162.632718
20
173.904975
11
168.356378
21
170.640718
0
LINE
8
Layer 1
10
168.356378
20
170.640718
11
173.870821
21
167.676676
0
LINE
8
Layer 1
10
173.870821
20
167.676676
11
178.635632
21
165.329442
0
LINE
8
Layer 1
10
178.635632
20
165.329442
11
182.110394
21
163.915605
0
LINE
8
Layer 1
10
182.110394
20
163.915605
11
185.072635
21
163.183889
0
LINE
8
Layer 1
10
185.072635
20
163.183889
11
188.741128
21
162.596170
0
LINE
8
Layer 1
10
188.741128
20
162.596170
11
192.843501
21
162.163862
0
LINE
8
Layer 1
10
192.843501
20
162.163862
11
197.107376
21
161.898379
0
LINE
8
Layer 1
10
197.107376
20
161.898379
11
201.260379
21
161.811136
0
LINE
8
Layer 1
10
201.260379
20
161.811136
11
205.030135
21
161.913545
0
LINE
8
Layer 1
10
205.030135
20
161.913545
11
208.144270
21
162.217022
0
LINE
8
Layer 1
10
208.144270
20
162.217022
11
210.330407
21
162.732981
0
LINE
8
Layer 1
10
210.330407
20
162.732981
11
210.330407
21
162.732981
0
LINE
8
Layer 1
10
226.724385
20
168.905999
11
226.477342
21
169.580061
0
LINE
8
Layer 1
10
226.477342
20
169.580061
11
225.804700
21
170.729980
0
LINE
8
Layer 1
10
225.804700
20
170.729980
11
223.593553
21
173.813336
0
LINE
8
Layer 1
10
223.593553
20
173.813336
11
222.377929
21
175.643737
0
LINE
8
Layer 1
10
222.377929
20
175.643737
11
221.382430
21
177.685241
0
LINE
8
Layer 1
10
221.382430
20
177.685241
11
220.709792
21
179.688743
0
LINE
8
Layer 1
10
220.709792
20
179.688743
11
220.462749
21
181.405136
0
LINE
8
Layer 1
10
220.462749
20
181.405136
11
220.462749
21
185.016771
0
LINE
8
Layer 1
10
220.462749
20
185.016771
11
213.809811
21
181.212889
0
LINE
8
Layer 1
10
213.809811
20
181.212889
11
211.010417
21
179.734418
0
LINE
8
Layer 1
10
211.010417
20
179.734418
11
208.306422
21
178.520848
0
LINE
8
Layer 1
10
208.306422
20
178.520848
11
206.006011
21
177.697612
0
LINE
8
Layer 1
10
206.006011
20
177.697612
11
204.417371
21
177.390144
0
LINE
8
Layer 1
10
204.417371
20
177.390144
11
202.904061
21
177.235776
0
LINE
8
Layer 1
10
202.904061
20
177.235776
11
202.010164
21
176.823334
0
LINE
8
Layer 1
10
202.010164
20
176.823334
11
201.788109
21
176.532269
0
LINE
8
Layer 1
10
201.788109
20
176.532269
11
201.712045
21
176.191005
0
LINE
8
Layer 1
10
201.712045
20
176.191005
11
201.986069
21
175.376972
0
LINE
8
Layer 1
10
201.986069
20
175.376972
11
202.808601
21
174.419422
0
LINE
8
Layer 1
10
202.808601
20
174.419422
11
204.156005
21
173.356538
0
LINE
8
Layer 1
10
204.156005
20
173.356538
11
206.004647
21
172.226506
0
LINE
8
Layer 1
10
206.004647
20
172.226506
11
208.330890
21
171.067511
0
LINE
8
Layer 1
10
208.330890
20
171.067511
11
210.901905
21
170.080782
0
LINE
8
Layer 1
10
210.901905
20
170.080782
11
213.821368
21
169.248705
0
LINE
8
Layer 1
10
213.821368
20
169.248705
11
216.876221
21
168.596316
0
LINE
8
Layer 1
10
216.876221
20
168.596316
11
219.853410
21
168.148653
0
LINE
8
Layer 1
10
219.853410
20
168.148653
11
222.539877
21
167.930752
0
LINE
8
Layer 1
10
222.539877
20
167.930752
11
224.722566
21
167.967652
0
LINE
8
Layer 1
10
224.722566
20
167.967652
11
226.188421
21
168.284388
0
LINE
8
Layer 1
10
226.188421
20
168.284388
11
226.585955
21
168.555520
0
LINE
8
Layer 1
10
226.585955
20
168.555520
11
226.724385
21
168.905999
0
LINE
8
Layer 1
10
226.724385
20
168.905999
11
226.724385
21
168.905999
0
LINE
8
Layer 1
10
101.100811
20
176.274850
11
104.693899
21
179.995558
0
LINE
8
Layer 1
10
104.693899
20
179.995558
11
105.786929
21
181.362036
0
LINE
8
Layer 1
10
105.786929
20
181.362036
11
106.188369
21
182.142549
0
LINE
8
Layer 1
10
106.188369
20
182.142549
11
105.940756
21
182.368501
0
LINE
8
Layer 1
10
105.940756
20
182.368501
11
105.231089
21
182.617549
0
LINE
8
Layer 1
10
105.231089
20
182.617549
11
102.624632
21
183.152185
0
LINE
8
Layer 1
10
102.624632
20
183.152185
11
98.767077
21
183.680972
0
LINE
8
Layer 1
10
98.767077
20
183.680972
11
94.056499
21
184.138422
0
LINE
8
Layer 1
10
94.056499
20
184.138422
11
88.438648
21
184.744901
0
LINE
8
Layer 1
10
88.438648
20
184.744901
11
82.603176
21
185.664691
0
LINE
8
Layer 1
10
82.603176
20
185.664691
11
76.703174
21
186.856921
0
LINE
8
Layer 1
10
76.703174
20
186.856921
11
70.891735
21
188.280723
0
LINE
8
Layer 1
10
70.891735
20
188.280723
11
65.321952
21
189.895226
0
LINE
8
Layer 1
10
65.321952
20
189.895226
11
60.146918
21
191.659562
0
LINE
8
Layer 1
10
60.146918
20
191.659562
11
55.519725
21
193.532862
0
LINE
8
Layer 1
10
55.519725
20
193.532862
11
51.593465
21
195.474255
0
LINE
8
Layer 1
10
51.593465
20
195.474255
11
46.490233
21
198.166948
0
LINE
8
Layer 1
10
46.490233
20
198.166948
11
43.840104
21
199.286917
0
LINE
8
Layer 1
10
43.840104
20
199.286917
11
43.784959
21
199.154408
0
LINE
8
Layer 1
10
43.784959
20
199.154408
11
43.977662
21
198.774633
0
LINE
8
Layer 1
10
43.977662
20
198.774633
11
45.019906
21
197.379799
0
LINE
8
Layer 1
10
45.019906
20
197.379799
11
49.124825
21
192.794598
0
LINE
8
Layer 1
10
49.124825
20
192.794598
11
51.342210
21
190.341866
0
LINE
8
Layer 1
10
51.342210
20
190.341866
11
52.805312
21
188.462972
0
LINE
8
Layer 1
10
52.805312
20
188.462972
11
53.388134
21
187.342622
0
LINE
8
Layer 1
10
53.388134
20
187.342622
11
53.310066
21
187.124621
0
LINE
8
Layer 1
10
53.310066
20
187.124621
11
52.964678
21
187.165520
0
LINE
8
Layer 1
10
52.964678
20
187.165520
11
47.605349
21
189.233385
0
LINE
8
Layer 1
10
47.605349
20
189.233385
11
46.159556
21
189.714225
0
LINE
8
Layer 1
10
46.159556
20
189.714225
11
45.396379
21
189.669576
0
LINE
8
Layer 1
10
45.396379
20
189.669576
11
45.246983
21
189.432860
0
LINE
8
Layer 1
10
45.246983
20
189.432860
11
45.239694
21
189.043972
0
LINE
8
Layer 1
10
45.239694
20
189.043972
11
45.613376
21
187.781945
0
LINE
8
Layer 1
10
45.613376
20
187.781945
11
46.018301
21
186.484124
0
LINE
8
Layer 1
10
46.018301
20
186.484124
11
46.021109
21
186.113287
0
LINE
8
Layer 1
10
46.021109
20
186.113287
11
45.873405
21
185.919625
0
LINE
8
Layer 1
10
45.873405
20
185.919625
11
45.074222
21
186.039214
0
LINE
8
Layer 1
10
45.074222
20
186.039214
11
43.516285
21
186.793659
0
LINE
8
Layer 1
10
43.516285
20
186.793659
11
42.041877
21
187.391407
0
LINE
8
Layer 1
10
42.041877
20
187.391407
11
40.559591
21
187.635808
0
LINE
8
Layer 1
10
40.559591
20
187.635808
11
39.146292
21
187.523359
0
LINE
8
Layer 1
10
39.146292
20
187.523359
11
37.878845
21
187.050557
0
LINE
8
Layer 1
10
37.878845
20
187.050557
11
36.835473
21
186.264193
0
LINE
8
Layer 1
10
36.835473
20
186.264193
11
36.710818
21
185.902781
0
LINE
8
Layer 1
10
36.710818
20
185.902781
11
36.870224
21
185.539101
0
LINE
8
Layer 1
10
36.870224
20
185.539101
11
38.099336
21
184.734602
0
LINE
8
Layer 1
10
38.099336
20
184.734602
11
40.639043
21
183.710020
0
LINE
8
Layer 1
10
40.639043
20
183.710020
11
55.151790
21
178.514729
0
LINE
8
Layer 1
10
55.151790
20
178.514729
11
66.816354
21
174.644149
0
LINE
8
Layer 1
10
66.816354
20
174.644149
11
71.715103
21
173.189081
0
LINE
8
Layer 1
10
71.715103
20
173.189081
11
76.063250
21
172.045338
0
LINE
8
Layer 1
10
76.063250
20
172.045338
11
79.914610
21
171.206302
0
LINE
8
Layer 1
10
79.914610
20
171.206302
11
83.322997
21
170.665355
0
LINE
8
Layer 1
10
83.322997
20
170.665355
11
86.342225
21
170.415879
0
LINE
8
Layer 1
10
86.342225
20
170.415879
11
89.026109
21
170.451256
0
LINE
8
Layer 1
10
89.026109
20
170.451256
11
91.428465
21
170.764870
0
LINE
8
Layer 1
10
91.428465
20
170.764870
11
93.603105
21
171.350101
0
LINE
8
Layer 1
10
93.603105
20
171.350101
11
95.603845
21
172.200332
0
LINE
8
Layer 1
10
95.603845
20
172.200332
11
97.484500
21
173.308946
0
LINE
8
Layer 1
10
97.484500
20
173.308946
11
99.298884
21
174.669324
0
LINE
8
Layer 1
10
99.298884
20
174.669324
11
101.100811
21
176.274850
0
LINE
8
Layer 1
10
101.100811
20
176.274850
11
101.100811
21
176.274850
0
LINE
8
Layer 1
10
129.386384
20
175.537798
11
131.014962
21
177.167367
0
LINE
8
Layer 1
10
131.014962
20
177.167367
11
132.318537
21
179.288589
0
LINE
8
Layer 1
10
132.318537
20
179.288589
11
133.283778
21
181.873812
0
LINE
8
Layer 1
10
133.283778
20
181.873812
11
133.897359
21
184.895387
0
LINE
8
Layer 1
10
133.897359
20
184.895387
11
134.302148
21
188.580706
0
LINE
8
Layer 1
10
134.302148
20
188.580706
11
134.280734
21
189.742872
0
LINE
8
Layer 1
10
134.280734
20
189.742872
11
134.064105
21
190.541746
0
LINE
8
Layer 1
10
134.064105
20
190.541746
11
133.617756
21
191.045108
0
LINE
8
Layer 1
10
133.617756
20
191.045108
11
132.907179
21
191.320736
0
LINE
8
Layer 1
10
132.907179
20
191.320736
11
130.555317
21
191.459904
0
LINE
8
Layer 1
10
130.555317
20
191.459904
11
128.686410
21
191.346126
0
LINE
8
Layer 1
10
128.686410
20
191.346126
11
126.852130
21
191.025891
0
LINE
8
Layer 1
10
126.852130
20
191.025891
11
125.118609
21
190.530845
0
LINE
8
Layer 1
10
125.118609
20
190.530845
11
123.551978
21
189.892638
0
LINE
8
Layer 1
10
123.551978
20
189.892638
11
122.218369
21
189.142917
0
LINE
8
Layer 1
10
122.218369
20
189.142917
11
121.183914
21
188.313329
0
LINE
8
Layer 1
10
121.183914
20
188.313329
11
120.514745
21
187.435522
0
LINE
8
Layer 1
10
120.514745
20
187.435522
11
120.276993
21
186.541143
0
LINE
8
Layer 1
10
120.276993
20
186.541143
11
120.483821
21
185.964481
0
LINE
8
Layer 1
10
120.483821
20
185.964481
11
121.049509
21
185.648573
0
LINE
8
Layer 1
10
121.049509
20
185.648573
11
121.891860
21
185.613886
0
LINE
8
Layer 1
10
121.891860
20
185.613886
11
122.928676
21
185.880887
0
LINE
8
Layer 1
10
122.928676
20
185.880887
11
124.228008
21
186.310605
0
LINE
8
Layer 1
10
124.228008
20
186.310605
11
124.542153
21
186.321957
0
LINE
8
Layer 1
10
124.542153
20
186.321957
11
124.630229
21
186.176190
0
LINE
8
Layer 1
10
124.630229
20
186.176190
11
124.121022
21
185.348964
0
LINE
8
Layer 1
10
124.121022
20
185.348964
11
122.686070
21
183.700249
0
LINE
8
Layer 1
10
122.686070
20
183.700249
11
121.690060
21
182.444869
0
LINE
8
Layer 1
10
121.690060
20
182.444869
11
121.155298
21
181.429463
0
LINE
8
Layer 1
10
121.155298
20
181.429463
11
121.114347
21
180.749909
0
LINE
8
Layer 1
10
121.114347
20
180.749909
11
121.289228
21
180.566038
0
LINE
8
Layer 1
10
121.289228
20
180.566038
11
121.599774
21
180.502084
0
LINE
8
Layer 1
10
121.599774
20
180.502084
11
122.540668
21
180.377610
0
LINE
8
Layer 1
10
122.540668
20
180.377610
11
123.128801
21
180.040372
0
LINE
8
Layer 1
10
123.128801
20
180.040372
11
123.382517
21
179.544651
0
LINE
8
Layer 1
10
123.382517
20
179.544651
11
123.320164
21
178.944725
0
LINE
8
Layer 1
10
123.320164
20
178.944725
11
122.960089
21
178.294875
0
LINE
8
Layer 1
10
122.960089
20
178.294875
11
122.320638
21
177.649379
0
LINE
8
Layer 1
10
122.320638
20
177.649379
11
121.420157
21
177.062517
0
LINE
8
Layer 1
10
121.420157
20
177.062517
11
120.276993
21
176.588568
0
LINE
8
Layer 1
10
120.276993
20
176.588568
11
119.061360
21
176.087546
0
LINE
8
Layer 1
10
119.061360
20
176.087546
11
118.065862
21
175.457936
0
LINE
8
Layer 1
10
118.065862
20
175.457936
11
117.393229
21
174.780247
0
LINE
8
Layer 1
10
117.393229
20
174.780247
11
117.146189
21
174.134985
0
LINE
8
Layer 1
10
117.146189
20
174.134985
11
117.241735
21
173.706827
0
LINE
8
Layer 1
10
117.241735
20
173.706827
11
117.515647
21
173.357658
0
LINE
8
Layer 1
10
117.515647
20
173.357658
11
118.522189
21
172.887535
0
LINE
8
Layer 1
10
118.522189
20
172.887535
11
120.013069
21
172.707109
0
LINE
8
Layer 1
10
120.013069
20
172.707109
11
121.835540
21
172.798877
0
LINE
8
Layer 1
10
121.835540
20
172.798877
11
123.836854
21
173.145335
0
LINE
8
Layer 1
10
123.836854
20
173.145335
11
125.864264
21
173.728977
0
LINE
8
Layer 1
10
125.864264
20
173.728977
11
127.765023
21
174.532300
0
LINE
8
Layer 1
10
127.765023
20
174.532300
11
129.386384
21
175.537798
0
LINE
8
Layer 1
10
129.386384
20
175.537798
11
129.386384
21
175.537798
0
LINE
8
Layer 1
10
114.319166
20
189.797463
11
116.177504
21
191.061425
0
LINE
8
Layer 1
10
116.177504
20
191.061425
11
118.386258
21
192.260243
0
LINE
8
Layer 1
10
118.386258
20
192.260243
11
120.668834
21
193.258610
0
LINE
8
Layer 1
10
120.668834
20
193.258610
11
122.748638
21
193.921218
0
LINE
8
Layer 1
10
122.748638
20
193.921218
11
124.740277
21
194.532271
0
LINE
8
Layer 1
10
124.740277
20
194.532271
11
126.782797
21
195.390282
0
LINE
8
Layer 1
10
126.782797
20
195.390282
11
128.636268
21
196.381378
0
LINE
8
Layer 1
10
128.636268
20
196.381378
11
130.060759
21
197.391685
0
LINE
8
Layer 1
10
130.060759
20
197.391685
11
131.622857
21
198.912908
0
LINE
8
Layer 1
10
131.622857
20
198.912908
11
132.527192
21
200.211733
0
LINE
8
Layer 1
10
132.527192
20
200.211733
11
132.727312
21
200.783151
0
LINE
8
Layer 1
10
132.727312
20
200.783151
11
132.756528
21
201.305457
0
LINE
8
Layer 1
10
132.756528
20
201.305457
11
132.612685
21
201.780813
0
LINE
8
Layer 1
10
132.612685
20
201.780813
11
132.293630
21
202.211381
0
LINE
8
Layer 1
10
132.293630
20
202.211381
11
131.121261
21
202.946804
0
LINE
8
Layer 1
10
131.121261
20
202.946804
11
129.222186
21
203.529026
0
LINE
8
Layer 1
10
129.222186
20
203.529026
11
126.579170
21
203.975345
0
LINE
8
Layer 1
10
126.579170
20
203.975345
11
123.174977
21
204.303061
0
LINE
8
Layer 1
10
123.174977
20
204.303061
11
118.322185
21
204.804912
0
LINE
8
Layer 1
10
118.322185
20
204.804912
11
116.465070
21
205.150190
0
LINE
8
Layer 1
10
116.465070
20
205.150190
11
114.913456
21
205.583638
0
LINE
8
Layer 1
10
114.913456
20
205.583638
11
113.611832
21
206.124205
0
LINE
8
Layer 1
10
113.611832
20
206.124205
11
112.504682
21
206.790842
0
LINE
8
Layer 1
10
112.504682
20
206.790842
11
111.536495
21
207.602500
0
LINE
8
Layer 1
10
111.536495
20
207.602500
11
110.651756
21
208.578130
0
LINE
8
Layer 1
10
110.651756
20
208.578130
11
109.401469
21
210.613828
0
LINE
8
Layer 1
10
109.401469
20
210.613828
11
108.503152
21
213.098442
0
LINE
8
Layer 1
10
108.503152
20
213.098442
11
107.957572
21
215.881415
0
LINE
8
Layer 1
10
107.957572
20
215.881415
11
107.765497
21
218.812189
0
LINE
8
Layer 1
10
107.765497
20
218.812189
11
107.927695
21
221.740209
0
LINE
8
Layer 1
10
107.927695
20
221.740209
11
108.444934
21
224.514918
0
LINE
8
Layer 1
10
108.444934
20
224.514918
11
109.317982
21
226.985758
0
LINE
8
Layer 1
10
109.317982
20
226.985758
11
110.547607
21
229.002174
0
LINE
8
Layer 1
10
110.547607
20
229.002174
11
113.341446
21
232.452414
0
LINE
8
Layer 1
10
113.341446
20
232.452414
11
118.865642
21
229.193057
0
LINE
8
Layer 1
10
118.865642
20
229.193057
11
121.636739
21
227.877869
0
LINE
8
Layer 1
10
121.636739
20
227.877869
11
125.026112
21
226.756946
0
LINE
8
Layer 1
10
125.026112
20
226.756946
11
128.648135
21
225.937035
0
LINE
8
Layer 1
10
128.648135
20
225.937035
11
132.117183
21
225.524883
0
LINE
8
Layer 1
10
132.117183
20
225.524883
11
136.386834
21
225.397375
0
LINE
8
Layer 1
10
136.386834
20
225.397375
11
137.772360
21
225.503717
0
LINE
8
Layer 1
10
137.772360
20
225.503717
11
138.761696
21
225.768359
0
LINE
8
Layer 1
10
138.761696
20
225.768359
11
139.432350
21
226.224976
0
LINE
8
Layer 1
10
139.432350
20
226.224976
11
139.861829
21
226.907246
0
LINE
8
Layer 1
10
139.861829
20
226.907246
11
140.127641
21
227.848844
0
LINE
8
Layer 1
10
140.127641
20
227.848844
11
140.307291
21
229.083448
0
LINE
8
Layer 1
10
140.307291
20
229.083448
11
140.206558
21
231.061862
0
LINE
8
Layer 1
10
140.206558
20
231.061862
11
139.578305
21
233.473088
0
LINE
8
Layer 1
10
139.578305
20
233.473088
11
138.517422
21
236.037599
0
LINE
8
Layer 1
10
138.517422
20
236.037599
11
137.118801
21
238.475866
0
LINE
8
Layer 1
10
137.118801
20
238.475866
11
135.889265
21
240.253109
0
LINE
8
Layer 1
10
135.889265
20
240.253109
11
134.770807
21
241.608391
0
LINE
8
Layer 1
10
134.770807
20
241.608391
11
133.553807
21
242.616602
0
LINE
8
Layer 1
10
133.553807
20
242.616602
11
132.028643
21
243.352635
0
LINE
8
Layer 1
10
132.028643
20
243.352635
11
129.985692
21
243.891379
0
LINE
8
Layer 1
10
129.985692
20
243.891379
11
127.215334
21
244.307728
0
LINE
8
Layer 1
10
127.215334
20
244.307728
11
118.653904
21
245.072802
0
LINE
8
Layer 1
10
118.653904
20
245.072802
11
111.708807
21
245.719924
0
LINE
8
Layer 1
10
111.708807
20
245.719924
11
104.895985
21
246.544091
0
LINE
8
Layer 1
10
104.895985
20
246.544091
11
98.317078
21
247.525439
0
LINE
8
Layer 1
10
98.317078
20
247.525439
11
92.073724
21
248.644105
0
LINE
8
Layer 1
10
92.073724
20
248.644105
11
86.267561
21
249.880227
0
LINE
8
Layer 1
10
86.267561
20
249.880227
11
81.000230
21
251.213942
0
LINE
8
Layer 1
10
81.000230
20
251.213942
11
76.373368
21
252.625387
0
LINE
8
Layer 1
10
76.373368
20
252.625387
11
72.488614
21
254.094701
0
LINE
8
Layer 1
10
72.488614
20
254.094701
11
68.244814
21
255.699925
0
LINE
8
Layer 1
10
68.244814
20
255.699925
11
67.102333
21
255.877608
0
LINE
8
Layer 1
10
67.102333
20
255.877608
11
66.771838
21
255.798945
0
LINE
8
Layer 1
10
66.771838
20
255.798945
11
66.600272
21
255.604318
0
LINE
8
Layer 1
10
66.600272
20
255.604318
11
66.729237
21
254.854287
0
LINE
8
Layer 1
10
66.729237
20
254.854287
11
67.479833
21
253.601750
0
LINE
8
Layer 1
10
67.479833
20
253.601750
11
70.808342
21
249.486094
0
LINE
8
Layer 1
10
70.808342
20
249.486094
11
74.097614
21
245.678863
0
LINE
8
Layer 1
10
74.097614
20
245.678863
11
68.137876
21
249.094742
0
LINE
8
Layer 1
10
68.137876
20
249.094742
11
63.377994
21
251.660779
0
LINE
8
Layer 1
10
63.377994
20
251.660779
11
62.049553
21
252.196620
0
LINE
8
Layer 1
10
62.049553
20
252.196620
11
61.406872
21
252.222713
0
LINE
8
Layer 1
10
61.406872
20
252.222713
11
61.339120
21
252.041878
0
LINE
8
Layer 1
10
61.339120
20
252.041878
11
61.438523
21
251.730335
0
LINE
8
Layer 1
10
61.438523
20
251.730335
11
62.133076
21
250.710763
0
LINE
8
Layer 1
10
62.133076
20
250.710763
11
65.465170
21
247.055147
0
LINE
8
Layer 1
10
65.465170
20
247.055147
11
67.451195
21
244.869830
0
LINE
8
Layer 1
10
67.451195
20
244.869830
11
68.949893
21
242.952559
0
LINE
8
Layer 1
10
68.949893
20
242.952559
11
69.815654
21
241.510230
0
LINE
8
Layer 1
10
69.815654
20
241.510230
11
69.965680
21
241.031823
0
LINE
8
Layer 1
10
69.965680
20
241.031823
11
69.902869
21
240.749739
0
LINE
8
Layer 1
10
69.902869
20
240.749739
11
69.205925
21
240.501639
0
LINE
8
Layer 1
10
69.205925
20
240.501639
11
68.066829
21
240.574652
0
LINE
8
Layer 1
10
68.066829
20
240.574652
11
66.630610
21
240.912187
0
LINE
8
Layer 1
10
66.630610
20
240.912187
11
65.042297
21
241.457654
0
LINE
8
Layer 1
10
65.042297
20
241.457654
11
61.989499
21
242.946024
0
LINE
8
Layer 1
10
61.989499
20
242.946024
11
60.815072
21
243.775747
0
LINE
8
Layer 1
10
60.815072
20
243.775747
11
60.068663
21
244.587041
0
LINE
8
Layer 1
10
60.068663
20
244.587041
11
59.547682
21
245.232345
0
LINE
8
Layer 1
10
59.547682
20
245.232345
11
58.888458
21
245.760795
0
LINE
8
Layer 1
10
58.888458
20
245.760795
11
58.175494
21
246.117857
0
LINE
8
Layer 1
10
58.175494
20
246.117857
11
57.493295
21
246.248997
0
LINE
8
Layer 1
10
57.493295
20
246.248997
11
57.281212
21
246.105221
0
LINE
8
Layer 1
10
57.281212
20
246.105221
11
57.274581
21
245.693156
0
LINE
8
Layer 1
10
57.274581
20
245.693156
11
57.823563
21
244.179730
0
LINE
8
Layer 1
10
57.823563
20
244.179730
11
59.032010
21
241.939859
0
LINE
8
Layer 1
10
59.032010
20
241.939859
11
60.791691
21
239.204685
0
LINE
8
Layer 1
10
60.791691
20
239.204685
11
62.341371
21
236.785385
0
LINE
8
Layer 1
10
62.341371
20
236.785385
11
63.346693
21
234.848069
0
LINE
8
Layer 1
10
63.346693
20
234.848069
11
63.818168
21
233.414387
0
LINE
8
Layer 1
10
63.818168
20
233.414387
11
63.766307
21
232.505991
0
LINE
8
Layer 1
10
63.766307
20
232.505991
11
63.547410
21
232.255540
0
LINE
8
Layer 1
10
63.547410
20
232.255540
11
63.201622
21
232.144529
0
LINE
8
Layer 1
10
63.201622
20
232.144529
11
62.134625
21
232.351653
0
LINE
8
Layer 1
10
62.134625
20
232.351653
11
60.575828
21
233.149012
0
LINE
8
Layer 1
10
60.575828
20
233.149012
11
58.535742
21
234.558257
0
LINE
8
Layer 1
10
58.535742
20
234.558257
11
56.728227
21
235.833347
0
LINE
8
Layer 1
10
56.728227
20
235.833347
11
55.393014
21
236.581355
0
LINE
8
Layer 1
10
55.393014
20
236.581355
11
54.534912
21
236.820015
0
LINE
8
Layer 1
10
54.534912
20
236.820015
11
54.286280
21
236.753882
0
LINE
8
Layer 1
10
54.286280
20
236.753882
11
54.158729
21
236.567062
0
LINE
8
Layer 1
10
54.158729
20
236.567062
11
54.269272
21
235.840230
0
LINE
8
Layer 1
10
54.269272
20
235.840230
11
54.871350
21
234.657254
0
LINE
8
Layer 1
10
54.871350
20
234.657254
11
55.969771
21
233.035867
0
LINE
8
Layer 1
10
55.969771
20
233.035867
11
57.569343
21
230.993805
0
LINE
8
Layer 1
10
57.569343
20
230.993805
11
59.064119
21
229.000514
0
LINE
8
Layer 1
10
59.064119
20
229.000514
11
60.084457
21
227.272562
0
LINE
8
Layer 1
10
60.084457
20
227.272562
11
60.640078
21
225.872394
0
LINE
8
Layer 1
10
60.640078
20
225.872394
11
60.740705
21
224.862453
0
LINE
8
Layer 1
10
60.740705
20
224.862453
11
60.623433
21
224.523331
0
LINE
8
Layer 1
10
60.623433
20
224.523331
11
60.396060
21
224.305183
0
LINE
8
Layer 1
10
60.396060
20
224.305183
11
59.615866
21
224.263028
0
LINE
8
Layer 1
10
59.615866
20
224.263028
11
58.409845
21
224.798432
0
LINE
8
Layer 1
10
58.409845
20
224.798432
11
56.787720
21
225.973839
0
LINE
8
Layer 1
10
56.787720
20
225.973839
11
55.432418
21
226.939264
0
LINE
8
Layer 1
10
55.432418
20
226.939264
11
54.426198
21
227.345400
0
LINE
8
Layer 1
10
54.426198
20
227.345400
11
53.777991
21
227.258614
0
LINE
8
Layer 1
10
53.777991
20
227.258614
11
53.496730
21
226.745268
0
LINE
8
Layer 1
10
53.496730
20
226.745268
11
53.591345
21
225.871729
0
LINE
8
Layer 1
10
53.591345
20
225.871729
11
54.070768
21
224.704360
0
LINE
8
Layer 1
10
54.070768
20
224.704360
11
54.943929
21
223.309526
0
LINE
8
Layer 1
10
54.943929
20
223.309526
11
56.219762
21
221.753592
0
LINE
8
Layer 1
10
56.219762
20
221.753592
11
60.008990
21
217.620758
0
LINE
8
Layer 1
10
60.008990
20
217.620758
11
54.843615
21
218.605381
0
LINE
8
Layer 1
10
54.843615
20
218.605381
11
52.629358
21
218.928419
0
LINE
8
Layer 1
10
52.629358
20
218.928419
11
51.234247
21
218.907277
0
LINE
8
Layer 1
10
51.234247
20
218.907277
11
50.839806
21
218.773131
0
LINE
8
Layer 1
10
50.839806
20
218.773131
11
50.645273
21
218.559529
0
LINE
8
Layer 1
10
50.645273
20
218.559529
11
50.649021
21
218.268668
0
LINE
8
Layer 1
10
50.649021
20
218.268668
11
50.849424
21
217.902745
0
LINE
8
Layer 1
10
50.849424
20
217.902745
11
51.833690
21
216.954499
0
LINE
8
Layer 1
10
51.833690
20
216.954499
11
53.585061
21
215.732362
0
LINE
8
Layer 1
10
53.585061
20
215.732362
11
56.090525
21
214.253907
0
LINE
8
Layer 1
10
56.090525
20
214.253907
11
59.337073
21
212.536705
0
LINE
8
Layer 1
10
59.337073
20
212.536705
11
64.786661
21
209.524841
0
LINE
8
Layer 1
10
64.786661
20
209.524841
11
66.444444
21
208.413790
0
LINE
8
Layer 1
10
66.444444
20
208.413790
11
67.053302
21
207.774344
0
LINE
8
Layer 1
10
67.053302
20
207.774344
11
66.909526
21
207.624708
0
LINE
8
Layer 1
10
66.909526
20
207.624708
11
66.497462
21
207.526788
0
LINE
8
Layer 1
10
66.497462
20
207.526788
11
64.984036
21
207.482751
0
LINE
8
Layer 1
10
64.984036
20
207.482751
11
60.008990
21
207.978455
0
LINE
8
Layer 1
10
60.008990
20
207.978455
11
57.273816
21
208.305891
0
LINE
8
Layer 1
10
57.273816
20
208.305891
11
55.033945
21
208.416524
0
LINE
8
Layer 1
10
55.033945
20
208.416524
11
53.520518
21
208.310096
0
LINE
8
Layer 1
10
53.520518
20
208.310096
11
53.108454
21
208.175402
0
LINE
8
Layer 1
10
53.108454
20
208.175402
11
52.964678
21
207.986346
0
LINE
8
Layer 1
10
52.964678
20
207.986346
11
53.543318
21
207.323290
0
LINE
8
Layer 1
10
53.543318
20
207.323290
11
55.118821
21
206.292989
0
LINE
8
Layer 1
10
55.118821
20
206.292989
11
57.450566
21
205.036286
0
LINE
8
Layer 1
10
57.450566
20
205.036286
11
60.297932
21
203.694026
0
LINE
8
Layer 1
10
60.297932
20
203.694026
11
64.098437
21
201.913480
0
LINE
8
Layer 1
10
64.098437
20
201.913480
11
65.250360
21
201.243521
0
LINE
8
Layer 1
10
65.250360
20
201.243521
11
65.951228
21
200.667147
0
LINE
8
Layer 1
10
65.951228
20
200.667147
11
66.236916
21
200.144391
0
LINE
8
Layer 1
10
66.236916
20
200.144391
11
66.143299
21
199.635286
0
LINE
8
Layer 1
10
66.143299
20
199.635286
11
65.706250
21
199.099865
0
LINE
8
Layer 1
10
65.706250
20
199.099865
11
64.961643
21
198.498159
0
LINE
8
Layer 1
10
64.961643
20
198.498159
11
64.229943
21
197.898970
0
LINE
8
Layer 1
10
64.229943
20
197.898970
11
63.823186
21
197.362747
0
LINE
8
Layer 1
10
63.823186
20
197.362747
11
63.783095
21
196.850526
0
LINE
8
Layer 1
10
63.783095
20
196.850526
11
64.151394
21
196.323339
0
LINE
8
Layer 1
10
64.151394
20
196.323339
11
64.969805
21
195.742220
0
LINE
8
Layer 1
10
64.969805
20
195.742220
11
66.280051
21
195.068202
0
LINE
8
Layer 1
10
66.280051
20
195.068202
11
70.542946
21
193.285602
0
LINE
8
Layer 1
10
70.542946
20
193.285602
11
78.928781
21
190.196975
0
LINE
8
Layer 1
10
78.928781
20
190.196975
11
82.503020
21
189.105873
0
LINE
8
Layer 1
10
82.503020
20
189.105873
11
85.862124
21
188.274327
0
LINE
8
Layer 1
10
85.862124
20
188.274327
11
89.154085
21
187.670394
0
LINE
8
Layer 1
10
89.154085
20
187.670394
11
92.526892
21
187.262136
0
LINE
8
Layer 1
10
92.526892
20
187.262136
11
96.128533
21
187.017611
0
LINE
8
Layer 1
10
96.128533
20
187.017611
11
100.106999
21
186.904880
0
LINE
8
Layer 1
10
100.106999
20
186.904880
11
105.292310
21
186.980145
0
LINE
8
Layer 1
10
105.292310
20
186.980145
11
109.101262
21
187.428678
0
LINE
8
Layer 1
10
109.101262
20
187.428678
11
110.624688
21
187.820413
0
LINE
8
Layer 1
10
110.624688
20
187.820413
11
111.966125
21
188.338458
0
LINE
8
Layer 1
10
111.966125
20
188.338458
11
113.179606
21
188.993808
0
LINE
8
Layer 1
10
113.179606
20
188.993808
11
114.319166
21
189.797463
0
LINE
8
Layer 1
10
114.319166
20
189.797463
11
114.319166
21
189.797463
0
LINE
8
Layer 1
10
103.844005
20
196.150054
11
103.075365
21
196.725115
0
LINE
8
Layer 1
10
103.075365
20
196.725115
11
101.694945
21
197.138160
0
LINE
8
Layer 1
10
101.694945
20
197.138160
11
99.898397
21
197.350665
0
LINE
8
Layer 1
10
99.898397
20
197.350665
11
97.881372
21
197.324106
0
LINE
8
Layer 1
10
97.881372
20
197.324106
11
95.226671
21
197.260139
0
LINE
8
Layer 1
10
95.226671
20
197.260139
11
94.323017
21
197.415345
0
LINE
8
Layer 1
10
94.323017
20
197.415345
11
93.646675
21
197.734692
0
LINE
8
Layer 1
10
93.646675
20
197.734692
11
93.156280
21
198.247688
0
LINE
8
Layer 1
10
93.156280
20
198.247688
11
92.810466
21
198.983843
0
LINE
8
Layer 1
10
92.810466
20
198.983843
11
92.387121
21
201.243671
0
LINE
8
Layer 1
10
92.387121
20
201.243671
11
91.971129
21
203.342758
0
LINE
8
Layer 1
10
91.971129
20
203.342758
11
91.643016
21
204.091643
0
LINE
8
Layer 1
10
91.643016
20
204.091643
11
91.210858
21
204.664058
0
LINE
8
Layer 1
10
91.210858
20
204.664058
11
90.656679
21
205.077977
0
LINE
8
Layer 1
10
90.656679
20
205.077977
11
89.962504
21
205.351378
0
LINE
8
Layer 1
10
89.962504
20
205.351378
11
88.082264
21
205.548528
0
LINE
8
Layer 1
10
88.082264
20
205.548528
11
86.149785
21
205.728674
0
LINE
8
Layer 1
10
86.149785
20
205.728674
11
85.483946
21
205.993897
0
LINE
8
Layer 1
10
85.483946
20
205.993897
11
84.988841
21
206.411477
0
LINE
8
Layer 1
10
84.988841
20
206.411477
11
84.642317
21
207.008109
0
LINE
8
Layer 1
10
84.642317
20
207.008109
11
84.422225
21
207.810485
0
LINE
8
Layer 1
10
84.422225
20
207.810485
11
84.272732
21
210.139245
0
LINE
8
Layer 1
10
84.272732
20
210.139245
11
84.453350
21
212.267671
0
LINE
8
Layer 1
10
84.453350
20
212.267671
11
85.014112
21
213.873288
0
LINE
8
Layer 1
10
85.014112
20
213.873288
11
85.445911
21
214.495910
0
LINE
8
Layer 1
10
85.445911
20
214.495910
11
85.983383
21
215.006871
0
LINE
8
Layer 1
10
85.983383
20
215.006871
11
87.389527
21
215.719198
0
LINE
8
Layer 1
10
87.389527
20
215.719198
11
88.874055
21
216.086604
0
LINE
8
Layer 1
10
88.874055
20
216.086604
11
90.155211
21
216.180728
0
LINE
8
Layer 1
10
90.155211
20
216.180728
11
91.234671
21
216.000292
0
LINE
8
Layer 1
10
91.234671
20
216.000292
11
92.114109
21
215.544021
0
LINE
8
Layer 1
10
92.114109
20
215.544021
11
92.795201
21
214.810637
0
LINE
8
Layer 1
10
92.795201
20
214.810637
11
93.279621
21
213.798864
0
LINE
8
Layer 1
10
93.279621
20
213.798864
11
93.569045
21
212.507426
0
LINE
8
Layer 1
10
93.569045
20
212.507426
11
93.665147
21
210.935046
0
LINE
8
Layer 1
10
93.665147
20
210.935046
11
93.833753
21
209.179926
0
LINE
8
Layer 1
10
93.833753
20
209.179926
11
94.369181
21
207.995092
0
LINE
8
Layer 1
10
94.369181
20
207.995092
11
94.788334
21
207.599161
0
LINE
8
Layer 1
10
94.788334
20
207.599161
11
95.315848
21
207.324956
0
LINE
8
Layer 1
10
95.315848
20
207.324956
11
96.718168
21
207.113930
0
LINE
8
Layer 1
10
96.718168
20
207.113930
11
98.002376
21
206.944658
0
LINE
8
Layer 1
10
98.002376
20
206.944658
11
99.242090
21
206.483771
0
LINE
8
Layer 1
10
99.242090
20
206.483771
11
100.296058
21
205.801661
0
LINE
8
Layer 1
10
100.296058
20
205.801661
11
101.023025
21
204.968719
0
LINE
8
Layer 1
10
101.023025
20
204.968719
11
101.817891
21
204.150639
0
LINE
8
Layer 1
10
101.817891
20
204.150639
11
103.056728
21
203.509016
0
LINE
8
Layer 1
10
103.056728
20
203.509016
11
104.570050
21
203.108056
0
LINE
8
Layer 1
10
104.570050
20
203.108056
11
106.188369
21
203.011965
0
LINE
8
Layer 1
10
106.188369
20
203.011965
11
108.155213
21
202.922254
0
LINE
8
Layer 1
10
108.155213
20
202.922254
11
108.867655
21
202.693736
0
LINE
8
Layer 1
10
108.867655
20
202.693736
11
109.428681
21
202.315478
0
LINE
8
Layer 1
10
109.428681
20
202.315478
11
109.860220
21
201.767007
0
LINE
8
Layer 1
10
109.860220
20
201.767007
11
110.184200
21
201.027847
0
LINE
8
Layer 1
10
110.184200
20
201.027847
11
110.597199
21
198.895568
0
LINE
8
Layer 1
10
110.597199
20
198.895568
11
110.702352
21
196.775459
0
LINE
8
Layer 1
10
110.702352
20
196.775459
11
110.593525
21
196.025698
0
LINE
8
Layer 1
10
110.593525
20
196.025698
11
110.360922
21
195.456495
0
LINE
8
Layer 1
10
110.360922
20
195.456495
11
109.992412
21
195.048123
0
LINE
8
Layer 1
10
109.992412
20
195.048123
11
109.475864
21
194.780853
0
LINE
8
Layer 1
10
109.475864
20
194.780853
11
107.950135
21
194.590711
0
LINE
8
Layer 1
10
107.950135
20
194.590711
11
106.653960
21
194.713753
0
LINE
8
Layer 1
10
106.653960
20
194.713753
11
105.447725
21
195.048768
0
LINE
8
Layer 1
10
105.447725
20
195.048768
11
104.466164
21
195.544591
0
LINE
8
Layer 1
10
104.466164
20
195.544591
11
103.844005
21
196.150054
0
LINE
8
Layer 1
10
103.844005
20
196.150054
11
103.844005
21
196.150054
0
LINE
8
Layer 1
10
93.727843
20
232.867529
11
92.806279
21
234.180125
0
LINE
8
Layer 1
10
92.806279
20
234.180125
11
92.499090
21
235.291178
0
LINE
8
Layer 1
10
92.499090
20
235.291178
11
92.806279
21
236.402232
0
LINE
8
Layer 1
10
92.806279
20
236.402232
11
93.727843
21
237.714828
0
LINE
8
Layer 1
10
93.727843
20
237.714828
11
94.996206
21
238.888071
0
LINE
8
Layer 1
10
94.996206
20
238.888071
11
96.387392
21
239.588511
0
LINE
8
Layer 1
10
96.387392
20
239.588511
11
97.811420
21
239.841663
0
LINE
8
Layer 1
10
97.811420
20
239.841663
11
99.178310
21
239.673045
0
LINE
8
Layer 1
10
99.178310
20
239.673045
11
100.398079
21
239.108171
0
LINE
8
Layer 1
10
100.398079
20
239.108171
11
101.380749
21
238.172558
0
LINE
8
Layer 1
10
101.380749
20
238.172558
11
102.036336
21
236.891723
0
LINE
8
Layer 1
10
102.036336
20
236.891723
11
102.274861
21
235.291180
0
LINE
8
Layer 1
10
102.274861
20
235.291180
11
102.036336
21
233.690637
0
LINE
8
Layer 1
10
102.036336
20
233.690637
11
101.380749
21
232.409801
0
LINE
8
Layer 1
10
101.380749
20
232.409801
11
100.398079
21
231.474188
0
LINE
8
Layer 1
10
100.398079
20
231.474188
11
99.178310
21
230.909314
0
LINE
8
Layer 1
10
99.178310
20
230.909314
11
97.811420
21
230.740695
0
LINE
8
Layer 1
10
97.811420
20
230.740695
11
96.387392
21
230.993847
0
LINE
8
Layer 1
10
96.387392
20
230.993847
11
94.996206
21
231.694286
0
LINE
8
Layer 1
10
94.996206
20
231.694286
11
93.727843
21
232.867529
0
LINE
8
Layer 1
10
93.727843
20
232.867529
11
93.727843
21
232.867529
0
LINE
8
Layer 1
10
120.276993
20
234.557600
11
120.458490
21
236.239484
0
LINE
8
Layer 1
10
120.458490
20
236.239484
11
120.965543
21
237.612402
0
LINE
8
Layer 1
10
120.965543
20
237.612402
11
121.741991
21
238.650822
0
LINE
8
Layer 1
10
121.741991
20
238.650822
11
122.731675
21
239.329215
0
LINE
8
Layer 1
10
122.731675
20
239.329215
11
123.878435
21
239.622050
0
LINE
8
Layer 1
10
123.878435
20
239.622050
11
125.126111
21
239.503797
0
LINE
8
Layer 1
10
125.126111
20
239.503797
11
126.418542
21
238.948925
0
LINE
8
Layer 1
10
126.418542
20
238.948925
11
127.699570
21
237.931905
0
LINE
8
Layer 1
10
127.699570
20
237.931905
11
128.870020
21
236.582329
0
LINE
8
Layer 1
10
128.870020
20
236.582329
11
129.185480
21
236.006053
0
LINE
8
Layer 1
10
129.185480
20
236.006053
11
129.324565
21
235.459180
0
LINE
8
Layer 1
10
129.324565
20
235.459180
11
129.289878
21
234.914506
0
LINE
8
Layer 1
10
129.289878
20
234.914506
11
129.084020
21
234.344827
0
LINE
8
Layer 1
10
129.084020
20
234.344827
11
128.169204
21
233.021642
0
LINE
8
Layer 1
10
128.169204
20
233.021642
11
126.886528
21
231.762068
0
LINE
8
Layer 1
10
126.886528
20
231.762068
11
125.549594
21
230.944255
0
LINE
8
Layer 1
10
125.549594
20
230.944255
11
124.227839
21
230.554689
0
LINE
8
Layer 1
10
124.227839
20
230.554689
11
122.990697
21
230.579857
0
LINE
8
Layer 1
10
122.990697
20
230.579857
11
121.907605
21
231.006245
0
LINE
8
Layer 1
10
121.907605
20
231.006245
11
121.048000
21
231.820340
0
LINE
8
Layer 1
10
121.048000
20
231.820340
11
120.481317
21
233.008629
0
LINE
8
Layer 1
10
120.481317
20
233.008629
11
120.276993
21
234.557600
0
LINE
8
Layer 1
10
120.276993
20
234.557600
11
120.276993
21
234.557600
0
LINE
8
Layer 1
10
133.752308
20
211.669549
11
135.107633
21
210.694170
0
LINE
8
Layer 1
10
135.107633
20
210.694170
11
135.649647
21
210.467544
0
LINE
8
Layer 1
10
135.649647
20
210.467544
11
136.136615
21
210.417960
0
LINE
8
Layer 1
10
136.136615
20
210.417960
11
136.595076
21
210.547666
0
LINE
8
Layer 1
10
136.595076
20
210.547666
11
137.051568
21
210.858912
0
LINE
8
Layer 1
10
137.051568
20
210.858912
11
138.064804
21
212.035024
0
LINE
8
Layer 1
10
138.064804
20
212.035024
11
139.063915
21
213.141224
0
LINE
8
Layer 1
10
139.063915
20
213.141224
11
140.064743
21
213.615665
0
LINE
8
Layer 1
10
140.064743
20
213.615665
11
141.208447
21
213.480686
0
LINE
8
Layer 1
10
141.208447
20
213.480686
11
142.636186
21
212.758631
0
LINE
8
Layer 1
10
142.636186
20
212.758631
11
144.029353
21
212.036707
0
LINE
8
Layer 1
10
144.029353
20
212.036707
11
145.106486
21
211.859405
0
LINE
8
Layer 1
10
145.106486
20
211.859405
11
145.979016
21
212.238246
0
LINE
8
Layer 1
10
145.979016
20
212.238246
11
146.758378
21
213.184750
0
LINE
8
Layer 1
10
146.758378
20
213.184750
11
147.402843
21
213.947046
0
LINE
8
Layer 1
10
147.402843
20
213.947046
11
148.162700
21
214.427860
0
LINE
8
Layer 1
10
148.162700
20
214.427860
11
148.943092
21
214.587735
0
LINE
8
Layer 1
10
148.943092
20
214.587735
11
149.649160
21
214.387214
0
LINE
8
Layer 1
10
149.649160
20
214.387214
11
150.118026
21
214.243344
0
LINE
8
Layer 1
10
150.118026
20
214.243344
11
150.832981
21
214.216736
0
LINE
8
Layer 1
10
150.832981
20
214.216736
11
152.857197
21
214.469551
0
LINE
8
Layer 1
10
152.857197
20
214.469551
11
155.433881
21
215.054151
0
LINE
8
Layer 1
10
155.433881
20
215.054151
11
158.275104
21
215.879028
0
LINE
8
Layer 1
10
158.275104
20
215.879028
11
161.092938
21
216.852675
0
LINE
8
Layer 1
10
161.092938
20
216.852675
11
163.599456
21
217.883584
0
LINE
8
Layer 1
10
163.599456
20
217.883584
11
165.506729
21
218.880249
0
LINE
8
Layer 1
10
165.506729
20
218.880249
11
166.526831
21
219.751161
0
LINE
8
Layer 1
10
166.526831
20
219.751161
11
166.533827
21
219.892936
0
LINE
8
Layer 1
10
166.533827
20
219.892936
11
166.375252
21
220.020438
0
LINE
8
Layer 1
10
166.375252
20
220.020438
11
165.587906
21
220.231880
0
LINE
8
Layer 1
10
165.587906
20
220.231880
11
162.318097
21
220.475284
0
LINE
8
Layer 1
10
162.318097
20
220.475284
11
157.141769
21
220.469438
0
LINE
8
Layer 1
10
157.141769
20
220.469438
11
150.483285
21
220.202403
0
LINE
8
Layer 1
10
150.483285
20
220.202403
11
142.077620
21
219.884647
0
LINE
8
Layer 1
10
142.077620
20
219.884647
11
135.348190
21
219.995713
0
LINE
8
Layer 1
10
135.348190
20
219.995713
11
129.733209
21
220.566640
0
LINE
8
Layer 1
10
129.733209
20
220.566640
11
124.670891
21
221.628469
0
LINE
8
Layer 1
10
124.670891
20
221.628469
11
118.880487
21
223.003293
0
LINE
8
Layer 1
10
118.880487
20
223.003293
11
117.002046
21
223.224286
0
LINE
8
Layer 1
10
117.002046
20
223.224286
11
115.676043
21
223.098617
0
LINE
8
Layer 1
10
115.676043
20
223.098617
11
114.808426
21
222.599496
0
LINE
8
Layer 1
10
114.808426
20
222.599496
11
114.305145
21
221.700136
0
LINE
8
Layer 1
10
114.305145
20
221.700136
11
114.072147
21
220.373748
0
LINE
8
Layer 1
10
114.072147
20
220.373748
11
114.015382
21
218.593544
0
LINE
8
Layer 1
10
114.015382
20
218.593544
11
114.118480
21
217.271557
0
LINE
8
Layer 1
10
114.118480
20
217.271557
11
114.401535
21
216.230235
0
LINE
8
Layer 1
10
114.401535
20
216.230235
11
114.825187
21
215.487819
0
LINE
8
Layer 1
10
114.825187
20
215.487819
11
115.350079
21
215.062549
0
LINE
8
Layer 1
10
115.350079
20
215.062549
11
115.936851
21
214.972662
0
LINE
8
Layer 1
10
115.936851
20
214.972662
11
116.546143
21
215.236398
0
LINE
8
Layer 1
10
116.546143
20
215.236398
11
117.138598
21
215.871996
0
LINE
8
Layer 1
10
117.138598
20
215.871996
11
117.674856
21
216.897696
0
LINE
8
Layer 1
10
117.674856
20
216.897696
11
117.991179
21
217.379547
0
LINE
8
Layer 1
10
117.991179
20
217.379547
11
118.268787
21
217.245021
0
LINE
8
Layer 1
10
118.268787
20
217.245021
11
118.477716
21
216.545482
0
LINE
8
Layer 1
10
118.477716
20
216.545482
11
118.588003
21
215.332294
0
LINE
8
Layer 1
10
118.588003
20
215.332294
11
118.735201
21
214.044389
0
LINE
8
Layer 1
10
118.735201
20
214.044389
11
119.051838
21
213.037692
0
LINE
8
Layer 1
10
119.051838
20
213.037692
11
119.500304
21
212.327632
0
LINE
8
Layer 1
10
119.500304
20
212.327632
11
120.042991
21
211.929638
0
LINE
8
Layer 1
10
120.042991
20
211.929638
11
120.642292
21
211.859139
0
LINE
8
Layer 1
10
120.642292
20
211.859139
11
121.260599
21
212.131563
0
LINE
8
Layer 1
10
121.260599
20
212.131563
11
121.860303
21
212.762338
0
LINE
8
Layer 1
10
121.860303
20
212.762338
11
122.403797
21
213.766892
0
LINE
8
Layer 1
10
122.403797
20
213.766892
11
122.879079
21
214.498698
0
LINE
8
Layer 1
10
122.879079
20
214.498698
11
123.150904
21
214.630578
0
LINE
8
Layer 1
10
123.150904
20
214.630578
11
123.450747
21
214.604696
0
LINE
8
Layer 1
10
123.450747
20
214.604696
11
124.150167
21
214.074416
0
LINE
8
Layer 1
10
124.150167
20
214.074416
11
125.008705
21
212.897388
0
LINE
8
Layer 1
10
125.008705
20
212.897388
11
125.981378
21
211.598103
0
LINE
8
Layer 1
10
125.981378
20
211.598103
11
126.431655
21
211.222472
0
LINE
8
Layer 1
10
126.431655
20
211.222472
11
126.880912
21
211.023868
0
LINE
8
Layer 1
10
126.880912
20
211.023868
11
127.346416
21
210.998055
0
LINE
8
Layer 1
10
127.346416
20
210.998055
11
127.845433
21
211.140798
0
LINE
8
Layer 1
10
127.845433
20
211.140798
11
129.013066
21
211.915007
0
LINE
8
Layer 1
10
129.013066
20
211.915007
11
130.204446
21
212.705084
0
LINE
8
Layer 1
10
130.204446
20
212.705084
11
131.296952
21
212.932429
0
LINE
8
Layer 1
10
131.296952
20
212.932429
11
132.432325
21
212.589698
0
LINE
8
Layer 1
10
132.432325
20
212.589698
11
133.752308
21
211.669549
0
LINE
8
Layer 1
10
133.752308
20
211.669549
11
133.752308
21
211.669549
0
LINE
8
Layer 1
10
148.967255
20
249.948936
11
151.175417
21
251.120470
0
LINE
8
Layer 1
10
151.175417
20
251.120470
11
153.411258
21
252.732377
0
LINE
8
Layer 1
10
153.411258
20
252.732377
11
155.413765
21
254.572095
0
LINE
8
Layer 1
10
155.413765
20
254.572095
11
156.921925
21
256.427059
0
LINE
8
Layer 1
10
156.921925
20
256.427059
11
159.767953
21
260.770628
0
LINE
8
Layer 1
10
159.767953
20
260.770628
11
155.285158
21
259.759330
0
LINE
8
Layer 1
10
155.285158
20
259.759330
11
147.145894
21
258.092128
0
LINE
8
Layer 1
10
147.145894
20
258.092128
11
139.559127
21
256.913252
0
LINE
8
Layer 1
10
139.559127
20
256.913252
11
132.359034
21
256.223825
0
LINE
8
Layer 1
10
132.359034
20
256.223825
11
125.379796
21
256.024966
0
LINE
8
Layer 1
10
125.379796
20
256.024966
11
118.455591
21
256.317797
0
LINE
8
Layer 1
10
118.455591
20
256.317797
11
111.420598
21
257.103437
0
LINE
8
Layer 1
10
111.420598
20
257.103437
11
104.108995
21
258.383008
0
LINE
8
Layer 1
10
104.108995
20
258.383008
11
96.354962
21
260.157630
0
LINE
8
Layer 1
10
96.354962
20
260.157630
11
91.911082
21
261.427920
0
LINE
8
Layer 1
10
91.911082
20
261.427920
11
87.264681
21
263.029421
0
LINE
8
Layer 1
10
87.264681
20
263.029421
11
82.565721
21
264.891426
0
LINE
8
Layer 1
10
82.565721
20
264.891426
11
77.964161
21
266.943227
0
LINE
8
Layer 1
10
77.964161
20
266.943227
11
73.609963
21
269.114118
0
LINE
8
Layer 1
10
73.609963
20
269.114118
11
69.653087
21
271.333390
0
LINE
8
Layer 1
10
69.653087
20
271.333390
11
66.243495
21
273.530337
0
LINE
8
Layer 1
10
66.243495
20
273.530337
11
63.531146
21
275.634250
0
LINE
8
Layer 1
10
63.531146
20
275.634250
11
62.481335
21
276.435463
0
LINE
8
Layer 1
10
62.481335
20
276.435463
11
61.675634
21
276.818574
0
LINE
8
Layer 1
10
61.675634
20
276.818574
11
61.127983
21
276.830819
0
LINE
8
Layer 1
10
61.127983
20
276.830819
11
60.852326
21
276.519432
0
LINE
8
Layer 1
10
60.852326
20
276.519432
11
60.862601
21
275.931652
0
LINE
8
Layer 1
10
60.862601
20
275.931652
11
61.172752
21
275.114712
0
LINE
8
Layer 1
10
61.172752
20
275.114712
11
61.796720
21
274.115850
0
LINE
8
Layer 1
10
61.796720
20
274.115850
11
62.748445
21
272.982301
0
LINE
8
Layer 1
10
62.748445
20
272.982301
11
63.596293
21
272.010021
0
LINE
8
Layer 1
10
63.596293
20
272.010021
11
63.736364
21
271.752133
0
LINE
8
Layer 1
10
63.736364
20
271.752133
11
63.676268
21
271.644162
0
LINE
8
Layer 1
10
63.676268
20
271.644162
11
62.922776
21
271.871208
0
LINE
8
Layer 1
10
62.922776
20
271.871208
11
61.270219
21
272.677642
0
LINE
8
Layer 1
10
61.270219
20
272.677642
11
58.561607
21
274.381849
0
LINE
8
Layer 1
10
58.561607
20
274.381849
11
57.517658
21
275.256218
0
LINE
8
Layer 1
10
57.517658
20
275.256218
11
56.872988
21
276.000069
0
LINE
8
Layer 1
10
56.872988
20
276.000069
11
56.159955
21
276.940758
0
LINE
8
Layer 1
10
56.159955
20
276.940758
11
55.470248
21
277.491498
0
LINE
8
Layer 1
10
55.470248
20
277.491498
11
54.852228
21
277.684777
0
LINE
8
Layer 1
10
54.852228
20
277.684777
11
54.354257
21
277.553079
0
LINE
8
Layer 1
10
54.354257
20
277.553079
11
54.024695
21
277.128891
0
LINE
8
Layer 1
10
54.024695
20
277.128891
11
53.911904
21
276.444698
0
LINE
8
Layer 1
10
53.911904
20
276.444698
11
54.064245
21
275.532988
0
LINE
8
Layer 1
10
54.064245
20
275.532988
11
54.530080
21
274.426246
0
LINE
8
Layer 1
10
54.530080
20
274.426246
11
55.273136
21
272.817354
0
LINE
8
Layer 1
10
55.273136
20
272.817354
11
55.388540
21
272.269282
0
LINE
8
Layer 1
10
55.388540
20
272.269282
11
55.320377
21
271.865551
0
LINE
8
Layer 1
10
55.320377
20
271.865551
11
55.059031
21
271.586231
0
LINE
8
Layer 1
10
55.059031
20
271.586231
11
54.594888
21
271.411393
0
LINE
8
Layer 1
10
54.594888
20
271.411393
11
53.019748
21
271.295439
0
LINE
8
Layer 1
10
53.019748
20
271.295439
11
51.782732
21
271.197913
0
LINE
8
Layer 1
10
51.782732
20
271.197913
11
50.769724
21
270.932370
0
LINE
8
Layer 1
10
50.769724
20
270.932370
11
50.085259
21
270.539362
0
LINE
8
Layer 1
10
50.085259
20
270.539362
11
49.833874
21
270.059444
0
LINE
8
Layer 1
10
49.833874
20
270.059444
11
50.067992
21
269.572967
0
LINE
8
Layer 1
10
50.067992
20
269.572967
11
50.739698
21
268.918029
0
LINE
8
Layer 1
10
50.739698
20
268.918029
11
53.211984
21
267.194288
0
LINE
8
Layer 1
10
53.211984
20
267.194288
11
56.882959
21
265.071264
0
LINE
8
Layer 1
10
56.882959
20
265.071264
11
61.384845
21
262.732003
0
LINE
8
Layer 1
10
61.384845
20
262.732003
11
66.349868
21
260.359546
0
LINE
8
Layer 1
10
66.349868
20
260.359546
11
71.410251
21
258.136938
0
LINE
8
Layer 1
10
71.410251
20
258.136938
11
76.198219
21
256.247222
0
LINE
8
Layer 1
10
76.198219
20
256.247222
11
80.345997
21
254.873442
0
LINE
8
Layer 1
10
80.345997
20
254.873442
11
84.563709
21
253.764492
0
LINE
8
Layer 1
10
84.563709
20
253.764492
11
89.095178
21
252.740529
0
LINE
8
Layer 1
10
89.095178
20
252.740529
11
98.838579
21
250.966278
0
LINE
8
Layer 1
10
98.838579
20
250.966278
11
109.054586
21
249.588124
0
LINE
8
Layer 1
10
109.054586
20
249.588124
11
119.221587
21
248.643498
0
LINE
8
Layer 1
10
119.221587
20
248.643498
11
128.817967
21
248.169834
0
LINE
8
Layer 1
10
128.817967
20
248.169834
11
137.322114
21
248.204563
0
LINE
8
Layer 1
10
137.322114
20
248.204563
11
141.001596
21
248.424274
0
LINE
8
Layer 1
10
141.001596
20
248.424274
11
144.212415
21
248.785120
0
LINE
8
Layer 1
10
144.212415
20
248.785120
11
146.889368
21
249.291781
0
LINE
8
Layer 1
10
146.889368
20
249.291781
11
148.967255
21
249.948936
0
LINE
8
Layer 1
10
148.967255
20
249.948936
11
148.967255
21
249.948936
0
LINE
8
Layer 1
10
134.132026
20
260.490748
11
136.215944
21
261.410872
0
LINE
8
Layer 1
10
136.215944
20
261.410872
11
137.764603
21
262.512860
0
LINE
8
Layer 1
10
137.764603
20
262.512860
11
138.729423
21
263.751475
0
LINE
8
Layer 1
10
138.729423
20
263.751475
11
138.977712
21
264.407881
0
LINE
8
Layer 1
10
138.977712
20
264.407881
11
139.061825
21
265.081479
0
LINE
8
Layer 1
10
139.061825
20
265.081479
11
138.993528
21
266.136481
0
LINE
8
Layer 1
10
138.993528
20
266.136481
11
138.696143
21
266.995855
0
LINE
8
Layer 1
10
138.696143
20
266.995855
11
138.030928
21
267.718651
0
LINE
8
Layer 1
10
138.030928
20
267.718651
11
136.859141
21
268.363915
0
LINE
8
Layer 1
10
136.859141
20
268.363915
11
135.042040
21
268.990695
0
LINE
8
Layer 1
10
135.042040
20
268.990695
11
132.440883
21
269.658038
0
LINE
8
Layer 1
10
132.440883
20
269.658038
11
124.331434
21
271.350605
0
LINE
8
Layer 1
10
124.331434
20
271.350605
11
120.192939
21
272.297733
0
LINE
8
Layer 1
10
120.192939
20
272.297733
11
115.763754
21
273.519200
0
LINE
8
Layer 1
10
115.763754
20
273.519200
11
111.574621
21
274.857373
0
LINE
8
Layer 1
10
111.574621
20
274.857373
11
108.156285
21
276.154623
0
LINE
8
Layer 1
10
108.156285
20
276.154623
11
102.505226
21
278.342846
0
LINE
8
Layer 1
10
102.505226
20
278.342846
11
100.699306
21
278.826649
0
LINE
8
Layer 1
10
100.699306
20
278.826649
11
99.576626
21
278.904143
0
LINE
8
Layer 1
10
99.576626
20
278.904143
11
99.272321
21
278.790657
0
LINE
8
Layer 1
10
99.272321
20
278.790657
11
99.139810
21
278.575751
0
LINE
8
Layer 1
10
99.139810
20
278.575751
11
99.391483
21
277.841894
0
LINE
8
Layer 1
10
99.391483
20
277.841894
11
100.334271
21
276.702996
0
LINE
8
Layer 1
10
100.334271
20
276.702996
11
101.970798
21
275.159479
0
LINE
8
Layer 1
10
101.970798
20
275.159479
11
103.665822
21
273.595712
0
LINE
8
Layer 1
10
103.665822
20
273.595712
11
104.713374
21
272.458295
0
LINE
8
Layer 1
10
104.713374
20
272.458295
11
105.116199
21
271.747572
0
LINE
8
Layer 1
10
105.116199
20
271.747572
11
105.076696
21
271.552328
0
LINE
8
Layer 1
10
105.076696
20
271.552328
11
104.877041
21
271.463887
0
LINE
8
Layer 1
10
104.877041
20
271.463887
11
103.998645
21
271.607584
0
LINE
8
Layer 1
10
103.998645
20
271.607584
11
102.483755
21
272.179007
0
LINE
8
Layer 1
10
102.483755
20
272.179007
11
97.555471
21
274.606408
0
LINE
8
Layer 1
10
97.555471
20
274.606408
11
91.317044
21
277.917391
0
LINE
8
Layer 1
10
91.317044
20
277.917391
11
94.839200
21
274.114167
0
LINE
8
Layer 1
10
94.839200
20
274.114167
11
96.544292
21
272.186351
0
LINE
8
Layer 1
10
96.544292
20
272.186351
11
97.639509
21
270.737989
0
LINE
8
Layer 1
10
97.639509
20
270.737989
11
98.119654
21
269.766060
0
LINE
8
Layer 1
10
98.119654
20
269.766060
11
98.127452
21
269.457814
0
LINE
8
Layer 1
10
98.127452
20
269.457814
11
97.979532
21
269.267544
0
LINE
8
Layer 1
10
97.979532
20
269.267544
11
97.213946
21
269.239418
0
LINE
8
Layer 1
10
97.213946
20
269.239418
11
95.817701
21
269.678662
0
LINE
8
Layer 1
10
95.817701
20
269.678662
11
91.112444
21
271.947178
0
LINE
8
Layer 1
10
91.112444
20
271.947178
11
87.311423
21
273.848385
0
LINE
8
Layer 1
10
87.311423
20
273.848385
11
85.922566
21
274.403791
0
LINE
8
Layer 1
10
85.922566
20
274.403791
11
84.795652
21
274.710189
0
LINE
8
Layer 1
10
84.795652
20
274.710189
11
83.871312
21
274.778423
0
LINE
8
Layer 1
10
83.871312
20
274.778423
11
83.090174
21
274.619337
0
LINE
8
Layer 1
10
83.090174
20
274.619337
11
82.392870
21
274.243774
0
LINE
8
Layer 1
10
82.392870
20
274.243774
11
81.720030
21
273.662578
0
LINE
8
Layer 1
10
81.720030
20
273.662578
11
80.206176
21
271.897767
0
LINE
8
Layer 1
10
80.206176
20
271.897767
11
79.745659
21
271.165604
0
LINE
8
Layer 1
10
79.745659
20
271.165604
11
79.576524
21
270.664754
0
LINE
8
Layer 1
10
79.576524
20
270.664754
11
79.679538
21
270.317235
0
LINE
8
Layer 1
10
79.679538
20
270.317235
11
79.981494
21
269.932198
0
LINE
8
Layer 1
10
79.981494
20
269.932198
11
81.139705
21
269.066340
0
LINE
8
Layer 1
10
81.139705
20
269.066340
11
82.966102
21
268.100714
0
LINE
8
Layer 1
10
82.966102
20
268.100714
11
85.375635
21
267.068855
0
LINE
8
Layer 1
10
85.375635
20
267.068855
11
91.603892
21
264.940571
0
LINE
8
Layer 1
10
91.603892
20
264.940571
11
99.144057
21
262.949762
0
LINE
8
Layer 1
10
99.144057
20
262.949762
11
105.946687
21
261.448891
0
LINE
8
Layer 1
10
105.946687
20
261.448891
11
111.799606
21
260.306987
0
LINE
8
Layer 1
10
111.799606
20
260.306987
11
116.830651
21
259.515066
0
LINE
8
Layer 1
10
116.830651
20
259.515066
11
121.167658
21
259.064144
0
LINE
8
Layer 1
10
121.167658
20
259.064144
11
124.938462
21
258.945236
0
LINE
8
Layer 1
10
124.938462
20
258.945236
11
128.270901
21
259.149357
0
LINE
8
Layer 1
10
128.270901
20
259.149357
11
131.292811
21
259.667523
0
LINE
8
Layer 1
10
131.292811
20
259.667523
11
134.132026
21
260.490748
0
LINE
8
Layer 1
10
134.132026
20
260.490748
11
134.132026
21
260.490748
0
LINE
8
Layer 1
10
154.674838
20
263.409942
11
155.714592
21
264.307453
0
LINE
8
Layer 1
10
155.714592
20
264.307453
11
155.906548
21
264.788121
0
LINE
8
Layer 1
10
155.906548
20
264.788121
11
155.867918
21
265.335208
0
LINE
8
Layer 1
10
155.867918
20
265.335208
11
155.589719
21
265.982570
0
LINE
8
Layer 1
10
155.589719
20
265.982570
11
155.062971
21
266.764065
0
LINE
8
Layer 1
10
155.062971
20
266.764065
11
153.227905
21
268.864885
0
LINE
8
Layer 1
10
153.227905
20
268.864885
11
151.626373
21
270.416441
0
LINE
8
Layer 1
10
151.626373
20
270.416441
11
150.040852
21
271.687030
0
LINE
8
Layer 1
10
150.040852
20
271.687030
11
148.654365
21
272.545536
0
LINE
8
Layer 1
10
148.654365
20
272.545536
11
147.649938
21
272.860841
0
LINE
8
Layer 1
10
147.649938
20
272.860841
11
146.909970
21
272.579350
0
LINE
8
Layer 1
10
146.909970
20
272.579350
11
146.054496
21
271.811211
0
LINE
8
Layer 1
10
146.054496
20
271.811211
11
145.149527
21
270.670924
0
LINE
8
Layer 1
10
145.149527
20
270.670924
11
144.261073
21
269.272990
0
LINE
8
Layer 1
10
144.261073
20
269.272990
11
143.455145
21
267.731907
0
LINE
8
Layer 1
10
143.455145
20
267.731907
11
142.797754
21
266.162177
0
LINE
8
Layer 1
10
142.797754
20
266.162177
11
142.354912
21
264.678300
0
LINE
8
Layer 1
10
142.354912
20
264.678300
11
142.192629
21
263.394776
0
LINE
8
Layer 1
10
142.192629
20
263.394776
11
142.299515
21
263.058666
0
LINE
8
Layer 1
10
142.299515
20
263.058666
11
142.604673
21
262.767629
0
LINE
8
Layer 1
10
142.604673
20
262.767629
11
143.716800
21
262.320662
0
LINE
8
Layer 1
10
143.716800
20
262.320662
11
145.343001
21
262.053647
0
LINE
8
Layer 1
10
145.343001
20
262.053647
11
147.297269
21
261.966358
0
LINE
8
Layer 1
10
147.297269
20
261.966358
11
149.393594
21
262.058570
0
LINE
8
Layer 1
10
149.393594
20
262.058570
11
151.445970
21
262.330055
0
LINE
8
Layer 1
10
151.445970
20
262.330055
11
153.268387
21
262.780588
0
LINE
8
Layer 1
10
153.268387
20
262.780588
11
154.674838
21
263.409942
0
LINE
8
Layer 1
10
154.674838
20
263.409942
11
154.674838
21
263.409942
0
LINE
8
Layer 1
10
145.453159
20
284.794579
11
147.576870
21
289.578544
0
LINE
8
Layer 1
10
147.576870
20
289.578544
11
149.000167
21
293.415318
0
LINE
8
Layer 1
10
149.000167
20
293.415318
11
149.628337
21
296.008049
0
LINE
8
Layer 1
10
149.628337
20
296.008049
11
149.614652
21
296.745132
0
LINE
8
Layer 1
10
149.614652
20
296.745132
11
149.366667
21
297.059884
0
LINE
8
Layer 1
10
149.366667
20
297.059884
11
131.626161
21
302.174148
0
LINE
8
Layer 1
10
131.626161
20
302.174148
11
122.374243
21
304.638276
0
LINE
8
Layer 1
10
122.374243
20
304.638276
11
119.143613
21
305.292565
0
LINE
8
Layer 1
10
119.143613
20
305.292565
11
116.889084
21
305.559759
0
LINE
8
Layer 1
10
116.889084
20
305.559759
11
115.645069
21
305.438421
0
LINE
8
Layer 1
10
115.645069
20
305.438421
11
115.412759
21
305.231606
0
LINE
8
Layer 1
10
115.412759
20
305.231606
11
115.445982
21
304.927119
0
LINE
8
Layer 1
10
115.445982
20
304.927119
11
116.326234
21
304.024417
0
LINE
8
Layer 1
10
116.326234
20
304.024417
11
118.320239
21
302.728882
0
LINE
8
Layer 1
10
118.320239
20
302.728882
11
119.498512
21
301.941378
0
LINE
8
Layer 1
10
119.498512
20
301.941378
11
119.922349
21
301.418707
0
LINE
8
Layer 1
10
119.922349
20
301.418707
11
119.878160
21
301.254128
0
LINE
8
Layer 1
10
119.878160
20
301.254128
11
119.677529
21
301.152690
0
LINE
8
Layer 1
10
119.677529
20
301.152690
11
118.849831
21
301.135151
0
LINE
8
Layer 1
10
118.849831
20
301.135151
11
115.788915
21
301.812788
0
LINE
8
Layer 1
10
115.788915
20
301.812788
11
111.425832
21
303.386194
0
LINE
8
Layer 1
10
111.425832
20
303.386194
11
106.433073
21
305.248144
0
LINE
8
Layer 1
10
106.433073
20
305.248144
11
104.966795
21
305.575731
0
LINE
8
Layer 1
10
104.966795
20
305.575731
11
104.183133
21
305.498458
0
LINE
8
Layer 1
10
104.183133
20
305.498458
11
104.046319
21
305.307388
0
LINE
8
Layer 1
10
104.046319
20
305.307388
11
104.079001
21
305.014371
0
LINE
8
Layer 1
10
104.079001
20
305.014371
11
104.651309
21
304.121518
0
LINE
8
Layer 1
10
104.651309
20
304.121518
11
105.896970
21
302.817948
0
LINE
8
Layer 1
10
105.896970
20
302.817948
11
107.812896
21
301.101707
0
LINE
8
Layer 1
10
107.812896
20
301.101707
11
111.232041
21
298.017829
0
LINE
8
Layer 1
10
111.232041
20
298.017829
11
111.949459
21
297.143004
0
LINE
8
Layer 1
10
111.949459
20
297.143004
11
112.049278
21
296.864166
0
LINE
8
Layer 1
10
112.049278
20
296.864166
11
111.972372
21
296.687920
0
LINE
8
Layer 1
10
111.972372
20
296.687920
11
111.275979
21
296.633828
0
LINE
8
Layer 1
10
111.275979
20
296.633828
11
109.835482
21
296.961975
0
LINE
8
Layer 1
10
109.835482
20
296.961975
11
104.622967
21
298.689985
0
LINE
8
Layer 1
10
104.622967
20
298.689985
11
99.351880
21
300.434869
0
LINE
8
Layer 1
10
99.351880
20
300.434869
11
97.938771
21
300.734907
0
LINE
8
Layer 1
10
97.938771
20
300.734907
11
97.313195
21
300.614168
0
LINE
8
Layer 1
10
97.313195
20
300.614168
11
97.289304
21
300.386827
0
LINE
8
Layer 1
10
97.289304
20
300.386827
11
97.454583
21
300.043274
0
LINE
8
Layer 1
10
97.454583
20
300.043274
11
98.342369
21
298.992844
0
LINE
8
Layer 1
10
98.342369
20
298.992844
11
102.274861
21
295.335859
0
LINE
8
Layer 1
10
102.274861
20
295.335859
11
104.535048
21
293.194225
0
LINE
8
Layer 1
10
104.535048
20
293.194225
11
105.864260
21
291.660094
0
LINE
8
Layer 1
10
105.864260
20
291.660094
11
106.154431
21
291.156911
0
LINE
8
Layer 1
10
106.154431
20
291.156911
11
106.181475
21
290.848887
0
LINE
8
Layer 1
10
106.181475
20
290.848887
11
105.935263
21
290.750450
0
LINE
8
Layer 1
10
105.935263
20
290.750450
11
105.405668
21
290.876028
0
LINE
8
Layer 1
10
105.405668
20
290.876028
11
99.144057
21
292.851722
0
LINE
8
Layer 1
10
99.144057
20
292.851722
11
97.445420
21
293.263068
0
LINE
8
Layer 1
10
97.445420
20
293.263068
11
97.006384
21
293.282972
0
LINE
8
Layer 1
10
97.006384
20
293.282972
11
96.835493
21
293.148007
0
LINE
8
Layer 1
10
96.835493
20
293.148007
11
97.282009
21
292.320401
0
LINE
8
Layer 1
10
97.282009
20
292.320401
11
98.752705
21
290.594114
0
LINE
8
Layer 1
10
98.752705
20
290.594114
11
100.734659
21
288.110054
0
LINE
8
Layer 1
10
100.734659
20
288.110054
11
101.193895
21
287.232693
0
LINE
8
Layer 1
10
101.193895
20
287.232693
11
101.291883
21
286.550677
0
LINE
8
Layer 1
10
101.291883
20
286.550677
11
101.023554
21
286.028182
0
LINE
8
Layer 1
10
101.023554
20
286.028182
11
100.383843
21
285.629383
0
LINE
8
Layer 1
10
100.383843
20
285.629383
11
97.970004
21
285.059572
0
LINE
8
Layer 1
10
97.970004
20
285.059572
11
97.095034
21
284.745888
0
LINE
8
Layer 1
10
97.095034
20
284.745888
11
96.987990
21
284.513872
0
LINE
8
Layer 1
10
96.987990
20
284.513872
11
97.085785
21
284.236637
0
LINE
8
Layer 1
10
97.085785
20
284.236637
11
97.849533
21
283.561206
0
LINE
8
Layer 1
10
97.849533
20
283.561206
11
99.293552
21
282.748981
0
LINE
8
Layer 1
10
99.293552
20
282.748981
11
103.851504
21
280.831694
0
LINE
8
Layer 1
10
103.851504
20
280.831694
11
110.017841
21
278.719868
0
LINE
8
Layer 1
10
110.017841
20
278.719868
11
117.050761
21
276.648592
0
LINE
8
Layer 1
10
117.050761
20
276.648592
11
124.208465
21
274.852958
0
LINE
8
Layer 1
10
124.208465
20
274.852958
11
130.749152
21
273.568058
0
LINE
8
Layer 1
10
130.749152
20
273.568058
11
133.556301
21
273.190598
0
LINE
8
Layer 1
10
133.556301
20
273.190598
11
135.931021
21
273.028981
0
LINE
8
Layer 1
10
135.931021
20
273.028981
11
137.107542
21
273.097359
0
LINE
8
Layer 1
10
137.107542
20
273.097359
11
138.159371
21
273.407478
0
LINE
8
Layer 1
10
138.159371
20
273.407478
11
139.150817
21
274.038798
0
LINE
8
Layer 1
10
139.150817
20
274.038798
11
140.146191
21
275.070781
0
LINE
8
Layer 1
10
140.146191
20
275.070781
11
141.209803
21
276.582890
0
LINE
8
Layer 1
10
141.209803
20
276.582890
11
142.405961
21
278.654584
0
LINE
8
Layer 1
10
142.405961
20
278.654584
11
145.453159
21
284.794579
0
LINE
8
Layer 1
10
145.453159
20
284.794579
11
145.453159
21
284.794579
0
LINE
8
Layer 1
10
81.141926
20
287.193700
11
81.014031
21
287.472171
0
LINE
8
Layer 1
10
81.014031
20
287.472171
11
80.647481
21
287.806032
0
LINE
8
Layer 1
10
80.647481
20
287.806032
11
79.301220
21
288.589511
0
LINE
8
Layer 1
10
79.301220
20
288.589511
11
77.308755
21
289.443310
0
LINE
8
Layer 1
10
77.308755
20
289.443310
11
74.875698
21
290.266600
0
LINE
8
Layer 1
10
74.875698
20
290.266600
11
71.707327
21
291.067564
0
LINE
8
Layer 1
10
71.707327
20
291.067564
11
69.121718
21
291.349040
0
LINE
8
Layer 1
10
69.121718
20
291.349040
11
66.869320
21
291.113396
0
LINE
8
Layer 1
10
66.869320
20
291.113396
11
64.700582
21
290.362999
0
LINE
8
Layer 1
10
64.700582
20
290.362999
11
63.037243
21
289.504698
0
LINE
8
Layer 1
10
63.037243
20
289.504698
11
61.871605
21
288.636720
0
LINE
8
Layer 1
10
61.871605
20
288.636720
11
61.208190
21
287.707754
0
LINE
8
Layer 1
10
61.208190
20
287.707754
11
61.051518
21
286.666489
0
LINE
8
Layer 1
10
61.051518
20
286.666489
11
61.406110
21
285.461616
0
LINE
8
Layer 1
10
61.406110
20
285.461616
11
62.276488
21
284.041822
0
LINE
8
Layer 1
10
62.276488
20
284.041822
11
63.667172
21
282.355798
0
LINE
8
Layer 1
10
63.667172
20
282.355798
11
65.582684
21
280.352232
0
LINE
8
Layer 1
10
65.582684
20
280.352232
11
70.373694
21
275.561239
0
LINE
8
Layer 1
10
70.373694
20
275.561239
11
75.757803
21
280.779728
0
LINE
8
Layer 1
10
75.757803
20
280.779728
11
79.560341
21
284.816458
0
LINE
8
Layer 1
10
79.560341
20
284.816458
11
80.717085
21
286.317744
0
LINE
8
Layer 1
10
80.717085
20
286.317744
11
81.141926
21
287.193700
0
LINE
8
Layer 1
10
81.141926
20
287.193700
11
81.141926
21
287.193700
0
LINE
8
Layer 1
10
154.019123
20
304.918847
11
149.785563
21
308.040234
0
LINE
8
Layer 1
10
149.785563
20
308.040234
11
145.100712
21
310.862574
0
LINE
8
Layer 1
10
145.100712
20
310.862574
11
139.996795
21
313.374365
0
LINE
8
Layer 1
10
139.996795
20
313.374365
11
134.506040
21
315.564105
0
LINE
8
Layer 1
10
134.506040
20
315.564105
11
128.660674
21
317.420292
0
LINE
8
Layer 1
10
128.660674
20
317.420292
11
122.492922
21
318.931423
0
LINE
8
Layer 1
10
122.492922
20
318.931423
11
116.035013
21
320.085995
0
LINE
8
Layer 1
10
116.035013
20
320.085995
11
109.319173
21
320.872508
0
LINE
8
Layer 1
10
109.319173
20
320.872508
11
103.002360
21
321.360745
0
LINE
8
Layer 1
10
103.002360
20
321.360745
11
99.743927
21
321.339238
0
LINE
8
Layer 1
10
99.743927
20
321.339238
11
99.050153
21
321.103535
0
LINE
8
Layer 1
10
99.050153
20
321.103535
11
98.867234
21
320.699844
0
LINE
8
Layer 1
10
98.867234
20
320.699844
11
99.110591
21
320.114646
0
LINE
8
Layer 1
10
99.110591
20
320.114646
11
99.695643
21
319.334422
0
LINE
8
Layer 1
10
99.695643
20
319.334422
11
101.040884
21
318.025554
0
LINE
8
Layer 1
10
101.040884
20
318.025554
11
102.943254
21
316.650183
0
LINE
8
Layer 1
10
102.943254
20
316.650183
11
105.343183
21
315.227801
0
LINE
8
Layer 1
10
105.343183
20
315.227801
11
108.181100
21
313.777905
0
LINE
8
Layer 1
10
108.181100
20
313.777905
11
114.932624
21
310.873544
0
LINE
8
Layer 1
10
114.932624
20
310.873544
11
122.721267
21
308.093056
0
LINE
8
Layer 1
10
122.721267
20
308.093056
11
131.070470
21
305.592395
0
LINE
8
Layer 1
10
131.070470
20
305.592395
11
139.503674
21
303.527517
0
LINE
8
Layer 1
10
139.503674
20
303.527517
11
147.544320
21
302.054375
0
LINE
8
Layer 1
10
147.544320
20
302.054375
11
151.268510
21
301.588442
0
LINE
8
Layer 1
10
151.268510
20
301.588442
11
154.715851
21
301.328927
0
LINE
8
Layer 1
10
154.715851
20
301.328927
11
158.629358
21
301.150689
0
LINE
8
Layer 1
10
158.629358
20
301.150689
11
154.019123
21
304.918847
0
LINE
8
Layer 1
10
154.019123
20
304.918847
11
154.019123
21
304.918847
0
LINE
8
Layer 1
10
123.407799
20
312.883994
11
117.928890
21
315.099288
0
LINE
8
Layer 1
10
117.928890
20
315.099288
11
123.407799
21
314.150638
0
LINE
8
Layer 1
10
123.407799
20
314.150638
11
127.829805
21
313.124150
0
LINE
8
Layer 1
10
127.829805
20
313.124150
11
131.194379
21
311.923673
0
LINE
8
Layer 1
10
131.194379
20
311.923673
11
132.205409
21
311.382912
0
LINE
8
Layer 1
10
132.205409
20
311.382912
11
132.622417
21
310.948321
0
LINE
8
Layer 1
10
132.622417
20
310.948321
11
132.573822
21
310.786430
0
LINE
8
Layer 1
10
132.573822
20
310.786430
11
132.335514
21
310.669789
0
LINE
8
Layer 1
10
132.335514
20
310.669789
11
131.234812
21
310.597206
0
LINE
8
Layer 1
10
131.234812
20
310.597206
11
129.890767
21
310.799760
0
LINE
8
Layer 1
10
129.890767
20
310.799760
11
127.967034
21
311.298435
0
LINE
8
Layer 1
10
127.967034
20
311.298435
11
123.407799
21
312.883994
0
LINE
8
Layer 1
10
123.407799
20
312.883994
11
123.407799
21
312.883994
0
LINE
8
Layer 1
10
197.765309
20
-24.416200
11
199.492008
21
-21.716063
0
LINE
8
Layer 1
10
199.492008
20
-21.716063
11
201.632308
21
-18.850939
0
LINE
8
Layer 1
10
201.632308
20
-18.850939
11
204.104432
21
-15.905263
0
LINE
8
Layer 1
10
204.104432
20
-15.905263
11
206.826607
21
-12.963471
0
LINE
8
Layer 1
10
206.826607
20
-12.963471
11
209.717059
21
-10.109998
0
LINE
8
Layer 1
10
209.717059
20
-10.109998
11
212.694012
21
-7.429280
0
LINE
8
Layer 1
10
212.694012
20
-7.429280
11
215.675693
21
-5.005751
0
LINE
8
Layer 1
10
215.675693
20
-5.005751
11
218.580327
21
-2.923849
0
LINE
8
Layer 1
10
218.580327
20
-2.923849
11
223.744814
21
0.321056
0
LINE
8
Layer 1
10
223.744814
20
0.321056
11
225.822102
21
1.329136
0
LINE
8
Layer 1
10
225.822102
20
1.329136
11
227.872733
21
2.005254
0
LINE
8
Layer 1
10
227.872733
20
2.005254
11
230.129195
21
2.407626
0
LINE
8
Layer 1
10
230.129195
20
2.407626
11
232.823973
21
2.594468
0
LINE
8
Layer 1
10
232.823973
20
2.594468
11
240.458422
21
2.554423
0
LINE
8
Layer 1
10
240.458422
20
2.554423
11
246.221253
21
2.286673
0
LINE
8
Layer 1
10
246.221253
20
2.286673
11
252.150546
21
1.760553
0
LINE
8
Layer 1
10
252.150546
20
1.760553
11
257.548721
21
1.052092
0
LINE
8
Layer 1
10
257.548721
20
1.052092
11
261.718194
21
0.237322
0
LINE
8
Layer 1
10
261.718194
20
0.237322
11
269.772957
21
-1.805318
0
LINE
8
Layer 1
10
269.772957
20
-1.805318
11
254.011975
21
-2.794986
0
LINE
8
Layer 1
10
254.011975
20
-2.794986
11
247.756621
21
-3.342169
0
LINE
8
Layer 1
10
247.756621
20
-3.342169
11
241.967049
21
-4.194526
0
LINE
8
Layer 1
10
241.967049
20
-4.194526
11
236.509221
21
-5.398868
0
LINE
8
Layer 1
10
236.509221
20
-5.398868
11
231.249099
21
-7.002006
0
LINE
8
Layer 1
10
231.249099
20
-7.002006
11
226.052647
21
-9.050752
0
LINE
8
Layer 1
10
226.052647
20
-9.050752
11
220.785827
21
-11.591915
0
LINE
8
Layer 1
10
220.785827
20
-11.591915
11
215.314602
21
-14.672309
0
LINE
8
Layer 1
10
215.314602
20
-14.672309
11
209.504935
21
-18.338742
0
LINE
8
Layer 1
10
209.504935
20
-18.338742
11
202.137335
21
-23.162857
0
LINE
8
Layer 1
10
202.137335
20
-23.162857
11
198.347847
21
-25.461294
0
LINE
8
Layer 1
10
198.347847
20
-25.461294
11
197.502872
21
-25.814560
0
LINE
8
Layer 1
10
197.502872
20
-25.814560
11
197.201996
21
-25.717819
0
LINE
8
Layer 1
10
197.201996
20
-25.717819
11
197.328412
21
-25.231542
0
LINE
8
Layer 1
10
197.328412
20
-25.231542
11
197.765309
21
-24.416200
0
LINE
8
Layer 1
10
197.765309
20
-24.416200
11
197.765309
21
-24.416200
0
LINE
8
Layer 1
10
-33.643025
20
19.967173
11
-38.750340
21
21.227864
0
LINE
8
Layer 1
10
-38.750340
20
21.227864
11
-42.334302
21
22.360192
0
LINE
8
Layer 1
10
-42.334302
20
22.360192
11
-44.403612
21
23.332698
0
LINE
8
Layer 1
10
-44.403612
20
23.332698
11
-44.872991
21
23.749185
0
LINE
8
Layer 1
10
-44.872991
20
23.749185
11
-44.966971
21
24.113920
0
LINE
8
Layer 1
10
-44.966971
20
24.113920
11
-44.686639
21
24.422970
0
LINE
8
Layer 1
10
-44.686639
20
24.422970
11
-44.033081
21
24.672401
0
LINE
8
Layer 1
10
-44.033081
20
24.672401
11
-41.610643
21
24.976680
0
LINE
8
Layer 1
10
-41.610643
20
24.976680
11
-37.708359
21
24.995297
0
LINE
8
Layer 1
10
-37.708359
20
24.995297
11
-32.334928
21
24.696794
0
LINE
8
Layer 1
10
-32.334928
20
24.696794
11
-27.225727
21
24.424340
0
LINE
8
Layer 1
10
-27.225727
20
24.424340
11
-22.429989
21
24.417755
0
LINE
8
Layer 1
10
-22.429989
20
24.417755
11
-17.920540
21
24.681498
0
LINE
8
Layer 1
10
-17.920540
20
24.681498
11
-13.670207
21
25.220027
0
LINE
8
Layer 1
10
-13.670207
20
25.220027
11
-9.651816
21
26.037799
0
LINE
8
Layer 1
10
-9.651816
20
26.037799
11
-5.838191
21
27.139274
0
LINE
8
Layer 1
10
-5.838191
20
27.139274
11
-2.202160
21
28.528909
0
LINE
8
Layer 1
10
-2.202160
20
28.528909
11
1.283453
21
30.211162
0
LINE
8
Layer 1
10
1.283453
20
30.211162
11
2.991792
21
30.973112
0
LINE
8
Layer 1
10
2.991792
20
30.973112
11
4.398799
21
31.216515
0
LINE
8
Layer 1
10
4.398799
20
31.216515
11
5.648610
21
30.939547
0
LINE
8
Layer 1
10
5.648610
20
30.939547
11
6.885358
21
30.140381
0
LINE
8
Layer 1
10
6.885358
20
30.140381
11
8.233481
21
28.830978
0
LINE
8
Layer 1
10
8.233481
20
28.830978
11
8.927210
21
27.651212
0
LINE
8
Layer 1
10
8.927210
20
27.651212
11
9.019955
21
27.102022
0
LINE
8
Layer 1
10
9.019955
20
27.102022
11
8.938635
21
26.575735
0
LINE
8
Layer 1
10
8.938635
20
26.575735
11
8.679760
21
26.069183
0
LINE
8
Layer 1
10
8.679760
20
26.069183
11
8.239841
21
25.579197
0
LINE
8
Layer 1
10
8.239841
20
25.579197
11
6.802917
21
24.636250
0
LINE
8
Layer 1
10
6.802917
20
24.636250
11
4.599949
21
23.721547
0
LINE
8
Layer 1
10
4.599949
20
23.721547
11
1.603024
21
22.809738
0
LINE
8
Layer 1
10
1.603024
20
22.809738
11
-2.215770
21
21.875475
0
LINE
8
Layer 1
10
-2.215770
20
21.875475
11
-12.981207
21
19.633286
0
LINE
8
Layer 1
10
-12.981207
20
19.633286
11
-17.095481
21
18.986338
0
LINE
8
Layer 1
10
-17.095481
20
18.986338
11
-20.652812
21
18.637959
0
LINE
8
Layer 1
10
-20.652812
20
18.637959
11
-23.869716
21
18.575000
0
LINE
8
Layer 1
10
-23.869716
20
18.575000
11
-26.962710
21
18.784315
0
LINE
8
Layer 1
10
-26.962710
20
18.784315
11
-30.148307
21
19.252755
0
LINE
8
Layer 1
10
-30.148307
20
19.252755
11
-33.643025
21
19.967173
0
LINE
8
Layer 1
10
-33.643025
20
19.967173
11
-33.643025
21
19.967173
0
LINE
8
Layer 1
10
259.597830
20
89.979761
11
258.130114
21
90.447629
0
LINE
8
Layer 1
10
258.130114
20
90.447629
11
256.106170
21
90.875031
0
LINE
8
Layer 1
10
256.106170
20
90.875031
11
250.691389
21
91.599641
0
LINE
8
Layer 1
10
250.691389
20
91.599641
11
243.957070
21
92.135998
0
LINE
8
Layer 1
10
243.957070
20
92.135998
11
236.506798
21
92.466509
0
LINE
8
Layer 1
10
236.506798
20
92.466509
11
228.944156
21
92.573581
0
LINE
8
Layer 1
10
228.944156
20
92.573581
11
221.872727
21
92.439620
0
LINE
8
Layer 1
10
221.872727
20
92.439620
11
215.896097
21
92.047034
0
LINE
8
Layer 1
10
215.896097
20
92.047034
11
213.506951
21
91.748258
0
LINE
8
Layer 1
10
213.506951
20
91.748258
11
211.617848
21
91.378229
0
LINE
8
Layer 1
10
211.617848
20
91.378229
11
207.577409
21
90.462265
0
LINE
8
Layer 1
10
207.577409
20
90.462265
11
206.160595
21
90.270919
0
LINE
8
Layer 1
10
206.160595
20
90.270919
11
205.046381
21
90.266555
0
LINE
8
Layer 1
10
205.046381
20
90.266555
11
204.160013
21
90.456094
0
LINE
8
Layer 1
10
204.160013
20
90.456094
11
203.426737
21
90.846456
0
LINE
8
Layer 1
10
203.426737
20
90.846456
11
202.771800
21
91.444559
0
LINE
8
Layer 1
10
202.771800
20
91.444559
11
202.120449
21
92.257323
0
LINE
8
Layer 1
10
202.120449
20
92.257323
11
201.184201
21
93.864615
0
LINE
8
Layer 1
10
201.184201
20
93.864615
11
200.994548
21
94.559836
0
LINE
8
Layer 1
10
200.994548
20
94.559836
11
201.004569
21
95.187795
0
LINE
8
Layer 1
10
201.004569
20
95.187795
11
201.224787
21
95.752260
0
LINE
8
Layer 1
10
201.224787
20
95.752260
11
201.665722
21
96.256998
0
LINE
8
Layer 1
10
201.665722
20
96.256998
11
202.337895
21
96.705775
0
LINE
8
Layer 1
10
202.337895
20
96.705775
11
203.251829
21
97.102358
0
LINE
8
Layer 1
10
203.251829
20
97.102358
11
205.847059
21
97.754012
0
LINE
8
Layer 1
10
205.847059
20
97.754012
11
209.535582
21
98.242094
0
LINE
8
Layer 1
10
209.535582
20
98.242094
11
214.401567
21
98.596741
0
LINE
8
Layer 1
10
214.401567
20
98.596741
11
220.529184
21
98.848086
0
LINE
8
Layer 1
10
220.529184
20
98.848086
11
226.850722
21
98.900057
0
LINE
8
Layer 1
10
226.850722
20
98.900057
11
232.807568
21
98.649012
0
LINE
8
Layer 1
10
232.807568
20
98.649012
11
238.431848
21
98.088529
0
LINE
8
Layer 1
10
238.431848
20
98.088529
11
243.755686
21
97.212185
0
LINE
8
Layer 1
10
243.755686
20
97.212185
11
248.811208
21
96.013558
0
LINE
8
Layer 1
10
248.811208
20
96.013558
11
253.630538
21
94.486224
0
LINE
8
Layer 1
10
253.630538
20
94.486224
11
258.245801
21
92.623761
0
LINE
8
Layer 1
10
258.245801
20
92.623761
11
262.689123
21
90.419745
0
LINE
8
Layer 1
10
262.689123
20
90.419745
11
264.955749
21
88.954839
0
LINE
8
Layer 1
10
264.955749
20
88.954839
11
265.239190
21
88.548301
0
LINE
8
Layer 1
10
265.239190
20
88.548301
11
265.004054
21
88.365873
0
LINE
8
Layer 1
10
265.004054
20
88.365873
11
264.286346
21
88.412680
0
LINE
8
Layer 1
10
264.286346
20
88.412680
11
263.122070
21
88.693847
0
LINE
8
Layer 1
10
263.122070
20
88.693847
11
259.597830
21
89.979761
0
LINE
8
Layer 1
10
259.597830
20
89.979761
11
259.597830
21
89.979761
 0 
ENDSEC
 0 
EOF
