999
"DXF R12 Output" (www.mydxf.blogspot.com)
 0 
SECTION
 2 
HEADER
 9 
$ACADVER
 1 
AC1009
 9 
$EXTMIN
 10 
 0 
 20 
 0 
 9 
$EXTMAX
 10 
 8.5 
 20 
 11 
 0 
ENDSEC
 0 
SECTION
 2 
ENTITIES
0
LINE
8
Layer 1
10
-23.182236
20
-17.670045
11
-24.070692
21
-16.793236
0
LINE
8
Layer 1
10
-24.070692
20
-16.793236
11
-24.857276
21
-15.777107
0
LINE
8
Layer 1
10
-24.857276
20
-15.777107
11
-25.549945
21
-14.601246
0
LINE
8
Layer 1
10
-25.549945
20
-14.601246
11
-26.156657
21
-13.245238
0
LINE
8
Layer 1
10
-26.156657
20
-13.245238
11
-27.144038
21
-9.911131
0
LINE
8
Layer 1
10
-27.144038
20
-9.911131
11
-27.883083
21
-5.611480
0
LINE
8
Layer 1
10
-27.883083
20
-5.611480
11
-28.568482
21
-1.212887
0
LINE
8
Layer 1
10
-28.568482
20
-1.212887
11
-29.204217
21
1.666128
0
LINE
8
Layer 1
10
-29.204217
20
1.666128
11
-29.453301
21
3.071229
0
LINE
8
Layer 1
10
-29.453301
20
3.071229
11
-29.634586
21
5.380314
0
LINE
8
Layer 1
10
-29.634586
20
5.380314
11
-29.790446
21
11.426775
0
LINE
8
Layer 1
10
-29.790446
20
11.426775
11
-29.665178
21
17.238196
0
LINE
8
Layer 1
10
-29.665178
20
17.238196
11
-29.495051
21
19.253481
0
LINE
8
Layer 1
10
-29.495051
20
19.253481
11
-29.252158
21
20.247261
0
LINE
8
Layer 1
10
-29.252158
20
20.247261
11
-28.604573
21
22.035972
0
LINE
8
Layer 1
10
-28.604573
20
22.035972
11
-27.823372
21
25.292887
0
LINE
8
Layer 1
10
-27.823372
20
25.292887
11
-27.119107
21
28.075776
0
LINE
8
Layer 1
10
-27.119107
20
28.075776
11
-26.108201
21
31.099302
0
LINE
8
Layer 1
10
-26.108201
20
31.099302
11
-24.834891
21
34.273243
0
LINE
8
Layer 1
10
-24.834891
20
34.273243
11
-23.343416
21
37.507380
0
LINE
8
Layer 1
10
-23.343416
20
37.507380
11
-21.678014
21
40.711491
0
LINE
8
Layer 1
10
-21.678014
20
40.711491
11
-19.882923
21
43.795358
0
LINE
8
Layer 1
10
-19.882923
20
43.795358
11
-18.002381
21
46.668759
0
LINE
8
Layer 1
10
-18.002381
20
46.668759
11
-16.080627
21
49.241474
0
LINE
8
Layer 1
10
-16.080627
20
49.241474
11
-13.374780
21
52.421442
0
LINE
8
Layer 1
10
-13.374780
20
52.421442
11
-10.833287
21
54.810565
0
LINE
8
Layer 1
10
-10.833287
20
54.810565
11
-7.652722
21
57.060158
0
LINE
8
Layer 1
10
-7.652722
20
57.060158
11
-3.029661
21
59.821534
0
LINE
8
Layer 1
10
-3.029661
20
59.821534
11
1.371355
21
62.420144
0
LINE
8
Layer 1
10
1.371355
20
62.420144
11
3.883954
21
64.123278
0
LINE
8
Layer 1
10
3.883954
20
64.123278
11
4.575172
21
64.753559
0
LINE
8
Layer 1
10
4.575172
20
64.753559
11
4.965974
21
65.297393
0
LINE
8
Layer 1
10
4.965974
20
65.297393
11
5.113590
21
65.800587
0
LINE
8
Layer 1
10
5.113590
20
65.800587
11
5.075250
21
66.308948
0
LINE
8
Layer 1
10
5.075250
20
66.308948
11
4.042028
21
71.794909
0
LINE
8
Layer 1
10
4.042028
20
71.794909
11
2.916785
21
78.930317
0
LINE
8
Layer 1
10
2.916785
20
78.930317
11
0.578443
21
96.870341
0
LINE
8
Layer 1
10
0.578443
20
96.870341
11
0.278465
21
101.344456
0
LINE
8
Layer 1
10
0.278465
20
101.344456
11
0.068298
21
108.304593
0
LINE
8
Layer 1
10
0.068298
20
108.304593
11
-0.086149
21
126.428782
0
LINE
8
Layer 1
10
-0.086149
20
126.428782
11
0.108008
21
144.734611
0
LINE
8
Layer 1
10
0.108008
20
144.734611
11
0.333596
21
151.921797
0
LINE
8
Layer 1
10
0.333596
20
151.921797
11
0.643675
21
156.713782
0
LINE
8
Layer 1
10
0.643675
20
156.713782
11
1.953281
21
168.235217
0
LINE
8
Layer 1
10
1.953281
20
168.235217
11
3.316379
21
178.335781
0
LINE
8
Layer 1
10
3.316379
20
178.335781
11
4.804912
21
187.330222
0
LINE
8
Layer 1
10
4.804912
20
187.330222
11
6.490826
21
195.533284
0
LINE
8
Layer 1
10
6.490826
20
195.533284
11
8.446066
21
203.259715
0
LINE
8
Layer 1
10
8.446066
20
203.259715
11
10.742575
21
210.824260
0
LINE
8
Layer 1
10
10.742575
20
210.824260
11
13.452299
21
218.541666
0
LINE
8
Layer 1
10
13.452299
20
218.541666
11
16.647183
21
226.726678
0
LINE
8
Layer 1
10
16.647183
20
226.726678
11
19.938350
21
235.265544
0
LINE
8
Layer 1
10
19.938350
20
235.265544
11
21.001031
21
238.488467
0
LINE
8
Layer 1
10
21.001031
20
238.488467
11
21.702138
21
241.136327
0
LINE
8
Layer 1
10
21.702138
20
241.136327
11
22.061943
21
243.301082
0
LINE
8
Layer 1
10
22.061943
20
243.301082
11
22.100717
21
245.074688
0
LINE
8
Layer 1
10
22.100717
20
245.074688
11
21.838732
21
246.549104
0
LINE
8
Layer 1
10
21.838732
20
246.549104
11
21.296260
21
247.816287
0
LINE
8
Layer 1
10
21.296260
20
247.816287
11
20.454250
21
249.121611
0
LINE
8
Layer 1
10
20.454250
20
249.121611
11
19.511186
21
250.153225
0
LINE
8
Layer 1
10
19.511186
20
250.153225
11
18.377930
21
250.937022
0
LINE
8
Layer 1
10
18.377930
20
250.937022
11
16.965341
21
251.498897
0
LINE
8
Layer 1
10
16.965341
20
251.498897
11
15.184279
21
251.864743
0
LINE
8
Layer 1
10
15.184279
20
251.864743
11
12.945603
21
252.060456
0
LINE
8
Layer 1
10
12.945603
20
252.060456
11
6.738851
21
252.045054
0
LINE
8
Layer 1
10
6.738851
20
252.045054
11
-2.435806
21
251.759227
0
LINE
8
Layer 1
10
-2.435806
20
251.759227
11
-2.386279
21
254.946027
0
LINE
8
Layer 1
10
-2.386279
20
254.946027
11
-2.227005
21
256.481442
0
LINE
8
Layer 1
10
-2.227005
20
256.481442
11
-1.816675
21
258.376726
0
LINE
8
Layer 1
10
-1.816675
20
258.376726
11
-0.401634
21
262.819330
0
LINE
8
Layer 1
10
-0.401634
20
262.819330
11
1.541270
21
267.418701
0
LINE
8
Layer 1
10
1.541270
20
267.418701
11
2.611429
21
269.509943
0
LINE
8
Layer 1
10
2.611429
20
269.509943
11
3.694464
21
271.319700
0
LINE
8
Layer 1
10
3.694464
20
271.319700
11
5.873542
21
274.091589
0
LINE
8
Layer 1
10
5.873542
20
274.091589
11
8.733473
21
276.907888
0
LINE
8
Layer 1
10
8.733473
20
276.907888
11
12.134534
21
279.678942
0
LINE
8
Layer 1
10
12.134534
20
279.678942
11
15.937002
21
282.315095
0
LINE
8
Layer 1
10
15.937002
20
282.315095
11
20.001154
21
284.726692
0
LINE
8
Layer 1
10
20.001154
20
284.726692
11
24.187265
21
286.824075
0
LINE
8
Layer 1
10
24.187265
20
286.824075
11
28.355613
21
288.517590
0
LINE
8
Layer 1
10
28.355613
20
288.517590
11
32.366475
21
289.717580
0
LINE
8
Layer 1
10
32.366475
20
289.717580
11
36.226312
21
290.483749
0
LINE
8
Layer 1
10
36.226312
20
290.483749
11
40.545151
21
290.951588
0
LINE
8
Layer 1
10
40.545151
20
290.951588
11
46.265303
21
291.187118
0
LINE
8
Layer 1
10
46.265303
20
291.187118
11
54.329082
21
291.256363
0
LINE
8
Layer 1
10
54.329082
20
291.256363
11
63.015056
21
291.302711
0
LINE
8
Layer 1
10
63.015056
20
291.302711
11
67.957393
21
291.511664
0
LINE
8
Layer 1
10
67.957393
20
291.511664
11
69.464221
21
291.718665
0
LINE
8
Layer 1
10
69.464221
20
291.718665
11
70.562567
21
292.016175
0
LINE
8
Layer 1
10
70.562567
20
292.016175
11
71.428241
21
292.420813
0
LINE
8
Layer 1
10
71.428241
20
292.420813
11
72.237052
21
292.949197
0
LINE
8
Layer 1
10
72.237052
20
292.949197
11
75.591722
21
295.169077
0
LINE
8
Layer 1
10
75.591722
20
295.169077
11
79.608390
21
297.564132
0
LINE
8
Layer 1
10
79.608390
20
297.564132
11
88.776107
21
302.454389
0
LINE
8
Layer 1
10
88.776107
20
302.454389
11
98.036981
21
306.769209
0
LINE
8
Layer 1
10
98.036981
20
306.769209
11
102.170095
21
308.444969
0
LINE
8
Layer 1
10
102.170095
20
308.444969
11
105.687789
21
309.657836
0
LINE
8
Layer 1
10
105.687789
20
309.657836
11
112.499518
21
311.519638
0
LINE
8
Layer 1
10
112.499518
20
311.519638
11
119.590702
21
313.108578
0
LINE
8
Layer 1
10
119.590702
20
313.108578
11
126.759594
21
314.401172
0
LINE
8
Layer 1
10
126.759594
20
314.401172
11
133.804450
21
315.373936
0
LINE
8
Layer 1
10
133.804450
20
315.373936
11
140.523524
21
316.003386
0
LINE
8
Layer 1
10
140.523524
20
316.003386
11
146.715072
21
316.266036
0
LINE
8
Layer 1
10
146.715072
20
316.266036
11
152.177348
21
316.138403
0
LINE
8
Layer 1
10
152.177348
20
316.138403
11
156.708608
21
315.597003
0
LINE
8
Layer 1
10
156.708608
20
315.597003
11
167.858861
21
313.907886
0
LINE
8
Layer 1
10
167.858861
20
313.907886
11
174.997853
21
312.736743
0
LINE
8
Layer 1
10
174.997853
20
312.736743
11
181.837467
21
311.088375
0
LINE
8
Layer 1
10
181.837467
20
311.088375
11
188.319527
21
308.989921
0
LINE
8
Layer 1
10
188.319527
20
308.989921
11
194.385858
21
306.468517
0
LINE
8
Layer 1
10
194.385858
20
306.468517
11
199.978285
21
303.551303
0
LINE
8
Layer 1
10
199.978285
20
303.551303
11
202.578604
21
301.952748
0
LINE
8
Layer 1
10
202.578604
20
301.952748
11
205.038632
21
300.265416
0
LINE
8
Layer 1
10
205.038632
20
300.265416
11
207.351096
21
298.492700
0
LINE
8
Layer 1
10
207.351096
20
298.492700
11
209.508724
21
296.637993
0
LINE
8
Layer 1
10
209.508724
20
296.637993
11
211.504245
21
294.704687
0
LINE
8
Layer 1
10
211.504245
20
294.704687
11
213.330386
21
292.696173
0
LINE
8
Layer 1
10
213.330386
20
292.696173
11
215.664585
21
289.603579
0
LINE
8
Layer 1
10
215.664585
20
289.603579
11
217.843240
21
286.045241
0
LINE
8
Layer 1
10
217.843240
20
286.045241
11
219.818368
21
282.147774
0
LINE
8
Layer 1
10
219.818368
20
282.147774
11
221.541983
21
278.037795
0
LINE
8
Layer 1
10
221.541983
20
278.037795
11
222.966101
21
273.841920
0
LINE
8
Layer 1
10
222.966101
20
273.841920
11
224.042737
21
269.686764
0
LINE
8
Layer 1
10
224.042737
20
269.686764
11
224.723908
21
265.698943
0
LINE
8
Layer 1
10
224.723908
20
265.698943
11
224.961628
21
262.005074
0
LINE
8
Layer 1
10
224.961628
20
262.005074
11
224.961628
21
256.250159
0
LINE
8
Layer 1
10
224.961628
20
256.250159
11
228.171544
21
253.262676
0
LINE
8
Layer 1
10
228.171544
20
253.262676
11
231.018936
21
250.448399
0
LINE
8
Layer 1
10
231.018936
20
250.448399
11
233.403118
21
247.713218
0
LINE
8
Layer 1
10
233.403118
20
247.713218
11
235.355222
21
244.992709
0
LINE
8
Layer 1
10
235.355222
20
244.992709
11
236.906379
21
242.222447
0
LINE
8
Layer 1
10
236.906379
20
242.222447
11
238.087719
21
239.338008
0
LINE
8
Layer 1
10
238.087719
20
239.338008
11
238.930374
21
236.274969
0
LINE
8
Layer 1
10
238.930374
20
236.274969
11
239.465474
21
232.968906
0
LINE
8
Layer 1
10
239.465474
20
232.968906
11
239.724150
21
229.355395
0
LINE
8
Layer 1
10
239.724150
20
229.355395
11
239.790065
21
225.887543
0
LINE
8
Layer 1
10
239.790065
20
225.887543
11
239.675460
21
223.493872
0
LINE
8
Layer 1
10
239.675460
20
223.493872
11
239.339483
21
221.804155
0
LINE
8
Layer 1
10
239.339483
20
221.804155
11
238.741283
21
220.448165
0
LINE
8
Layer 1
10
238.741283
20
220.448165
11
238.102862
21
219.493275
0
LINE
8
Layer 1
10
238.102862
20
219.493275
11
237.330410
21
218.657520
0
LINE
8
Layer 1
10
237.330410
20
218.657520
11
236.415343
21
217.940580
0
LINE
8
Layer 1
10
236.415343
20
217.940580
11
235.349076
21
217.342134
0
LINE
8
Layer 1
10
235.349076
20
217.342134
11
234.123023
21
216.861863
0
LINE
8
Layer 1
10
234.123023
20
216.861863
11
232.728600
21
216.499444
0
LINE
8
Layer 1
10
232.728600
20
216.499444
11
229.400304
21
216.126885
0
LINE
8
Layer 1
10
229.400304
20
216.126885
11
225.295507
21
216.221891
0
LINE
8
Layer 1
10
225.295507
20
216.221891
11
220.345530
21
216.781899
0
LINE
8
Layer 1
10
220.345530
20
216.781899
11
214.481693
21
217.804345
0
LINE
8
Layer 1
10
214.481693
20
217.804345
11
207.635317
21
219.286662
0
LINE
8
Layer 1
10
207.635317
20
219.286662
11
200.229441
21
220.938033
0
LINE
8
Layer 1
10
200.229441
20
220.938033
11
194.880879
21
221.879646
0
LINE
8
Layer 1
10
194.880879
20
221.879646
11
190.188997
21
222.301734
0
LINE
8
Layer 1
10
190.188997
20
222.301734
11
184.753160
21
222.394533
0
LINE
8
Layer 1
10
184.753160
20
222.394533
11
176.667995
21
222.201049
0
LINE
8
Layer 1
10
176.667995
20
222.201049
11
169.566708
21
221.701760
0
LINE
8
Layer 1
10
169.566708
20
221.701760
11
164.344831
21
220.985034
0
LINE
8
Layer 1
10
164.344831
20
220.985034
11
162.718526
21
220.572748
0
LINE
8
Layer 1
10
162.718526
20
220.572748
11
161.897898
21
220.139242
0
LINE
8
Layer 1
10
161.897898
20
220.139242
11
161.631265
21
219.461648
0
LINE
8
Layer 1
10
161.631265
20
219.461648
11
161.578024
21
218.254236
0
LINE
8
Layer 1
10
161.578024
20
218.254236
11
162.119846
21
214.025634
0
LINE
8
Layer 1
10
162.119846
20
214.025634
11
162.509008
21
211.321994
0
LINE
8
Layer 1
10
162.509008
20
211.321994
11
162.774069
21
208.401082
0
LINE
8
Layer 1
10
162.774069
20
208.401082
11
162.936950
21
202.295923
0
LINE
8
Layer 1
10
162.936950
20
202.295923
11
162.618626
21
196.487117
0
LINE
8
Layer 1
10
162.618626
20
196.487117
11
162.282178
21
193.936647
0
LINE
8
Layer 1
10
162.282178
20
193.936647
11
161.829228
21
191.751626
0
LINE
8
Layer 1
10
161.829228
20
191.751626
11
160.460258
21
187.542704
0
LINE
8
Layer 1
10
160.460258
20
187.542704
11
158.615696
21
183.151437
0
LINE
8
Layer 1
10
158.615696
20
183.151437
11
156.726723
21
179.505983
0
LINE
8
Layer 1
10
156.726723
20
179.505983
11
155.900327
21
178.252985
0
LINE
8
Layer 1
10
155.900327
20
178.252985
11
155.224522
21
177.534498
0
LINE
8
Layer 1
10
155.224522
20
177.534498
11
154.486877
21
177.238589
0
LINE
8
Layer 1
10
154.486877
20
177.238589
11
153.604601
21
177.257394
0
LINE
8
Layer 1
10
153.604601
20
177.257394
11
152.617369
21
177.565218
0
LINE
8
Layer 1
10
152.617369
20
177.565218
11
151.564851
21
178.136366
0
LINE
8
Layer 1
10
151.564851
20
178.136366
11
150.486721
21
178.945145
0
LINE
8
Layer 1
10
150.486721
20
178.945145
11
149.422651
21
179.965859
0
LINE
8
Layer 1
10
149.422651
20
179.965859
11
148.412312
21
181.172814
0
LINE
8
Layer 1
10
148.412312
20
181.172814
11
147.495379
21
182.540316
0
LINE
8
Layer 1
10
147.495379
20
182.540316
11
141.652638
21
192.047009
0
LINE
8
Layer 1
10
141.652638
20
192.047009
11
136.882102
21
199.178550
0
LINE
8
Layer 1
10
136.882102
20
199.178550
11
134.960235
21
201.767557
0
LINE
8
Layer 1
10
134.960235
20
201.767557
11
133.380007
21
203.659478
0
LINE
8
Layer 1
10
133.380007
20
203.659478
11
132.165947
21
204.819881
0
LINE
8
Layer 1
10
132.165947
20
204.819881
11
131.342584
21
205.214334
0
LINE
8
Layer 1
10
131.342584
20
205.214334
11
130.876863
21
204.690578
0
LINE
8
Layer 1
10
130.876863
20
204.690578
11
130.168268
21
203.264508
0
LINE
8
Layer 1
10
130.168268
20
203.264508
11
128.407665
21
198.576634
0
LINE
8
Layer 1
10
128.407665
20
198.576634
11
125.472452
21
190.610836
0
LINE
8
Layer 1
10
125.472452
20
190.610836
11
121.474069
21
180.780062
0
LINE
8
Layer 1
10
121.474069
20
180.780062
11
118.708210
21
174.466911
0
LINE
8
Layer 1
10
118.708210
20
174.466911
11
116.548773
21
170.293348
0
LINE
8
Layer 1
10
116.548773
20
170.293348
11
114.189422
21
166.911105
0
LINE
8
Layer 1
10
114.189422
20
166.911105
11
110.823821
21
162.971913
0
LINE
8
Layer 1
10
110.823821
20
162.971913
11
106.748050
21
158.551597
0
LINE
8
Layer 1
10
106.748050
20
158.551597
11
102.942225
21
154.801412
0
LINE
8
Layer 1
10
102.942225
20
154.801412
11
99.369724
21
151.697090
0
LINE
8
Layer 1
10
99.369724
20
151.697090
11
95.993919
21
149.214358
0
LINE
8
Layer 1
10
95.993919
20
149.214358
11
92.778188
21
147.328946
0
LINE
8
Layer 1
10
92.778188
20
147.328946
11
89.685905
21
146.016584
0
LINE
8
Layer 1
10
89.685905
20
146.016584
11
86.680446
21
145.253001
0
LINE
8
Layer 1
10
86.680446
20
145.253001
11
83.725185
21
145.013927
0
LINE
8
Layer 1
10
83.725185
20
145.013927
11
81.751514
21
145.146333
0
LINE
8
Layer 1
10
81.751514
20
145.146333
11
80.255022
21
145.568231
0
LINE
8
Layer 1
10
80.255022
20
145.568231
11
79.216858
21
146.350763
0
LINE
8
Layer 1
10
79.216858
20
146.350763
11
78.618171
21
147.565072
0
LINE
8
Layer 1
10
78.618171
20
147.565072
11
78.440112
21
149.282300
0
LINE
8
Layer 1
10
78.440112
20
149.282300
11
78.663829
21
151.573589
0
LINE
8
Layer 1
10
78.663829
20
151.573589
11
79.270472
21
154.510081
0
LINE
8
Layer 1
10
79.270472
20
154.510081
11
80.241191
21
158.162920
0
LINE
8
Layer 1
10
80.241191
20
158.162920
11
80.926976
21
160.952970
0
LINE
8
Layer 1
10
80.926976
20
160.952970
11
81.504896
21
164.021456
0
LINE
8
Layer 1
10
81.504896
20
164.021456
11
82.271474
21
170.191822
0
LINE
8
Layer 1
10
82.271474
20
170.191822
11
82.427301
21
172.892744
0
LINE
8
Layer 1
10
82.427301
20
172.892744
11
82.409598
21
175.070185
0
LINE
8
Layer 1
10
82.409598
20
175.070185
11
82.201950
21
176.523668
0
LINE
8
Layer 1
10
82.201950
20
176.523668
11
82.021767
21
176.916276
0
LINE
8
Layer 1
10
82.021767
20
176.916276
11
81.787941
21
177.052714
0
LINE
8
Layer 1
10
81.787941
20
177.052714
11
80.635195
21
176.485516
0
LINE
8
Layer 1
10
80.635195
20
176.485516
11
78.414798
21
174.954872
0
LINE
8
Layer 1
10
78.414798
20
174.954872
11
72.044155
21
170.028924
0
LINE
8
Layer 1
10
72.044155
20
170.028924
11
65.222222
21
164.326232
0
LINE
8
Layer 1
10
65.222222
20
164.326232
11
62.437712
21
161.824660
0
LINE
8
Layer 1
10
62.437712
20
161.824660
11
60.495208
21
159.898163
0
LINE
8
Layer 1
10
60.495208
20
159.898163
11
57.872622
21
156.886608
0
LINE
8
Layer 1
10
57.872622
20
156.886608
11
55.246464
21
153.613174
0
LINE
8
Layer 1
10
55.246464
20
153.613174
11
50.047203
21
146.400435
0
LINE
8
Layer 1
10
50.047203
20
146.400435
11
45.024970
21
138.499482
0
LINE
8
Layer 1
10
45.024970
20
138.499482
11
40.307310
21
130.149846
0
LINE
8
Layer 1
10
40.307310
20
130.149846
11
36.021767
21
121.591063
0
LINE
8
Layer 1
10
36.021767
20
121.591063
11
32.295885
21
113.062667
0
LINE
8
Layer 1
10
32.295885
20
113.062667
11
29.257210
21
104.804190
0
LINE
8
Layer 1
10
29.257210
20
104.804190
11
28.035432
21
100.851027
0
LINE
8
Layer 1
10
28.035432
20
100.851027
11
27.033285
21
97.055168
0
LINE
8
Layer 1
10
27.033285
20
97.055168
11
25.069053
21
87.492554
0
LINE
8
Layer 1
10
25.069053
20
87.492554
11
23.331106
21
76.908749
0
LINE
8
Layer 1
10
23.331106
20
76.908749
11
22.238278
21
68.163628
0
LINE
8
Layer 1
10
22.238278
20
68.163628
11
22.064670
21
65.374286
0
LINE
8
Layer 1
10
22.064670
20
65.374286
11
22.209404
21
64.117069
0
LINE
8
Layer 1
10
22.209404
20
64.117069
11
22.936054
21
63.768161
0
LINE
8
Layer 1
10
22.936054
20
63.768161
11
24.478118
21
63.323386
0
LINE
8
Layer 1
10
24.478118
20
63.323386
11
29.103622
21
62.374911
0
LINE
8
Layer 1
10
29.103622
20
62.374911
11
34.508655
21
61.305638
0
LINE
8
Layer 1
10
34.508655
20
61.305638
11
39.134209
21
60.017687
0
LINE
8
Layer 1
10
39.134209
20
60.017687
11
43.057344
21
58.458245
0
LINE
8
Layer 1
10
43.057344
20
58.458245
11
46.355119
21
56.574497
0
LINE
8
Layer 1
10
46.355119
20
56.574497
11
47.793577
21
55.494503
0
LINE
8
Layer 1
10
47.793577
20
55.494503
11
49.104592
21
54.313627
0
LINE
8
Layer 1
10
49.104592
20
54.313627
11
50.297797
21
53.025267
0
LINE
8
Layer 1
10
50.297797
20
53.025267
11
51.382824
21
51.622821
0
LINE
8
Layer 1
10
51.382824
20
51.622821
11
53.266872
21
48.449265
0
LINE
8
Layer 1
10
53.266872
20
48.449265
11
54.833797
21
44.740143
0
LINE
8
Layer 1
10
54.833797
20
44.740143
11
55.610357
21
42.340859
0
LINE
8
Layer 1
10
55.610357
20
42.340859
11
55.936175
21
40.183280
0
LINE
8
Layer 1
10
55.936175
20
40.183280
11
55.857681
21
37.325926
0
LINE
8
Layer 1
10
55.857681
20
37.325926
11
55.421304
21
32.827317
0
LINE
8
Layer 1
10
55.421304
20
32.827317
11
54.652923
21
26.905511
0
LINE
8
Layer 1
10
54.652923
20
26.905511
11
54.233192
21
25.144679
0
LINE
8
Layer 1
10
54.233192
20
25.144679
11
53.728400
21
24.108305
0
LINE
8
Layer 1
10
53.728400
20
24.108305
11
53.429722
21
23.844074
0
LINE
8
Layer 1
10
53.429722
20
23.844074
11
53.092519
21
23.739698
0
LINE
8
Layer 1
10
53.092519
20
23.739698
11
52.279524
21
23.982168
0
LINE
8
Layer 1
10
52.279524
20
23.982168
11
51.243389
21
24.779022
0
LINE
8
Layer 1
10
51.243389
20
24.779022
11
49.938088
21
26.073570
0
LINE
8
Layer 1
10
49.938088
20
26.073570
11
47.558199
21
28.284601
0
LINE
8
Layer 1
10
47.558199
20
28.284601
11
46.624626
21
28.957204
0
LINE
8
Layer 1
10
46.624626
20
28.957204
11
46.032824
21
29.204233
0
LINE
8
Layer 1
10
46.032824
20
29.204233
11
45.503426
21
29.051130
0
LINE
8
Layer 1
10
45.503426
20
29.051130
11
44.739761
21
28.634264
0
LINE
8
Layer 1
10
44.739761
20
28.634264
11
42.918400
21
27.263898
0
LINE
8
Layer 1
10
42.918400
20
27.263898
11
40.437663
21
25.470019
0
LINE
8
Layer 1
10
40.437663
20
25.470019
11
37.613419
21
24.110132
0
LINE
8
Layer 1
10
37.613419
20
24.110132
11
34.611962
21
23.247678
0
LINE
8
Layer 1
10
34.611962
20
23.247678
11
31.599587
21
22.946096
0
LINE
8
Layer 1
10
31.599587
20
22.946096
11
29.842694
21
23.038291
0
LINE
8
Layer 1
10
29.842694
20
23.038291
11
28.521299
21
23.387495
0
LINE
8
Layer 1
10
28.521299
20
23.387495
11
27.383750
21
24.102633
0
LINE
8
Layer 1
10
27.383750
20
24.102633
11
26.178394
21
25.292633
0
LINE
8
Layer 1
10
26.178394
20
25.292633
11
25.111749
21
26.382834
0
LINE
8
Layer 1
10
25.111749
20
26.382834
11
24.310936
21
26.961723
0
LINE
8
Layer 1
10
24.310936
20
26.961723
11
23.685145
21
27.073252
0
LINE
8
Layer 1
10
23.685145
20
27.073252
11
23.143566
21
26.761374
0
LINE
8
Layer 1
10
23.143566
20
26.761374
11
22.498280
21
25.856230
0
LINE
8
Layer 1
10
22.498280
20
25.856230
11
22.229888
21
24.912649
0
LINE
8
Layer 1
10
22.229888
20
24.912649
11
22.077100
21
24.058151
0
LINE
8
Layer 1
10
22.077100
20
24.058151
11
21.644145
21
23.194394
0
LINE
8
Layer 1
10
21.644145
20
23.194394
11
20.969139
21
22.351205
0
LINE
8
Layer 1
10
20.969139
20
22.351205
11
20.090195
21
21.558409
0
LINE
8
Layer 1
10
20.090195
20
21.558409
11
19.045430
21
20.845836
0
LINE
8
Layer 1
10
19.045430
20
20.845836
11
17.872957
21
20.243311
0
LINE
8
Layer 1
10
17.872957
20
20.243311
11
16.610891
21
19.780662
0
LINE
8
Layer 1
10
16.610891
20
19.780662
11
15.297348
21
19.487717
0
LINE
8
Layer 1
10
15.297348
20
19.487717
11
9.526510
21
18.410047
0
LINE
8
Layer 1
10
9.526510
20
18.410047
11
4.501240
21
16.976770
0
LINE
8
Layer 1
10
4.501240
20
16.976770
11
2.239556
21
16.105742
0
LINE
8
Layer 1
10
2.239556
20
16.105742
11
0.129899
21
15.120569
0
LINE
8
Layer 1
10
0.129899
20
15.120569
11
-1.839186
21
14.012835
0
LINE
8
Layer 1
10
-1.839186
20
14.012835
11
-3.679152
21
12.774125
0
LINE
8
Layer 1
10
-3.679152
20
12.774125
11
-5.401456
21
11.396025
0
LINE
8
Layer 1
10
-5.401456
20
11.396025
11
-7.017552
21
9.870121
0
LINE
8
Layer 1
10
-7.017552
20
9.870121
11
-8.538895
21
8.187996
0
LINE
8
Layer 1
10
-8.538895
20
8.187996
11
-9.976940
21
6.341238
0
LINE
8
Layer 1
10
-9.976940
20
6.341238
11
-12.648953
21
2.120159
0
LINE
8
Layer 1
10
-12.648953
20
2.120159
11
-15.125232
21
-2.860434
0
LINE
8
Layer 1
10
-15.125232
20
-2.860434
11
-16.786660
21
-6.734739
0
LINE
8
Layer 1
10
-16.786660
20
-6.734739
11
-17.754446
21
-9.554741
0
LINE
8
Layer 1
10
-17.754446
20
-9.554741
11
-18.205432
21
-11.973418
0
LINE
8
Layer 1
10
-18.205432
20
-11.973418
11
-18.316462
21
-14.643748
0
LINE
8
Layer 1
10
-18.316462
20
-14.643748
11
-18.355930
21
-17.188652
0
LINE
8
Layer 1
10
-18.355930
20
-17.188652
11
-18.548417
21
-18.582769
0
LINE
8
Layer 1
10
-18.548417
20
-18.582769
11
-18.736770
21
-18.953978
0
LINE
8
Layer 1
10
-18.736770
20
-18.953978
11
-19.005049
21
-19.164325
0
LINE
8
Layer 1
10
-19.005049
20
-19.164325
11
-19.836951
21
-19.271543
0
LINE
8
Layer 1
10
-19.836951
20
-19.271543
11
-20.571315
21
-19.137494
0
LINE
8
Layer 1
10
-20.571315
20
-19.137494
11
-21.446829
21
-18.790866
0
LINE
8
Layer 1
10
-21.446829
20
-18.790866
11
-23.182236
21
-17.670045
0
LINE
8
Layer 1
10
-23.182236
20
-17.670045
11
-23.182236
21
-17.670045
0
LINE
8
Layer 1
10
-20.854379
20
-6.771159
11
-20.289039
21
-3.096118
0
LINE
8
Layer 1
10
-20.289039
20
-3.096118
11
-19.463408
21
0.005152
0
LINE
8
Layer 1
10
-19.463408
20
0.005152
11
-18.171750
21
3.138469
0
LINE
8
Layer 1
10
-18.171750
20
3.138469
11
-16.208327
21
6.909648
0
LINE
8
Layer 1
10
-16.208327
20
6.909648
11
-15.058172
21
8.784415
0
LINE
8
Layer 1
10
-15.058172
20
8.784415
11
-13.659565
21
10.720925
0
LINE
8
Layer 1
10
-13.659565
20
10.720925
11
-10.359322
21
14.528312
0
LINE
8
Layer 1
10
-10.359322
20
14.528312
11
-6.792254
21
17.830087
0
LINE
8
Layer 1
10
-6.792254
20
17.830087
11
-5.060117
21
19.134580
0
LINE
8
Layer 1
10
-5.060117
20
19.134580
11
-3.443021
21
20.124523
0
LINE
8
Layer 1
10
-3.443021
20
20.124523
11
0.184454
21
21.452350
0
LINE
8
Layer 1
10
0.184454
20
21.452350
11
5.593526
21
22.898118
0
LINE
8
Layer 1
10
5.593526
20
22.898118
11
8.678730
21
23.682598
0
LINE
8
Layer 1
10
8.678730
20
23.682598
11
11.423033
21
24.544011
0
LINE
8
Layer 1
10
11.423033
20
24.544011
11
13.824531
21
25.481297
0
LINE
8
Layer 1
10
13.824531
20
25.481297
11
15.881318
21
26.493397
0
LINE
8
Layer 1
10
15.881318
20
26.493397
11
17.591492
21
27.579248
0
LINE
8
Layer 1
10
17.591492
20
27.579248
11
18.953147
21
28.737793
0
LINE
8
Layer 1
10
18.953147
20
28.737793
11
19.964380
21
29.967969
0
LINE
8
Layer 1
10
19.964380
20
29.967969
11
20.623287
21
31.268716
0
LINE
8
Layer 1
10
20.623287
20
31.268716
11
21.580890
21
33.921746
0
LINE
8
Layer 1
10
21.580890
20
33.921746
11
23.425875
21
32.349712
0
LINE
8
Layer 1
10
23.425875
20
32.349712
11
24.645348
21
31.450966
0
LINE
8
Layer 1
10
24.645348
20
31.450966
11
26.115731
21
30.588513
0
LINE
8
Layer 1
10
26.115731
20
30.588513
11
29.431013
21
29.111632
0
LINE
8
Layer 1
10
29.431013
20
29.111632
11
32.615294
21
28.197356
0
LINE
8
Layer 1
10
32.615294
20
28.197356
11
33.921925
21
28.038159
0
LINE
8
Layer 1
10
33.921925
20
28.038159
11
34.912145
21
28.123971
0
LINE
8
Layer 1
10
34.912145
20
28.123971
11
37.391814
21
29.045486
0
LINE
8
Layer 1
10
37.391814
20
29.045486
11
40.760131
21
30.548514
0
LINE
8
Layer 1
10
40.760131
20
30.548514
11
43.059326
21
31.595353
0
LINE
8
Layer 1
10
43.059326
20
31.595353
11
44.578688
21
32.021290
0
LINE
8
Layer 1
10
44.578688
20
32.021290
11
45.865939
21
31.882331
0
LINE
8
Layer 1
10
45.865939
20
31.882331
11
47.468807
21
31.234483
0
LINE
8
Layer 1
10
47.468807
20
31.234483
11
49.307136
21
30.524080
0
LINE
8
Layer 1
10
49.307136
20
30.524080
11
50.355635
21
30.437964
0
LINE
8
Layer 1
10
50.355635
20
30.437964
11
50.591978
21
30.631876
0
LINE
8
Layer 1
10
50.591978
20
30.631876
11
50.640800
21
30.985297
0
LINE
8
Layer 1
10
50.640800
20
30.985297
11
50.189127
21
32.175242
0
LINE
8
Layer 1
10
50.189127
20
32.175242
11
49.542779
21
33.085841
0
LINE
8
Layer 1
10
49.542779
20
33.085841
11
48.605207
21
33.973391
0
LINE
8
Layer 1
10
48.605207
20
33.973391
11
47.403983
21
34.824154
0
LINE
8
Layer 1
10
47.403983
20
34.824154
11
45.966681
21
35.624393
0
LINE
8
Layer 1
10
45.966681
20
35.624393
11
42.494134
21
37.018348
0
LINE
8
Layer 1
10
42.494134
20
37.018348
11
38.408150
21
38.045352
0
LINE
8
Layer 1
10
38.408150
20
38.045352
11
34.291497
21
38.984606
0
LINE
8
Layer 1
10
34.291497
20
38.984606
11
32.654180
21
39.524009
0
LINE
8
Layer 1
10
32.654180
20
39.524009
11
31.238761
21
40.139367
0
LINE
8
Layer 1
10
31.238761
20
40.139367
11
30.001158
21
40.852756
0
LINE
8
Layer 1
10
30.001158
20
40.852756
11
28.897291
21
41.686255
0
LINE
8
Layer 1
10
28.897291
20
41.686255
11
27.883078
21
42.661942
0
LINE
8
Layer 1
10
27.883078
20
42.661942
11
26.914438
21
43.801895
0
LINE
8
Layer 1
10
26.914438
20
43.801895
11
25.311159
21
46.035183
0
LINE
8
Layer 1
10
25.311159
20
46.035183
11
24.019336
21
48.308963
0
LINE
8
Layer 1
10
24.019336
20
48.308963
11
22.883123
21
50.937930
0
LINE
8
Layer 1
10
22.883123
20
50.937930
11
21.746670
21
54.236779
0
LINE
8
Layer 1
10
21.746670
20
54.236779
11
20.509519
21
58.869352
0
LINE
8
Layer 1
10
20.509519
20
58.869352
11
20.123778
21
61.137014
0
LINE
8
Layer 1
10
20.123778
20
61.137014
11
19.883241
21
63.517654
0
LINE
8
Layer 1
10
19.883241
20
63.517654
11
19.807722
21
69.054040
0
LINE
8
Layer 1
10
19.807722
20
69.054040
11
20.222851
21
76.350866
0
LINE
8
Layer 1
10
20.222851
20
76.350866
11
20.854130
21
84.844754
0
LINE
8
Layer 1
10
20.854130
20
84.844754
11
21.050258
21
89.055004
0
LINE
8
Layer 1
10
21.050258
20
89.055004
11
20.980114
21
90.038719
0
LINE
8
Layer 1
10
20.980114
20
90.038719
11
20.795149
21
90.533468
0
LINE
8
Layer 1
10
20.795149
20
90.533468
11
20.493353
21
90.733234
0
LINE
8
Layer 1
10
20.493353
20
90.733234
11
20.072714
21
90.831999
0
LINE
8
Layer 1
10
20.072714
20
90.831999
11
19.584817
21
90.799439
0
LINE
8
Layer 1
10
19.584817
20
90.799439
11
19.078029
21
90.473457
0
LINE
8
Layer 1
10
19.078029
20
90.473457
11
18.549897
21
89.849361
0
LINE
8
Layer 1
10
18.549897
20
89.849361
11
17.997966
21
88.922455
0
LINE
8
Layer 1
10
17.997966
20
88.922455
11
16.812891
21
86.141436
0
LINE
8
Layer 1
10
16.812891
20
86.141436
11
15.503169
21
82.092846
0
LINE
8
Layer 1
10
15.503169
20
82.092846
11
14.476991
21
79.250826
0
LINE
8
Layer 1
10
14.476991
20
79.250826
11
13.996610
21
78.321367
0
LINE
8
Layer 1
10
13.996610
20
78.321367
11
13.620406
21
77.902919
0
LINE
8
Layer 1
10
13.620406
20
77.902919
11
13.414335
21
77.933560
0
LINE
8
Layer 1
10
13.414335
20
77.933560
11
13.219000
21
78.183801
0
LINE
8
Layer 1
10
13.219000
20
78.183801
11
12.862655
21
79.314774
0
LINE
8
Layer 1
10
12.862655
20
79.314774
11
12.302097
21
83.900501
0
LINE
8
Layer 1
10
12.302097
20
83.900501
11
11.972631
21
91.207129
0
LINE
8
Layer 1
10
11.972631
20
91.207129
11
11.908158
21
100.781687
0
LINE
8
Layer 1
10
11.908158
20
100.781687
11
12.026195
21
107.843766
0
LINE
8
Layer 1
10
12.026195
20
107.843766
11
12.360613
21
113.109351
0
LINE
8
Layer 1
10
12.360613
20
113.109351
11
13.073302
21
118.175885
0
LINE
8
Layer 1
10
13.073302
20
118.175885
11
14.326156
21
124.640810
0
LINE
8
Layer 1
10
14.326156
20
124.640810
11
17.699347
21
140.286157
0
LINE
8
Layer 1
10
17.699347
20
140.286157
11
20.115719
21
148.787632
0
LINE
8
Layer 1
10
20.115719
20
148.787632
11
23.717394
21
160.104549
0
LINE
8
Layer 1
10
23.717394
20
160.104549
11
27.422940
21
170.956094
0
LINE
8
Layer 1
10
27.422940
20
170.956094
11
30.150926
21
178.061455
0
LINE
8
Layer 1
10
30.150926
20
178.061455
11
31.916728
21
181.725467
0
LINE
8
Layer 1
10
31.916728
20
181.725467
11
34.067301
21
185.818451
0
LINE
8
Layer 1
10
34.067301
20
185.818451
11
39.157507
21
194.685159
0
LINE
8
Layer 1
10
39.157507
20
194.685159
11
44.691025
21
203.449235
0
LINE
8
Layer 1
10
44.691025
20
203.449235
11
49.937337
21
210.898332
0
LINE
8
Layer 1
10
49.937337
20
210.898332
11
51.963379
21
213.370283
0
LINE
8
Layer 1
10
51.963379
20
213.370283
11
54.422948
21
216.066050
0
LINE
8
Layer 1
10
54.422948
20
216.066050
11
60.088428
21
221.619852
0
LINE
8
Layer 1
10
60.088428
20
221.619852
11
65.825293
21
226.541376
0
LINE
8
Layer 1
10
65.825293
20
226.541376
11
68.374095
21
228.446796
0
LINE
8
Layer 1
10
68.374095
20
228.446796
11
70.525061
21
229.812261
0
LINE
8
Layer 1
10
70.525061
20
229.812261
11
78.179191
21
233.894577
0
LINE
8
Layer 1
10
78.179191
20
233.894577
11
84.291703
21
236.866198
0
LINE
8
Layer 1
10
84.291703
20
236.866198
11
88.341413
21
238.491372
0
LINE
8
Layer 1
10
88.341413
20
238.491372
11
89.429847
21
238.725368
0
LINE
8
Layer 1
10
89.429847
20
238.725368
11
89.711456
21
238.684826
0
LINE
8
Layer 1
10
89.711456
20
238.684826
11
89.807136
21
238.534345
0
LINE
8
Layer 1
10
89.807136
20
238.534345
11
88.764967
21
237.618428
0
LINE
8
Layer 1
10
88.764967
20
237.618428
11
86.259329
21
235.904003
0
LINE
8
Layer 1
10
86.259329
20
235.904003
11
79.776240
21
231.572818
0
LINE
8
Layer 1
10
79.776240
20
231.572818
11
74.587833
21
227.630737
0
LINE
8
Layer 1
10
74.587833
20
227.630737
11
69.657720
21
223.222475
0
LINE
8
Layer 1
10
69.657720
20
223.222475
11
63.949512
21
217.492745
0
LINE
8
Layer 1
10
63.949512
20
217.492745
11
60.691973
21
213.991352
0
LINE
8
Layer 1
10
60.691973
20
213.991352
11
58.489923
21
211.152274
0
LINE
8
Layer 1
10
58.489923
20
211.152274
11
56.761677
21
208.104214
0
LINE
8
Layer 1
10
56.761677
20
208.104214
11
54.925550
21
203.975873
0
LINE
8
Layer 1
10
54.925550
20
203.975873
11
53.220638
21
199.585995
0
LINE
8
Layer 1
10
53.220638
20
199.585995
11
52.386883
21
196.566186
0
LINE
8
Layer 1
10
52.386883
20
196.566186
11
52.291704
21
195.540825
0
LINE
8
Layer 1
10
52.291704
20
195.540825
11
52.408332
21
194.822901
0
LINE
8
Layer 1
10
52.408332
20
194.822901
11
52.734772
21
194.400722
0
LINE
8
Layer 1
10
52.734772
20
194.400722
11
53.269030
21
194.262594
0
LINE
8
Layer 1
10
53.269030
20
194.262594
11
53.739049
21
194.617517
0
LINE
8
Layer 1
10
53.739049
20
194.617517
11
54.522187
21
195.583892
0
LINE
8
Layer 1
10
54.522187
20
195.583892
11
56.591708
21
198.760632
0
LINE
8
Layer 1
10
56.591708
20
198.760632
11
59.495648
21
203.012602
0
LINE
8
Layer 1
10
59.495648
20
203.012602
11
63.441221
21
207.827982
0
LINE
8
Layer 1
10
63.441221
20
207.827982
11
68.031890
21
212.754240
0
LINE
8
Layer 1
10
68.031890
20
212.754240
11
72.871121
21
217.338849
0
LINE
8
Layer 1
10
72.871121
20
217.338849
11
77.273569
21
220.932108
0
LINE
8
Layer 1
10
77.273569
20
220.932108
11
82.257643
21
224.619633
0
LINE
8
Layer 1
10
82.257643
20
224.619633
11
86.416174
21
227.405136
0
LINE
8
Layer 1
10
86.416174
20
227.405136
11
87.746121
21
228.148290
0
LINE
8
Layer 1
10
87.746121
20
228.148290
11
88.341993
21
228.292331
0
LINE
8
Layer 1
10
88.341993
20
228.292331
11
88.288875
21
227.940170
0
LINE
8
Layer 1
10
88.288875
20
227.940170
11
87.927309
21
227.232434
0
LINE
8
Layer 1
10
87.927309
20
227.232434
11
86.518205
21
225.161200
0
LINE
8
Layer 1
10
86.518205
20
225.161200
11
85.056151
21
223.011871
0
LINE
8
Layer 1
10
85.056151
20
223.011871
11
84.677080
21
222.156492
0
LINE
8
Layer 1
10
84.677080
20
222.156492
11
84.529497
21
221.373422
0
LINE
8
Layer 1
10
84.529497
20
221.373422
11
84.611041
21
220.607247
0
LINE
8
Layer 1
10
84.611041
20
220.607247
11
84.919349
21
219.802557
0
LINE
8
Layer 1
10
84.919349
20
219.802557
11
86.206810
21
217.855982
0
LINE
8
Layer 1
10
86.206810
20
217.855982
11
87.152431
21
216.389499
0
LINE
8
Layer 1
10
87.152431
20
216.389499
11
88.000295
21
214.609826
0
LINE
8
Layer 1
10
88.000295
20
214.609826
11
88.752523
21
212.507954
0
LINE
8
Layer 1
10
88.752523
20
212.507954
11
89.411238
21
210.074874
0
LINE
8
Layer 1
10
89.411238
20
210.074874
11
90.456610
21
204.179055
0
LINE
8
Layer 1
10
90.456610
20
204.179055
11
91.153384
21
196.850295
0
LINE
8
Layer 1
10
91.153384
20
196.850295
11
91.426583
21
191.528710
0
LINE
8
Layer 1
10
91.426583
20
191.528710
11
91.482172
21
186.830200
0
LINE
8
Layer 1
10
91.482172
20
186.830200
11
91.292032
21
182.573943
0
LINE
8
Layer 1
10
91.292032
20
182.573943
11
90.828041
21
178.579111
0
LINE
8
Layer 1
10
90.828041
20
178.579111
11
90.062080
21
174.664882
0
LINE
8
Layer 1
10
90.062080
20
174.664882
11
88.966028
21
170.650429
0
LINE
8
Layer 1
10
88.966028
20
170.650429
11
87.511765
21
166.354929
0
LINE
8
Layer 1
10
87.511765
20
166.354929
11
85.671172
21
161.597556
0
LINE
8
Layer 1
10
85.671172
20
161.597556
11
83.980145
21
157.231158
0
LINE
8
Layer 1
10
83.980145
20
157.231158
11
83.218798
21
154.569985
0
LINE
8
Layer 1
10
83.218798
20
154.569985
11
83.158813
21
153.708425
0
LINE
8
Layer 1
10
83.158813
20
153.708425
11
83.297718
21
153.068651
0
LINE
8
Layer 1
10
83.297718
20
153.068651
11
83.624335
21
152.582491
0
LINE
8
Layer 1
10
83.624335
20
152.582491
11
84.127490
21
152.181770
0
LINE
8
Layer 1
10
84.127490
20
152.181770
11
84.897957
21
151.822827
0
LINE
8
Layer 1
10
84.897957
20
151.822827
11
85.757069
21
151.745328
0
LINE
8
Layer 1
10
85.757069
20
151.745328
11
86.776343
21
151.990707
0
LINE
8
Layer 1
10
86.776343
20
151.990707
11
88.027301
21
152.600401
0
LINE
8
Layer 1
10
88.027301
20
152.600401
11
91.510344
21
155.078464
0
LINE
8
Layer 1
10
91.510344
20
155.078464
11
96.778358
21
159.510994
0
LINE
8
Layer 1
10
96.778358
20
159.510994
11
101.475824
21
163.700894
0
LINE
8
Layer 1
10
101.475824
20
163.700894
11
105.194946
21
167.396755
0
LINE
8
Layer 1
10
105.194946
20
167.396755
11
108.136362
21
170.986340
0
LINE
8
Layer 1
10
108.136362
20
170.986340
11
109.378130
21
172.862456
0
LINE
8
Layer 1
10
109.378130
20
172.862456
11
110.500711
21
174.857414
0
LINE
8
Layer 1
10
110.500711
20
174.857414
11
111.529184
21
177.019685
0
LINE
8
Layer 1
10
111.529184
20
177.019685
11
112.488631
21
179.397740
0
LINE
8
Layer 1
10
112.488631
20
179.397740
11
114.300761
21
184.995081
0
LINE
8
Layer 1
10
114.300761
20
184.995081
11
116.137741
21
192.037202
0
LINE
8
Layer 1
10
116.137741
20
192.037202
11
118.200210
21
200.911865
0
LINE
8
Layer 1
10
118.200210
20
200.911865
11
122.003583
21
216.851140
0
LINE
8
Layer 1
10
122.003583
20
216.851140
11
123.607030
21
222.602246
0
LINE
8
Layer 1
10
123.607030
20
222.602246
11
125.131855
21
227.199675
0
LINE
8
Layer 1
10
125.131855
20
227.199675
11
126.668216
21
230.887431
0
LINE
8
Layer 1
10
126.668216
20
230.887431
11
128.306265
21
233.909521
0
LINE
8
Layer 1
10
128.306265
20
233.909521
11
130.136158
21
236.509952
0
LINE
8
Layer 1
10
130.136158
20
236.509952
11
132.248049
21
238.932730
0
LINE
8
Layer 1
10
132.248049
20
238.932730
11
133.880252
21
240.750657
0
LINE
8
Layer 1
10
133.880252
20
240.750657
11
134.904365
21
242.117350
0
LINE
8
Layer 1
10
134.904365
20
242.117350
11
135.348635
21
243.077575
0
LINE
8
Layer 1
10
135.348635
20
243.077575
11
135.241309
21
243.676101
0
LINE
8
Layer 1
10
135.241309
20
243.676101
11
134.533636
21
243.994112
0
LINE
8
Layer 1
10
134.533636
20
243.994112
11
133.132826
21
244.251057
0
LINE
8
Layer 1
10
133.132826
20
244.251057
11
129.062737
21
244.476681
0
LINE
8
Layer 1
10
129.062737
20
244.476681
11
125.201685
21
244.643338
0
LINE
8
Layer 1
10
125.201685
20
244.643338
11
124.027138
21
244.836464
0
LINE
8
Layer 1
10
124.027138
20
244.836464
11
123.595759
21
245.076547
0
LINE
8
Layer 1
10
123.595759
20
245.076547
11
123.843711
21
245.466767
0
LINE
8
Layer 1
10
123.843711
20
245.466767
11
124.531541
21
245.998295
0
LINE
8
Layer 1
10
124.531541
20
245.998295
11
126.890703
21
247.318895
0
LINE
8
Layer 1
10
126.890703
20
247.318895
11
130.000969
21
248.705581
0
LINE
8
Layer 1
10
130.000969
20
248.705581
11
133.190065
21
249.825588
0
LINE
8
Layer 1
10
133.190065
20
249.825588
11
135.420969
21
250.251924
0
LINE
8
Layer 1
10
135.420969
20
250.251924
11
138.354433
21
250.494812
0
LINE
8
Layer 1
10
138.354433
20
250.494812
11
141.725367
21
250.566446
0
LINE
8
Layer 1
10
141.725367
20
250.566446
11
145.268679
21
250.479020
0
LINE
8
Layer 1
10
145.268679
20
250.479020
11
148.719279
21
250.244728
0
LINE
8
Layer 1
10
148.719279
20
250.244728
11
151.812076
21
249.875764
0
LINE
8
Layer 1
10
151.812076
20
249.875764
11
154.281980
21
249.384323
0
LINE
8
Layer 1
10
154.281980
20
249.384323
11
155.863900
21
248.782599
0
LINE
8
Layer 1
10
155.863900
20
248.782599
11
157.267811
21
247.722703
0
LINE
8
Layer 1
10
157.267811
20
247.722703
11
157.965774
21
246.796723
0
LINE
8
Layer 1
10
157.965774
20
246.796723
11
158.032902
21
246.426586
0
LINE
8
Layer 1
10
158.032902
20
246.426586
11
157.902997
21
246.141088
0
LINE
8
Layer 1
10
157.902997
20
246.141088
11
157.569211
21
245.957283
0
LINE
8
Layer 1
10
157.569211
20
245.957283
11
157.024694
21
245.892225
0
LINE
8
Layer 1
10
157.024694
20
245.892225
11
155.718826
21
245.666706
0
LINE
8
Layer 1
10
155.718826
20
245.666706
11
153.932234
21
245.047306
0
LINE
8
Layer 1
10
153.932234
20
245.047306
11
149.555766
21
242.969803
0
LINE
8
Layer 1
10
149.555766
20
242.969803
11
145.173069
21
240.345599
0
LINE
8
Layer 1
10
145.173069
20
240.345599
11
143.378692
21
239.042822
0
LINE
8
Layer 1
10
143.378692
20
239.042822
11
142.061926
21
237.860576
0
LINE
8
Layer 1
10
142.061926
20
237.860576
11
140.300269
21
235.588506
0
LINE
8
Layer 1
10
140.300269
20
235.588506
11
139.253319
21
233.513020
0
LINE
8
Layer 1
10
139.253319
20
233.513020
11
139.054787
21
232.712215
0
LINE
8
Layer 1
10
139.054787
20
232.712215
11
139.103246
21
232.156421
0
LINE
8
Layer 1
10
139.103246
20
232.156421
11
139.421467
21
231.910924
0
LINE
8
Layer 1
10
139.421467
20
231.910924
11
140.032221
21
232.041013
0
LINE
8
Layer 1
10
140.032221
20
232.041013
11
149.661973
21
235.058208
0
LINE
8
Layer 1
10
149.661973
20
235.058208
11
154.625023
21
236.465535
0
LINE
8
Layer 1
10
154.625023
20
236.465535
11
158.460291
21
237.247716
0
LINE
8
Layer 1
10
158.460291
20
237.247716
11
162.361150
21
237.576059
0
LINE
8
Layer 1
10
162.361150
20
237.576059
11
167.520976
21
237.621870
0
LINE
8
Layer 1
10
167.520976
20
237.621870
11
172.866355
21
237.469988
0
LINE
8
Layer 1
10
172.866355
20
237.469988
11
177.727813
21
237.040464
0
LINE
8
Layer 1
10
177.727813
20
237.040464
11
182.319993
21
236.267252
0
LINE
8
Layer 1
10
182.319993
20
236.267252
11
186.857538
21
235.084306
0
LINE
8
Layer 1
10
186.857538
20
235.084306
11
191.555090
21
233.425579
0
LINE
8
Layer 1
10
191.555090
20
233.425579
11
196.627293
21
231.225024
0
LINE
8
Layer 1
10
196.627293
20
231.225024
11
202.288789
21
228.416596
0
LINE
8
Layer 1
10
202.288789
20
228.416596
11
208.754221
21
224.934248
0
LINE
8
Layer 1
10
208.754221
20
224.934248
11
214.931868
21
221.636305
0
LINE
8
Layer 1
10
214.931868
20
221.636305
11
219.318382
21
219.686978
0
LINE
8
Layer 1
10
219.318382
20
219.686978
11
221.121659
21
219.115160
0
LINE
8
Layer 1
10
221.121659
20
219.115160
11
222.815189
21
218.757034
0
LINE
8
Layer 1
10
222.815189
20
218.757034
11
224.511649
21
218.571445
0
LINE
8
Layer 1
10
224.511649
20
218.571445
11
226.323717
21
218.517240
0
LINE
8
Layer 1
10
226.323717
20
218.517240
11
227.728017
21
218.607248
0
LINE
8
Layer 1
10
227.728017
20
218.607248
11
229.172732
21
218.860448
0
LINE
8
Layer 1
10
229.172732
20
218.860448
11
231.902733
21
219.736373
0
LINE
8
Layer 1
10
231.902733
20
219.736373
11
233.047686
21
220.299069
0
LINE
8
Layer 1
10
233.047686
20
220.299069
11
233.952383
21
220.904903
0
LINE
8
Layer 1
10
233.952383
20
220.904903
11
234.546657
21
221.523862
0
LINE
8
Layer 1
10
234.546657
20
221.523862
11
234.760341
21
222.125931
0
LINE
8
Layer 1
10
234.760341
20
222.125931
11
234.547048
21
222.411800
0
LINE
8
Layer 1
10
234.547048
20
222.411800
11
233.966302
21
222.680512
0
LINE
8
Layer 1
10
233.966302
20
222.680512
11
232.057245
21
223.045747
0
LINE
8
Layer 1
10
232.057245
20
223.045747
11
226.463019
21
223.757899
0
LINE
8
Layer 1
10
226.463019
20
223.757899
11
221.178774
21
224.884587
0
LINE
8
Layer 1
10
221.178774
20
224.884587
11
216.459097
21
226.359601
0
LINE
8
Layer 1
10
216.459097
20
226.359601
11
214.390531
21
227.207039
0
LINE
8
Layer 1
10
214.390531
20
227.207039
11
212.558576
21
228.116730
0
LINE
8
Layer 1
10
212.558576
20
228.116730
11
208.318099
21
230.668978
0
LINE
8
Layer 1
10
208.318099
20
230.668978
11
203.684638
21
233.826226
0
LINE
8
Layer 1
10
203.684638
20
233.826226
11
199.061711
21
237.299428
0
LINE
8
Layer 1
10
199.061711
20
237.299428
11
194.852835
21
240.799539
0
LINE
8
Layer 1
10
194.852835
20
240.799539
11
191.519004
21
243.468648
0
LINE
8
Layer 1
10
191.519004
20
243.468648
11
188.262694
21
245.576076
0
LINE
8
Layer 1
10
188.262694
20
245.576076
11
185.369765
21
246.959540
0
LINE
8
Layer 1
10
185.369765
20
246.959540
11
184.148900
21
247.329073
0
LINE
8
Layer 1
10
184.148900
20
247.329073
11
183.126078
21
247.456758
0
LINE
8
Layer 1
10
183.126078
20
247.456758
11
181.564779
21
247.722386
0
LINE
8
Layer 1
10
181.564779
20
247.722386
11
180.979453
21
248.009913
0
LINE
8
Layer 1
10
180.979453
20
248.009913
11
180.633395
21
248.361021
0
LINE
8
Layer 1
10
180.633395
20
248.361021
11
180.586008
21
248.594812
0
LINE
8
Layer 1
10
180.586008
20
248.594812
11
180.714083
21
248.768786
0
LINE
8
Layer 1
10
180.714083
20
248.768786
11
181.421824
21
248.949950
0
LINE
8
Layer 1
10
181.421824
20
248.949950
11
182.607023
21
248.929845
0
LINE
8
Layer 1
10
182.607023
20
248.929845
11
184.120087
21
248.733807
0
LINE
8
Layer 1
10
184.120087
20
248.733807
11
187.531436
21
247.915264
0
LINE
8
Layer 1
10
187.531436
20
247.915264
11
189.130533
21
247.343429
0
LINE
8
Layer 1
10
189.130533
20
247.343429
11
190.459120
21
246.696996
0
LINE
8
Layer 1
10
190.459120
20
246.696996
11
194.188700
21
244.121804
0
LINE
8
Layer 1
10
194.188700
20
244.121804
11
199.553728
21
240.057464
0
LINE
8
Layer 1
10
199.553728
20
240.057464
11
204.768934
21
236.225606
0
LINE
8
Layer 1
10
204.768934
20
236.225606
11
210.303846
21
232.543688
0
LINE
8
Layer 1
10
210.303846
20
232.543688
11
214.953551
21
229.774878
0
LINE
8
Layer 1
10
214.953551
20
229.774878
11
216.569915
21
228.971380
0
LINE
8
Layer 1
10
216.569915
20
228.971380
11
217.513134
21
228.682348
0
LINE
8
Layer 1
10
217.513134
20
228.682348
11
218.016335
21
228.764982
0
LINE
8
Layer 1
10
218.016335
20
228.764982
11
218.237074
21
229.005803
0
LINE
8
Layer 1
10
218.237074
20
229.005803
11
218.183455
21
229.394186
0
LINE
8
Layer 1
10
218.183455
20
229.394186
11
217.863583
21
229.919509
0
LINE
8
Layer 1
10
217.863583
20
229.919509
11
216.457502
21
231.338478
0
LINE
8
Layer 1
10
216.457502
20
231.338478
11
214.083669
21
233.177722
0
LINE
8
Layer 1
10
214.083669
20
233.177722
11
209.650305
21
236.680066
0
LINE
8
Layer 1
10
209.650305
20
236.680066
11
204.790912
21
240.968276
0
LINE
8
Layer 1
10
204.790912
20
240.968276
11
200.959792
21
244.700227
0
LINE
8
Layer 1
10
200.959792
20
244.700227
11
199.884303
21
245.938191
0
LINE
8
Layer 1
10
199.884303
20
245.938191
11
199.611245
21
246.533793
0
LINE
8
Layer 1
10
199.611245
20
246.533793
11
199.897457
21
246.536569
0
LINE
8
Layer 1
10
199.897457
20
246.536569
11
200.409956
21
246.235297
0
LINE
8
Layer 1
10
200.409956
20
246.235297
11
201.823472
21
244.930974
0
LINE
8
Layer 1
10
201.823472
20
244.930974
11
203.289795
21
243.517047
0
LINE
8
Layer 1
10
203.289795
20
243.517047
11
205.362854
21
241.767176
0
LINE
8
Layer 1
10
205.362854
20
241.767176
11
210.572433
21
237.805512
0
LINE
8
Layer 1
10
210.572433
20
237.805512
11
215.938721
21
234.137806
0
LINE
8
Layer 1
10
215.938721
20
234.137806
11
218.207666
21
232.755382
0
LINE
8
Layer 1
10
218.207666
20
232.755382
11
219.948229
21
231.855881
0
LINE
8
Layer 1
10
219.948229
20
231.855881
11
221.650415
21
231.238912
0
LINE
8
Layer 1
10
221.650415
20
231.238912
11
223.746749
21
230.659205
0
LINE
8
Layer 1
10
223.746749
20
230.659205
11
228.057501
21
229.871974
0
LINE
8
Layer 1
10
228.057501
20
229.871974
11
230.556103
21
229.672611
0
LINE
8
Layer 1
10
230.556103
20
229.672611
11
232.289682
21
229.750538
0
LINE
8
Layer 1
10
232.289682
20
229.750538
11
233.625115
21
230.164564
0
LINE
8
Layer 1
10
233.625115
20
230.164564
11
234.929279
21
230.973499
0
LINE
8
Layer 1
10
234.929279
20
230.973499
11
235.710772
21
231.627206
0
LINE
8
Layer 1
10
235.710772
20
231.627206
11
236.315827
21
232.328553
0
LINE
8
Layer 1
10
236.315827
20
232.328553
11
236.741445
21
233.083137
0
LINE
8
Layer 1
10
236.741445
20
233.083137
11
236.984625
21
233.896557
0
LINE
8
Layer 1
10
236.984625
20
233.896557
11
237.042366
21
234.774410
0
LINE
8
Layer 1
10
237.042366
20
234.774410
11
236.911671
21
235.722294
0
LINE
8
Layer 1
10
236.911671
20
235.722294
11
236.589537
21
236.745808
0
LINE
8
Layer 1
10
236.589537
20
236.745808
11
236.072965
21
237.850549
0
LINE
8
Layer 1
10
236.072965
20
237.850549
11
234.444509
21
240.326106
0
LINE
8
Layer 1
10
234.444509
20
240.326106
11
232.002300
21
243.193749
0
LINE
8
Layer 1
10
232.002300
20
243.193749
11
228.722340
21
246.498263
0
LINE
8
Layer 1
10
228.722340
20
246.498263
11
224.580628
21
250.284433
0
LINE
8
Layer 1
10
224.580628
20
250.284433
11
222.022769
21
252.541494
0
LINE
8
Layer 1
10
222.022769
20
252.541494
11
210.821470
21
252.541494
0
LINE
8
Layer 1
10
210.821470
20
252.541494
11
204.326856
21
252.579818
0
LINE
8
Layer 1
10
204.326856
20
252.579818
11
200.601689
21
252.833323
0
LINE
8
Layer 1
10
200.601689
20
252.833323
11
199.356763
21
253.105704
0
LINE
8
Layer 1
10
199.356763
20
253.105704
11
198.299136
21
253.509803
0
LINE
8
Layer 1
10
198.299136
20
253.509803
11
196.072365
21
254.817054
0
LINE
8
Layer 1
10
196.072365
20
254.817054
11
193.566713
21
256.644238
0
LINE
8
Layer 1
10
193.566713
20
256.644238
11
192.804488
21
257.371342
0
LINE
8
Layer 1
10
192.804488
20
257.371342
11
192.524544
21
257.841791
0
LINE
8
Layer 1
10
192.524544
20
257.841791
11
192.704217
21
258.245999
0
LINE
8
Layer 1
10
192.704217
20
258.245999
11
193.454190
21
258.197352
0
LINE
8
Layer 1
10
193.454190
20
258.197352
11
197.930736
21
256.405127
0
LINE
8
Layer 1
10
197.930736
20
256.405127
11
199.646979
21
255.829447
0
LINE
8
Layer 1
10
199.646979
20
255.829447
11
201.805843
21
255.395910
0
LINE
8
Layer 1
10
201.805843
20
255.395910
11
204.359637
21
255.111780
0
LINE
8
Layer 1
10
204.359637
20
255.111780
11
207.260670
21
254.984319
0
LINE
8
Layer 1
10
207.260670
20
254.984319
11
210.786819
21
254.975960
0
LINE
8
Layer 1
10
210.786819
20
254.975960
11
212.827384
21
255.185226
0
LINE
8
Layer 1
10
212.827384
20
255.185226
11
213.477786
21
255.417353
0
LINE
8
Layer 1
10
213.477786
20
255.417353
11
213.981447
21
255.758949
0
LINE
8
Layer 1
10
213.981447
20
255.758949
11
214.848087
21
256.843963
0
LINE
8
Layer 1
10
214.848087
20
256.843963
11
215.671557
21
258.511709
0
LINE
8
Layer 1
10
215.671557
20
258.511709
11
216.092053
21
260.452292
0
LINE
8
Layer 1
10
216.092053
20
260.452292
11
216.103341
21
262.693570
0
LINE
8
Layer 1
10
216.103341
20
262.693570
11
215.699186
21
265.263402
0
LINE
8
Layer 1
10
215.699186
20
265.263402
11
214.873355
21
268.189644
0
LINE
8
Layer 1
10
214.873355
20
268.189644
11
213.619613
21
271.500157
0
LINE
8
Layer 1
10
213.619613
20
271.500157
11
211.931726
21
275.222796
0
LINE
8
Layer 1
10
211.931726
20
275.222796
11
209.803461
21
279.385422
0
LINE
8
Layer 1
10
209.803461
20
279.385422
11
207.148213
21
284.646891
0
LINE
8
Layer 1
10
207.148213
20
284.646891
11
206.417688
21
286.336827
0
LINE
8
Layer 1
10
206.417688
20
286.336827
11
206.241074
21
287.063644
0
LINE
8
Layer 1
10
206.241074
20
287.063644
11
206.518244
21
287.138739
0
LINE
8
Layer 1
10
206.518244
20
287.138739
11
206.943905
21
286.927492
0
LINE
8
Layer 1
10
206.943905
20
286.927492
11
208.165320
21
285.758295
0
LINE
8
Layer 1
10
208.165320
20
285.758295
11
209.754554
21
283.780706
0
LINE
8
Layer 1
10
209.754554
20
283.780706
11
211.560838
21
281.219378
0
LINE
8
Layer 1
10
211.560838
20
281.219378
11
215.221495
21
275.244115
0
LINE
8
Layer 1
10
215.221495
20
275.244115
11
216.774334
21
272.279486
0
LINE
8
Layer 1
10
216.774334
20
272.279486
11
217.941158
21
269.629728
0
LINE
8
Layer 1
10
217.941158
20
269.629728
11
219.241399
21
266.845433
0
LINE
8
Layer 1
10
219.241399
20
266.845433
11
219.805355
21
266.090343
0
LINE
8
Layer 1
10
219.805355
20
266.090343
11
220.292070
21
265.764847
0
LINE
8
Layer 1
10
220.292070
20
265.764847
11
220.686694
21
265.872616
0
LINE
8
Layer 1
10
220.686694
20
265.872616
11
220.974376
21
266.417318
0
LINE
8
Layer 1
10
220.974376
20
266.417318
11
221.140267
21
267.402619
0
LINE
8
Layer 1
10
221.140267
20
267.402619
11
221.169518
21
268.832190
0
LINE
8
Layer 1
10
221.169518
20
268.832190
11
220.949321
21
270.355903
0
LINE
8
Layer 1
10
220.949321
20
270.355903
11
220.394691
21
272.444963
0
LINE
8
Layer 1
10
220.394691
20
272.444963
11
218.538568
21
277.673298
0
LINE
8
Layer 1
10
218.538568
20
277.673298
11
216.114032
21
283.225540
0
LINE
8
Layer 1
10
216.114032
20
283.225540
11
214.848884
21
285.719485
0
LINE
8
Layer 1
10
214.848884
20
285.719485
11
213.633964
21
287.810038
0
LINE
8
Layer 1
10
213.633964
20
287.810038
11
212.715342
21
289.083224
0
LINE
8
Layer 1
10
212.715342
20
289.083224
11
211.562211
21
290.398000
0
LINE
8
Layer 1
10
211.562211
20
290.398000
11
208.627994
21
293.107585
0
LINE
8
Layer 1
10
208.627994
20
293.107585
11
204.982444
21
295.849319
0
LINE
8
Layer 1
10
204.982444
20
295.849319
11
200.776692
21
298.533727
0
LINE
8
Layer 1
10
200.776692
20
298.533727
11
196.161871
21
301.071336
0
LINE
8
Layer 1
10
196.161871
20
301.071336
11
191.289113
21
303.372670
0
LINE
8
Layer 1
10
191.289113
20
303.372670
11
186.309547
21
305.348256
0
LINE
8
Layer 1
10
186.309547
20
305.348256
11
181.374308
21
306.908619
0
LINE
8
Layer 1
10
181.374308
20
306.908619
11
176.812447
21
307.946127
0
LINE
8
Layer 1
10
176.812447
20
307.946127
11
171.561459
21
308.792766
0
LINE
8
Layer 1
10
171.561459
20
308.792766
11
165.818569
21
309.438087
0
LINE
8
Layer 1
10
165.818569
20
309.438087
11
159.781001
21
309.871641
0
LINE
8
Layer 1
10
159.781001
20
309.871641
11
153.645979
21
310.082980
0
LINE
8
Layer 1
10
153.645979
20
310.082980
11
147.610728
21
310.061655
0
LINE
8
Layer 1
10
147.610728
20
310.061655
11
141.872471
21
309.797218
0
LINE
8
Layer 1
10
141.872471
20
309.797218
11
136.628434
21
309.279218
0
LINE
8
Layer 1
10
136.628434
20
309.279218
11
131.251343
21
308.466051
0
LINE
8
Layer 1
10
131.251343
20
308.466051
11
125.936721
21
307.450140
0
LINE
8
Layer 1
10
125.936721
20
307.450140
11
120.691606
21
306.234830
0
LINE
8
Layer 1
10
120.691606
20
306.234830
11
115.523037
21
304.823469
0
LINE
8
Layer 1
10
115.523037
20
304.823469
11
110.438051
21
303.219401
0
LINE
8
Layer 1
10
110.438051
20
303.219401
11
105.443687
21
301.425975
0
LINE
8
Layer 1
10
105.443687
20
301.425975
11
100.546984
21
299.446535
0
LINE
8
Layer 1
10
100.546984
20
299.446535
11
95.754978
21
297.284428
0
LINE
8
Layer 1
10
95.754978
20
297.284428
11
91.074709
21
294.943000
0
LINE
8
Layer 1
10
91.074709
20
294.943000
11
86.513214
21
292.425598
0
LINE
8
Layer 1
10
86.513214
20
292.425598
11
82.077533
21
289.735567
0
LINE
8
Layer 1
10
82.077533
20
289.735567
11
77.774702
21
286.876255
0
LINE
8
Layer 1
10
77.774702
20
286.876255
11
73.611760
21
283.851007
0
LINE
8
Layer 1
10
73.611760
20
283.851007
11
69.595745
21
280.663169
0
LINE
8
Layer 1
10
69.595745
20
280.663169
11
65.733696
21
277.316089
0
LINE
8
Layer 1
10
65.733696
20
277.316089
11
62.032650
21
273.813111
0
LINE
8
Layer 1
10
62.032650
20
273.813111
11
59.489956
21
271.132315
0
LINE
8
Layer 1
10
59.489956
20
271.132315
11
56.641144
21
267.846652
0
LINE
8
Layer 1
10
56.641144
20
267.846652
11
50.524932
21
260.124178
0
LINE
8
Layer 1
10
50.524932
20
260.124178
11
44.683546
21
251.972600
0
LINE
8
Layer 1
10
44.683546
20
251.972600
11
42.178267
21
248.150555
0
LINE
8
Layer 1
10
42.178267
20
248.150555
11
40.116517
21
244.718824
0
LINE
8
Layer 1
10
40.116517
20
244.718824
11
36.409321
21
237.412704
0
LINE
8
Layer 1
10
36.409321
20
237.412704
11
31.931191
21
227.556866
0
LINE
8
Layer 1
10
31.931191
20
227.556866
11
27.577528
21
217.200503
0
LINE
8
Layer 1
10
27.577528
20
217.200503
11
24.243736
21
208.392811
0
LINE
8
Layer 1
10
24.243736
20
208.392811
11
22.686933
21
204.305360
0
LINE
8
Layer 1
10
22.686933
20
204.305360
11
22.156316
21
203.255922
0
LINE
8
Layer 1
10
22.156316
20
203.255922
11
21.810427
21
202.873152
0
LINE
8
Layer 1
10
21.810427
20
202.873152
11
21.663920
21
203.159907
0
LINE
8
Layer 1
10
21.663920
20
203.159907
11
21.731450
21
204.119046
0
LINE
8
Layer 1
10
21.731450
20
204.119046
11
22.567234
21
208.065902
0
LINE
8
Layer 1
10
22.567234
20
208.065902
11
24.839485
21
215.375432
0
LINE
8
Layer 1
10
24.839485
20
215.375432
11
28.424102
21
225.366151
0
LINE
8
Layer 1
10
28.424102
20
225.366151
11
32.253499
21
235.185491
0
LINE
8
Layer 1
10
32.253499
20
235.185491
11
35.260091
21
241.980888
0
LINE
8
Layer 1
10
35.260091
20
241.980888
11
38.589313
21
248.029629
0
LINE
8
Layer 1
10
38.589313
20
248.029629
11
42.481426
21
254.356496
0
LINE
8
Layer 1
10
42.481426
20
254.356496
11
47.037135
21
261.117507
0
LINE
8
Layer 1
10
47.037135
20
261.117507
11
52.357144
21
268.468680
0
LINE
8
Layer 1
10
52.357144
20
268.468680
11
57.329306
21
275.378871
0
LINE
8
Layer 1
10
57.329306
20
275.378871
11
58.841855
21
277.665224
0
LINE
8
Layer 1
10
58.841855
20
277.665224
11
59.397372
21
278.723755
0
LINE
8
Layer 1
10
59.397372
20
278.723755
11
59.311389
21
279.125860
0
LINE
8
Layer 1
10
59.311389
20
279.125860
11
59.063024
21
279.353608
0
LINE
8
Layer 1
10
59.063024
20
279.353608
11
58.666651
21
279.416981
0
LINE
8
Layer 1
10
58.666651
20
279.416981
11
58.136647
21
279.325965
0
LINE
8
Layer 1
10
58.136647
20
279.325965
11
56.733244
21
278.720700
0
LINE
8
Layer 1
10
56.733244
20
278.720700
11
54.967818
21
277.617688
0
LINE
8
Layer 1
10
54.967818
20
277.617688
11
52.955372
21
276.096803
0
LINE
8
Layer 1
10
52.955372
20
276.096803
11
50.810907
21
274.237920
0
LINE
8
Layer 1
10
50.810907
20
274.237920
11
48.649428
21
272.120912
0
LINE
8
Layer 1
10
48.649428
20
272.120912
11
46.585937
21
269.825655
0
LINE
8
Layer 1
10
46.585937
20
269.825655
11
44.562398
21
267.527841
0
LINE
8
Layer 1
10
44.562398
20
267.527841
11
43.312864
21
266.456179
0
LINE
8
Layer 1
10
43.312864
20
266.456179
11
42.928915
21
266.353872
0
LINE
8
Layer 1
10
42.928915
20
266.353872
11
42.679148
21
266.526564
0
LINE
8
Layer 1
10
42.679148
20
266.526564
11
42.503062
21
267.654895
0
LINE
8
Layer 1
10
42.503062
20
267.654895
11
42.304175
21
268.637682
0
LINE
8
Layer 1
10
42.304175
20
268.637682
11
41.756921
21
269.834326
0
LINE
8
Layer 1
10
41.756921
20
269.834326
11
39.913753
21
272.507289
0
LINE
8
Layer 1
10
39.913753
20
272.507289
11
37.566438
21
274.950004
0
LINE
8
Layer 1
10
37.566438
20
274.950004
11
36.389000
21
275.858838
0
LINE
8
Layer 1
10
36.389000
20
275.858838
11
35.307857
21
276.438692
0
LINE
8
Layer 1
10
35.307857
20
276.438692
11
33.941726
21
276.789900
0
LINE
8
Layer 1
10
33.941726
20
276.789900
11
32.107401
21
277.013232
0
LINE
8
Layer 1
10
32.107401
20
277.013232
11
29.975411
21
277.095546
0
LINE
8
Layer 1
10
29.975411
20
277.095546
11
27.716282
21
277.023702
0
LINE
8
Layer 1
10
27.716282
20
277.023702
11
25.267219
21
276.723063
0
LINE
8
Layer 1
10
25.267219
20
276.723063
11
22.857138
21
276.165038
0
LINE
8
Layer 1
10
22.857138
20
276.165038
11
20.518769
21
275.366630
0
LINE
8
Layer 1
10
20.518769
20
275.366630
11
18.284843
21
274.344845
0
LINE
8
Layer 1
10
18.284843
20
274.344845
11
16.188091
21
273.116687
0
LINE
8
Layer 1
10
16.188091
20
273.116687
11
14.261244
21
271.699162
0
LINE
8
Layer 1
10
14.261244
20
271.699162
11
12.537031
21
270.109273
0
LINE
8
Layer 1
10
12.537031
20
270.109273
11
11.048184
21
268.364026
0
LINE
8
Layer 1
10
11.048184
20
268.364026
11
9.226211
21
265.795419
0
LINE
8
Layer 1
10
9.226211
20
265.795419
11
8.027629
21
263.735603
0
LINE
8
Layer 1
10
8.027629
20
263.735603
11
7.475858
21
262.133319
0
LINE
8
Layer 1
10
7.475858
20
262.133319
11
7.449843
21
261.487732
0
LINE
8
Layer 1
10
7.449843
20
261.487732
11
7.594312
21
260.937306
0
LINE
8
Layer 1
10
7.594312
20
260.937306
11
7.912192
21
260.475633
0
LINE
8
Layer 1
10
7.912192
20
260.475633
11
8.406409
21
260.096304
0
LINE
8
Layer 1
10
8.406409
20
260.096304
11
9.935566
21
259.559054
0
LINE
8
Layer 1
10
9.935566
20
259.559054
11
12.205199
21
259.274294
0
LINE
8
Layer 1
10
12.205199
20
259.274294
11
15.238724
21
259.190765
0
LINE
8
Layer 1
10
15.238724
20
259.190765
11
19.874009
21
258.978493
0
LINE
8
Layer 1
10
19.874009
20
258.978493
11
21.694407
21
258.689554
0
LINE
8
Layer 1
10
21.694407
20
258.689554
11
23.242144
21
258.257769
0
LINE
8
Layer 1
10
23.242144
20
258.257769
11
24.561347
21
257.667406
0
LINE
8
Layer 1
10
24.561347
20
257.667406
11
25.696144
21
256.902733
0
LINE
8
Layer 1
10
25.696144
20
256.902733
11
26.690661
21
255.948016
0
LINE
8
Layer 1
10
26.690661
20
255.948016
11
27.589026
21
254.787523
0
LINE
8
Layer 1
10
27.589026
20
254.787523
11
28.337372
21
253.409167
0
LINE
8
Layer 1
10
28.337372
20
253.409167
11
28.787612
21
251.851425
0
LINE
8
Layer 1
10
28.787612
20
251.851425
11
28.929773
21
250.046486
0
LINE
8
Layer 1
10
28.929773
20
250.046486
11
28.753883
21
247.926541
0
LINE
8
Layer 1
10
28.753883
20
247.926541
11
28.249971
21
245.423779
0
LINE
8
Layer 1
10
28.249971
20
245.423779
11
27.408065
21
242.470389
0
LINE
8
Layer 1
10
27.408065
20
242.470389
11
24.670379
21
234.940485
0
LINE
8
Layer 1
10
24.670379
20
234.940485
11
20.258295
21
223.597612
0
LINE
8
Layer 1
10
20.258295
20
223.597612
11
18.534293
21
218.904009
0
LINE
8
Layer 1
10
18.534293
20
218.904009
11
17.226832
21
214.981223
0
LINE
8
Layer 1
10
17.226832
20
214.981223
11
15.593062
21
209.390864
0
LINE
8
Layer 1
10
15.593062
20
209.390864
11
11.834730
21
195.152207
0
LINE
8
Layer 1
10
11.834730
20
195.152207
11
8.235560
21
180.077610
0
LINE
8
Layer 1
10
8.235560
20
180.077610
11
6.800745
21
173.442323
0
LINE
8
Layer 1
10
6.800745
20
173.442323
11
5.771820
21
168.056640
0
LINE
8
Layer 1
10
5.771820
20
168.056640
11
4.837188
21
161.436869
0
LINE
8
Layer 1
10
4.837188
20
161.436869
11
4.088908
21
153.760330
0
LINE
8
Layer 1
10
4.088908
20
153.760330
11
3.534062
21
145.285780
0
LINE
8
Layer 1
10
3.534062
20
145.285780
11
3.179731
21
136.271977
0
LINE
8
Layer 1
10
3.179731
20
136.271977
11
3.032997
21
126.977680
0
LINE
8
Layer 1
10
3.032997
20
126.977680
11
3.100942
21
117.661645
0
LINE
8
Layer 1
10
3.100942
20
117.661645
11
3.390647
21
108.582631
0
LINE
8
Layer 1
10
3.390647
20
108.582631
11
3.909195
21
99.999395
0
LINE
8
Layer 1
10
3.909195
20
99.999395
11
4.558883
21
92.757231
0
LINE
8
Layer 1
10
4.558883
20
92.757231
11
5.475413
21
85.549233
0
LINE
8
Layer 1
10
5.475413
20
85.549233
11
6.930714
21
76.513043
0
LINE
8
Layer 1
10
6.930714
20
76.513043
11
9.196711
21
63.786304
0
LINE
8
Layer 1
10
9.196711
20
63.786304
11
9.831538
21
59.644376
0
LINE
8
Layer 1
10
9.831538
20
59.644376
11
9.901493
21
57.696965
0
LINE
8
Layer 1
10
9.901493
20
57.696965
11
8.448873
21
57.198229
0
LINE
8
Layer 1
10
8.448873
20
57.198229
11
5.423027
21
56.539346
0
LINE
8
Layer 1
10
5.423027
20
56.539346
11
2.692550
21
55.937330
0
LINE
8
Layer 1
10
2.692550
20
55.937330
11
0.099605
21
55.177433
0
LINE
8
Layer 1
10
0.099605
20
55.177433
11
-2.344530
21
54.265441
0
LINE
8
Layer 1
10
-2.344530
20
54.265441
11
-4.628577
21
53.207145
0
LINE
8
Layer 1
10
-4.628577
20
53.207145
11
-6.741262
21
52.008332
0
LINE
8
Layer 1
10
-6.741262
20
52.008332
11
-8.671306
21
50.674791
0
LINE
8
Layer 1
10
-8.671306
20
50.674791
11
-10.407432
21
49.212312
0
LINE
8
Layer 1
10
-10.407432
20
49.212312
11
-11.938364
21
47.626683
0
LINE
8
Layer 1
10
-11.938364
20
47.626683
11
-13.544600
21
45.641036
0
LINE
8
Layer 1
10
-13.544600
20
45.641036
11
-15.096765
21
43.466676
0
LINE
8
Layer 1
10
-15.096765
20
43.466676
11
-18.003091
21
38.653193
0
LINE
8
Layer 1
10
-18.003091
20
38.653193
11
-20.585765
21
33.388980
0
LINE
8
Layer 1
10
-20.585765
20
33.388980
11
-22.773209
21
27.876781
0
LINE
8
Layer 1
10
-22.773209
20
27.876781
11
-24.493845
21
22.319341
0
LINE
8
Layer 1
10
-24.493845
20
22.319341
11
-25.676096
21
16.919406
0
LINE
8
Layer 1
10
-25.676096
20
16.919406
11
-26.248384
21
11.879720
0
LINE
8
Layer 1
10
-26.248384
20
11.879720
11
-26.283424
21
9.558329
0
LINE
8
Layer 1
10
-26.283424
20
9.558329
11
-26.139131
21
7.403029
0
LINE
8
Layer 1
10
-26.139131
20
7.403029
11
-25.073472
21
-1.073457
0
LINE
8
Layer 1
10
-25.073472
20
-1.073457
11
-24.116005
21
-6.944313
0
LINE
8
Layer 1
10
-24.116005
20
-6.944313
11
-23.245309
21
-10.317857
0
LINE
8
Layer 1
10
-23.245309
20
-10.317857
11
-22.835807
21
-11.101986
0
LINE
8
Layer 1
10
-22.835807
20
-11.101986
11
-22.439966
21
-11.302406
0
LINE
8
Layer 1
10
-22.439966
20
-11.302406
11
-21.932523
21
-10.941506
0
LINE
8
Layer 1
10
-21.932523
20
-10.941506
11
-21.505855
21
-10.085273
0
LINE
8
Layer 1
10
-21.505855
20
-10.085273
11
-21.149847
21
-8.704796
0
LINE
8
Layer 1
10
-21.149847
20
-8.704796
11
-20.854379
21
-6.771159
0
LINE
8
Layer 1
10
-20.854379
20
-6.771159
11
-20.854379
21
-6.771159
0
LINE
8
Layer 1
10
174.902487
20
256.783791
11
174.178909
21
257.743094
0
LINE
8
Layer 1
10
174.178909
20
257.743094
11
173.618911
21
258.755115
0
LINE
8
Layer 1
10
173.618911
20
258.755115
11
173.222801
21
259.817514
0
LINE
8
Layer 1
10
173.222801
20
259.817514
11
172.990888
21
260.927949
0
LINE
8
Layer 1
10
172.990888
20
260.927949
11
172.923482
21
262.084078
0
LINE
8
Layer 1
10
172.923482
20
262.084078
11
173.020893
21
263.283562
0
LINE
8
Layer 1
10
173.020893
20
263.283562
11
173.711399
21
265.803229
0
LINE
8
Layer 1
10
173.711399
20
265.803229
11
174.388021
21
267.129648
0
LINE
8
Layer 1
10
174.388021
20
267.129648
11
174.774006
21
267.498546
0
LINE
8
Layer 1
10
174.774006
20
267.498546
11
175.237169
21
267.679045
0
LINE
8
Layer 1
10
175.237169
20
267.679045
11
175.811552
21
267.677000
0
LINE
8
Layer 1
10
175.811552
20
267.677000
11
176.531202
21
267.498265
0
LINE
8
Layer 1
10
176.531202
20
267.498265
11
178.542482
21
266.634153
0
LINE
8
Layer 1
10
178.542482
20
266.634153
11
180.358209
21
265.583395
0
LINE
8
Layer 1
10
180.358209
20
265.583395
11
181.334757
21
264.586851
0
LINE
8
Layer 1
10
181.334757
20
264.586851
11
181.510796
21
264.104629
0
LINE
8
Layer 1
10
181.510796
20
264.104629
11
181.479990
21
263.630825
0
LINE
8
Layer 1
10
181.479990
20
263.630825
11
181.243321
21
263.163725
0
LINE
8
Layer 1
10
181.243321
20
263.163725
11
180.801772
21
262.701618
0
LINE
8
Layer 1
10
180.801772
20
262.701618
11
180.047065
21
261.741650
0
LINE
8
Layer 1
10
180.047065
20
261.741650
11
179.784325
21
260.666717
0
LINE
8
Layer 1
10
179.784325
20
260.666717
11
179.939784
21
259.580731
0
LINE
8
Layer 1
10
179.939784
20
259.580731
11
180.439672
21
258.587599
0
LINE
8
Layer 1
10
180.439672
20
258.587599
11
181.210220
21
257.791231
0
LINE
8
Layer 1
10
181.210220
20
257.791231
11
182.177661
21
257.295537
0
LINE
8
Layer 1
10
182.177661
20
257.295537
11
183.268224
21
257.204425
0
LINE
8
Layer 1
10
183.268224
20
257.204425
11
184.408140
21
257.621804
0
LINE
8
Layer 1
10
184.408140
20
257.621804
11
185.388394
21
258.501963
0
LINE
8
Layer 1
10
185.388394
20
258.501963
11
185.960155
21
259.629655
0
LINE
8
Layer 1
10
185.960155
20
259.629655
11
186.138447
21
260.946496
0
LINE
8
Layer 1
10
186.138447
20
260.946496
11
185.938297
21
262.394099
0
LINE
8
Layer 1
10
185.938297
20
262.394099
11
185.374728
21
263.914081
0
LINE
8
Layer 1
10
185.374728
20
263.914081
11
184.462768
21
265.448054
0
LINE
8
Layer 1
10
184.462768
20
265.448054
11
183.217441
21
266.937634
0
LINE
8
Layer 1
10
183.217441
20
266.937634
11
181.653773
21
268.324436
0
LINE
8
Layer 1
10
181.653773
20
268.324436
11
180.484272
21
269.092713
0
LINE
8
Layer 1
10
180.484272
20
269.092713
11
179.195965
21
269.697282
0
LINE
8
Layer 1
10
179.195965
20
269.697282
11
177.790107
21
270.137989
0
LINE
8
Layer 1
10
177.790107
20
270.137989
11
176.267952
21
270.414679
0
LINE
8
Layer 1
10
176.267952
20
270.414679
11
174.630754
21
270.527197
0
LINE
8
Layer 1
10
174.630754
20
270.527197
11
172.879770
21
270.475389
0
LINE
8
Layer 1
10
172.879770
20
270.475389
11
169.041456
21
269.878177
0
LINE
8
Layer 1
10
169.041456
20
269.878177
11
166.878333
21
269.590640
0
LINE
8
Layer 1
10
166.878333
20
269.590640
11
166.345516
21
269.729687
0
LINE
8
Layer 1
10
166.345516
20
269.729687
11
166.169427
21
270.057848
0
LINE
8
Layer 1
10
166.169427
20
270.057848
11
166.420204
21
270.772112
0
LINE
8
Layer 1
10
166.420204
20
270.772112
11
167.116091
21
271.501674
0
LINE
8
Layer 1
10
167.116091
20
271.501674
11
168.172426
21
272.210591
0
LINE
8
Layer 1
10
168.172426
20
272.210591
11
169.504548
21
272.862925
0
LINE
8
Layer 1
10
169.504548
20
272.862925
11
171.027794
21
273.422734
0
LINE
8
Layer 1
10
171.027794
20
273.422734
11
172.657501
21
273.854079
0
LINE
8
Layer 1
10
172.657501
20
273.854079
11
174.309009
21
274.121019
0
LINE
8
Layer 1
10
174.309009
20
274.121019
11
175.897653
21
274.187614
0
LINE
8
Layer 1
10
175.897653
20
274.187614
11
178.491139
21
273.859774
0
LINE
8
Layer 1
10
178.491139
20
273.859774
11
180.874886
21
273.063039
0
LINE
8
Layer 1
10
180.874886
20
273.063039
11
183.011020
21
271.837514
0
LINE
8
Layer 1
10
183.011020
20
271.837514
11
184.861664
21
270.223308
0
LINE
8
Layer 1
10
184.861664
20
270.223308
11
186.388944
21
268.260528
0
LINE
8
Layer 1
10
186.388944
20
268.260528
11
187.554985
21
265.989281
0
LINE
8
Layer 1
10
187.554985
20
265.989281
11
188.321912
21
263.449673
0
LINE
8
Layer 1
10
188.321912
20
263.449673
11
188.651848
21
260.681813
0
LINE
8
Layer 1
10
188.651848
20
260.681813
11
188.614629
21
259.080833
0
LINE
8
Layer 1
10
188.614629
20
259.080833
11
188.368007
21
257.753486
0
LINE
8
Layer 1
10
188.368007
20
257.753486
11
187.889779
21
256.681226
0
LINE
8
Layer 1
10
187.889779
20
256.681226
11
187.157742
21
255.845509
0
LINE
8
Layer 1
10
187.157742
20
255.845509
11
186.149695
21
255.227789
0
LINE
8
Layer 1
10
186.149695
20
255.227789
11
184.843433
21
254.809521
0
LINE
8
Layer 1
10
184.843433
20
254.809521
11
183.216755
21
254.572160
0
LINE
8
Layer 1
10
183.216755
20
254.572160
11
181.247457
21
254.497161
0
LINE
8
Layer 1
10
181.247457
20
254.497161
11
178.848428
21
254.565347
0
LINE
8
Layer 1
10
178.848428
20
254.565347
11
177.267731
21
254.869544
0
LINE
8
Layer 1
10
177.267731
20
254.869544
11
176.090655
21
255.559206
0
LINE
8
Layer 1
10
176.090655
20
255.559206
11
174.902487
21
256.783791
0
LINE
8
Layer 1
10
174.902487
20
256.783791
11
174.902487
21
256.783791
0
LINE
8
Layer 1
10
53.991194
20
37.522846
11
53.902667
21
38.836518
0
LINE
8
Layer 1
10
53.902667
20
38.836518
11
53.643355
21
40.240025
0
LINE
8
Layer 1
10
53.643355
20
40.240025
11
52.649975
21
43.227333
0
LINE
8
Layer 1
10
52.649975
20
43.227333
11
51.086262
21
46.306356
0
LINE
8
Layer 1
10
51.086262
20
46.306356
11
49.027421
21
49.298681
0
LINE
8
Layer 1
10
49.027421
20
49.298681
11
46.394617
21
52.379988
0
LINE
8
Layer 1
10
46.394617
20
52.379988
11
45.228599
21
53.491536
0
LINE
8
Layer 1
10
45.228599
20
53.491536
11
44.090194
21
54.365825
0
LINE
8
Layer 1
10
44.090194
20
54.365825
11
42.924918
21
55.039465
0
LINE
8
Layer 1
10
42.924918
20
55.039465
11
41.678291
21
55.549065
0
LINE
8
Layer 1
10
41.678291
20
55.549065
11
38.723048
21
56.222580
0
LINE
8
Layer 1
10
38.723048
20
56.222580
11
36.958444
21
56.417448
0
LINE
8
Layer 1
10
36.958444
20
56.417448
11
35.676687
21
56.323291
0
LINE
8
Layer 1
10
35.676687
20
56.323291
11
34.624618
21
55.882021
0
LINE
8
Layer 1
10
34.624618
20
55.882021
11
33.549076
21
55.035553
0
LINE
8
Layer 1
10
33.549076
20
55.035553
11
32.827504
21
54.267026
0
LINE
8
Layer 1
10
32.827504
20
54.267026
11
32.236599
21
53.427183
0
LINE
8
Layer 1
10
32.236599
20
53.427183
11
31.837339
21
52.617608
0
LINE
8
Layer 1
10
31.837339
20
52.617608
11
31.690702
21
51.939886
0
LINE
8
Layer 1
10
31.690702
20
51.939886
11
31.831341
21
51.163017
0
LINE
8
Layer 1
10
31.831341
20
51.163017
11
32.220600
21
50.283706
0
LINE
8
Layer 1
10
32.220600
20
50.283706
11
33.549018
21
48.437868
0
LINE
8
Layer 1
10
33.549018
20
48.437868
11
35.284048
21
46.842590
0
LINE
8
Layer 1
10
35.284048
20
46.842590
11
36.181570
21
46.276479
0
LINE
8
Layer 1
10
36.181570
20
46.276479
11
37.033779
21
45.938091
0
LINE
8
Layer 1
10
37.033779
20
45.938091
11
41.223225
21
44.663752
0
LINE
8
Layer 1
10
41.223225
20
44.663752
11
44.781208
21
43.134288
0
LINE
8
Layer 1
10
44.781208
20
43.134288
11
47.655092
21
41.376589
0
LINE
8
Layer 1
10
47.655092
20
41.376589
11
48.819048
21
40.420554
0
LINE
8
Layer 1
10
48.819048
20
40.420554
11
49.792241
21
39.417544
0
LINE
8
Layer 1
10
49.792241
20
39.417544
11
51.607721
21
37.485658
0
LINE
8
Layer 1
10
51.607721
20
37.485658
11
52.922290
21
36.521592
0
LINE
8
Layer 1
10
52.922290
20
36.521592
11
53.387240
21
36.404516
0
LINE
8
Layer 1
10
53.387240
20
36.404516
11
53.721572
21
36.531827
0
LINE
8
Layer 1
10
53.721572
20
36.531827
11
53.923489
21
36.904333
0
LINE
8
Layer 1
10
53.923489
20
36.904333
11
53.991194
21
37.522846
0
LINE
8
Layer 1
10
53.991194
20
37.522846
11
53.991194
21
37.522846
0
LINE
8
Layer 1
10
28.850099
20
120.021989
11
32.157415
21
126.240927
0
LINE
8
Layer 1
10
32.157415
20
126.240927
11
36.950704
21
134.462567
0
LINE
8
Layer 1
10
36.950704
20
134.462567
11
42.019022
21
142.669569
0
LINE
8
Layer 1
10
42.019022
20
142.669569
11
46.151422
21
148.844591
0
LINE
8
Layer 1
10
46.151422
20
148.844591
11
50.729690
21
154.988020
0
LINE
8
Layer 1
10
50.729690
20
154.988020
11
55.089387
21
160.515260
0
LINE
8
Layer 1
10
55.089387
20
160.515260
11
59.247234
21
165.443789
0
LINE
8
Layer 1
10
59.247234
20
165.443789
11
63.219949
21
169.791089
0
LINE
8
Layer 1
10
63.219949
20
169.791089
11
67.024252
21
173.574640
0
LINE
8
Layer 1
10
67.024252
20
173.574640
11
70.676863
21
176.811922
0
LINE
8
Layer 1
10
70.676863
20
176.811922
11
74.194502
21
179.520414
0
LINE
8
Layer 1
10
74.194502
20
179.520414
11
77.593887
21
181.717599
0
LINE
8
Layer 1
10
77.593887
20
181.717599
11
81.548144
21
184.252483
0
LINE
8
Layer 1
10
81.548144
20
184.252483
11
82.974159
21
185.335111
0
LINE
8
Layer 1
10
82.974159
20
185.335111
11
83.762873
21
186.102683
0
LINE
8
Layer 1
10
83.762873
20
186.102683
11
84.256507
21
187.430979
0
LINE
8
Layer 1
10
84.256507
20
187.430979
11
84.594731
21
189.630764
0
LINE
8
Layer 1
10
84.594731
20
189.630764
11
84.780762
21
192.421932
0
LINE
8
Layer 1
10
84.780762
20
192.421932
11
84.817819
21
195.524377
0
LINE
8
Layer 1
10
84.817819
20
195.524377
11
84.709120
21
198.657993
0
LINE
8
Layer 1
10
84.709120
20
198.657993
11
84.457882
21
201.542672
0
LINE
8
Layer 1
10
84.457882
20
201.542672
11
84.067325
21
203.898309
0
LINE
8
Layer 1
10
84.067325
20
203.898309
11
83.540665
21
205.444797
0
LINE
8
Layer 1
10
83.540665
20
205.444797
11
82.987206
21
206.266530
0
LINE
8
Layer 1
10
82.987206
20
206.266530
11
82.365999
21
206.939460
0
LINE
8
Layer 1
10
82.365999
20
206.939460
11
81.753049
21
207.394143
0
LINE
8
Layer 1
10
81.753049
20
207.394143
11
81.224360
21
207.561136
0
LINE
8
Layer 1
10
81.224360
20
207.561136
11
80.278020
21
207.280769
0
LINE
8
Layer 1
10
80.278020
20
207.280769
11
78.632401
21
206.511356
0
LINE
8
Layer 1
10
78.632401
20
206.511356
11
73.976119
21
203.935505
0
LINE
8
Layer 1
10
73.976119
20
203.935505
11
68.721095
21
200.693821
0
LINE
8
Layer 1
10
68.721095
20
200.693821
11
64.332911
21
197.646540
0
LINE
8
Layer 1
10
64.332911
20
197.646540
11
62.213608
21
195.782698
0
LINE
8
Layer 1
10
62.213608
20
195.782698
11
59.642304
21
193.149279
0
LINE
8
Layer 1
10
59.642304
20
193.149279
11
53.773843
21
186.349604
0
LINE
8
Layer 1
10
53.773843
20
186.349604
11
47.987823
21
178.799295
0
LINE
8
Layer 1
10
47.987823
20
178.799295
11
45.519572
21
175.227585
0
LINE
8
Layer 1
10
45.519572
20
175.227585
11
43.544541
21
172.050136
0
LINE
8
Layer 1
10
43.544541
20
172.050136
11
41.523150
21
168.335250
0
LINE
8
Layer 1
10
41.523150
20
168.335250
11
39.514326
21
164.268506
0
LINE
8
Layer 1
10
39.514326
20
164.268506
11
35.712631
21
155.525343
0
LINE
8
Layer 1
10
35.712631
20
155.525343
11
32.495971
21
146.712452
0
LINE
8
Layer 1
10
32.495971
20
146.712452
11
31.218439
21
142.558548
0
LINE
8
Layer 1
10
31.218439
20
142.558548
11
30.220858
21
138.721638
0
LINE
8
Layer 1
10
30.220858
20
138.721638
11
28.918487
21
133.245757
0
LINE
8
Layer 1
10
28.918487
20
133.245757
11
27.187541
21
124.961482
0
LINE
8
Layer 1
10
27.187541
20
124.961482
11
26.540844
21
121.182021
0
LINE
8
Layer 1
10
26.540844
20
121.182021
11
26.284524
21
118.969667
0
LINE
8
Layer 1
10
26.284524
20
118.969667
11
26.342867
21
118.290547
0
LINE
8
Layer 1
10
26.342867
20
118.290547
11
26.507464
21
117.855881
0
LINE
8
Layer 1
10
26.507464
20
117.855881
11
26.762667
21
117.659251
0
LINE
8
Layer 1
10
26.762667
20
117.659251
11
27.092829
21
117.694238
0
LINE
8
Layer 1
10
27.092829
20
117.694238
11
27.915435
21
118.433390
0
LINE
8
Layer 1
10
27.915435
20
118.433390
11
28.850099
21
120.021989
0
LINE
8
Layer 1
10
28.850099
20
120.021989
11
28.850099
21
120.021989
0
LINE
8
Layer 1
10
156.968656
20
187.257762
11
157.823292
21
188.592078
0
LINE
8
Layer 1
10
157.823292
20
188.592078
11
158.532815
21
190.063764
0
LINE
8
Layer 1
10
158.532815
20
190.063764
11
159.104942
21
191.713217
0
LINE
8
Layer 1
10
159.104942
20
191.713217
11
159.547391
21
193.580836
0
LINE
8
Layer 1
10
159.547391
20
193.580836
11
160.074121
21
198.132164
0
LINE
8
Layer 1
10
160.074121
20
198.132164
11
160.174745
21
204.040933
0
LINE
8
Layer 1
10
160.174745
20
204.040933
11
159.936986
21
210.367282
0
LINE
8
Layer 1
10
159.936986
20
210.367282
11
159.695358
21
212.614049
0
LINE
8
Layer 1
10
159.695358
20
212.614049
11
159.351222
21
214.325363
0
LINE
8
Layer 1
10
159.351222
20
214.325363
11
158.889073
21
215.557835
0
LINE
8
Layer 1
10
158.889073
20
215.557835
11
158.293404
21
216.368081
0
LINE
8
Layer 1
10
158.293404
20
216.368081
11
157.548711
21
216.812712
0
LINE
8
Layer 1
10
157.548711
20
216.812712
11
156.639486
21
216.948341
0
LINE
8
Layer 1
10
156.639486
20
216.948341
11
155.538136
21
216.813456
0
LINE
8
Layer 1
10
155.538136
20
216.813456
11
154.700118
21
216.369228
0
LINE
8
Layer 1
10
154.700118
20
216.369228
11
154.116672
21
215.556296
0
LINE
8
Layer 1
10
154.116672
20
215.556296
11
153.779039
21
214.315299
0
LINE
8
Layer 1
10
153.779039
20
214.315299
11
153.678457
21
212.586877
0
LINE
8
Layer 1
10
153.678457
20
212.586877
11
153.806167
21
210.311669
0
LINE
8
Layer 1
10
153.806167
20
210.311669
11
154.711420
21
203.883453
0
LINE
8
Layer 1
10
154.711420
20
203.883453
11
155.555550
21
197.934567
0
LINE
8
Layer 1
10
155.555550
20
197.934567
11
155.776215
21
193.573735
0
LINE
8
Layer 1
10
155.776215
20
193.573735
11
155.651059
21
191.922692
0
LINE
8
Layer 1
10
155.651059
20
191.922692
11
155.368010
21
190.589286
0
LINE
8
Layer 1
10
155.368010
20
190.589286
11
154.926393
21
189.547057
0
LINE
8
Layer 1
10
154.926393
20
189.547057
11
154.325532
21
188.769547
0
LINE
8
Layer 1
10
154.325532
20
188.769547
11
153.908185
21
188.252459
0
LINE
8
Layer 1
10
153.908185
20
188.252459
11
153.607525
21
187.647150
0
LINE
8
Layer 1
10
153.607525
20
187.647150
11
153.358360
21
186.365638
0
LINE
8
Layer 1
10
153.358360
20
186.365638
11
153.582232
21
185.312541
0
LINE
8
Layer 1
10
153.582232
20
185.312541
11
153.872869
21
184.992753
0
LINE
8
Layer 1
10
153.872869
20
184.992753
11
154.283339
21
184.875391
0
LINE
8
Layer 1
10
154.283339
20
184.875391
11
154.790240
21
185.063375
0
LINE
8
Layer 1
10
154.790240
20
185.063375
11
155.465501
21
185.575212
0
LINE
8
Layer 1
10
155.465501
20
185.575212
11
156.968656
21
187.257762
0
LINE
8
Layer 1
10
156.968656
20
187.257762
11
156.968656
21
187.257762
0
LINE
8
Layer 1
10
28.311839
20
280.687355
11
31.707209
21
281.264250
0
LINE
8
Layer 1
10
31.707209
20
281.264250
11
35.868395
21
281.644501
0
LINE
8
Layer 1
10
35.868395
20
281.644501
11
41.103436
21
281.847221
0
LINE
8
Layer 1
10
41.103436
20
281.847221
11
47.720369
21
281.891524
0
LINE
8
Layer 1
10
47.720369
20
281.891524
11
61.384829
21
281.838893
0
LINE
8
Layer 1
10
61.384829
20
281.838893
11
64.102259
21
284.680814
0
LINE
8
Layer 1
10
64.102259
20
284.680814
11
65.912115
21
286.892689
0
LINE
8
Layer 1
10
65.912115
20
286.892689
11
66.377597
21
287.724911
0
LINE
8
Layer 1
10
66.377597
20
287.724911
11
66.447512
21
288.219821
0
LINE
8
Layer 1
10
66.447512
20
288.219821
11
66.142338
21
288.412317
0
LINE
8
Layer 1
10
66.142338
20
288.412317
11
65.475858
21
288.572085
0
LINE
8
Layer 1
10
65.475858
20
288.572085
11
63.213640
21
288.796152
0
LINE
8
Layer 1
10
63.213640
20
288.796152
11
56.054792
21
288.881435
0
LINE
8
Layer 1
10
56.054792
20
288.881435
11
47.445535
21
288.519142
0
LINE
8
Layer 1
10
47.445535
20
288.519142
11
43.370307
21
288.183740
0
LINE
8
Layer 1
10
43.370307
20
288.183740
11
39.860440
21
287.752746
0
LINE
8
Layer 1
10
39.860440
20
287.752746
11
36.155079
21
287.061382
0
LINE
8
Layer 1
10
36.155079
20
287.061382
11
32.333749
21
286.128729
0
LINE
8
Layer 1
10
32.333749
20
286.128729
11
28.584469
21
285.025028
0
LINE
8
Layer 1
10
28.584469
20
285.025028
11
25.095257
21
283.820518
0
LINE
8
Layer 1
10
25.095257
20
283.820518
11
22.054133
21
282.585439
0
LINE
8
Layer 1
10
22.054133
20
282.585439
11
19.649116
21
281.390032
0
LINE
8
Layer 1
10
19.649116
20
281.390032
11
18.068225
21
280.304535
0
LINE
8
Layer 1
10
18.068225
20
280.304535
11
17.645583
21
279.824953
0
LINE
8
Layer 1
10
17.645583
20
279.824953
11
17.499480
21
279.399189
0
LINE
8
Layer 1
10
17.499480
20
279.399189
11
17.579651
21
279.102247
0
LINE
8
Layer 1
10
17.579651
20
279.102247
11
17.870891
21
278.918022
0
LINE
8
Layer 1
10
17.870891
20
278.918022
11
19.390941
21
278.923980
0
LINE
8
Layer 1
10
19.390941
20
278.923980
11
22.668349
21
279.489584
0
LINE
8
Layer 1
10
22.668349
20
279.489584
11
28.311839
21
280.687355
0
LINE
8
Layer 1
10
28.311839
20
280.687355
11
28.311839
21
280.687355
 0 
ENDSEC
 0 
EOF
