999
"DXF R12 Output" (www.mydxf.blogspot.com)
 0 
SECTION
 2 
HEADER
 9 
$ACADVER
 1 
AC1009
 9 
$EXTMIN
 10 
 0 
 20 
 0 
 9 
$EXTMAX
 10 
 8.5 
 20 
 11 
 0 
ENDSEC
 0 
SECTION
 2 
ENTITIES
0
LINE
8
Layer 1
10
85.606461
20
-40.441540
11
82.726722
21
-38.396822
0
LINE
8
Layer 1
10
82.726722
20
-38.396822
11
79.832402
21
-36.115550
0
LINE
8
Layer 1
10
79.832402
20
-36.115550
11
76.965773
21
-33.639160
0
LINE
8
Layer 1
10
76.965773
20
-33.639160
11
74.169107
21
-31.009084
0
LINE
8
Layer 1
10
74.169107
20
-31.009084
11
71.484676
21
-28.266758
0
LINE
8
Layer 1
10
71.484676
20
-28.266758
11
68.954752
21
-25.453615
0
LINE
8
Layer 1
10
68.954752
20
-25.453615
11
66.621607
21
-22.611090
0
LINE
8
Layer 1
10
66.621607
20
-22.611090
11
64.527512
21
-19.780616
0
LINE
8
Layer 1
10
64.527512
20
-19.780616
11
61.982352
21
-16.372778
0
LINE
8
Layer 1
10
61.982352
20
-16.372778
11
59.459321
21
-13.522278
0
LINE
8
Layer 1
10
59.459321
20
-13.522278
11
56.799131
21
-11.066022
0
LINE
8
Layer 1
10
56.799131
20
-11.066022
11
53.842494
21
-8.840920
0
LINE
8
Layer 1
10
53.842494
20
-8.840920
11
50.837396
21
-6.848372
0
LINE
8
Layer 1
10
50.837396
20
-6.848372
11
49.147778
21
-5.989199
0
LINE
8
Layer 1
10
49.147778
20
-5.989199
11
48.680956
21
-5.951940
0
LINE
8
Layer 1
10
48.680956
20
-5.951940
11
48.404621
21
-6.158799
0
LINE
8
Layer 1
10
48.404621
20
-6.158799
11
48.238907
21
-7.252574
0
LINE
8
Layer 1
10
48.238907
20
-7.252574
11
48.008870
21
-8.578821
0
LINE
8
Layer 1
10
48.008870
20
-8.578821
11
47.362925
21
-9.684330
0
LINE
8
Layer 1
10
47.362925
20
-9.684330
11
46.367320
21
-10.547342
0
LINE
8
Layer 1
10
46.367320
20
-10.547342
11
45.088303
21
-11.146097
0
LINE
8
Layer 1
10
45.088303
20
-11.146097
11
43.592123
21
-11.458838
0
LINE
8
Layer 1
10
43.592123
20
-11.458838
11
41.945027
21
-11.463806
0
LINE
8
Layer 1
10
41.945027
20
-11.463806
11
40.213265
21
-11.139242
0
LINE
8
Layer 1
10
40.213265
20
-11.139242
11
38.463085
21
-10.463388
0
LINE
8
Layer 1
10
38.463085
20
-10.463388
11
37.078540
21
-9.457424
0
LINE
8
Layer 1
10
37.078540
20
-9.457424
11
34.820390
21
-7.465641
0
LINE
8
Layer 1
10
34.820390
20
-7.465641
11
28.933995
21
-1.677725
0
LINE
8
Layer 1
10
28.933995
20
-1.677725
11
21.449767
21
6.097158
0
LINE
8
Layer 1
10
21.449767
20
6.097158
11
19.545419
21
4.020539
0
LINE
8
Layer 1
10
19.545419
20
4.020539
11
18.728797
21
3.240783
0
LINE
8
Layer 1
10
18.728797
20
3.240783
11
17.874712
21
2.641806
0
LINE
8
Layer 1
10
17.874712
20
2.641806
11
16.982858
21
2.223562
0
LINE
8
Layer 1
10
16.982858
20
2.223562
11
16.052931
21
1.986003
0
LINE
8
Layer 1
10
16.052931
20
1.986003
11
15.084624
21
1.929081
0
LINE
8
Layer 1
10
15.084624
20
1.929081
11
14.077632
21
2.052750
0
LINE
8
Layer 1
10
14.077632
20
2.052750
11
13.031650
21
2.356961
0
LINE
8
Layer 1
10
13.031650
20
2.356961
11
11.946372
21
2.841669
0
LINE
8
Layer 1
10
11.946372
20
2.841669
11
10.243733
21
3.956776
0
LINE
8
Layer 1
10
10.243733
20
3.956776
11
8.578893
21
5.645232
0
LINE
8
Layer 1
10
8.578893
20
5.645232
11
6.654964
21
8.263303
0
LINE
8
Layer 1
10
6.654964
20
8.263303
11
4.175058
21
12.167250
0
LINE
8
Layer 1
10
4.175058
20
12.167250
11
1.702492
21
15.997778
0
LINE
8
Layer 1
10
1.702492
20
15.997778
11
-0.387915
21
18.802435
0
LINE
8
Layer 1
10
-0.387915
20
18.802435
11
-2.050274
21
20.525841
0
LINE
8
Layer 1
10
-2.050274
20
20.525841
11
-2.706595
21
20.964769
0
LINE
8
Layer 1
10
-2.706595
20
20.964769
11
-3.238694
21
21.112617
0
LINE
8
Layer 1
10
-3.238694
20
21.112617
11
-4.050321
21
20.699701
0
LINE
8
Layer 1
10
-4.050321
20
20.699701
11
-4.933015
21
19.706924
0
LINE
8
Layer 1
10
-4.933015
20
19.706924
11
-5.534302
21
19.054527
0
LINE
8
Layer 1
10
-5.534302
20
19.054527
11
-6.312816
21
18.596194
0
LINE
8
Layer 1
10
-6.312816
20
18.596194
11
-7.223972
21
18.330944
0
LINE
8
Layer 1
10
-7.223972
20
18.330944
11
-8.223188
21
18.257798
0
LINE
8
Layer 1
10
-8.223188
20
18.257798
11
-9.265877
21
18.375776
0
LINE
8
Layer 1
10
-9.265877
20
18.375776
11
-10.307456
21
18.683900
0
LINE
8
Layer 1
10
-10.307456
20
18.683900
11
-11.303340
21
19.181188
0
LINE
8
Layer 1
10
-11.303340
20
19.181188
11
-12.208944
21
19.866662
0
LINE
8
Layer 1
10
-12.208944
20
19.866662
11
-13.247720
21
21.244973
0
LINE
8
Layer 1
10
-13.247720
20
21.244973
11
-14.820249
21
23.840563
0
LINE
8
Layer 1
10
-14.820249
20
23.840563
11
-18.712885
21
31.196558
0
LINE
8
Layer 1
10
-18.712885
20
31.196558
11
-23.518031
21
40.960995
0
LINE
8
Layer 1
10
-23.518031
20
40.960995
11
-24.899969
21
39.662745
0
LINE
8
Layer 1
10
-24.899969
20
39.662745
11
-25.559485
21
39.147612
0
LINE
8
Layer 1
10
-25.559485
20
39.147612
11
-26.291240
21
38.768406
0
LINE
8
Layer 1
10
-26.291240
20
38.768406
11
-27.937168
21
38.419253
0
LINE
8
Layer 1
10
-27.937168
20
38.419253
11
-29.769153
21
38.618241
0
LINE
8
Layer 1
10
-29.769153
20
38.618241
11
-31.718597
21
39.368331
0
LINE
8
Layer 1
10
-31.718597
20
39.368331
11
-32.653878
21
40.020205
0
LINE
8
Layer 1
10
-32.653878
20
40.020205
11
-33.562977
21
41.011715
0
LINE
8
Layer 1
10
-33.562977
20
41.011715
11
-34.460976
21
42.375765
0
LINE
8
Layer 1
10
-34.460976
20
42.375765
11
-35.362957
21
44.145259
0
LINE
8
Layer 1
10
-35.362957
20
44.145259
11
-37.239196
21
49.032197
0
LINE
8
Layer 1
10
-37.239196
20
49.032197
11
-39.312350
21
55.935763
0
LINE
8
Layer 1
10
-39.312350
20
55.935763
11
-40.829964
21
61.161140
0
LINE
8
Layer 1
10
-40.829964
20
61.161140
11
-41.434926
21
62.705796
0
LINE
8
Layer 1
10
-41.434926
20
62.705796
11
-42.046329
21
63.653594
0
LINE
8
Layer 1
10
-42.046329
20
63.653594
11
-42.745925
21
64.090904
0
LINE
8
Layer 1
10
-42.745925
20
64.090904
11
-43.615468
21
64.104098
0
LINE
8
Layer 1
10
-43.615468
20
64.104098
11
-44.736710
21
63.779548
0
LINE
8
Layer 1
10
-44.736710
20
63.779548
11
-46.191404
21
63.203626
0
LINE
8
Layer 1
10
-46.191404
20
63.203626
11
-47.192872
21
62.890847
0
LINE
8
Layer 1
10
-47.192872
20
62.890847
11
-48.144856
21
62.791326
0
LINE
8
Layer 1
10
-48.144856
20
62.791326
11
-49.049333
21
62.906096
0
LINE
8
Layer 1
10
-49.049333
20
62.906096
11
-49.908281
21
63.236193
0
LINE
8
Layer 1
10
-49.908281
20
63.236193
11
-50.723678
21
63.782653
0
LINE
8
Layer 1
10
-50.723678
20
63.782653
11
-51.497500
21
64.546510
0
LINE
8
Layer 1
10
-51.497500
20
64.546510
11
-52.231725
21
65.528800
0
LINE
8
Layer 1
10
-52.231725
20
65.528800
11
-52.928331
21
66.730557
0
LINE
8
Layer 1
10
-52.928331
20
66.730557
11
-53.609076
21
68.433456
0
LINE
8
Layer 1
10
-53.609076
20
68.433456
11
-54.040738
21
70.842429
0
LINE
8
Layer 1
10
-54.040738
20
70.842429
11
-54.311385
21
74.749663
0
LINE
8
Layer 1
10
-54.311385
20
74.749663
11
-54.509086
21
80.947346
0
LINE
8
Layer 1
10
-54.509086
20
80.947346
11
-54.807275
21
89.230559
0
LINE
8
Layer 1
10
-54.807275
20
89.230559
11
-55.111517
21
92.675788
0
LINE
8
Layer 1
10
-55.111517
20
92.675788
11
-58.465136
21
91.594264
0
LINE
8
Layer 1
10
-58.465136
20
91.594264
11
-60.197054
21
91.019479
0
LINE
8
Layer 1
10
-60.197054
20
91.019479
11
-61.319087
21
90.833556
0
LINE
8
Layer 1
10
-61.319087
20
90.833556
11
-62.207048
21
91.040413
0
LINE
8
Layer 1
10
-62.207048
20
91.040413
11
-63.236752
21
91.643963
0
LINE
8
Layer 1
10
-63.236752
20
91.643963
11
-63.985455
21
92.268340
0
LINE
8
Layer 1
10
-63.985455
20
92.268340
11
-64.747769
21
93.132140
0
LINE
8
Layer 1
10
-64.747769
20
93.132140
11
-65.434455
21
94.121255
0
LINE
8
Layer 1
10
-65.434455
20
94.121255
11
-65.956273
21
95.121573
0
LINE
8
Layer 1
10
-65.956273
20
95.121573
11
-66.460527
21
96.673345
0
LINE
8
Layer 1
10
-66.460527
20
96.673345
11
-66.584016
21
98.686928
0
LINE
8
Layer 1
10
-66.584016
20
98.686928
11
-66.299979
21
102.060260
0
LINE
8
Layer 1
10
-66.299979
20
102.060260
11
-65.581651
21
107.691274
0
LINE
8
Layer 1
10
-65.581651
20
107.691274
11
-64.215752
21
119.032758
0
LINE
8
Layer 1
10
-64.215752
20
119.032758
11
-64.359730
21
119.602671
0
LINE
8
Layer 1
10
-64.359730
20
119.602671
11
-64.908932
21
119.943132
0
LINE
8
Layer 1
10
-64.908932
20
119.943132
11
-66.042568
21
120.107949
0
LINE
8
Layer 1
10
-66.042568
20
120.107949
11
-67.939844
21
120.150931
0
LINE
8
Layer 1
10
-67.939844
20
120.150931
11
-69.917379
21
120.210764
0
LINE
8
Layer 1
10
-69.917379
20
120.210764
11
-71.270839
21
120.447915
0
LINE
8
Layer 1
10
-71.270839
20
120.447915
11
-72.276652
21
120.948862
0
LINE
8
Layer 1
10
-72.276652
20
120.948862
11
-73.211247
21
121.800079
0
LINE
8
Layer 1
10
-73.211247
20
121.800079
11
-73.965740
21
122.782900
0
LINE
8
Layer 1
10
-73.965740
20
122.782900
11
-74.454564
21
123.892409
0
LINE
8
Layer 1
10
-74.454564
20
123.892409
11
-74.669499
21
125.195465
0
LINE
8
Layer 1
10
-74.669499
20
125.195465
11
-74.602324
21
126.758927
0
LINE
8
Layer 1
10
-74.602324
20
126.758927
11
-74.244817
21
128.649653
0
LINE
8
Layer 1
10
-74.244817
20
128.649653
11
-73.588758
21
130.934502
0
LINE
8
Layer 1
10
-73.588758
20
130.934502
11
-71.348100
21
136.954007
0
LINE
8
Layer 1
10
-71.348100
20
136.954007
11
-69.019665
21
143.368190
0
LINE
8
Layer 1
10
-69.019665
20
143.368190
11
-68.311352
21
145.825515
0
LINE
8
Layer 1
10
-68.311352
20
145.825515
11
-68.051209
21
147.329086
0
LINE
8
Layer 1
10
-68.051209
20
147.329086
11
-68.100198
21
148.587867
0
LINE
8
Layer 1
10
-68.100198
20
148.587867
11
-68.398928
21
149.247451
0
LINE
8
Layer 1
10
-68.398928
20
149.247451
11
-69.175040
21
149.501317
0
LINE
8
Layer 1
10
-69.175040
20
149.501317
11
-70.656176
21
149.542944
0
LINE
8
Layer 1
10
-70.656176
20
149.542944
11
-71.834112
21
149.665096
0
LINE
8
Layer 1
10
-71.834112
20
149.665096
11
-72.977392
21
150.010079
0
LINE
8
Layer 1
10
-72.977392
20
150.010079
11
-74.048291
21
150.545685
0
LINE
8
Layer 1
10
-74.048291
20
150.545685
11
-75.009080
21
151.239706
0
LINE
8
Layer 1
10
-75.009080
20
151.239706
11
-75.822034
21
152.059935
0
LINE
8
Layer 1
10
-75.822034
20
152.059935
11
-76.449424
21
152.974164
0
LINE
8
Layer 1
10
-76.449424
20
152.974164
11
-76.853525
21
153.950184
0
LINE
8
Layer 1
10
-76.853525
20
153.950184
11
-76.996609
21
154.955789
0
LINE
8
Layer 1
10
-76.996609
20
154.955789
11
-76.849827
21
156.298065
0
LINE
8
Layer 1
10
-76.849827
20
156.298065
11
-76.080992
21
158.336749
0
LINE
8
Layer 1
10
-76.080992
20
158.336749
11
-70.706214
21
168.859766
0
LINE
8
Layer 1
10
-70.706214
20
168.859766
11
-67.928611
21
174.520057
0
LINE
8
Layer 1
10
-67.928611
20
174.520057
11
-67.083642
21
176.526893
0
LINE
8
Layer 1
10
-67.083642
20
176.526893
11
-66.773306
21
177.602367
0
LINE
8
Layer 1
10
-66.773306
20
177.602367
11
-66.913137
21
178.383212
0
LINE
8
Layer 1
10
-66.913137
20
178.383212
11
-67.506044
21
178.933860
0
LINE
8
Layer 1
10
-67.506044
20
178.933860
11
-68.812145
21
179.392577
0
LINE
8
Layer 1
10
-68.812145
20
179.392577
11
-71.091560
21
179.897629
0
LINE
8
Layer 1
10
-71.091560
20
179.897629
11
-72.664376
21
180.458910
0
LINE
8
Layer 1
10
-72.664376
20
180.458910
11
-73.244503
21
180.900474
0
LINE
8
Layer 1
10
-73.244503
20
180.900474
11
-73.699057
21
181.468576
0
LINE
8
Layer 1
10
-73.699057
20
181.468576
11
-74.037001
21
182.177660
0
LINE
8
Layer 1
10
-74.037001
20
182.177660
11
-74.267295
21
183.042166
0
LINE
8
Layer 1
10
-74.267295
20
183.042166
11
-74.440776
21
185.295217
0
LINE
8
Layer 1
10
-74.440776
20
185.295217
11
-74.358135
21
186.415452
0
LINE
8
Layer 1
10
-74.358135
20
186.415452
11
-74.100249
21
187.573628
0
LINE
8
Layer 1
10
-74.100249
20
187.573628
11
-73.652179
21
188.796645
0
LINE
8
Layer 1
10
-73.652179
20
188.796645
11
-72.998984
21
190.111399
0
LINE
8
Layer 1
10
-72.998984
20
190.111399
11
-71.017456
21
193.123711
0
LINE
8
Layer 1
10
-71.017456
20
193.123711
11
-68.036138
21
196.825747
0
LINE
8
Layer 1
10
-68.036138
20
196.825747
11
-65.360325
21
200.167940
0
LINE
8
Layer 1
10
-65.360325
20
200.167940
11
-62.894271
21
203.598967
0
LINE
8
Layer 1
10
-62.894271
20
203.598967
11
-61.086051
21
206.459305
0
LINE
8
Layer 1
10
-61.086051
20
206.459305
11
-60.568652
21
207.469365
0
LINE
8
Layer 1
10
-60.568652
20
207.469365
11
-60.383739
21
208.089431
0
LINE
8
Layer 1
10
-60.383739
20
208.089431
11
-60.522386
21
208.410055
0
LINE
8
Layer 1
10
-60.522386
20
208.410055
11
-60.899892
21
208.737519
0
LINE
8
Layer 1
10
-60.899892
20
208.737519
11
-62.140854
21
209.259406
0
LINE
8
Layer 1
10
-62.140854
20
209.259406
11
-64.258706
21
209.970659
0
LINE
8
Layer 1
10
-64.258706
20
209.970659
11
-65.696219
21
210.925524
0
LINE
8
Layer 1
10
-65.696219
20
210.925524
11
-66.178839
21
211.512942
0
LINE
8
Layer 1
10
-66.178839
20
211.512942
11
-66.514163
21
212.183619
0
LINE
8
Layer 1
10
-66.514163
20
212.183619
11
-66.773306
21
213.804561
0
LINE
8
Layer 1
10
-66.773306
20
213.804561
11
-66.689421
21
215.119818
0
LINE
8
Layer 1
10
-66.689421
20
215.119818
11
-66.404137
21
216.382530
0
LINE
8
Layer 1
10
-66.404137
20
216.382530
11
-65.867010
21
217.665048
0
LINE
8
Layer 1
10
-65.867010
20
217.665048
11
-65.027596
21
219.039722
0
LINE
8
Layer 1
10
-65.027596
20
219.039722
11
-63.835452
21
220.578901
0
LINE
8
Layer 1
10
-63.835452
20
220.578901
11
-62.240133
21
222.354936
0
LINE
8
Layer 1
10
-62.240133
20
222.354936
11
-57.638196
21
226.906973
0
LINE
8
Layer 1
10
-57.638196
20
226.906973
11
-50.525660
21
233.666280
0
LINE
8
Layer 1
10
-50.525660
20
233.666280
11
-52.572420
21
236.855907
0
LINE
8
Layer 1
10
-52.572420
20
236.855907
11
-54.368077
21
240.021313
0
LINE
8
Layer 1
10
-54.368077
20
240.021313
11
-54.858456
21
241.307487
0
LINE
8
Layer 1
10
-54.858456
20
241.307487
11
-55.082604
21
242.460438
0
LINE
8
Layer 1
10
-55.082604
20
242.460438
11
-55.044570
21
243.528510
0
LINE
8
Layer 1
10
-55.044570
20
243.528510
11
-54.748407
21
244.560050
0
LINE
8
Layer 1
10
-54.748407
20
244.560050
11
-54.198164
21
245.603405
0
LINE
8
Layer 1
10
-54.198164
20
245.603405
11
-53.397892
21
246.706919
0
LINE
8
Layer 1
10
-53.397892
20
246.706919
11
-51.353108
21
249.251356
0
LINE
8
Layer 1
10
-51.353108
20
249.251356
11
-54.544307
21
253.261798
0
LINE
8
Layer 1
10
-54.544307
20
253.261798
11
-57.351454
21
257.247840
0
LINE
8
Layer 1
10
-57.351454
20
257.247840
11
-59.896045
21
261.662498
0
LINE
8
Layer 1
10
-59.896045
20
261.662498
11
-61.820050
21
265.819047
0
LINE
8
Layer 1
10
-61.820050
20
265.819047
11
-62.437449
21
267.585927
0
LINE
8
Layer 1
10
-62.437449
20
267.585927
11
-62.765440
21
269.030757
0
LINE
8
Layer 1
10
-62.765440
20
269.030757
11
-62.858587
21
270.261852
0
LINE
8
Layer 1
10
-62.858587
20
270.261852
11
-62.726723
21
271.200778
0
LINE
8
Layer 1
10
-62.726723
20
271.200778
11
-62.326112
21
271.989456
0
LINE
8
Layer 1
10
-62.326112
20
271.989456
11
-61.613014
21
272.769809
0
LINE
8
Layer 1
10
-61.613014
20
272.769809
11
-60.093904
21
273.740043
0
LINE
8
Layer 1
10
-60.093904
20
273.740043
11
-59.257648
21
274.037428
0
LINE
8
Layer 1
10
-59.257648
20
274.037428
11
-58.506171
21
274.149306
0
LINE
8
Layer 1
10
-58.506171
20
274.149306
11
-57.406201
21
274.192500
0
LINE
8
Layer 1
10
-57.406201
20
274.192500
11
-56.589936
21
274.349475
0
LINE
8
Layer 1
10
-56.589936
20
274.349475
11
-56.041997
21
274.683681
0
LINE
8
Layer 1
10
-56.041997
20
274.683681
11
-55.747004
21
275.258568
0
LINE
8
Layer 1
10
-55.747004
20
275.258568
11
-55.689578
21
276.137586
0
LINE
8
Layer 1
10
-55.689578
20
276.137586
11
-55.854339
21
277.384186
0
LINE
8
Layer 1
10
-55.854339
20
277.384186
11
-56.788905
21
281.233930
0
LINE
8
Layer 1
10
-56.788905
20
281.233930
11
-57.773354
21
285.341305
0
LINE
8
Layer 1
10
-57.773354
20
285.341305
11
-58.374736
21
289.006957
0
LINE
8
Layer 1
10
-58.374736
20
289.006957
11
-58.633489
21
292.570692
0
LINE
8
Layer 1
10
-58.633489
20
292.570692
11
-58.590047
21
296.372310
0
LINE
8
Layer 1
10
-58.590047
20
296.372310
11
-58.436586
21
297.689056
0
LINE
8
Layer 1
10
-58.436586
20
297.689056
11
-58.105881
21
298.854743
0
LINE
8
Layer 1
10
-58.105881
20
298.854743
11
-57.605352
21
299.861816
0
LINE
8
Layer 1
10
-57.605352
20
299.861816
11
-56.942416
21
300.702724
0
LINE
8
Layer 1
10
-56.942416
20
300.702724
11
-56.124491
21
301.369911
0
LINE
8
Layer 1
10
-56.124491
20
301.369911
11
-55.158996
21
301.855826
0
LINE
8
Layer 1
10
-55.158996
20
301.855826
11
-54.053346
21
302.152913
0
LINE
8
Layer 1
10
-54.053346
20
302.152913
11
-52.814962
21
302.253621
0
LINE
8
Layer 1
10
-52.814962
20
302.253621
11
-50.299713
21
302.253621
0
LINE
8
Layer 1
10
-50.299713
20
302.253621
11
-49.996409
21
311.678235
0
LINE
8
Layer 1
10
-49.996409
20
311.678235
11
-49.782970
21
316.529394
0
LINE
8
Layer 1
10
-49.782970
20
316.529394
11
-49.462967
21
320.086421
0
LINE
8
Layer 1
10
-49.462967
20
320.086421
11
-48.968995
21
322.874819
0
LINE
8
Layer 1
10
-48.968995
20
322.874819
11
-48.233649
21
325.420091
0
LINE
8
Layer 1
10
-48.233649
20
325.420091
11
-47.504544
21
327.340234
0
LINE
8
Layer 1
10
-47.504544
20
327.340234
11
-46.685204
21
329.085422
0
LINE
8
Layer 1
10
-46.685204
20
329.085422
11
-45.803241
21
330.621096
0
LINE
8
Layer 1
10
-45.803241
20
330.621096
11
-44.886268
21
331.912698
0
LINE
8
Layer 1
10
-44.886268
20
331.912698
11
-43.961896
21
332.925669
0
LINE
8
Layer 1
10
-43.961896
20
332.925669
11
-43.057740
21
333.625449
0
LINE
8
Layer 1
10
-43.057740
20
333.625449
11
-42.201411
21
333.977479
0
LINE
8
Layer 1
10
-42.201411
20
333.977479
11
-41.420522
21
333.947201
0
LINE
8
Layer 1
10
-41.420522
20
333.947201
11
-40.806917
21
333.677446
0
LINE
8
Layer 1
10
-40.806917
20
333.677446
11
-40.322912
21
333.251291
0
LINE
8
Layer 1
10
-40.322912
20
333.251291
11
-39.953620
21
332.592711
0
LINE
8
Layer 1
10
-39.953620
20
332.592711
11
-39.684157
21
331.625679
0
LINE
8
Layer 1
10
-39.684157
20
331.625679
11
-39.385181
21
328.462156
0
LINE
8
Layer 1
10
-39.385181
20
328.462156
11
-39.306904
21
323.152518
0
LINE
8
Layer 1
10
-39.306904
20
323.152518
11
-39.014581
21
316.376227
0
LINE
8
Layer 1
10
-39.014581
20
316.376227
11
-38.694164
21
313.258775
0
LINE
8
Layer 1
10
-38.694164
20
313.258775
11
-38.292512
21
310.749210
0
LINE
8
Layer 1
10
-38.292512
20
310.749210
11
-36.789813
21
305.037102
0
LINE
8
Layer 1
10
-36.789813
20
305.037102
11
-34.497431
21
298.045467
0
LINE
8
Layer 1
10
-34.497431
20
298.045467
11
-31.851973
21
291.014194
0
LINE
8
Layer 1
10
-31.851973
20
291.014194
11
-29.290047
21
285.183167
0
LINE
8
Layer 1
10
-29.290047
20
285.183167
11
-27.992811
21
282.679763
0
LINE
8
Layer 1
10
-27.992811
20
282.679763
11
-26.996177
21
281.132156
0
LINE
8
Layer 1
10
-26.996177
20
281.132156
11
-26.125074
21
280.319089
0
LINE
8
Layer 1
10
-26.125074
20
280.319089
11
-25.204430
21
280.019305
0
LINE
8
Layer 1
10
-25.204430
20
280.019305
11
-24.270513
21
280.112301
0
LINE
8
Layer 1
10
-24.270513
20
280.112301
11
-22.789567
21
280.491399
0
LINE
8
Layer 1
10
-22.789567
20
280.491399
11
-18.830293
21
281.860601
0
LINE
8
Layer 1
10
-18.830293
20
281.860601
11
-14.614015
21
283.632312
0
LINE
8
Layer 1
10
-14.614015
20
283.632312
11
-11.428139
21
285.311931
0
LINE
8
Layer 1
10
-11.428139
20
285.311931
11
-9.877774
21
286.327756
0
LINE
8
Layer 1
10
-9.877774
20
286.327756
11
-11.489350
21
288.440652
0
LINE
8
Layer 1
10
-11.489350
20
288.440652
11
-12.635889
21
290.302078
0
LINE
8
Layer 1
10
-12.635889
20
290.302078
11
-12.922989
21
291.144730
0
LINE
8
Layer 1
10
-12.922989
20
291.144730
11
-13.019333
21
291.945090
0
LINE
8
Layer 1
10
-13.019333
20
291.945090
11
-12.924935
21
292.715468
0
LINE
8
Layer 1
10
-12.924935
20
292.715468
11
-12.639814
21
293.468176
0
LINE
8
Layer 1
10
-12.639814
20
293.468176
11
-12.163985
21
294.215523
0
LINE
8
Layer 1
10
-12.163985
20
294.215523
11
-11.497464
21
294.969821
0
LINE
8
Layer 1
10
-11.497464
20
294.969821
11
-9.668119
21
296.429546
0
LINE
8
Layer 1
10
-9.668119
20
296.429546
11
-7.150450
21
297.645965
0
LINE
8
Layer 1
10
-7.150450
20
297.645965
11
-3.476908
21
298.797926
0
LINE
8
Layer 1
10
-3.476908
20
298.797926
11
1.820055
21
300.064279
0
LINE
8
Layer 1
10
1.820055
20
300.064279
11
7.261688
21
301.369101
0
LINE
8
Layer 1
10
7.261688
20
301.369101
11
11.190510
21
302.543668
0
LINE
8
Layer 1
10
11.190510
20
302.543668
11
13.572644
21
303.576134
0
LINE
8
Layer 1
10
13.572644
20
303.576134
11
14.173118
21
304.035378
0
LINE
8
Layer 1
10
14.173118
20
304.035378
11
14.374216
21
304.454655
0
LINE
8
Layer 1
10
14.374216
20
304.454655
11
14.098642
21
305.348330
0
LINE
8
Layer 1
10
14.098642
20
305.348330
11
13.436098
21
306.444455
0
LINE
8
Layer 1
10
13.436098
20
306.444455
11
12.729802
21
307.857124
0
LINE
8
Layer 1
10
12.729802
20
307.857124
11
12.520394
21
309.446887
0
LINE
8
Layer 1
10
12.520394
20
309.446887
11
12.803693
21
311.033740
0
LINE
8
Layer 1
10
12.803693
20
311.033740
11
13.575519
21
312.437678
0
LINE
8
Layer 1
10
13.575519
20
312.437678
11
14.198012
21
313.043312
0
LINE
8
Layer 1
10
14.198012
20
313.043312
11
15.021005
21
313.565821
0
LINE
8
Layer 1
10
15.021005
20
313.565821
11
17.299065
21
314.368733
0
LINE
8
Layer 1
10
17.299065
20
314.368733
11
20.470853
21
314.860953
0
LINE
8
Layer 1
10
20.470853
20
314.860953
11
24.597525
21
315.057018
0
LINE
8
Layer 1
10
24.597525
20
315.057018
11
29.343774
21
315.227051
0
LINE
8
Layer 1
10
29.343774
20
315.227051
11
33.886465
21
315.577857
0
LINE
8
Layer 1
10
33.886465
20
315.577857
11
37.397724
21
316.027191
0
LINE
8
Layer 1
10
37.397724
20
316.027191
11
38.507856
21
316.263104
0
LINE
8
Layer 1
10
38.507856
20
316.263104
11
39.049678
21
316.492805
0
LINE
8
Layer 1
10
39.049678
20
316.492805
11
39.170965
21
316.854733
0
LINE
8
Layer 1
10
39.170965
20
316.854733
11
39.162698
21
317.501677
0
LINE
8
Layer 1
10
39.162698
20
317.501677
11
38.791405
21
319.284241
0
LINE
8
Layer 1
10
38.791405
20
319.284241
11
38.494483
21
320.444653
0
LINE
8
Layer 1
10
38.494483
20
320.444653
11
38.395100
21
321.395458
0
LINE
8
Layer 1
10
38.395100
20
321.395458
11
38.493203
21
322.209018
0
LINE
8
Layer 1
10
38.493203
20
322.209018
11
38.788741
21
322.957693
0
LINE
8
Layer 1
10
38.788741
20
322.957693
11
39.513362
21
324.090958
0
LINE
8
Layer 1
10
39.513362
20
324.090958
11
40.384311
21
324.967156
0
LINE
8
Layer 1
10
40.384311
20
324.967156
11
41.469778
21
325.599161
0
LINE
8
Layer 1
10
41.469778
20
325.599161
11
42.837951
21
325.999849
0
LINE
8
Layer 1
10
42.837951
20
325.999849
11
44.557018
21
326.182097
0
LINE
8
Layer 1
10
44.557018
20
326.182097
11
46.695170
21
326.158779
0
LINE
8
Layer 1
10
46.695170
20
326.158779
11
52.501481
21
325.546950
0
LINE
8
Layer 1
10
52.501481
20
325.546950
11
58.501658
21
324.897857
0
LINE
8
Layer 1
10
58.501658
20
324.897857
11
62.771901
21
324.741706
0
LINE
8
Layer 1
10
62.771901
20
324.741706
11
65.810217
21
324.936587
0
LINE
8
Layer 1
10
65.810217
20
324.936587
11
66.001228
21
328.589842
0
LINE
8
Layer 1
10
66.001228
20
328.589842
11
66.170437
21
330.620210
0
LINE
8
Layer 1
10
66.170437
20
330.620210
11
66.533647
21
331.971879
0
LINE
8
Layer 1
10
66.533647
20
331.971879
11
67.266065
21
333.030247
0
LINE
8
Layer 1
10
67.266065
20
333.030247
11
68.542896
21
334.180715
0
LINE
8
Layer 1
10
68.542896
20
334.180715
11
69.755404
21
335.040141
0
LINE
8
Layer 1
10
69.755404
20
335.040141
11
71.043428
21
335.646528
0
LINE
8
Layer 1
10
71.043428
20
335.646528
11
72.469737
21
335.998759
0
LINE
8
Layer 1
10
72.469737
20
335.998759
11
74.097104
21
336.095722
0
LINE
8
Layer 1
10
74.097104
20
336.095722
11
75.988299
21
335.936302
0
LINE
8
Layer 1
10
75.988299
20
335.936302
11
78.206092
21
335.519384
0
LINE
8
Layer 1
10
78.206092
20
335.519384
11
83.872561
21
333.908596
0
LINE
8
Layer 1
10
83.872561
20
333.908596
11
89.486361
21
332.226577
0
LINE
8
Layer 1
10
89.486361
20
332.226577
11
93.354432
21
331.285606
0
LINE
8
Layer 1
10
93.354432
20
331.285606
11
95.979330
21
330.872342
0
LINE
8
Layer 1
10
95.979330
20
330.872342
11
96.326150
21
333.949340
0
LINE
8
Layer 1
10
96.326150
20
333.949340
11
96.561821
21
335.352858
0
LINE
8
Layer 1
10
96.561821
20
335.352858
11
96.929244
21
336.530333
0
LINE
8
Layer 1
10
96.929244
20
336.530333
11
97.432222
21
337.485107
0
LINE
8
Layer 1
10
97.432222
20
337.485107
11
98.074558
21
338.220521
0
LINE
8
Layer 1
10
98.074558
20
338.220521
11
98.860054
21
338.739917
0
LINE
8
Layer 1
10
98.860054
20
338.739917
11
99.792513
21
339.046636
0
LINE
8
Layer 1
10
99.792513
20
339.046636
11
100.875736
21
339.144020
0
LINE
8
Layer 1
10
100.875736
20
339.144020
11
102.113526
21
339.035411
0
LINE
8
Layer 1
10
102.113526
20
339.035411
11
103.635680
21
338.574500
0
LINE
8
Layer 1
10
103.635680
20
338.574500
11
105.953207
21
337.611687
0
LINE
8
Layer 1
10
105.953207
20
337.611687
11
111.714286
21
334.743646
0
LINE
8
Layer 1
10
111.714286
20
334.743646
11
116.594927
21
332.166590
0
LINE
8
Layer 1
10
116.594927
20
332.166590
11
120.327058
21
330.411265
0
LINE
8
Layer 1
10
120.327058
20
330.411265
11
123.072746
21
329.408671
0
LINE
8
Layer 1
10
123.072746
20
329.408671
11
124.994058
21
329.089807
0
LINE
8
Layer 1
10
124.994058
20
329.089807
11
125.586741
21
329.195419
0
LINE
8
Layer 1
10
125.586741
20
329.195419
11
125.953346
21
329.574384
0
LINE
8
Layer 1
10
125.953346
20
329.574384
11
126.139702
21
330.319897
0
LINE
8
Layer 1
10
126.139702
20
330.319897
11
126.191637
21
331.525153
0
LINE
8
Layer 1
10
126.191637
20
331.525153
11
126.278589
21
332.676773
0
LINE
8
Layer 1
10
126.278589
20
332.676773
11
126.537652
21
333.716688
0
LINE
8
Layer 1
10
126.537652
20
333.716688
11
126.966136
21
334.637225
0
LINE
8
Layer 1
10
126.966136
20
334.637225
11
127.561348
21
335.430711
0
LINE
8
Layer 1
10
127.561348
20
335.430711
11
128.426474
21
336.157388
0
LINE
8
Layer 1
10
128.426474
20
336.157388
11
129.410839
21
336.582010
0
LINE
8
Layer 1
10
129.410839
20
336.582010
11
130.543965
21
336.696969
0
LINE
8
Layer 1
10
130.543965
20
336.696969
11
131.855372
21
336.494657
0
LINE
8
Layer 1
10
131.855372
20
336.494657
11
133.374582
21
335.967465
0
LINE
8
Layer 1
10
133.374582
20
335.967465
11
135.131114
21
335.107786
0
LINE
8
Layer 1
10
135.131114
20
335.107786
11
139.474231
21
332.360531
0
LINE
8
Layer 1
10
139.474231
20
332.360531
11
144.030946
21
329.305763
0
LINE
8
Layer 1
10
144.030946
20
329.305763
11
148.264165
21
326.678092
0
LINE
8
Layer 1
10
148.264165
20
326.678092
11
151.751159
21
324.728170
0
LINE
8
Layer 1
10
151.751159
20
324.728170
11
154.069201
21
323.706647
0
LINE
8
Layer 1
10
154.069201
20
323.706647
11
154.821785
21
323.616430
0
LINE
8
Layer 1
10
154.821785
20
323.616430
11
155.458481
21
323.941811
0
LINE
8
Layer 1
10
155.458481
20
323.941811
11
156.119363
21
324.811838
0
LINE
8
Layer 1
10
156.119363
20
324.811838
11
156.944506
21
326.355556
0
LINE
8
Layer 1
10
156.944506
20
326.355556
11
158.120446
21
328.297867
0
LINE
8
Layer 1
10
158.120446
20
328.297867
11
158.734664
21
328.945781
0
LINE
8
Layer 1
10
158.734664
20
328.945781
11
159.398492
21
329.394479
0
LINE
8
Layer 1
10
159.398492
20
329.394479
11
160.136015
21
329.656171
0
LINE
8
Layer 1
10
160.136015
20
329.656171
11
160.971318
21
329.743066
0
LINE
8
Layer 1
10
160.971318
20
329.743066
11
163.031599
21
329.441298
0
LINE
8
Layer 1
10
163.031599
20
329.441298
11
164.347929
21
328.605828
0
LINE
8
Layer 1
10
164.347929
20
328.605828
11
166.773352
21
326.621840
0
LINE
8
Layer 1
10
166.773352
20
326.621840
11
173.568507
21
320.395560
0
LINE
8
Layer 1
10
173.568507
20
320.395560
11
179.987986
21
314.369570
0
LINE
8
Layer 1
10
179.987986
20
314.369570
11
182.006753
21
312.602382
0
LINE
8
Layer 1
10
182.006753
20
312.602382
11
182.826505
21
312.031653
0
LINE
8
Layer 1
10
182.826505
20
312.031653
11
184.524520
21
315.111905
0
LINE
8
Layer 1
10
184.524520
20
315.111905
11
185.229637
21
316.349394
0
LINE
8
Layer 1
10
185.229637
20
316.349394
11
185.980740
21
317.361448
0
LINE
8
Layer 1
10
185.980740
20
317.361448
11
186.776825
21
318.148502
0
LINE
8
Layer 1
10
186.776825
20
318.148502
11
187.616886
21
318.710989
0
LINE
8
Layer 1
10
187.616886
20
318.710989
11
188.499917
21
319.049344
0
LINE
8
Layer 1
10
188.499917
20
319.049344
11
189.424914
21
319.164000
0
LINE
8
Layer 1
10
189.424914
20
319.164000
11
190.390869
21
319.055391
0
LINE
8
Layer 1
10
190.390869
20
319.055391
11
191.396779
21
318.723953
0
LINE
8
Layer 1
10
191.396779
20
318.723953
11
192.441637
21
318.170118
0
LINE
8
Layer 1
10
192.441637
20
318.170118
11
193.524437
21
317.394321
0
LINE
8
Layer 1
10
193.524437
20
317.394321
11
195.799844
21
315.178577
0
LINE
8
Layer 1
10
195.799844
20
315.178577
11
198.214957
21
312.080193
0
LINE
8
Layer 1
10
198.214957
20
312.080193
11
200.761730
21
308.102643
0
LINE
8
Layer 1
10
200.761730
20
308.102643
11
203.479266
21
303.743682
0
LINE
8
Layer 1
10
203.479266
20
303.743682
11
205.805726
21
300.500724
0
LINE
8
Layer 1
10
205.805726
20
300.500724
11
207.658151
21
298.478295
0
LINE
8
Layer 1
10
207.658151
20
298.478295
11
208.380676
21
297.957444
0
LINE
8
Layer 1
10
208.380676
20
297.957444
11
208.953583
21
297.780924
0
LINE
8
Layer 1
10
208.953583
20
297.780924
11
209.432194
21
297.932177
0
LINE
8
Layer 1
10
209.432194
20
297.932177
11
210.112098
21
298.344004
0
LINE
8
Layer 1
10
210.112098
20
298.344004
11
211.713544
21
299.697794
0
LINE
8
Layer 1
10
211.713544
20
299.697794
11
212.580674
21
300.453247
0
LINE
8
Layer 1
10
212.580674
20
300.453247
11
213.475738
21
301.018199
0
LINE
8
Layer 1
10
213.475738
20
301.018199
11
214.390618
21
301.391906
0
LINE
8
Layer 1
10
214.390618
20
301.391906
11
215.317192
21
301.573620
0
LINE
8
Layer 1
10
215.317192
20
301.573620
11
216.247340
21
301.562595
0
LINE
8
Layer 1
10
216.247340
20
301.562595
11
217.172943
21
301.358084
0
LINE
8
Layer 1
10
217.172943
20
301.358084
11
218.085879
21
300.959341
0
LINE
8
Layer 1
10
218.085879
20
300.959341
11
218.978028
21
300.365619
0
LINE
8
Layer 1
10
218.978028
20
300.365619
11
219.917907
21
299.209636
0
LINE
8
Layer 1
10
219.917907
20
299.209636
11
221.258546
21
296.991829
0
LINE
8
Layer 1
10
221.258546
20
296.991829
11
224.619987
21
290.302049
0
LINE
8
Layer 1
10
224.619987
20
290.302049
11
227.566544
21
284.013884
0
LINE
8
Layer 1
10
227.566544
20
284.013884
11
229.586852
21
280.029772
0
LINE
8
Layer 1
10
229.586852
20
280.029772
11
230.906262
21
277.939863
0
LINE
8
Layer 1
10
230.906262
20
277.939863
11
231.373552
21
277.477156
0
LINE
8
Layer 1
10
231.373552
20
277.477156
11
231.750125
21
277.334305
0
LINE
8
Layer 1
10
231.750125
20
277.334305
11
232.762207
21
277.803593
0
LINE
8
Layer 1
10
232.762207
20
277.803593
11
234.292086
21
278.931883
0
LINE
8
Layer 1
10
234.292086
20
278.931883
11
236.004033
21
280.159192
0
LINE
8
Layer 1
10
236.004033
20
280.159192
11
237.597848
21
280.826390
0
LINE
8
Layer 1
10
237.597848
20
280.826390
11
239.160883
21
280.955511
0
LINE
8
Layer 1
10
239.160883
20
280.955511
11
240.780488
21
280.568588
0
LINE
8
Layer 1
10
240.780488
20
280.568588
11
241.587574
21
280.149815
0
LINE
8
Layer 1
10
241.587574
20
280.149815
11
242.299591
21
279.515043
0
LINE
8
Layer 1
10
242.299591
20
279.515043
11
242.936793
21
278.614116
0
LINE
8
Layer 1
10
242.936793
20
278.614116
11
243.519431
21
277.396879
0
LINE
8
Layer 1
10
243.519431
20
277.396879
11
244.602021
21
273.812857
0
LINE
8
Layer 1
10
244.602021
20
273.812857
11
245.709378
21
268.361734
0
LINE
8
Layer 1
10
245.709378
20
268.361734
11
246.700960
21
263.373322
0
LINE
8
Layer 1
10
246.700960
20
263.373322
11
247.591603
21
260.245654
0
LINE
8
Layer 1
10
247.591603
20
260.245654
11
248.041100
21
259.269680
0
LINE
8
Layer 1
10
248.041100
20
259.269680
11
248.515797
21
258.626992
0
LINE
8
Layer 1
10
248.515797
20
258.626992
11
249.032505
21
258.273621
0
LINE
8
Layer 1
10
249.032505
20
258.273621
11
249.608035
21
258.165601
0
LINE
8
Layer 1
10
249.608035
20
258.165601
11
250.676657
21
258.670484
0
LINE
8
Layer 1
10
250.676657
20
258.670484
11
252.420459
21
260.052184
0
LINE
8
Layer 1
10
252.420459
20
260.052184
11
257.167620
21
264.648367
0
LINE
8
Layer 1
10
257.167620
20
264.648367
11
262.317556
21
270.358800
0
LINE
8
Layer 1
10
262.317556
20
270.358800
11
264.564827
21
273.133314
0
LINE
8
Layer 1
10
264.564827
20
273.133314
11
266.338307
21
275.588134
0
LINE
8
Layer 1
10
266.338307
20
275.588134
11
269.139110
21
280.013403
0
LINE
8
Layer 1
10
269.139110
20
280.013403
11
271.310232
21
283.963775
0
LINE
8
Layer 1
10
271.310232
20
283.963775
11
273.170255
21
288.076480
0
LINE
8
Layer 1
10
273.170255
20
288.076480
11
275.037762
21
292.988748
0
LINE
8
Layer 1
10
275.037762
20
292.988748
11
276.496724
21
296.528152
0
LINE
8
Layer 1
10
276.496724
20
296.528152
11
278.014660
21
299.249799
0
LINE
8
Layer 1
10
278.014660
20
299.249799
11
278.763066
21
300.255124
0
LINE
8
Layer 1
10
278.763066
20
300.255124
11
279.487001
21
300.997400
0
LINE
8
Layer 1
10
279.487001
20
300.997400
11
280.173396
21
301.457092
0
LINE
8
Layer 1
10
280.173396
20
301.457092
11
280.809178
21
301.614664
0
LINE
8
Layer 1
10
280.809178
20
301.614664
11
281.523265
21
301.294441
0
LINE
8
Layer 1
10
281.523265
20
301.294441
11
282.456975
21
300.524539
0
LINE
8
Layer 1
10
282.456975
20
300.524539
11
282.932989
21
299.622540
0
LINE
8
Layer 1
10
282.932989
20
299.622540
11
283.212706
21
298.150090
0
LINE
8
Layer 1
10
283.212706
20
298.150090
11
283.304803
21
296.226368
0
LINE
8
Layer 1
10
283.304803
20
296.226368
11
283.217957
21
293.970553
0
LINE
8
Layer 1
10
283.217957
20
293.970553
11
282.960845
21
291.501827
0
LINE
8
Layer 1
10
282.960845
20
291.501827
11
282.542145
21
288.939367
0
LINE
8
Layer 1
10
282.542145
20
288.939367
11
281.970534
21
286.402354
0
LINE
8
Layer 1
10
281.970534
20
286.402354
11
281.254691
21
284.009967
0
LINE
8
Layer 1
10
281.254691
20
284.009967
11
279.703349
21
279.503883
0
LINE
8
Layer 1
10
279.703349
20
279.503883
11
280.980247
21
277.014956
0
LINE
8
Layer 1
10
280.980247
20
277.014956
11
281.613550
21
275.579109
0
LINE
8
Layer 1
10
281.613550
20
275.579109
11
281.942136
21
274.171174
0
LINE
8
Layer 1
10
281.942136
20
274.171174
11
282.007079
21
272.466248
0
LINE
8
Layer 1
10
282.007079
20
272.466248
11
281.849452
21
270.139427
0
LINE
8
Layer 1
10
281.849452
20
270.139427
11
281.368517
21
266.688118
0
LINE
8
Layer 1
10
281.368517
20
266.688118
11
280.510429
21
263.701468
0
LINE
8
Layer 1
10
280.510429
20
263.701468
11
279.076621
21
260.656946
0
LINE
8
Layer 1
10
279.076621
20
260.656946
11
276.868526
21
257.032022
0
LINE
8
Layer 1
10
276.868526
20
257.032022
11
275.457707
21
254.795966
0
LINE
8
Layer 1
10
275.457707
20
254.795966
11
274.805234
21
253.449866
0
LINE
8
Layer 1
10
274.805234
20
253.449866
11
274.793015
21
252.604353
0
LINE
8
Layer 1
10
274.793015
20
252.604353
11
275.302960
21
251.870056
0
LINE
8
Layer 1
10
275.302960
20
251.870056
11
275.854465
21
251.054729
0
LINE
8
Layer 1
10
275.854465
20
251.054729
11
276.203050
21
250.062678
0
LINE
8
Layer 1
10
276.203050
20
250.062678
11
276.350328
21
248.908461
0
LINE
8
Layer 1
10
276.350328
20
248.908461
11
276.297908
21
247.606638
0
LINE
8
Layer 1
10
276.297908
20
247.606638
11
276.047404
21
246.171769
0
LINE
8
Layer 1
10
276.047404
20
246.171769
11
275.600426
21
244.618412
0
LINE
8
Layer 1
10
275.600426
20
244.618412
11
274.123497
21
241.214474
0
LINE
8
Layer 1
10
274.123497
20
241.214474
11
273.227096
21
239.298965
0
LINE
8
Layer 1
10
273.227096
20
239.298965
11
272.429712
21
237.236185
0
LINE
8
Layer 1
10
272.429712
20
237.236185
11
271.818115
21
235.274008
0
LINE
8
Layer 1
10
271.818115
20
235.274008
11
271.479072
21
233.660305
0
LINE
8
Layer 1
10
271.479072
20
233.660305
11
270.728105
21
230.431940
0
LINE
8
Layer 1
10
270.728105
20
230.431940
11
269.514391
21
227.289184
0
LINE
8
Layer 1
10
269.514391
20
227.289184
11
268.834028
21
225.750474
0
LINE
8
Layer 1
10
268.834028
20
225.750474
11
268.388859
21
224.306676
0
LINE
8
Layer 1
10
268.388859
20
224.306676
11
268.169192
21
222.916479
0
LINE
8
Layer 1
10
268.169192
20
222.916479
11
268.165334
21
221.538573
0
LINE
8
Layer 1
10
268.165334
20
221.538573
11
268.359526
21
218.869758
0
LINE
8
Layer 1
10
268.359526
20
218.869758
11
271.898912
21
219.081182
0
LINE
8
Layer 1
10
271.898912
20
219.081182
11
274.201022
21
219.049966
0
LINE
8
Layer 1
10
274.201022
20
219.049966
11
276.007213
21
218.611498
0
LINE
8
Layer 1
10
276.007213
20
218.611498
11
276.731494
21
218.221144
0
LINE
8
Layer 1
10
276.731494
20
218.221144
11
277.340381
21
217.706898
0
LINE
8
Layer 1
10
277.340381
20
217.706898
11
277.836735
21
217.061398
0
LINE
8
Layer 1
10
277.836735
20
217.061398
11
278.223419
21
216.277286
0
LINE
8
Layer 1
10
278.223419
20
216.277286
11
278.679223
21
214.263782
0
LINE
8
Layer 1
10
278.679223
20
214.263782
11
278.730687
21
211.607509
0
LINE
8
Layer 1
10
278.730687
20
211.607509
11
278.400708
21
208.249585
0
LINE
8
Layer 1
10
278.400708
20
208.249585
11
277.712178
21
204.131131
0
LINE
8
Layer 1
10
277.712178
20
204.131131
11
275.956920
21
193.471226
0
LINE
8
Layer 1
10
275.956920
20
193.471226
11
275.531586
21
189.797223
0
LINE
8
Layer 1
10
275.531586
20
189.797223
11
278.757538
21
189.797223
0
LINE
8
Layer 1
10
278.757538
20
189.797223
11
280.518690
21
189.731271
0
LINE
8
Layer 1
10
280.518690
20
189.731271
11
281.730703
21
189.450088
0
LINE
8
Layer 1
10
281.730703
20
189.450088
11
282.694951
21
188.828680
0
LINE
8
Layer 1
10
282.694951
20
188.828680
11
283.712807
21
187.742055
0
LINE
8
Layer 1
10
283.712807
20
187.742055
11
284.613440
21
186.553794
0
LINE
8
Layer 1
10
284.613440
20
186.553794
11
285.090457
21
185.489125
0
LINE
8
Layer 1
10
285.090457
20
185.489125
11
285.227151
21
184.233073
0
LINE
8
Layer 1
10
285.227151
20
184.233073
11
285.106816
21
182.470663
0
LINE
8
Layer 1
10
285.106816
20
182.470663
11
284.719865
21
180.586997
0
LINE
8
Layer 1
10
284.719865
20
180.586997
11
283.914136
21
177.835743
0
LINE
8
Layer 1
10
283.914136
20
177.835743
11
281.517443
21
171.208614
0
LINE
8
Layer 1
10
281.517443
20
171.208614
11
279.206520
21
165.264584
0
LINE
8
Layer 1
10
279.206520
20
165.264584
11
278.604007
21
163.357018
0
LINE
8
Layer 1
10
278.604007
20
163.357018
11
278.362171
21
162.023803
0
LINE
8
Layer 1
10
278.362171
20
162.023803
11
278.475049
21
161.163476
0
LINE
8
Layer 1
10
278.475049
20
161.163476
11
278.936674
21
160.674575
0
LINE
8
Layer 1
10
278.936674
20
160.674575
11
279.741082
21
160.455641
0
LINE
8
Layer 1
10
279.741082
20
160.455641
11
280.882307
21
160.405209
0
LINE
8
Layer 1
10
280.882307
20
160.405209
11
282.268437
21
160.318671
0
LINE
8
Layer 1
10
282.268437
20
160.318671
11
283.363503
21
160.003550
0
LINE
8
Layer 1
10
283.363503
20
160.003550
11
284.351618
21
159.376584
0
LINE
8
Layer 1
10
284.351618
20
159.376584
11
285.416893
21
158.354515
0
LINE
8
Layer 1
10
285.416893
20
158.354515
11
286.247162
21
157.347974
0
LINE
8
Layer 1
10
286.247162
20
157.347974
11
286.779808
21
156.341112
0
LINE
8
Layer 1
10
286.779808
20
156.341112
11
286.993383
21
155.231699
0
LINE
8
Layer 1
10
286.993383
20
155.231699
11
286.866439
21
153.917504
0
LINE
8
Layer 1
10
286.866439
20
153.917504
11
286.377528
21
152.296295
0
LINE
8
Layer 1
10
286.377528
20
152.296295
11
285.505202
21
150.265843
0
LINE
8
Layer 1
10
285.505202
20
150.265843
11
282.524510
21
144.568281
0
LINE
8
Layer 1
10
282.524510
20
144.568281
11
278.846237
21
137.562529
0
LINE
8
Layer 1
10
278.846237
20
137.562529
11
277.783958
21
135.145538
0
LINE
8
Layer 1
10
277.783958
20
135.145538
11
277.212795
21
133.327534
0
LINE
8
Layer 1
10
277.212795
20
133.327534
11
277.112656
21
132.014816
0
LINE
8
Layer 1
10
277.112656
20
132.014816
11
277.463450
21
131.113683
0
LINE
8
Layer 1
10
277.463450
20
131.113683
11
278.245086
21
130.530433
0
LINE
8
Layer 1
10
278.245086
20
130.530433
11
279.437471
21
130.171363
0
LINE
8
Layer 1
10
279.437471
20
130.171363
11
280.752111
21
129.760206
0
LINE
8
Layer 1
10
280.752111
20
129.760206
11
281.863419
21
129.111676
0
LINE
8
Layer 1
10
281.863419
20
129.111676
11
282.756535
21
128.256382
0
LINE
8
Layer 1
10
282.756535
20
128.256382
11
283.416600
21
127.224929
0
LINE
8
Layer 1
10
283.416600
20
127.224929
11
283.828755
21
126.047924
0
LINE
8
Layer 1
10
283.828755
20
126.047924
11
283.978142
21
124.755972
0
LINE
8
Layer 1
10
283.978142
20
124.755972
11
283.849901
21
123.379681
0
LINE
8
Layer 1
10
283.849901
20
123.379681
11
283.429174
21
121.949657
0
LINE
8
Layer 1
10
283.429174
20
121.949657
11
281.294675
21
118.848775
0
LINE
8
Layer 1
10
281.294675
20
118.848775
11
276.984025
21
113.470714
0
LINE
8
Layer 1
10
276.984025
20
113.470714
11
272.402576
21
107.653784
0
LINE
8
Layer 1
10
272.402576
20
107.653784
11
270.664445
21
105.204538
0
LINE
8
Layer 1
10
270.664445
20
105.204538
11
269.617018
21
103.497754
0
LINE
8
Layer 1
10
269.617018
20
103.497754
11
268.110346
21
100.524483
0
LINE
8
Layer 1
10
268.110346
20
100.524483
11
270.620603
21
99.772395
0
LINE
8
Layer 1
10
270.620603
20
99.772395
11
272.375001
21
99.035857
0
LINE
8
Layer 1
10
272.375001
20
99.035857
11
273.033451
21
98.564084
0
LINE
8
Layer 1
10
273.033451
20
98.564084
11
273.555641
21
98.010782
0
LINE
8
Layer 1
10
273.555641
20
98.010782
11
273.948751
21
97.366557
0
LINE
8
Layer 1
10
273.948751
20
97.366557
11
274.219961
21
96.622015
0
LINE
8
Layer 1
10
274.219961
20
96.622015
11
274.425404
21
94.794404
0
LINE
8
Layer 1
10
274.425404
20
94.794404
11
274.336979
21
93.813744
0
LINE
8
Layer 1
10
274.336979
20
93.813744
11
274.033476
21
92.807242
0
LINE
8
Layer 1
10
274.033476
20
92.807242
11
273.450573
21
91.692994
0
LINE
8
Layer 1
10
273.450573
20
91.692994
11
272.523946
21
90.389096
0
LINE
8
Layer 1
10
272.523946
20
90.389096
11
269.382222
21
86.884732
0
LINE
8
Layer 1
10
269.382222
20
86.884732
11
264.093717
21
81.638915
0
LINE
8
Layer 1
10
264.093717
20
81.638915
11
256.219348
21
74.003745
0
LINE
8
Layer 1
10
256.219348
20
74.003745
11
257.802868
21
72.956718
0
LINE
8
Layer 1
10
257.802868
20
72.956718
11
259.819872
21
71.481069
0
LINE
8
Layer 1
10
259.819872
20
71.481069
11
261.001444
21
70.187538
0
LINE
8
Layer 1
10
261.001444
20
70.187538
11
261.323230
21
69.539351
0
LINE
8
Layer 1
10
261.323230
20
69.539351
11
261.489301
21
68.853035
0
LINE
8
Layer 1
10
261.489301
20
68.853035
11
261.425159
21
67.254471
0
LINE
8
Layer 1
10
261.425159
20
67.254471
11
261.098154
21
65.943661
0
LINE
8
Layer 1
10
261.098154
20
65.943661
11
260.537446
21
64.683075
0
LINE
8
Layer 1
10
260.537446
20
64.683075
11
259.719306
21
63.449190
0
LINE
8
Layer 1
10
259.719306
20
63.449190
11
258.620008
21
62.218485
0
LINE
8
Layer 1
10
258.620008
20
62.218485
11
257.215824
21
60.967437
0
LINE
8
Layer 1
10
257.215824
20
60.967437
11
255.483026
21
59.672526
0
LINE
8
Layer 1
10
255.483026
20
59.672526
11
250.936675
21
56.857021
0
LINE
8
Layer 1
10
250.936675
20
56.857021
11
245.865861
21
53.884618
0
LINE
8
Layer 1
10
245.865861
20
53.884618
11
242.874594
21
51.954397
0
LINE
8
Layer 1
10
242.874594
20
51.954397
11
241.364214
21
50.766327
0
LINE
8
Layer 1
10
241.364214
20
50.766327
11
242.881429
21
49.002466
0
LINE
8
Layer 1
10
242.881429
20
49.002466
11
243.497338
21
48.155645
0
LINE
8
Layer 1
10
243.497338
20
48.155645
11
243.947480
21
47.246994
0
LINE
8
Layer 1
10
243.947480
20
47.246994
11
244.231488
21
46.287486
0
LINE
8
Layer 1
10
244.231488
20
46.287486
11
244.348992
21
45.288090
0
LINE
8
Layer 1
10
244.348992
20
45.288090
11
244.299623
21
44.259778
0
LINE
8
Layer 1
10
244.299623
20
44.259778
11
244.083014
21
43.213520
0
LINE
8
Layer 1
10
244.083014
20
43.213520
11
243.698795
21
42.160288
0
LINE
8
Layer 1
10
243.698795
20
42.160288
11
243.146597
21
41.111053
0
LINE
8
Layer 1
10
243.146597
20
41.111053
11
241.946650
21
39.563901
0
LINE
8
Layer 1
10
241.946650
20
39.563901
11
240.094263
21
38.214243
0
LINE
8
Layer 1
10
240.094263
20
38.214243
11
236.990122
21
36.717968
0
LINE
8
Layer 1
10
236.990122
20
36.717968
11
232.034910
21
34.730968
0
LINE
8
Layer 1
10
232.034910
20
34.730968
11
227.180812
21
32.767671
0
LINE
8
Layer 1
10
227.180812
20
32.767671
11
223.720347
21
31.216426
0
LINE
8
Layer 1
10
223.720347
20
31.216426
11
221.252319
21
29.958647
0
LINE
8
Layer 1
10
221.252319
20
29.958647
11
222.921652
21
28.216235
0
LINE
8
Layer 1
10
222.921652
20
28.216235
11
223.784826
21
27.100603
0
LINE
8
Layer 1
10
223.784826
20
27.100603
11
224.310401
21
25.933254
0
LINE
8
Layer 1
10
224.310401
20
25.933254
11
224.505781
21
24.744340
0
LINE
8
Layer 1
10
224.505781
20
24.744340
11
224.378372
21
23.564013
0
LINE
8
Layer 1
10
224.378372
20
23.564013
11
223.935578
21
22.422427
0
LINE
8
Layer 1
10
223.935578
20
22.422427
11
223.184805
21
21.349734
0
LINE
8
Layer 1
10
223.184805
20
21.349734
11
222.133455
21
20.376086
0
LINE
8
Layer 1
10
222.133455
20
20.376086
11
220.788936
21
19.531636
0
LINE
8
Layer 1
10
220.788936
20
19.531636
11
216.723134
21
18.093287
0
LINE
8
Layer 1
10
216.723134
20
18.093287
11
209.486243
21
15.947781
0
LINE
8
Layer 1
10
209.486243
20
15.947781
11
198.872972
21
12.977906
0
LINE
8
Layer 1
10
198.872972
20
12.977906
11
198.026404
21
12.510705
0
LINE
8
Layer 1
10
198.026404
20
12.510705
11
197.845171
21
12.180284
0
LINE
8
Layer 1
10
197.845171
20
12.180284
11
197.825060
21
11.787030
0
LINE
8
Layer 1
10
197.825060
20
11.787030
11
198.267477
21
10.817171
0
LINE
8
Layer 1
10
198.267477
20
10.817171
11
199.352191
21
9.611418
0
LINE
8
Layer 1
10
199.352191
20
9.611418
11
200.428205
21
8.281403
0
LINE
8
Layer 1
10
200.428205
20
8.281403
11
200.726368
21
7.602997
0
LINE
8
Layer 1
10
200.726368
20
7.602997
11
200.864583
21
6.916270
0
LINE
8
Layer 1
10
200.864583
20
6.916270
11
200.842812
21
6.221681
0
LINE
8
Layer 1
10
200.842812
20
6.221681
11
200.661016
21
5.519688
0
LINE
8
Layer 1
10
200.661016
20
5.519688
11
199.817197
21
4.095328
0
LINE
8
Layer 1
10
199.817197
20
4.095328
11
199.107926
21
3.312143
0
LINE
8
Layer 1
10
199.107926
20
3.312143
11
198.309459
21
2.677579
0
LINE
8
Layer 1
10
198.309459
20
2.677579
11
197.308386
21
2.162434
0
LINE
8
Layer 1
10
197.308386
20
2.162434
11
195.991295
21
1.737506
0
LINE
8
Layer 1
10
195.991295
20
1.737506
11
191.955422
21
1.041490
0
LINE
8
Layer 1
10
191.955422
20
1.041490
11
185.294552
21
0.355912
0
LINE
8
Layer 1
10
185.294552
20
0.355912
11
177.692484
21
-0.383230
0
LINE
8
Layer 1
10
177.692484
20
-0.383230
11
173.559607
21
-0.964331
0
LINE
8
Layer 1
10
173.559607
20
-0.964331
11
172.497276
21
-1.257760
0
LINE
8
Layer 1
10
172.497276
20
-1.257760
11
171.946038
21
-1.586252
0
LINE
8
Layer 1
10
171.946038
20
-1.586252
11
171.787157
21
-1.974663
0
LINE
8
Layer 1
10
171.787157
20
-1.974663
11
171.901897
21
-2.447853
0
LINE
8
Layer 1
10
171.901897
20
-2.447853
11
172.543003
21
-4.580330
0
LINE
8
Layer 1
10
172.543003
20
-4.580330
11
172.711284
21
-6.546828
0
LINE
8
Layer 1
10
172.711284
20
-6.546828
11
172.411398
21
-8.218590
0
LINE
8
Layer 1
10
172.411398
20
-8.218590
11
172.087347
21
-8.903709
0
LINE
8
Layer 1
10
172.087347
20
-8.903709
11
171.648001
21
-9.466861
0
LINE
8
Layer 1
10
171.648001
20
-9.466861
11
170.827338
21
-10.178698
0
LINE
8
Layer 1
10
170.827338
20
-10.178698
11
169.891331
21
-10.712317
0
LINE
8
Layer 1
10
169.891331
20
-10.712317
11
168.717310
21
-11.076543
0
LINE
8
Layer 1
10
168.717310
20
-11.076543
11
167.182605
21
-11.280202
0
LINE
8
Layer 1
10
167.182605
20
-11.280202
11
162.540457
21
-11.241122
0
LINE
8
Layer 1
10
162.540457
20
-11.241122
11
154.983521
21
-10.665684
0
LINE
8
Layer 1
10
154.983521
20
-10.665684
11
146.505785
21
-10.032064
0
LINE
8
Layer 1
10
146.505785
20
-10.032064
11
142.667891
21
-9.961201
0
LINE
8
Layer 1
10
142.667891
20
-9.961201
11
142.490852
21
-10.325037
0
LINE
8
Layer 1
10
142.490852
20
-10.325037
11
142.403397
21
-11.071809
0
LINE
8
Layer 1
10
142.403397
20
-11.071809
11
142.517041
21
-13.278724
0
LINE
8
Layer 1
10
142.517041
20
-13.278724
11
142.649953
21
-14.773864
0
LINE
8
Layer 1
10
142.649953
20
-14.773864
11
142.609483
21
-15.981807
0
LINE
8
Layer 1
10
142.609483
20
-15.981807
11
142.370280
21
-16.928760
0
LINE
8
Layer 1
10
142.370280
20
-16.928760
11
141.906992
21
-17.640934
0
LINE
8
Layer 1
10
141.906992
20
-17.640934
11
141.194268
21
-18.144536
0
LINE
8
Layer 1
10
141.194268
20
-18.144536
11
140.206756
21
-18.465777
0
LINE
8
Layer 1
10
140.206756
20
-18.465777
11
138.919105
21
-18.630864
0
LINE
8
Layer 1
10
138.919105
20
-18.630864
11
137.305963
21
-18.666007
0
LINE
8
Layer 1
10
137.305963
20
-18.666007
11
135.220938
21
-18.490766
0
LINE
8
Layer 1
10
135.220938
20
-18.490766
11
132.328078
21
-18.046547
0
LINE
8
Layer 1
10
132.328078
20
-18.046547
11
125.648855
21
-16.619727
0
LINE
8
Layer 1
10
125.648855
20
-16.619727
11
120.494982
21
-15.359637
0
LINE
8
Layer 1
10
120.494982
20
-15.359637
11
118.851623
21
-15.140787
0
LINE
8
Layer 1
10
118.851623
20
-15.140787
11
117.595402
21
-15.259821
0
LINE
8
Layer 1
10
117.595402
20
-15.259821
11
116.549882
21
-15.764553
0
LINE
8
Layer 1
10
116.549882
20
-15.764553
11
115.538629
21
-16.702797
0
LINE
8
Layer 1
10
115.538629
20
-16.702797
11
112.913180
21
-20.071079
0
LINE
8
Layer 1
10
112.913180
20
-20.071079
11
109.936637
21
-23.846420
0
LINE
8
Layer 1
10
109.936637
20
-23.846420
11
107.024268
21
-27.195666
0
LINE
8
Layer 1
10
107.024268
20
-27.195666
11
103.913345
21
-30.404894
0
LINE
8
Layer 1
10
103.913345
20
-30.404894
11
100.341142
21
-33.760183
0
LINE
8
Layer 1
10
100.341142
20
-33.760183
11
96.732623
21
-36.852607
0
LINE
8
Layer 1
10
96.732623
20
-36.852607
11
93.256062
21
-39.536531
0
LINE
8
Layer 1
10
93.256062
20
-39.536531
11
90.439199
21
-41.428260
0
LINE
8
Layer 1
10
90.439199
20
-41.428260
11
89.443073
21
-41.957148
0
LINE
8
Layer 1
10
89.443073
20
-41.957148
11
88.809774
21
-42.144102
0
LINE
8
Layer 1
10
88.809774
20
-42.144102
11
87.597007
21
-41.643965
0
LINE
8
Layer 1
10
87.597007
20
-41.643965
11
85.606461
21
-40.441540
0
LINE
8
Layer 1
10
85.606461
20
-40.441540
11
85.606461
21
-40.441540
0
LINE
8
Layer 1
10
92.681047
20
-37.595216
11
96.798701
21
-34.657467
0
LINE
8
Layer 1
10
96.798701
20
-34.657467
11
100.857435
21
-31.070309
0
LINE
8
Layer 1
10
100.857435
20
-31.070309
11
104.879036
21
-26.812591
0
LINE
8
Layer 1
10
104.879036
20
-26.812591
11
108.885293
21
-21.863162
0
LINE
8
Layer 1
10
108.885293
20
-21.863162
11
112.147832
21
-17.251235
0
LINE
8
Layer 1
10
112.147832
20
-17.251235
11
115.030011
21
-12.576866
0
LINE
8
Layer 1
10
115.030011
20
-12.576866
11
117.505076
21
-7.906968
0
LINE
8
Layer 1
10
117.505076
20
-7.906968
11
119.546274
21
-3.308458
0
LINE
8
Layer 1
10
119.546274
20
-3.308458
11
121.126852
21
1.151751
0
LINE
8
Layer 1
10
121.126852
20
1.151751
11
122.220056
21
5.406743
0
LINE
8
Layer 1
10
122.220056
20
5.406743
11
122.799133
21
9.389604
0
LINE
8
Layer 1
10
122.799133
20
9.389604
11
122.837329
21
13.033419
0
LINE
8
Layer 1
10
122.837329
20
13.033419
11
122.193894
21
17.352038
0
LINE
8
Layer 1
10
122.193894
20
17.352038
11
121.672693
21
19.517656
0
LINE
8
Layer 1
10
121.672693
20
19.517656
11
121.094743
21
21.324735
0
LINE
8
Layer 1
10
121.094743
20
21.324735
11
119.877129
21
24.023968
0
LINE
8
Layer 1
10
119.877129
20
24.023968
11
118.427660
21
26.340667
0
LINE
8
Layer 1
10
118.427660
20
26.340667
11
116.735683
21
28.281974
0
LINE
8
Layer 1
10
116.735683
20
28.281974
11
114.790547
21
29.855032
0
LINE
8
Layer 1
10
114.790547
20
29.855032
11
112.581599
21
31.066983
0
LINE
8
Layer 1
10
112.581599
20
31.066983
11
110.098186
21
31.924969
0
LINE
8
Layer 1
10
110.098186
20
31.924969
11
107.329657
21
32.436131
0
LINE
8
Layer 1
10
107.329657
20
32.436131
11
104.265360
21
32.607613
0
LINE
8
Layer 1
10
104.265360
20
32.607613
11
100.853804
21
32.498711
0
LINE
8
Layer 1
10
100.853804
20
32.498711
11
99.562530
21
32.309598
0
LINE
8
Layer 1
10
99.562530
20
32.309598
11
98.429377
21
31.987055
0
LINE
8
Layer 1
10
98.429377
20
31.987055
11
97.365683
21
31.498341
0
LINE
8
Layer 1
10
97.365683
20
31.498341
11
96.282785
21
30.810713
0
LINE
8
Layer 1
10
96.282785
20
30.810713
11
93.704735
21
28.707753
0
LINE
8
Layer 1
10
93.704735
20
28.707753
11
90.929322
21
26.277283
0
LINE
8
Layer 1
10
90.929322
20
26.277283
11
87.150135
21
29.422368
0
LINE
8
Layer 1
10
87.150135
20
29.422368
11
85.476173
21
30.736132
0
LINE
8
Layer 1
10
85.476173
20
30.736132
11
83.900611
21
31.788137
0
LINE
8
Layer 1
10
83.900611
20
31.788137
11
82.363747
21
32.596236
0
LINE
8
Layer 1
10
82.363747
20
32.596236
11
80.805885
21
33.178284
0
LINE
8
Layer 1
10
80.805885
20
33.178284
11
79.167325
21
33.552131
0
LINE
8
Layer 1
10
79.167325
20
33.552131
11
77.388368
21
33.735633
0
LINE
8
Layer 1
10
77.388368
20
33.735633
11
75.409315
21
33.746642
0
LINE
8
Layer 1
10
75.409315
20
33.746642
11
73.170469
21
33.603010
0
LINE
8
Layer 1
10
73.170469
20
33.603010
11
69.279149
21
33.060171
0
LINE
8
Layer 1
10
69.279149
20
33.060171
11
67.715837
21
32.640458
0
LINE
8
Layer 1
10
67.715837
20
32.640458
11
66.320421
21
32.080037
0
LINE
8
Layer 1
10
66.320421
20
32.080037
11
65.027650
21
31.347524
0
LINE
8
Layer 1
10
65.027650
20
31.347524
11
63.772273
21
30.411536
0
LINE
8
Layer 1
10
63.772273
20
30.411536
11
61.112691
21
27.803598
0
LINE
8
Layer 1
10
61.112691
20
27.803598
11
59.717423
21
26.169734
0
LINE
8
Layer 1
10
59.717423
20
26.169734
11
58.607034
21
24.582060
0
LINE
8
Layer 1
10
58.607034
20
24.582060
11
57.752085
21
22.931734
0
LINE
8
Layer 1
10
57.752085
20
22.931734
11
57.123138
21
21.109915
0
LINE
8
Layer 1
10
57.123138
20
21.109915
11
56.690754
21
19.007763
0
LINE
8
Layer 1
10
56.690754
20
19.007763
11
56.425494
21
16.516435
0
LINE
8
Layer 1
10
56.425494
20
16.516435
11
56.278594
21
9.930893
0
LINE
8
Layer 1
10
56.278594
20
9.930893
11
56.360587
21
5.346204
0
LINE
8
Layer 1
10
56.360587
20
5.346204
11
56.614898
21
2.199853
0
LINE
8
Layer 1
10
56.614898
20
2.199853
11
57.160408
21
-0.355630
0
LINE
8
Layer 1
10
57.160408
20
-0.355630
11
58.115996
21
-3.167717
0
LINE
8
Layer 1
10
58.115996
20
-3.167717
11
59.572188
21
-6.877044
0
LINE
8
Layer 1
10
59.572188
20
-6.877044
11
61.060340
21
-10.225278
0
LINE
8
Layer 1
10
61.060340
20
-10.225278
11
62.640793
21
-13.306524
0
LINE
8
Layer 1
10
62.640793
20
-13.306524
11
64.373885
21
-16.214886
0
LINE
8
Layer 1
10
64.373885
20
-16.214886
11
66.319955
21
-19.044468
0
LINE
8
Layer 1
10
66.319955
20
-19.044468
11
68.539343
21
-21.889375
0
LINE
8
Layer 1
10
68.539343
20
-21.889375
11
71.092389
21
-24.843710
0
LINE
8
Layer 1
10
71.092389
20
-24.843710
11
74.039431
21
-28.001580
0
LINE
8
Layer 1
10
74.039431
20
-28.001580
11
78.183050
21
-31.997571
0
LINE
8
Layer 1
10
78.183050
20
-31.997571
11
82.550907
21
-35.737654
0
LINE
8
Layer 1
10
82.550907
20
-35.737654
11
86.255655
21
-38.506373
0
LINE
8
Layer 1
10
86.255655
20
-38.506373
11
87.582067
21
-39.302890
0
LINE
8
Layer 1
10
87.582067
20
-39.302890
11
88.409947
21
-39.588269
0
LINE
8
Layer 1
10
88.409947
20
-39.588269
11
90.122853
21
-39.002810
0
LINE
8
Layer 1
10
90.122853
20
-39.002810
11
92.681047
21
-37.595216
0
LINE
8
Layer 1
10
92.681047
20
-37.595216
11
92.681047
21
-37.595216
0
LINE
8
Layer 1
10
125.741275
20
-6.456538
11
129.715561
21
-3.868346
0
LINE
8
Layer 1
10
129.715561
20
-3.868346
11
132.556523
21
-2.276096
0
LINE
8
Layer 1
10
132.556523
20
-2.276096
11
134.694671
21
-1.472649
0
LINE
8
Layer 1
10
134.694671
20
-1.472649
11
136.560518
21
-1.250864
0
LINE
8
Layer 1
10
136.560518
20
-1.250864
11
137.675813
21
-1.322185
0
LINE
8
Layer 1
10
137.675813
20
-1.322185
11
138.661722
21
-1.532800
0
LINE
8
Layer 1
10
138.661722
20
-1.532800
11
139.512289
21
-1.877683
0
LINE
8
Layer 1
10
139.512289
20
-1.877683
11
140.221561
21
-2.351813
0
LINE
8
Layer 1
10
140.221561
20
-2.351813
11
140.783583
21
-2.950164
0
LINE
8
Layer 1
10
140.783583
20
-2.950164
11
141.192400
21
-3.667714
0
LINE
8
Layer 1
10
141.192400
20
-3.667714
11
141.442056
21
-4.499437
0
LINE
8
Layer 1
10
141.442056
20
-4.499437
11
141.526599
21
-5.440312
0
LINE
8
Layer 1
10
141.526599
20
-5.440312
11
141.666355
21
-6.711038
0
LINE
8
Layer 1
10
141.666355
20
-6.711038
11
142.109564
21
-7.462323
0
LINE
8
Layer 1
10
142.109564
20
-7.462323
11
142.456185
21
-7.638065
0
LINE
8
Layer 1
10
142.456185
20
-7.638065
11
142.892135
21
-7.677814
0
LINE
8
Layer 1
10
142.892135
20
-7.677814
11
144.049980
21
-7.341156
0
LINE
8
Layer 1
10
144.049980
20
-7.341156
11
145.619008
21
-6.435996
0
LINE
8
Layer 1
10
145.619008
20
-6.435996
11
147.635129
21
-4.945980
0
LINE
8
Layer 1
10
147.635129
20
-4.945980
11
153.152292
21
-0.145964
0
LINE
8
Layer 1
10
153.152292
20
-0.145964
11
156.207625
21
2.550390
0
LINE
8
Layer 1
10
156.207625
20
2.550390
11
158.836900
21
4.606718
0
LINE
8
Layer 1
10
158.836900
20
4.606718
11
161.101069
21
6.040799
0
LINE
8
Layer 1
10
161.101069
20
6.040799
11
163.061081
21
6.870412
0
LINE
8
Layer 1
10
163.061081
20
6.870412
11
164.777887
21
7.113335
0
LINE
8
Layer 1
10
164.777887
20
7.113335
11
166.312437
21
6.787347
0
LINE
8
Layer 1
10
166.312437
20
6.787347
11
167.725681
21
5.910227
0
LINE
8
Layer 1
10
167.725681
20
5.910227
11
169.078571
21
4.499752
0
LINE
8
Layer 1
10
169.078571
20
4.499752
11
170.739411
21
2.694701
0
LINE
8
Layer 1
10
170.739411
20
2.694701
11
171.408278
21
2.145593
0
LINE
8
Layer 1
10
171.408278
20
2.145593
11
171.848269
21
1.943920
0
LINE
8
Layer 1
10
171.848269
20
1.943920
11
172.415514
21
2.185663
0
LINE
8
Layer 1
10
172.415514
20
2.185663
11
173.291632
21
2.868338
0
LINE
8
Layer 1
10
173.291632
20
2.868338
11
175.734717
21
5.301154
0
LINE
8
Layer 1
10
175.734717
20
5.301154
11
178.705970
21
8.731709
0
LINE
8
Layer 1
10
178.705970
20
8.731709
11
181.733839
21
12.649342
0
LINE
8
Layer 1
10
181.733839
20
12.649342
11
184.508539
21
16.248066
0
LINE
8
Layer 1
10
184.508539
20
16.248066
11
185.650888
21
17.502016
0
LINE
8
Layer 1
10
185.650888
20
17.502016
11
186.693949
21
18.442926
0
LINE
8
Layer 1
10
186.693949
20
18.442926
11
187.685755
21
19.108724
0
LINE
8
Layer 1
10
187.685755
20
19.108724
11
188.674341
21
19.537337
0
LINE
8
Layer 1
10
188.674341
20
19.537337
11
189.707741
21
19.766691
0
LINE
8
Layer 1
10
189.707741
20
19.766691
11
190.833987
21
19.834715
0
LINE
8
Layer 1
10
190.833987
20
19.834715
11
192.183179
21
19.759195
0
LINE
8
Layer 1
10
192.183179
20
19.759195
11
193.122041
21
19.446966
0
LINE
8
Layer 1
10
193.122041
20
19.446966
11
193.869548
21
18.769522
0
LINE
8
Layer 1
10
193.869548
20
18.769522
11
194.644676
21
17.598357
0
LINE
8
Layer 1
10
194.644676
20
17.598357
11
195.731312
21
16.018950
0
LINE
8
Layer 1
10
195.731312
20
16.018950
11
196.490974
21
15.362029
0
LINE
8
Layer 1
10
196.490974
20
15.362029
11
197.196845
21
15.545681
0
LINE
8
Layer 1
10
197.196845
20
15.545681
11
198.009147
21
16.081914
0
LINE
8
Layer 1
10
198.009147
20
16.081914
11
198.911081
21
16.948642
0
LINE
8
Layer 1
10
198.911081
20
16.948642
11
199.885847
21
18.123781
0
LINE
8
Layer 1
10
199.885847
20
18.123781
11
201.986681
21
21.310951
0
LINE
8
Layer 1
10
201.986681
20
21.310951
11
204.177259
21
25.466741
0
LINE
8
Layer 1
10
204.177259
20
25.466741
11
207.086345
21
31.281213
0
LINE
8
Layer 1
10
207.086345
20
31.281213
11
208.216380
21
33.210643
0
LINE
8
Layer 1
10
208.216380
20
33.210643
11
209.225102
21
34.600465
0
LINE
8
Layer 1
10
209.225102
20
34.600465
11
210.183781
21
35.534874
0
LINE
8
Layer 1
10
210.183781
20
35.534874
11
211.163689
21
36.098066
0
LINE
8
Layer 1
10
211.163689
20
36.098066
11
212.236094
21
36.374238
0
LINE
8
Layer 1
10
212.236094
20
36.374238
11
213.472268
21
36.447585
0
LINE
8
Layer 1
10
213.472268
20
36.447585
11
214.936672
21
36.373437
0
LINE
8
Layer 1
10
214.936672
20
36.373437
11
216.057075
21
36.116743
0
LINE
8
Layer 1
10
216.057075
20
36.116743
11
216.973503
21
35.626125
0
LINE
8
Layer 1
10
216.973503
20
35.626125
11
217.825978
21
34.850207
0
LINE
8
Layer 1
10
217.825978
20
34.850207
11
219.073970
21
33.722034
0
LINE
8
Layer 1
10
219.073970
20
33.722034
11
219.995586
21
33.252801
0
LINE
8
Layer 1
10
219.995586
20
33.252801
11
220.499657
21
33.394875
0
LINE
8
Layer 1
10
220.499657
20
33.394875
11
221.024230
21
33.837695
0
LINE
8
Layer 1
10
221.024230
20
33.837695
11
222.182890
21
35.725163
0
LINE
8
Layer 1
10
222.182890
20
35.725163
11
223.567569
21
39.114379
0
LINE
8
Layer 1
10
223.567569
20
39.114379
11
225.274271
21
44.204519
0
LINE
8
Layer 1
10
225.274271
20
44.204519
11
226.555558
21
47.972477
0
LINE
8
Layer 1
10
226.555558
20
47.972477
11
227.785298
21
50.954544
0
LINE
8
Layer 1
10
227.785298
20
50.954544
11
229.000894
21
53.185283
0
LINE
8
Layer 1
10
229.000894
20
53.185283
11
230.239750
21
54.699259
0
LINE
8
Layer 1
10
230.239750
20
54.699259
11
230.879589
21
55.198263
0
LINE
8
Layer 1
10
230.879589
20
55.198263
11
231.539268
21
55.531038
0
LINE
8
Layer 1
10
231.539268
20
55.531038
11
232.223465
21
55.701905
0
LINE
8
Layer 1
10
232.223465
20
55.701905
11
232.936853
21
55.715184
0
LINE
8
Layer 1
10
232.936853
20
55.715184
11
234.469907
21
55.286261
0
LINE
8
Layer 1
10
234.469907
20
55.286261
11
236.175835
21
54.278836
0
LINE
8
Layer 1
10
236.175835
20
54.278836
11
237.277812
21
53.642886
0
LINE
8
Layer 1
10
237.277812
20
53.642886
11
238.221318
21
53.454432
0
LINE
8
Layer 1
10
238.221318
20
53.454432
11
239.029486
21
53.752788
0
LINE
8
Layer 1
10
239.029486
20
53.752788
11
239.725445
21
54.577268
0
LINE
8
Layer 1
10
239.725445
20
54.577268
11
240.332327
21
55.967188
0
LINE
8
Layer 1
10
240.332327
20
55.967188
11
240.873263
21
57.961863
0
LINE
8
Layer 1
10
240.873263
20
57.961863
11
241.849823
21
63.922734
0
LINE
8
Layer 1
10
241.849823
20
63.922734
11
242.560183
21
68.725897
0
LINE
8
Layer 1
10
242.560183
20
68.725897
11
243.306376
21
71.927391
0
LINE
8
Layer 1
10
243.306376
20
71.927391
11
243.745860
21
73.093873
0
LINE
8
Layer 1
10
243.745860
20
73.093873
11
244.257843
21
74.059570
0
LINE
8
Layer 1
10
244.257843
20
74.059570
11
245.584026
21
75.654785
0
LINE
8
Layer 1
10
245.584026
20
75.654785
11
246.648421
21
76.562258
0
LINE
8
Layer 1
10
246.648421
20
76.562258
11
247.646510
21
77.070176
0
LINE
8
Layer 1
10
247.646510
20
77.070176
11
248.840081
21
77.262138
0
LINE
8
Layer 1
10
248.840081
20
77.262138
11
250.490928
21
77.221742
0
LINE
8
Layer 1
10
250.490928
20
77.221742
11
253.553107
21
77.021347
0
LINE
8
Layer 1
10
253.553107
20
77.021347
11
254.386735
21
80.216131
0
LINE
8
Layer 1
10
254.386735
20
80.216131
11
255.154762
21
84.818616
0
LINE
8
Layer 1
10
255.154762
20
84.818616
11
255.830663
21
91.397874
0
LINE
8
Layer 1
10
255.830663
20
91.397874
11
256.385666
21
97.355868
0
LINE
8
Layer 1
10
256.385666
20
97.355868
11
256.863026
21
100.464678
0
LINE
8
Layer 1
10
256.863026
20
100.464678
11
257.230000
21
101.147042
0
LINE
8
Layer 1
10
257.230000
20
101.147042
11
257.756916
21
101.764549
0
LINE
8
Layer 1
10
257.756916
20
101.764549
11
259.177366
21
102.749365
0
LINE
8
Layer 1
10
259.177366
20
102.749365
11
260.897955
21
103.307874
0
LINE
8
Layer 1
10
260.897955
20
103.307874
11
261.800045
21
103.392498
0
LINE
8
Layer 1
10
261.800045
20
103.392498
11
262.692261
21
103.328827
0
LINE
8
Layer 1
10
262.692261
20
103.328827
11
263.801855
21
103.211524
0
LINE
8
Layer 1
10
263.801855
20
103.211524
11
264.574651
21
103.317451
0
LINE
8
Layer 1
10
264.574651
20
103.317451
11
265.134333
21
103.691127
0
LINE
8
Layer 1
10
265.134333
20
103.691127
11
265.604580
21
104.377068
0
LINE
8
Layer 1
10
265.604580
20
104.377068
11
265.919449
21
105.246753
0
LINE
8
Layer 1
10
265.919449
20
105.246753
11
266.139602
21
106.499944
0
LINE
8
Layer 1
10
266.139602
20
106.499944
11
266.296913
21
110.003842
0
LINE
8
Layer 1
10
266.296913
20
110.003842
11
266.078812
21
114.582747
0
LINE
8
Layer 1
10
266.078812
20
114.582747
11
265.487602
21
119.930645
0
LINE
8
Layer 1
10
265.487602
20
119.930645
11
265.038408
21
124.706762
0
LINE
8
Layer 1
10
265.038408
20
124.706762
11
264.995887
21
126.661404
0
LINE
8
Layer 1
10
264.995887
20
126.661404
11
265.092056
21
127.975155
0
LINE
8
Layer 1
10
265.092056
20
127.975155
11
265.391325
21
129.084450
0
LINE
8
Layer 1
10
265.391325
20
129.084450
11
265.841221
21
130.083613
0
LINE
8
Layer 1
10
265.841221
20
130.083613
11
266.421930
21
130.955290
0
LINE
8
Layer 1
10
266.421930
20
130.955290
11
267.113638
21
131.682129
0
LINE
8
Layer 1
10
267.113638
20
131.682129
11
267.896530
21
132.246775
0
LINE
8
Layer 1
10
267.896530
20
132.246775
11
268.750792
21
132.631875
0
LINE
8
Layer 1
10
268.750792
20
132.631875
11
269.656610
21
132.820075
0
LINE
8
Layer 1
10
269.656610
20
132.820075
11
270.594170
21
132.794021
0
LINE
8
Layer 1
10
270.594170
20
132.794021
11
271.914261
21
132.781269
0
LINE
8
Layer 1
10
271.914261
20
132.781269
11
272.835094
21
133.215868
0
LINE
8
Layer 1
10
272.835094
20
133.215868
11
273.145158
21
133.613561
0
LINE
8
Layer 1
10
273.145158
20
133.613561
11
273.354653
21
134.138255
0
LINE
8
Layer 1
10
273.354653
20
134.138255
11
273.470927
21
135.588864
0
LINE
8
Layer 1
10
273.470927
20
135.588864
11
273.181902
21
137.608133
0
LINE
8
Layer 1
10
273.181902
20
137.608133
11
272.485565
21
140.236497
0
LINE
8
Layer 1
10
272.485565
20
140.236497
11
271.379902
21
143.514393
0
LINE
8
Layer 1
10
271.379902
20
143.514393
11
269.862901
21
147.482257
0
LINE
8
Layer 1
10
269.862901
20
147.482257
11
268.640269
21
150.703782
0
LINE
8
Layer 1
10
268.640269
20
150.703782
11
267.901604
21
153.065903
0
LINE
8
Layer 1
10
267.901604
20
153.065903
11
267.591291
21
154.785000
0
LINE
8
Layer 1
10
267.591291
20
154.785000
11
267.653716
21
156.077453
0
LINE
8
Layer 1
10
267.653716
20
156.077453
11
267.945685
21
157.137120
0
LINE
8
Layer 1
10
267.945685
20
157.137120
11
268.370391
21
158.096976
0
LINE
8
Layer 1
10
268.370391
20
158.096976
11
268.914218
21
158.944238
0
LINE
8
Layer 1
10
268.914218
20
158.944238
11
269.563550
21
159.666120
0
LINE
8
Layer 1
10
269.563550
20
159.666120
11
270.304771
21
160.249838
0
LINE
8
Layer 1
10
270.304771
20
160.249838
11
271.124264
21
160.682609
0
LINE
8
Layer 1
10
271.124264
20
160.682609
11
272.008412
21
160.951646
0
LINE
8
Layer 1
10
272.008412
20
160.951646
11
272.943599
21
161.044166
0
LINE
8
Layer 1
10
272.943599
20
161.044166
11
274.483572
21
161.263678
0
LINE
8
Layer 1
10
274.483572
20
161.263678
11
274.913865
21
161.515751
0
LINE
8
Layer 1
10
274.913865
20
161.515751
11
275.065007
21
161.842863
0
LINE
8
Layer 1
10
275.065007
20
161.842863
11
274.739892
21
163.878149
0
LINE
8
Layer 1
10
274.739892
20
163.878149
11
273.800566
21
166.623518
0
LINE
8
Layer 1
10
273.800566
20
166.623518
11
272.278939
21
169.999608
0
LINE
8
Layer 1
10
272.278939
20
169.999608
11
270.206916
21
173.927057
0
LINE
8
Layer 1
10
270.206916
20
173.927057
11
268.762377
21
176.665004
0
LINE
8
Layer 1
10
268.762377
20
176.665004
11
267.592454
21
179.197183
0
LINE
8
Layer 1
10
267.592454
20
179.197183
11
266.767588
21
181.357874
0
LINE
8
Layer 1
10
266.767588
20
181.357874
11
266.358223
21
182.981356
0
LINE
8
Layer 1
10
266.358223
20
182.981356
11
266.204690
21
184.551493
0
LINE
8
Layer 1
10
266.204690
20
184.551493
11
266.312965
21
185.650981
0
LINE
8
Layer 1
10
266.312965
20
185.650981
11
266.757224
21
186.547827
0
LINE
8
Layer 1
10
266.757224
20
186.547827
11
267.611646
21
187.510038
0
LINE
8
Layer 1
10
267.611646
20
187.510038
11
269.159627
21
188.674100
0
LINE
8
Layer 1
10
269.159627
20
188.674100
11
269.929311
21
189.028211
0
LINE
8
Layer 1
10
269.929311
20
189.028211
11
270.566834
21
189.158266
0
LINE
8
Layer 1
10
270.566834
20
189.158266
11
271.200708
21
189.265397
0
LINE
8
Layer 1
10
271.200708
20
189.265397
11
271.619025
21
189.584410
0
LINE
8
Layer 1
10
271.619025
20
189.584410
11
271.822291
21
190.111737
0
LINE
8
Layer 1
10
271.822291
20
190.111737
11
271.811014
21
190.843809
0
LINE
8
Layer 1
10
271.811014
20
190.843809
11
271.146857
21
192.907917
0
LINE
8
Layer 1
10
271.146857
20
192.907917
11
269.630610
21
195.748186
0
LINE
8
Layer 1
10
269.630610
20
195.748186
11
267.116057
21
199.515152
0
LINE
8
Layer 1
10
267.116057
20
199.515152
11
264.037598
21
203.638940
0
LINE
8
Layer 1
10
264.037598
20
203.638940
11
261.299348
21
206.962047
0
LINE
8
Layer 1
10
261.299348
20
206.962047
11
260.340337
21
207.961626
0
LINE
8
Layer 1
10
260.340337
20
207.961626
11
259.805421
21
208.326972
0
LINE
8
Layer 1
10
259.805421
20
208.326972
11
259.153881
21
208.002418
0
LINE
8
Layer 1
10
259.153881
20
208.002418
11
258.333075
21
207.189787
0
LINE
8
Layer 1
10
258.333075
20
207.189787
11
257.549976
21
206.130621
0
LINE
8
Layer 1
10
257.549976
20
206.130621
11
257.011557
21
205.066464
0
LINE
8
Layer 1
10
257.011557
20
205.066464
11
257.038448
21
203.791676
0
LINE
8
Layer 1
10
257.038448
20
203.791676
11
257.378142
21
201.077817
0
LINE
8
Layer 1
10
257.378142
20
201.077817
11
258.765706
21
192.926283
0
LINE
8
Layer 1
10
258.765706
20
192.926283
11
260.536130
21
182.193056
0
LINE
8
Layer 1
10
260.536130
20
182.193056
11
261.688469
21
171.816250
0
LINE
8
Layer 1
10
261.688469
20
171.816250
11
262.032224
21
166.746261
0
LINE
8
Layer 1
10
262.032224
20
166.746261
11
262.220701
21
161.747084
0
LINE
8
Layer 1
10
262.220701
20
161.747084
11
262.253646
21
156.812620
0
LINE
8
Layer 1
10
262.253646
20
156.812620
11
262.130807
21
151.936772
0
LINE
8
Layer 1
10
262.130807
20
151.936772
11
261.851932
21
147.113442
0
LINE
8
Layer 1
10
261.851932
20
147.113442
11
261.416766
21
142.336532
0
LINE
8
Layer 1
10
261.416766
20
142.336532
11
260.825059
21
137.599945
0
LINE
8
Layer 1
10
260.825059
20
137.599945
11
260.076558
21
132.897581
0
LINE
8
Layer 1
10
260.076558
20
132.897581
11
259.171009
21
128.223344
0
LINE
8
Layer 1
10
259.171009
20
128.223344
11
258.108161
21
123.571135
0
LINE
8
Layer 1
10
258.108161
20
123.571135
11
256.887761
21
118.934857
0
LINE
8
Layer 1
10
256.887761
20
118.934857
11
255.509556
21
114.308412
0
LINE
8
Layer 1
10
255.509556
20
114.308412
11
253.970257
21
109.424336
0
LINE
8
Layer 1
10
253.970257
20
109.424336
11
255.254543
21
106.428222
0
LINE
8
Layer 1
10
255.254543
20
106.428222
11
256.198685
21
103.969562
0
LINE
8
Layer 1
10
256.198685
20
103.969562
11
256.397372
21
103.066817
0
LINE
8
Layer 1
10
256.397372
20
103.066817
11
256.403261
21
102.300481
0
LINE
8
Layer 1
10
256.403261
20
102.300481
11
256.208446
21
101.609569
0
LINE
8
Layer 1
10
256.208446
20
101.609569
11
255.805021
21
100.933092
0
LINE
8
Layer 1
10
255.805021
20
100.933092
11
254.340713
21
99.379505
0
LINE
8
Layer 1
10
254.340713
20
99.379505
11
253.218558
21
98.206004
0
LINE
8
Layer 1
10
253.218558
20
98.206004
11
252.519131
21
97.110461
0
LINE
8
Layer 1
10
252.519131
20
97.110461
11
252.131473
21
95.852665
0
LINE
8
Layer 1
10
252.131473
20
95.852665
11
251.944624
21
94.192410
0
LINE
8
Layer 1
10
251.944624
20
94.192410
11
251.760782
21
92.265538
0
LINE
8
Layer 1
10
251.760782
20
92.265538
11
251.527093
21
91.604091
0
LINE
8
Layer 1
10
251.527093
20
91.604091
11
251.090078
21
91.039794
0
LINE
8
Layer 1
10
251.090078
20
91.039794
11
250.368127
21
90.494516
0
LINE
8
Layer 1
10
250.368127
20
90.494516
11
249.279630
21
89.890123
0
LINE
8
Layer 1
10
249.279630
20
89.890123
11
245.676558
21
88.191468
0
LINE
8
Layer 1
10
245.676558
20
88.191468
11
245.275659
21
87.809220
0
LINE
8
Layer 1
10
245.275659
20
87.809220
11
244.892604
21
87.096118
0
LINE
8
Layer 1
10
244.892604
20
87.096118
11
244.353656
21
85.085065
0
LINE
8
Layer 1
10
244.353656
20
85.085065
11
244.058625
21
83.749142
0
LINE
8
Layer 1
10
244.058625
20
83.749142
11
243.539609
21
82.489550
0
LINE
8
Layer 1
10
243.539609
20
82.489550
11
242.776170
21
81.266727
0
LINE
8
Layer 1
10
242.776170
20
81.266727
11
241.747870
21
80.041108
0
LINE
8
Layer 1
10
241.747870
20
80.041108
11
238.792330
21
76.410597
0
LINE
8
Layer 1
10
238.792330
20
76.410597
11
234.833846
21
71.025177
0
LINE
8
Layer 1
10
234.833846
20
71.025177
11
229.142047
21
63.395812
0
LINE
8
Layer 1
10
229.142047
20
63.395812
11
223.094060
21
56.167032
0
LINE
8
Layer 1
10
223.094060
20
56.167032
11
216.688080
21
49.337217
0
LINE
8
Layer 1
10
216.688080
20
49.337217
11
209.922299
21
42.904745
0
LINE
8
Layer 1
10
209.922299
20
42.904745
11
202.794912
21
36.867995
0
LINE
8
Layer 1
10
202.794912
20
36.867995
11
195.304113
21
31.225346
0
LINE
8
Layer 1
10
195.304113
20
31.225346
11
187.448094
21
25.975175
0
LINE
8
Layer 1
10
187.448094
20
25.975175
11
179.225050
21
21.115862
0
LINE
8
Layer 1
10
179.225050
20
21.115862
11
173.878344
21
18.321384
0
LINE
8
Layer 1
10
173.878344
20
18.321384
11
168.210681
21
15.685866
0
LINE
8
Layer 1
10
168.210681
20
15.685866
11
162.271464
21
13.226397
0
LINE
8
Layer 1
10
162.271464
20
13.226397
11
156.110100
21
10.960069
0
LINE
8
Layer 1
10
156.110100
20
10.960069
11
149.775992
21
8.903972
0
LINE
8
Layer 1
10
149.775992
20
8.903972
11
143.318546
21
7.075196
0
LINE
8
Layer 1
10
143.318546
20
7.075196
11
136.787168
21
5.490833
0
LINE
8
Layer 1
10
136.787168
20
5.490833
11
130.231261
21
4.167972
0
LINE
8
Layer 1
10
130.231261
20
4.167972
11
127.532854
21
3.624011
0
LINE
8
Layer 1
10
127.532854
20
3.624011
11
125.635633
21
3.106428
0
LINE
8
Layer 1
10
125.635633
20
3.106428
11
124.461973
21
2.589068
0
LINE
8
Layer 1
10
124.461973
20
2.589068
11
123.934254
21
2.045774
0
LINE
8
Layer 1
10
123.934254
20
2.045774
11
121.743810
21
-4.140435
0
LINE
8
Layer 1
10
121.743810
20
-4.140435
11
120.820406
21
-7.123511
0
LINE
8
Layer 1
10
120.820406
20
-7.123511
11
120.441026
21
-8.710759
0
LINE
8
Layer 1
10
120.441026
20
-8.710759
11
120.562353
21
-9.361039
0
LINE
8
Layer 1
10
120.562353
20
-9.361039
11
120.792739
21
-9.438525
0
LINE
8
Layer 1
10
120.792739
20
-9.438525
11
121.206253
21
-9.321146
0
LINE
8
Layer 1
10
121.206253
20
-9.321146
11
122.792602
21
-8.412504
0
LINE
8
Layer 1
10
122.792602
20
-8.412504
11
125.741275
21
-6.456538
0
LINE
8
Layer 1
10
125.741275
20
-6.456538
11
125.741275
21
-6.456538
0
LINE
8
Layer 1
10
55.022801
20
-2.883604
11
54.930197
21
-0.610600
0
LINE
8
Layer 1
10
54.930197
20
-0.610600
11
54.398747
21
3.664583
0
LINE
8
Layer 1
10
54.398747
20
3.664583
11
53.721646
21
7.881721
0
LINE
8
Layer 1
10
53.721646
20
7.881721
11
53.192087
21
9.980593
0
LINE
8
Layer 1
10
53.192087
20
9.980593
11
47.919428
21
12.155792
0
LINE
8
Layer 1
10
47.919428
20
12.155792
11
41.364913
21
14.940765
0
LINE
8
Layer 1
10
41.364913
20
14.940765
11
34.819951
21
18.110998
0
LINE
8
Layer 1
10
34.819951
20
18.110998
11
28.344305
21
21.628612
0
LINE
8
Layer 1
10
28.344305
20
21.628612
11
21.997733
21
25.455728
0
LINE
8
Layer 1
10
21.997733
20
25.455728
11
15.839996
21
29.554469
0
LINE
8
Layer 1
10
15.839996
20
29.554469
11
9.930855
21
33.886955
0
LINE
8
Layer 1
10
9.930855
20
33.886955
11
4.330069
21
38.415309
0
LINE
8
Layer 1
10
4.330069
20
38.415309
11
-0.902602
21
43.101651
0
LINE
8
Layer 1
10
-0.902602
20
43.101651
11
-6.090274
21
48.202016
0
LINE
8
Layer 1
10
-6.090274
20
48.202016
11
-10.993249
21
53.428702
0
LINE
8
Layer 1
10
-10.993249
20
53.428702
11
-15.612372
21
58.783386
0
LINE
8
Layer 1
10
-15.612372
20
58.783386
11
-19.948491
21
64.267744
0
LINE
8
Layer 1
10
-19.948491
20
64.267744
11
-24.002452
21
69.883453
0
LINE
8
Layer 1
10
-24.002452
20
69.883453
11
-27.775100
21
75.632191
0
LINE
8
Layer 1
10
-27.775100
20
75.632191
11
-31.267284
21
81.515634
0
LINE
8
Layer 1
10
-31.267284
20
81.515634
11
-34.479848
21
87.535458
0
LINE
8
Layer 1
10
-34.479848
20
87.535458
11
-37.413639
21
93.693341
0
LINE
8
Layer 1
10
-37.413639
20
93.693341
11
-40.069504
21
99.990959
0
LINE
8
Layer 1
10
-40.069504
20
99.990959
11
-42.448289
21
106.429990
0
LINE
8
Layer 1
10
-42.448289
20
106.429990
11
-44.550841
21
113.012109
0
LINE
8
Layer 1
10
-44.550841
20
113.012109
11
-46.378005
21
119.738994
0
LINE
8
Layer 1
10
-46.378005
20
119.738994
11
-47.930629
21
126.612322
0
LINE
8
Layer 1
10
-47.930629
20
126.612322
11
-49.209558
21
133.633768
0
LINE
8
Layer 1
10
-49.209558
20
133.633768
11
-50.215639
21
140.805011
0
LINE
8
Layer 1
10
-50.215639
20
140.805011
11
-50.517636
21
144.669097
0
LINE
8
Layer 1
10
-50.517636
20
144.669097
11
-50.678493
21
149.731592
0
LINE
8
Layer 1
10
-50.678493
20
149.731592
11
-50.615245
21
161.837513
0
LINE
8
Layer 1
10
-50.615245
20
161.837513
11
-50.102808
21
173.894173
0
LINE
8
Layer 1
10
-50.102808
20
173.894173
11
-49.702179
21
178.895091
0
LINE
8
Layer 1
10
-49.702179
20
178.895091
11
-49.218096
21
182.672969
0
LINE
8
Layer 1
10
-49.218096
20
182.672969
11
-47.896723
21
189.286238
0
LINE
8
Layer 1
10
-47.896723
20
189.286238
11
-46.195990
21
196.278298
0
LINE
8
Layer 1
10
-46.195990
20
196.278298
11
-44.327977
21
202.843474
0
LINE
8
Layer 1
10
-44.327977
20
202.843474
11
-42.504764
21
208.176093
0
LINE
8
Layer 1
10
-42.504764
20
208.176093
11
-41.153696
21
211.983702
0
LINE
8
Layer 1
10
-41.153696
20
211.983702
11
-40.815407
21
213.383106
0
LINE
8
Layer 1
10
-40.815407
20
213.383106
11
-40.701833
21
214.545986
0
LINE
8
Layer 1
10
-40.701833
20
214.545986
11
-40.812886
21
215.547149
0
LINE
8
Layer 1
10
-40.812886
20
215.547149
11
-41.148479
21
216.461404
0
LINE
8
Layer 1
10
-41.148479
20
216.461404
11
-41.708526
21
217.363558
0
LINE
8
Layer 1
10
-41.708526
20
217.363558
11
-42.492938
21
218.328419
0
LINE
8
Layer 1
10
-42.492938
20
218.328419
11
-43.350448
21
219.431992
0
LINE
8
Layer 1
10
-43.350448
20
219.431992
11
-43.982605
21
220.529051
0
LINE
8
Layer 1
10
-43.982605
20
220.529051
11
-44.389030
21
221.613561
0
LINE
8
Layer 1
10
-44.389030
20
221.613561
11
-44.569339
21
222.679490
0
LINE
8
Layer 1
10
-44.569339
20
222.679490
11
-44.523152
21
223.720804
0
LINE
8
Layer 1
10
-44.523152
20
223.720804
11
-44.250087
21
224.731470
0
LINE
8
Layer 1
10
-44.250087
20
224.731470
11
-43.749761
21
225.705455
0
LINE
8
Layer 1
10
-43.749761
20
225.705455
11
-43.021795
21
226.636725
0
LINE
8
Layer 1
10
-43.021795
20
226.636725
11
-41.744457
21
228.014125
0
LINE
8
Layer 1
10
-41.744457
20
228.014125
11
-44.111483
21
229.622577
0
LINE
8
Layer 1
10
-44.111483
20
229.622577
11
-45.437725
21
230.475640
0
LINE
8
Layer 1
10
-45.437725
20
230.475640
11
-46.446419
21
230.946117
0
LINE
8
Layer 1
10
-46.446419
20
230.946117
11
-47.173527
21
230.952656
0
LINE
8
Layer 1
10
-47.173527
20
230.952656
11
-47.655009
21
230.413902
0
LINE
8
Layer 1
10
-47.655009
20
230.413902
11
-47.926824
21
229.248503
0
LINE
8
Layer 1
10
-47.926824
20
229.248503
11
-48.024932
21
227.375103
0
LINE
8
Layer 1
10
-48.024932
20
227.375103
11
-47.843872
21
221.178889
0
LINE
8
Layer 1
10
-47.843872
20
221.178889
11
-47.663960
21
216.275566
0
LINE
8
Layer 1
10
-47.663960
20
216.275566
11
-47.685838
21
213.139424
0
LINE
8
Layer 1
10
-47.685838
20
213.139424
11
-47.941856
21
211.177223
0
LINE
8
Layer 1
10
-47.941856
20
211.177223
11
-48.464366
21
209.795721
0
LINE
8
Layer 1
10
-48.464366
20
209.795721
11
-49.507556
21
208.290230
0
LINE
8
Layer 1
10
-49.507556
20
208.290230
11
-50.108716
21
207.791112
0
LINE
8
Layer 1
10
-50.108716
20
207.791112
11
-50.776288
21
207.456260
0
LINE
8
Layer 1
10
-50.776288
20
207.456260
11
-51.520298
21
207.282057
0
LINE
8
Layer 1
10
-51.520298
20
207.282057
11
-52.350772
21
207.264890
0
LINE
8
Layer 1
10
-52.350772
20
207.264890
11
-54.311220
21
207.687202
0
LINE
8
Layer 1
10
-54.311220
20
207.687202
11
-56.092049
21
208.068891
0
LINE
8
Layer 1
10
-56.092049
20
208.068891
11
-56.802912
21
208.080473
0
LINE
8
Layer 1
10
-56.802912
20
208.080473
11
-57.264845
21
207.960585
0
LINE
8
Layer 1
10
-57.264845
20
207.960585
11
-57.582482
21
207.338673
0
LINE
8
Layer 1
10
-57.582482
20
207.338673
11
-57.738650
21
206.055322
0
LINE
8
Layer 1
10
-57.738650
20
206.055322
11
-57.609819
21
202.017453
0
LINE
8
Layer 1
10
-57.609819
20
202.017453
11
-56.964839
21
196.873272
0
LINE
8
Layer 1
10
-56.964839
20
196.873272
11
-55.890197
21
191.649072
0
LINE
8
Layer 1
10
-55.890197
20
191.649072
11
-55.214344
21
188.505900
0
LINE
8
Layer 1
10
-55.214344
20
188.505900
11
-54.906242
21
185.787199
0
LINE
8
Layer 1
10
-54.906242
20
185.787199
11
-54.966501
21
183.491311
0
LINE
8
Layer 1
10
-54.966501
20
183.491311
11
-55.395733
21
181.616576
0
LINE
8
Layer 1
10
-55.395733
20
181.616576
11
-56.194546
21
180.161337
0
LINE
8
Layer 1
10
-56.194546
20
180.161337
11
-57.363551
21
179.123933
0
LINE
8
Layer 1
10
-57.363551
20
179.123933
11
-58.903359
21
178.502708
0
LINE
8
Layer 1
10
-58.903359
20
178.502708
11
-60.814579
21
178.296001
0
LINE
8
Layer 1
10
-60.814579
20
178.296001
11
-63.578523
21
178.296001
0
LINE
8
Layer 1
10
-63.578523
20
178.296001
11
-63.578523
21
175.508007
0
LINE
8
Layer 1
10
-63.578523
20
175.508007
11
-63.388684
21
173.793944
0
LINE
8
Layer 1
10
-63.388684
20
173.793944
11
-62.752807
21
171.642733
0
LINE
8
Layer 1
10
-62.752807
20
171.642733
11
-61.571355
21
168.779723
0
LINE
8
Layer 1
10
-61.571355
20
168.779723
11
-59.744788
21
164.930264
0
LINE
8
Layer 1
10
-59.744788
20
164.930264
11
-57.170054
21
159.290814
0
LINE
8
Layer 1
10
-57.170054
20
159.290814
11
-56.417895
21
157.173259
0
LINE
8
Layer 1
10
-56.417895
20
157.173259
11
-56.006821
21
155.421256
0
LINE
8
Layer 1
10
-56.006821
20
155.421256
11
-55.925041
21
153.957884
0
LINE
8
Layer 1
10
-55.925041
20
153.957884
11
-56.160764
21
152.706222
0
LINE
8
Layer 1
10
-56.160764
20
152.706222
11
-56.702200
21
151.589349
0
LINE
8
Layer 1
10
-56.702200
20
151.589349
11
-57.537556
21
150.530344
0
LINE
8
Layer 1
10
-57.537556
20
150.530344
11
-58.462157
21
149.648675
0
LINE
8
Layer 1
10
-58.462157
20
149.648675
11
-59.332923
21
149.149702
0
LINE
8
Layer 1
10
-59.332923
20
149.149702
11
-60.344316
21
148.962533
0
LINE
8
Layer 1
10
-60.344316
20
148.962533
11
-61.690795
21
149.016278
0
LINE
8
Layer 1
10
-61.690795
20
149.016278
11
-62.961091
21
149.091696
0
LINE
8
Layer 1
10
-62.961091
20
149.091696
11
-63.732358
21
148.995527
0
LINE
8
Layer 1
10
-63.732358
20
148.995527
11
-64.114514
21
148.689440
0
LINE
8
Layer 1
10
-64.114514
20
148.689440
11
-64.217474
21
148.135104
0
LINE
8
Layer 1
10
-64.217474
20
148.135104
11
-63.849273
21
146.255693
0
LINE
8
Layer 1
10
-63.849273
20
146.255693
11
-62.779058
21
143.542109
0
LINE
8
Layer 1
10
-62.779058
20
143.542109
11
-61.058412
21
140.107988
0
LINE
8
Layer 1
10
-61.058412
20
140.107988
11
-58.738920
21
136.066969
0
LINE
8
Layer 1
10
-58.738920
20
136.066969
11
-56.514166
21
132.256782
0
LINE
8
Layer 1
10
-56.514166
20
132.256782
11
-55.211396
21
129.599054
0
LINE
8
Layer 1
10
-55.211396
20
129.599054
11
-54.613158
21
127.556070
0
LINE
8
Layer 1
10
-54.613158
20
127.556070
11
-54.502002
21
125.590115
0
LINE
8
Layer 1
10
-54.502002
20
125.590115
11
-54.611734
21
124.806652
0
LINE
8
Layer 1
10
-54.611734
20
124.806652
11
-54.880750
21
124.051439
0
LINE
8
Layer 1
10
-54.880750
20
124.051439
11
-55.805057
21
122.719722
0
LINE
8
Layer 1
10
-55.805057
20
122.719722
11
-57.091770
21
121.782884
0
LINE
8
Layer 1
10
-57.091770
20
121.782884
11
-57.813792
21
121.521269
0
LINE
8
Layer 1
10
-57.813792
20
121.521269
11
-58.557733
21
121.428844
0
LINE
8
Layer 1
10
-58.557733
20
121.428844
11
-59.533728
21
121.143933
0
LINE
8
Layer 1
10
-59.533728
20
121.143933
11
-59.915728
21
120.835532
0
LINE
8
Layer 1
10
-59.915728
20
120.835532
11
-60.157086
21
120.458934
0
LINE
8
Layer 1
10
-60.157086
20
120.458934
11
-60.293535
21
119.685866
0
LINE
8
Layer 1
10
-60.293535
20
119.685866
11
-60.155282
21
118.764590
0
LINE
8
Layer 1
10
-60.155282
20
118.764590
11
-59.731858
21
117.678716
0
LINE
8
Layer 1
10
-59.731858
20
117.678716
11
-59.012795
21
116.411850
0
LINE
8
Layer 1
10
-59.012795
20
116.411850
11
-56.645870
21
113.269577
0
LINE
8
Layer 1
10
-56.645870
20
113.269577
11
-52.970749
21
109.206635
0
LINE
8
Layer 1
10
-52.970749
20
109.206635
11
-50.498013
21
106.513973
0
LINE
8
Layer 1
10
-50.498013
20
106.513973
11
-48.567627
21
104.201745
0
LINE
8
Layer 1
10
-48.567627
20
104.201745
11
-47.268024
21
102.383038
0
LINE
8
Layer 1
10
-47.268024
20
102.383038
11
-46.687636
21
101.170936
0
LINE
8
Layer 1
10
-46.687636
20
101.170936
11
-46.546327
21
100.172573
0
LINE
8
Layer 1
10
-46.546327
20
100.172573
11
-46.564687
21
99.206822
0
LINE
8
Layer 1
10
-46.564687
20
99.206822
11
-46.739202
21
98.281123
0
LINE
8
Layer 1
10
-46.739202
20
98.281123
11
-47.066357
21
97.402915
0
LINE
8
Layer 1
10
-47.066357
20
97.402915
11
-47.542639
21
96.579639
0
LINE
8
Layer 1
10
-47.542639
20
96.579639
11
-48.164534
21
95.818733
0
LINE
8
Layer 1
10
-48.164534
20
95.818733
11
-49.831111
21
94.513794
0
LINE
8
Layer 1
10
-49.831111
20
94.513794
11
-51.417486
21
93.477740
0
LINE
8
Layer 1
10
-51.417486
20
93.477740
11
-52.077290
21
92.847833
0
LINE
8
Layer 1
10
-52.077290
20
92.847833
11
-51.913034
21
92.195553
0
LINE
8
Layer 1
10
-51.913034
20
92.195553
11
-51.434481
21
91.336655
0
LINE
8
Layer 1
10
-51.434481
20
91.336655
11
-49.619766
21
89.091784
0
LINE
8
Layer 1
10
-49.619766
20
89.091784
11
-46.803714
21
86.298791
0
LINE
8
Layer 1
10
-46.803714
20
86.298791
11
-43.156894
21
83.143244
0
LINE
8
Layer 1
10
-43.156894
20
83.143244
11
-38.566858
21
79.265541
0
LINE
8
Layer 1
10
-38.566858
20
79.265541
11
-35.837549
21
76.551124
0
LINE
8
Layer 1
10
-35.837549
20
76.551124
11
-35.032025
21
75.465770
0
LINE
8
Layer 1
10
-35.032025
20
75.465770
11
-34.525312
21
74.473985
0
LINE
8
Layer 1
10
-34.525312
20
74.473985
11
-34.261952
21
73.510019
0
LINE
8
Layer 1
10
-34.261952
20
73.510019
11
-34.186489
21
72.508120
0
LINE
8
Layer 1
10
-34.186489
20
72.508120
11
-34.414908
21
70.929709
0
LINE
8
Layer 1
10
-34.414908
20
70.929709
11
-35.098864
21
69.602017
0
LINE
8
Layer 1
10
-35.098864
20
69.602017
11
-36.236412
21
68.527596
0
LINE
8
Layer 1
10
-36.236412
20
68.527596
11
-37.825604
21
67.708999
0
LINE
8
Layer 1
10
-37.825604
20
67.708999
11
-38.575876
21
67.365397
0
LINE
8
Layer 1
10
-38.575876
20
67.365397
11
-38.940611
21
67.003335
0
LINE
8
Layer 1
10
-38.940611
20
67.003335
11
-38.960567
21
66.534836
0
LINE
8
Layer 1
10
-38.960567
20
66.534836
11
-38.676504
21
65.871921
0
LINE
8
Layer 1
10
-38.676504
20
65.871921
11
-38.071214
21
65.096129
0
LINE
8
Layer 1
10
-38.071214
20
65.096129
11
-37.001515
21
64.098039
0
LINE
8
Layer 1
10
-37.001515
20
64.098039
11
-33.801529
21
61.666662
0
LINE
8
Layer 1
10
-33.801529
20
61.666662
11
-29.741825
21
59.041193
0
LINE
8
Layer 1
10
-29.741825
20
59.041193
11
-25.487680
21
56.685035
0
LINE
8
Layer 1
10
-25.487680
20
56.685035
11
-22.980794
21
55.308204
0
LINE
8
Layer 1
10
-22.980794
20
55.308204
11
-20.959815
21
53.928419
0
LINE
8
Layer 1
10
-20.959815
20
53.928419
11
-19.422136
21
52.541189
0
LINE
8
Layer 1
10
-19.422136
20
52.541189
11
-18.365150
21
51.142024
0
LINE
8
Layer 1
10
-18.365150
20
51.142024
11
-17.786249
21
49.726436
0
LINE
8
Layer 1
10
-17.786249
20
49.726436
11
-17.682826
21
48.289934
0
LINE
8
Layer 1
10
-17.682826
20
48.289934
11
-18.052274
21
46.828028
0
LINE
8
Layer 1
10
-18.052274
20
46.828028
11
-18.891986
21
45.336230
0
LINE
8
Layer 1
10
-18.891986
20
45.336230
11
-19.707606
21
43.841941
0
LINE
8
Layer 1
10
-19.707606
20
43.841941
11
-19.865914
21
43.242032
0
LINE
8
Layer 1
10
-19.865914
20
43.242032
11
-19.817387
21
42.849090
0
LINE
8
Layer 1
10
-19.817387
20
42.849090
11
-19.285970
21
42.263862
0
LINE
8
Layer 1
10
-19.285970
20
42.263862
11
-18.392633
21
41.607153
0
LINE
8
Layer 1
10
-18.392633
20
41.607153
11
-15.702840
21
40.164151
0
LINE
8
Layer 1
10
-15.702840
20
40.164151
11
-12.113293
21
38.689796
0
LINE
8
Layer 1
10
-12.113293
20
38.689796
11
-7.989273
21
37.353800
0
LINE
8
Layer 1
10
-7.989273
20
37.353800
11
-3.191698
21
35.880868
0
LINE
8
Layer 1
10
-3.191698
20
35.880868
11
-0.181031
21
34.755832
0
LINE
8
Layer 1
10
-0.181031
20
34.755832
11
0.960139
21
34.028076
0
LINE
8
Layer 1
10
0.960139
20
34.028076
11
1.837615
21
33.147988
0
LINE
8
Layer 1
10
1.837615
20
33.147988
11
2.446232
21
32.145431
0
LINE
8
Layer 1
10
2.446232
20
32.145431
11
2.780823
21
31.050268
0
LINE
8
Layer 1
10
2.780823
20
31.050268
11
2.836222
21
29.892362
0
LINE
8
Layer 1
10
2.836222
20
29.892362
11
2.607262
21
28.701575
0
LINE
8
Layer 1
10
2.607262
20
28.701575
11
2.088777
21
27.507771
0
LINE
8
Layer 1
10
2.088777
20
27.507771
11
1.275600
21
26.340812
0
LINE
8
Layer 1
10
1.275600
20
26.340812
11
0.147442
21
24.876001
0
LINE
8
Layer 1
10
0.147442
20
24.876001
11
-0.321792
21
24.020070
0
LINE
8
Layer 1
10
-0.321792
20
24.020070
11
-0.007068
21
23.541738
0
LINE
8
Layer 1
10
-0.007068
20
23.541738
11
0.862803
21
22.990405
0
LINE
8
Layer 1
10
0.862803
20
22.990405
11
3.822186
21
21.813643
0
LINE
8
Layer 1
10
3.822186
20
21.813643
11
7.664755
21
20.779586
0
LINE
8
Layer 1
10
7.664755
20
20.779586
11
11.498908
21
20.178038
0
LINE
8
Layer 1
10
11.498908
20
20.178038
11
15.379125
21
19.726028
0
LINE
8
Layer 1
10
15.379125
20
19.726028
11
18.572903
21
19.057553
0
LINE
8
Layer 1
10
18.572903
20
19.057553
11
21.085867
21
18.168010
0
LINE
8
Layer 1
10
21.085867
20
18.168010
11
22.923641
21
17.052794
0
LINE
8
Layer 1
10
22.923641
20
17.052794
11
23.591090
21
16.409120
0
LINE
8
Layer 1
10
23.591090
20
16.409120
11
24.091849
21
15.707301
0
LINE
8
Layer 1
10
24.091849
20
15.707301
11
24.426624
21
14.946762
0
LINE
8
Layer 1
10
24.426624
20
14.946762
11
24.596116
21
14.126927
0
LINE
8
Layer 1
10
24.596116
20
14.126927
11
24.601028
21
13.247220
0
LINE
8
Layer 1
10
24.601028
20
13.247220
11
24.442064
21
12.307066
0
LINE
8
Layer 1
10
24.442064
20
12.307066
11
23.635319
21
10.243116
0
LINE
8
Layer 1
10
23.635319
20
10.243116
11
23.140143
21
9.206794
0
LINE
8
Layer 1
10
23.140143
20
9.206794
11
23.007728
21
8.564398
0
LINE
8
Layer 1
10
23.007728
20
8.564398
11
23.258483
21
8.130340
0
LINE
8
Layer 1
10
23.258483
20
8.130340
11
23.912817
21
7.719033
0
LINE
8
Layer 1
10
23.912817
20
7.719033
11
25.040272
21
7.461140
0
LINE
8
Layer 1
10
25.040272
20
7.461140
11
27.193732
21
7.249419
0
LINE
8
Layer 1
10
27.193732
20
7.249419
11
33.341135
21
7.052029
0
LINE
8
Layer 1
10
33.341135
20
7.052029
11
38.969492
21
6.919569
0
LINE
8
Layer 1
10
38.969492
20
6.919569
11
43.072500
21
6.474712
0
LINE
8
Layer 1
10
43.072500
20
6.474712
11
44.690553
21
6.110202
0
LINE
8
Layer 1
10
44.690553
20
6.110202
11
46.093535
21
5.637674
0
LINE
8
Layer 1
10
46.093535
20
5.637674
11
47.336867
21
5.047154
0
LINE
8
Layer 1
10
47.336867
20
5.047154
11
48.475971
21
4.328669
0
LINE
8
Layer 1
10
48.475971
20
4.328669
11
49.467054
21
3.537135
0
LINE
8
Layer 1
10
49.467054
20
3.537135
11
49.972585
21
2.759129
0
LINE
8
Layer 1
10
49.972585
20
2.759129
11
50.098771
21
1.682922
0
LINE
8
Layer 1
10
50.098771
20
1.682922
11
49.951815
21
-0.003216
0
LINE
8
Layer 1
10
49.951815
20
-0.003216
11
49.812457
21
-2.255589
0
LINE
8
Layer 1
10
49.812457
20
-2.255589
11
49.980983
21
-3.418895
0
LINE
8
Layer 1
10
49.980983
20
-3.418895
11
50.410576
21
-3.660668
0
LINE
8
Layer 1
10
50.410576
20
-3.660668
11
51.053523
21
-3.797679
0
LINE
8
Layer 1
10
51.053523
20
-3.797679
11
52.667418
21
-3.790547
0
LINE
8
Layer 1
10
52.667418
20
-3.790547
11
54.198551
21
-3.463766
0
LINE
8
Layer 1
10
54.198551
20
-3.463766
11
54.738043
21
-3.201216
0
LINE
8
Layer 1
10
54.738043
20
-3.201216
11
55.022801
21
-2.883604
0
LINE
8
Layer 1
10
55.022801
20
-2.883604
11
55.022801
21
-2.883604
0
LINE
8
Layer 1
10
92.311381
20
48.907244
11
92.707041
21
63.279086
0
LINE
8
Layer 1
10
92.707041
20
63.279086
11
92.620689
21
74.512543
0
LINE
8
Layer 1
10
92.620689
20
74.512543
11
92.405581
21
78.691958
0
LINE
8
Layer 1
10
92.405581
20
78.691958
11
92.080554
21
81.774273
0
LINE
8
Layer 1
10
92.080554
20
81.774273
11
91.649139
21
83.655321
0
LINE
8
Layer 1
10
91.649139
20
83.655321
11
91.394638
21
84.112817
0
LINE
8
Layer 1
10
91.394638
20
84.112817
11
91.114863
21
84.230934
0
LINE
8
Layer 1
10
91.114863
20
84.230934
11
90.590269
21
83.860628
0
LINE
8
Layer 1
10
90.590269
20
83.860628
11
90.193585
21
82.837892
0
LINE
8
Layer 1
10
90.193585
20
82.837892
11
89.871607
21
80.947027
0
LINE
8
Layer 1
10
89.871607
20
80.947027
11
89.571130
21
77.972331
0
LINE
8
Layer 1
10
89.571130
20
77.972331
11
89.393187
21
74.006026
0
LINE
8
Layer 1
10
89.393187
20
74.006026
11
89.302773
21
67.891278
0
LINE
8
Layer 1
10
89.302773
20
67.891278
11
89.348402
21
52.448399
0
LINE
8
Layer 1
10
89.348402
20
52.448399
11
89.635749
21
38.107586
0
LINE
8
Layer 1
10
89.635749
20
38.107586
11
89.847485
21
33.370420
0
LINE
8
Layer 1
10
89.847485
20
33.370420
11
90.092550
21
31.332730
0
LINE
8
Layer 1
10
90.092550
20
31.332730
11
90.487724
21
30.896457
0
LINE
8
Layer 1
10
90.487724
20
30.896457
11
90.663373
21
30.886665
0
LINE
8
Layer 1
10
90.663373
20
30.886665
11
90.826308
21
31.030903
0
LINE
8
Layer 1
10
90.826308
20
31.030903
11
91.119766
21
31.826863
0
LINE
8
Layer 1
10
91.119766
20
31.826863
11
91.379561
21
33.375134
0
LINE
8
Layer 1
10
91.379561
20
33.375134
11
91.844016
21
39.091791
0
LINE
8
Layer 1
10
91.844016
20
39.091791
11
92.311381
21
48.907244
0
LINE
8
Layer 1
10
92.311381
20
48.907244
11
92.311381
21
48.907244
0
LINE
8
Layer 1
10
217.214357
20
71.348164
11
217.714418
21
71.648242
0
LINE
8
Layer 1
10
217.714418
20
71.648242
11
218.219531
21
72.144226
0
LINE
8
Layer 1
10
218.219531
20
72.144226
11
219.156486
21
73.555544
0
LINE
8
Layer 1
10
219.156486
20
73.555544
11
219.848358
21
75.245385
0
LINE
8
Layer 1
10
219.848358
20
75.245385
11
220.118285
21
76.877019
0
LINE
8
Layer 1
10
220.118285
20
76.877019
11
219.684822
21
79.431990
0
LINE
8
Layer 1
10
219.684822
20
79.431990
11
218.488500
21
83.726883
0
LINE
8
Layer 1
10
218.488500
20
83.726883
11
216.685417
21
89.250696
0
LINE
8
Layer 1
10
216.685417
20
89.250696
11
214.431674
21
95.492430
0
LINE
8
Layer 1
10
214.431674
20
95.492430
11
212.657348
21
100.498470
0
LINE
8
Layer 1
10
212.657348
20
100.498470
11
212.085532
21
102.746809
0
LINE
8
Layer 1
10
212.085532
20
102.746809
11
212.483537
21
102.467434
0
LINE
8
Layer 1
10
212.483537
20
102.467434
11
213.203186
21
101.311539
0
LINE
8
Layer 1
10
213.203186
20
101.311539
11
215.313495
21
97.015836
0
LINE
8
Layer 1
10
215.313495
20
97.015836
11
217.828620
21
91.150995
0
LINE
8
Layer 1
10
217.828620
20
91.150995
11
220.160720
21
85.008306
0
LINE
8
Layer 1
10
220.160720
20
85.008306
11
222.551777
21
78.945205
0
LINE
8
Layer 1
10
222.551777
20
78.945205
11
223.605955
21
76.772128
0
LINE
8
Layer 1
10
223.605955
20
76.772128
11
224.381252
21
75.583693
0
LINE
8
Layer 1
10
224.381252
20
75.583693
11
225.074915
21
74.988579
0
LINE
8
Layer 1
10
225.074915
20
74.988579
11
225.802625
21
74.561350
0
LINE
8
Layer 1
10
225.802625
20
74.561350
11
226.560123
21
74.302045
0
LINE
8
Layer 1
10
226.560123
20
74.302045
11
227.343150
21
74.210705
0
LINE
8
Layer 1
10
227.343150
20
74.210705
11
228.147448
21
74.287367
0
LINE
8
Layer 1
10
228.147448
20
74.287367
11
228.968759
21
74.532072
0
LINE
8
Layer 1
10
228.968759
20
74.532072
11
230.645383
21
75.525767
0
LINE
8
Layer 1
10
230.645383
20
75.525767
11
231.546043
21
76.329046
0
LINE
8
Layer 1
10
231.546043
20
76.329046
11
232.031518
21
77.094801
0
LINE
8
Layer 1
10
232.031518
20
77.094801
11
232.180229
21
78.033847
0
LINE
8
Layer 1
10
232.180229
20
78.033847
11
232.070600
21
79.356996
0
LINE
8
Layer 1
10
232.070600
20
79.356996
11
231.661913
21
81.002017
0
LINE
8
Layer 1
10
231.661913
20
81.002017
11
230.831802
21
83.207642
0
LINE
8
Layer 1
10
230.831802
20
83.207642
11
228.148351
21
88.839118
0
LINE
8
Layer 1
10
228.148351
20
88.839118
11
224.502336
21
95.328252
0
LINE
8
Layer 1
10
224.502336
20
95.328252
11
220.375844
21
101.751871
0
LINE
8
Layer 1
10
220.375844
20
101.751871
11
217.069260
21
106.808047
0
LINE
8
Layer 1
10
217.069260
20
106.808047
11
216.150523
21
108.433291
0
LINE
8
Layer 1
10
216.150523
20
108.433291
11
215.916583
21
109.133686
0
LINE
8
Layer 1
10
215.916583
20
109.133686
11
216.140510
21
109.184532
0
LINE
8
Layer 1
10
216.140510
20
109.184532
11
216.468441
21
109.041201
0
LINE
8
Layer 1
10
216.468441
20
109.041201
11
217.259995
21
108.283585
0
LINE
8
Layer 1
10
217.259995
20
108.283585
11
220.707029
21
103.688618
0
LINE
8
Layer 1
10
220.707029
20
103.688618
11
224.020570
21
98.905791
0
LINE
8
Layer 1
10
224.020570
20
98.905791
11
227.134567
21
94.034315
0
LINE
8
Layer 1
10
227.134567
20
94.034315
11
229.982968
21
89.173404
0
LINE
8
Layer 1
10
229.982968
20
89.173404
11
233.225202
21
83.625251
0
LINE
8
Layer 1
10
233.225202
20
83.625251
11
235.015828
21
81.036489
0
LINE
8
Layer 1
10
235.015828
20
81.036489
11
236.222994
21
80.688100
0
LINE
8
Layer 1
10
236.222994
20
80.688100
11
238.001610
21
80.569215
0
LINE
8
Layer 1
10
238.001610
20
80.569215
11
239.770495
21
80.680997
0
LINE
8
Layer 1
10
239.770495
20
80.680997
11
240.948470
21
81.024610
0
LINE
8
Layer 1
10
240.948470
20
81.024610
11
241.924348
21
82.024550
0
LINE
8
Layer 1
10
241.924348
20
82.024550
11
242.593535
21
83.431328
0
LINE
8
Layer 1
10
242.593535
20
83.431328
11
242.904047
21
85.082672
0
LINE
8
Layer 1
10
242.904047
20
85.082672
11
242.803900
21
86.816312
0
LINE
8
Layer 1
10
242.803900
20
86.816312
11
242.577756
21
87.566869
0
LINE
8
Layer 1
10
242.577756
20
87.566869
11
242.123995
21
88.445874
0
LINE
8
Layer 1
10
242.123995
20
88.445874
11
240.280980
21
90.885679
0
LINE
8
Layer 1
10
240.280980
20
90.885679
11
236.769562
21
94.728629
0
LINE
8
Layer 1
10
236.769562
20
94.728629
11
231.084447
21
100.567621
0
LINE
8
Layer 1
10
231.084447
20
100.567621
11
223.514145
21
108.440094
0
LINE
8
Layer 1
10
223.514145
20
108.440094
11
221.522671
21
110.674413
0
LINE
8
Layer 1
10
221.522671
20
110.674413
11
221.117807
21
111.211962
0
LINE
8
Layer 1
10
221.117807
20
111.211962
11
221.080901
21
111.316567
0
LINE
8
Layer 1
10
221.080901
20
111.316567
11
221.161127
21
111.304387
0
LINE
8
Layer 1
10
221.161127
20
111.304387
11
225.357815
21
107.779122
0
LINE
8
Layer 1
10
225.357815
20
107.779122
11
233.534681
21
100.289457
0
LINE
8
Layer 1
10
233.534681
20
100.289457
11
239.786342
21
94.484233
0
LINE
8
Layer 1
10
239.786342
20
94.484233
11
243.333698
21
91.448308
0
LINE
8
Layer 1
10
243.333698
20
91.448308
11
244.440930
21
90.707311
0
LINE
8
Layer 1
10
244.440930
20
90.707311
11
245.289287
21
90.344811
0
LINE
8
Layer 1
10
245.289287
20
90.344811
11
246.017837
21
90.256200
0
LINE
8
Layer 1
10
246.017837
20
90.256200
11
246.765648
21
90.336868
0
LINE
8
Layer 1
10
246.765648
20
90.336868
11
248.635654
21
90.802706
0
LINE
8
Layer 1
10
248.635654
20
90.802706
11
249.880470
21
91.528868
0
LINE
8
Layer 1
10
249.880470
20
91.528868
11
250.291375
21
92.010647
0
LINE
8
Layer 1
10
250.291375
20
92.010647
11
250.573516
21
92.582797
0
LINE
8
Layer 1
10
250.573516
20
92.582797
11
250.788215
21
94.031936
0
LINE
8
Layer 1
10
250.788215
20
94.031936
11
250.488048
21
95.237863
0
LINE
8
Layer 1
10
250.488048
20
95.237863
11
249.575026
21
96.733487
0
LINE
8
Layer 1
10
249.575026
20
96.733487
11
248.030369
21
98.535858
0
LINE
8
Layer 1
10
248.030369
20
98.535858
11
245.835297
21
100.662026
0
LINE
8
Layer 1
10
245.835297
20
100.662026
11
242.971028
21
103.129042
0
LINE
8
Layer 1
10
242.971028
20
103.129042
11
239.418783
21
105.953956
0
LINE
8
Layer 1
10
239.418783
20
105.953956
11
230.175243
21
112.745677
0
LINE
8
Layer 1
10
230.175243
20
112.745677
11
225.870563
21
115.960207
0
LINE
8
Layer 1
10
225.870563
20
115.960207
11
224.635867
21
117.012885
0
LINE
8
Layer 1
10
224.635867
20
117.012885
11
224.271236
21
117.488348
0
LINE
8
Layer 1
10
224.271236
20
117.488348
11
224.731838
21
117.407363
0
LINE
8
Layer 1
10
224.731838
20
117.407363
11
225.771591
21
116.863697
0
LINE
8
Layer 1
10
225.771591
20
116.863697
11
229.441230
21
114.489019
0
LINE
8
Layer 1
10
229.441230
20
114.489019
11
234.985507
21
110.565715
0
LINE
8
Layer 1
10
234.985507
20
110.565715
11
242.109775
21
105.295185
0
LINE
8
Layer 1
10
242.109775
20
105.295185
11
248.264662
21
100.895368
0
LINE
8
Layer 1
10
248.264662
20
100.895368
11
250.373130
21
99.556928
0
LINE
8
Layer 1
10
250.373130
20
99.556928
11
251.427945
21
99.065355
0
LINE
8
Layer 1
10
251.427945
20
99.065355
11
252.566000
21
99.314813
0
LINE
8
Layer 1
10
252.566000
20
99.314813
11
253.572438
21
100.013614
0
LINE
8
Layer 1
10
253.572438
20
100.013614
11
254.371516
21
101.087397
0
LINE
8
Layer 1
10
254.371516
20
101.087397
11
254.887493
21
102.461801
0
LINE
8
Layer 1
10
254.887493
20
102.461801
11
254.969133
21
103.340698
0
LINE
8
Layer 1
10
254.969133
20
103.340698
11
254.771088
21
104.202264
0
LINE
8
Layer 1
10
254.771088
20
104.202264
11
254.256577
21
105.080041
0
LINE
8
Layer 1
10
254.256577
20
105.080041
11
253.388818
21
106.007570
0
LINE
8
Layer 1
10
253.388818
20
106.007570
11
252.131031
21
107.018394
0
LINE
8
Layer 1
10
252.131031
20
107.018394
11
250.446434
21
108.146055
0
LINE
8
Layer 1
10
250.446434
20
108.146055
11
245.649685
21
110.886058
0
LINE
8
Layer 1
10
245.649685
20
110.886058
11
240.507104
21
113.797868
0
LINE
8
Layer 1
10
240.507104
20
113.797868
11
235.786609
21
116.770577
0
LINE
8
Layer 1
10
235.786609
20
116.770577
11
231.516647
21
119.779931
0
LINE
8
Layer 1
10
231.516647
20
119.779931
11
227.725667
21
122.801674
0
LINE
8
Layer 1
10
227.725667
20
122.801674
11
224.442117
21
125.811554
0
LINE
8
Layer 1
10
224.442117
20
125.811554
11
221.694445
21
128.785314
0
LINE
8
Layer 1
10
221.694445
20
128.785314
11
219.511098
21
131.698700
0
LINE
8
Layer 1
10
219.511098
20
131.698700
11
217.920525
21
134.527458
0
LINE
8
Layer 1
10
217.920525
20
134.527458
11
214.413190
21
141.931501
0
LINE
8
Layer 1
10
214.413190
20
141.931501
11
211.120585
21
148.543192
0
LINE
8
Layer 1
10
211.120585
20
148.543192
11
208.285665
21
153.888435
0
LINE
8
Layer 1
10
208.285665
20
153.888435
11
206.151387
21
157.493139
0
LINE
8
Layer 1
10
206.151387
20
157.493139
11
204.614833
21
159.656706
0
LINE
8
Layer 1
10
204.614833
20
159.656706
11
202.902082
21
161.776036
0
LINE
8
Layer 1
10
202.902082
20
161.776036
11
201.042434
21
163.823796
0
LINE
8
Layer 1
10
201.042434
20
163.823796
11
199.065188
21
165.772653
0
LINE
8
Layer 1
10
199.065188
20
165.772653
11
196.999643
21
167.595274
0
LINE
8
Layer 1
10
196.999643
20
167.595274
11
194.875097
21
169.264327
0
LINE
8
Layer 1
10
194.875097
20
169.264327
11
192.720850
21
170.752478
0
LINE
8
Layer 1
10
192.720850
20
170.752478
11
190.566201
21
172.032395
0
LINE
8
Layer 1
10
190.566201
20
172.032395
11
183.927618
21
175.816875
0
LINE
8
Layer 1
10
183.927618
20
175.816875
11
181.755178
21
177.337931
0
LINE
8
Layer 1
10
181.755178
20
177.337931
11
180.159126
21
178.822515
0
LINE
8
Layer 1
10
180.159126
20
178.822515
11
178.998328
21
180.428864
0
LINE
8
Layer 1
10
178.998328
20
180.428864
11
178.131650
21
182.315215
0
LINE
8
Layer 1
10
178.131650
20
182.315215
11
177.417958
21
184.639806
0
LINE
8
Layer 1
10
177.417958
20
184.639806
11
176.716117
21
187.560874
0
LINE
8
Layer 1
10
176.716117
20
187.560874
11
175.933292
21
190.132869
0
LINE
8
Layer 1
10
175.933292
20
190.132869
11
174.830288
21
192.411739
0
LINE
8
Layer 1
10
174.830288
20
192.411739
11
173.427171
21
194.381186
0
LINE
8
Layer 1
10
173.427171
20
194.381186
11
171.744005
21
196.024912
0
LINE
8
Layer 1
10
171.744005
20
196.024912
11
169.800856
21
197.326619
0
LINE
8
Layer 1
10
169.800856
20
197.326619
11
167.617791
21
198.270009
0
LINE
8
Layer 1
10
167.617791
20
198.270009
11
165.214876
21
198.838785
0
LINE
8
Layer 1
10
165.214876
20
198.838785
11
162.612174
21
199.016647
0
LINE
8
Layer 1
10
162.612174
20
199.016647
11
160.252849
21
198.884377
0
LINE
8
Layer 1
10
160.252849
20
198.884377
11
157.965743
21
198.450732
0
LINE
8
Layer 1
10
157.965743
20
198.450732
11
155.286287
21
197.595115
0
LINE
8
Layer 1
10
155.286287
20
197.595115
11
151.749910
21
196.196931
0
LINE
8
Layer 1
10
151.749910
20
196.196931
11
146.839461
21
194.081053
0
LINE
8
Layer 1
10
146.839461
20
194.081053
11
144.454702
21
192.903722
0
LINE
8
Layer 1
10
144.454702
20
192.903722
11
144.446475
21
192.463375
0
LINE
8
Layer 1
10
144.446475
20
192.463375
11
144.876815
21
191.643129
0
LINE
8
Layer 1
10
144.876815
20
191.643129
11
146.791508
21
189.269874
0
LINE
8
Layer 1
10
146.791508
20
189.269874
11
148.573505
21
187.257584
0
LINE
8
Layer 1
10
148.573505
20
187.257584
11
150.001854
21
185.321674
0
LINE
8
Layer 1
10
150.001854
20
185.321674
11
151.137841
21
183.265638
0
LINE
8
Layer 1
10
151.137841
20
183.265638
11
152.042754
21
180.892969
0
LINE
8
Layer 1
10
152.042754
20
180.892969
11
152.777880
21
178.007161
0
LINE
8
Layer 1
10
152.777880
20
178.007161
11
153.404505
21
174.411710
0
LINE
8
Layer 1
10
153.404505
20
174.411710
11
154.577401
21
164.305851
0
LINE
8
Layer 1
10
154.577401
20
164.305851
11
155.315567
21
158.019686
0
LINE
8
Layer 1
10
155.315567
20
158.019686
11
155.704039
21
156.037714
0
LINE
8
Layer 1
10
155.704039
20
156.037714
11
156.163554
21
154.712849
0
LINE
8
Layer 1
10
156.163554
20
154.712849
11
156.737699
21
153.957368
0
LINE
8
Layer 1
10
156.737699
20
153.957368
11
157.470061
21
153.683545
0
LINE
8
Layer 1
10
157.470061
20
153.683545
11
158.404227
21
153.803658
0
LINE
8
Layer 1
10
158.404227
20
153.803658
11
159.583786
21
154.229981
0
LINE
8
Layer 1
10
159.583786
20
154.229981
11
160.578230
21
154.753217
0
LINE
8
Layer 1
10
160.578230
20
154.753217
11
161.612019
21
155.478491
0
LINE
8
Layer 1
10
161.612019
20
155.478491
11
162.562928
21
156.309935
0
LINE
8
Layer 1
10
162.562928
20
156.309935
11
163.308733
21
157.151681
0
LINE
8
Layer 1
10
163.308733
20
157.151681
11
164.447864
21
158.500729
0
LINE
8
Layer 1
10
164.447864
20
158.500729
11
165.252998
21
159.046453
0
LINE
8
Layer 1
10
165.252998
20
159.046453
11
165.517065
21
159.015078
0
LINE
8
Layer 1
10
165.517065
20
159.015078
11
165.681731
21
158.779282
0
LINE
8
Layer 1
10
165.681731
20
158.779282
11
165.691659
21
157.689644
0
LINE
8
Layer 1
10
165.691659
20
157.689644
11
165.361735
21
156.872106
0
LINE
8
Layer 1
10
165.361735
20
156.872106
11
164.634659
21
155.978725
0
LINE
8
Layer 1
10
164.634659
20
155.978725
11
163.578378
21
155.052284
0
LINE
8
Layer 1
10
163.578378
20
155.052284
11
162.260838
21
154.135567
0
LINE
8
Layer 1
10
162.260838
20
154.135567
11
159.113769
21
152.502438
0
LINE
8
Layer 1
10
159.113769
20
152.502438
11
157.420133
21
151.871593
0
LINE
8
Layer 1
10
157.420133
20
151.871593
11
155.737024
21
151.421605
0
LINE
8
Layer 1
10
155.737024
20
151.421605
11
153.476506
21
151.086496
0
LINE
8
Layer 1
10
153.476506
20
151.086496
11
150.700122
21
150.981871
0
LINE
8
Layer 1
10
150.700122
20
150.981871
11
146.947055
21
151.109339
0
LINE
8
Layer 1
10
146.947055
20
151.109339
11
141.756488
21
151.470511
0
LINE
8
Layer 1
10
141.756488
20
151.470511
11
134.395049
21
151.929572
0
LINE
8
Layer 1
10
134.395049
20
151.929572
11
131.675181
21
151.953082
0
LINE
8
Layer 1
10
131.675181
20
151.953082
11
129.407683
21
151.819719
0
LINE
8
Layer 1
10
129.407683
20
151.819719
11
127.451406
21
151.514837
0
LINE
8
Layer 1
10
127.451406
20
151.514837
11
125.665201
21
151.023791
0
LINE
8
Layer 1
10
125.665201
20
151.023791
11
123.907922
21
150.331937
0
LINE
8
Layer 1
10
123.907922
20
150.331937
11
122.038418
21
149.424628
0
LINE
8
Layer 1
10
122.038418
20
149.424628
11
118.251815
21
147.222209
0
LINE
8
Layer 1
10
118.251815
20
147.222209
11
114.067456
21
144.159046
0
LINE
8
Layer 1
10
114.067456
20
144.159046
11
108.597184
21
139.527261
0
LINE
8
Layer 1
10
108.597184
20
139.527261
11
100.952842
21
132.618972
0
LINE
8
Layer 1
10
100.952842
20
132.618972
11
93.495576
21
125.996007
0
LINE
8
Layer 1
10
93.495576
20
125.996007
11
84.698652
21
118.526002
0
LINE
8
Layer 1
10
84.698652
20
118.526002
11
75.562645
21
111.043254
0
LINE
8
Layer 1
10
75.562645
20
111.043254
11
67.088131
21
104.382058
0
LINE
8
Layer 1
10
67.088131
20
104.382058
11
63.800739
21
102.101864
0
LINE
8
Layer 1
10
63.800739
20
102.101864
11
59.626564
21
99.565834
0
LINE
8
Layer 1
10
59.626564
20
99.565834
11
54.817353
21
96.899053
0
LINE
8
Layer 1
10
54.817353
20
96.899053
11
49.624847
21
94.226607
0
LINE
8
Layer 1
10
49.624847
20
94.226607
11
44.300792
21
91.673585
0
LINE
8
Layer 1
10
44.300792
20
91.673585
11
39.096932
21
89.365071
0
LINE
8
Layer 1
10
39.096932
20
89.365071
11
34.265010
21
87.426153
0
LINE
8
Layer 1
10
34.265010
20
87.426153
11
30.056771
21
85.981917
0
LINE
8
Layer 1
10
30.056771
20
85.981917
11
27.128418
21
85.056258
0
LINE
8
Layer 1
10
27.128418
20
85.056258
11
25.569682
21
84.429208
0
LINE
8
Layer 1
10
25.569682
20
84.429208
11
25.227592
21
84.185935
0
LINE
8
Layer 1
10
25.227592
20
84.185935
11
25.136315
21
83.967243
0
LINE
8
Layer 1
10
25.136315
20
83.967243
11
25.584075
21
83.536839
0
LINE
8
Layer 1
10
25.584075
20
83.536839
11
26.611007
21
83.254416
0
LINE
8
Layer 1
10
26.611007
20
83.254416
11
28.465420
21
83.046135
0
LINE
8
Layer 1
10
28.465420
20
83.046135
11
33.941461
21
82.905991
0
LINE
8
Layer 1
10
33.941461
20
82.905991
11
39.038651
21
83.132260
0
LINE
8
Layer 1
10
39.038651
20
83.132260
11
41.233146
21
83.475387
0
LINE
8
Layer 1
10
41.233146
20
83.475387
11
43.509903
21
84.070973
0
LINE
8
Layer 1
10
43.509903
20
84.070973
11
46.107670
21
84.993367
0
LINE
8
Layer 1
10
46.107670
20
84.993367
11
49.265191
21
86.316915
0
LINE
8
Layer 1
10
49.265191
20
86.316915
11
58.214486
21
90.464870
0
LINE
8
Layer 1
10
58.214486
20
90.464870
11
67.520356
21
95.061943
0
LINE
8
Layer 1
10
67.520356
20
95.061943
11
71.217607
21
97.136403
0
LINE
8
Layer 1
10
71.217607
20
97.136403
11
74.661436
21
99.320455
0
LINE
8
Layer 1
10
74.661436
20
99.320455
11
78.139621
21
101.808330
0
LINE
8
Layer 1
10
78.139621
20
101.808330
11
81.939940
21
104.794258
0
LINE
8
Layer 1
10
81.939940
20
104.794258
11
91.658084
21
113.037206
0
LINE
8
Layer 1
10
91.658084
20
113.037206
11
96.456373
21
117.044618
0
LINE
8
Layer 1
10
96.456373
20
117.044618
11
97.979164
21
118.200552
0
LINE
8
Layer 1
10
97.979164
20
118.200552
11
98.613423
21
118.550116
0
LINE
8
Layer 1
10
98.613423
20
118.550116
11
98.703067
21
118.278166
0
LINE
8
Layer 1
10
98.703067
20
118.278166
11
98.598236
21
117.854282
0
LINE
8
Layer 1
10
98.598236
20
117.854282
11
97.858923
21
116.606159
0
LINE
8
Layer 1
10
97.858923
20
116.606159
11
96.503031
21
114.916634
0
LINE
8
Layer 1
10
96.503031
20
114.916634
11
94.638109
21
112.896599
0
LINE
8
Layer 1
10
94.638109
20
112.896599
11
89.811366
21
108.308552
0
LINE
8
Layer 1
10
89.811366
20
108.308552
11
84.239075
21
103.729134
0
LINE
8
Layer 1
10
84.239075
20
103.729134
11
78.645551
21
99.604526
0
LINE
8
Layer 1
10
78.645551
20
99.604526
11
73.882286
21
96.472283
0
LINE
8
Layer 1
10
73.882286
20
96.472283
11
68.421902
21
93.406433
0
LINE
8
Layer 1
10
68.421902
20
93.406433
11
60.737022
21
89.481004
0
LINE
8
Layer 1
10
60.737022
20
89.481004
11
52.173029
21
85.011504
0
LINE
8
Layer 1
10
52.173029
20
85.011504
11
49.560238
21
83.509839
0
LINE
8
Layer 1
10
49.560238
20
83.509839
11
48.591611
21
82.789645
0
LINE
8
Layer 1
10
48.591611
20
82.789645
11
48.812576
21
82.441704
0
LINE
8
Layer 1
10
48.812576
20
82.441704
11
49.461626
21
82.122792
0
LINE
8
Layer 1
10
49.461626
20
82.122792
11
51.730701
21
81.616937
0
LINE
8
Layer 1
10
51.730701
20
81.616937
11
54.772280
21
81.361856
0
LINE
8
Layer 1
10
54.772280
20
81.361856
11
57.959808
21
81.447322
0
LINE
8
Layer 1
10
57.959808
20
81.447322
11
59.853921
21
81.768153
0
LINE
8
Layer 1
10
59.853921
20
81.768153
11
62.066586
21
82.400451
0
LINE
8
Layer 1
10
62.066586
20
82.400451
11
64.576258
21
83.334116
0
LINE
8
Layer 1
10
64.576258
20
83.334116
11
67.361393
21
84.559045
0
LINE
8
Layer 1
10
67.361393
20
84.559045
11
73.671883
21
87.842288
0
LINE
8
Layer 1
10
73.671883
20
87.842288
11
80.825704
21
92.169365
0
LINE
8
Layer 1
10
80.825704
20
92.169365
11
90.363270
21
98.568665
0
LINE
8
Layer 1
10
90.363270
20
98.568665
11
94.351378
21
101.495423
0
LINE
8
Layer 1
10
94.351378
20
101.495423
11
97.897338
21
104.305041
0
LINE
8
Layer 1
10
97.897338
20
104.305041
11
101.059877
21
107.046110
0
LINE
8
Layer 1
10
101.059877
20
107.046110
11
103.897722
21
109.767222
0
LINE
8
Layer 1
10
103.897722
20
109.767222
11
106.469601
21
112.516968
0
LINE
8
Layer 1
10
106.469601
20
112.516968
11
108.834239
21
115.343939
0
LINE
8
Layer 1
10
108.834239
20
115.343939
11
112.556908
21
119.774748
0
LINE
8
Layer 1
10
112.556908
20
119.774748
11
113.455418
21
120.498475
0
LINE
8
Layer 1
10
113.455418
20
120.498475
11
113.741943
21
120.565492
0
LINE
8
Layer 1
10
113.741943
20
120.565492
11
113.949689
21
120.465688
0
LINE
8
Layer 1
10
113.949689
20
120.465688
11
112.908192
21
118.721623
0
LINE
8
Layer 1
10
112.908192
20
118.721623
11
110.046482
21
114.886137
0
LINE
8
Layer 1
10
110.046482
20
114.886137
11
107.118902
21
111.387378
0
LINE
8
Layer 1
10
107.118902
20
111.387378
11
103.830457
21
107.933822
0
LINE
8
Layer 1
10
103.830457
20
107.933822
11
100.161019
21
104.509427
0
LINE
8
Layer 1
10
100.161019
20
104.509427
11
96.090465
21
101.098148
0
LINE
8
Layer 1
10
96.090465
20
101.098148
11
91.598669
21
97.683943
0
LINE
8
Layer 1
10
91.598669
20
97.683943
11
86.665504
21
94.250769
0
LINE
8
Layer 1
10
86.665504
20
94.250769
11
81.270846
21
90.782581
0
LINE
8
Layer 1
10
81.270846
20
90.782581
11
75.394569
21
87.263338
0
LINE
8
Layer 1
10
75.394569
20
87.263338
11
71.095249
21
84.681390
0
LINE
8
Layer 1
10
71.095249
20
84.681390
11
68.681709
21
82.940710
0
LINE
8
Layer 1
10
68.681709
20
82.940710
11
68.074580
21
82.289331
0
LINE
8
Layer 1
10
68.074580
20
82.289331
11
67.809864
21
81.732452
0
LINE
8
Layer 1
10
67.809864
20
81.732452
11
67.844551
21
81.231465
0
LINE
8
Layer 1
10
67.844551
20
81.231465
11
68.135630
21
80.747767
0
LINE
8
Layer 1
10
68.135630
20
80.747767
11
68.801437
21
80.353963
0
LINE
8
Layer 1
10
68.801437
20
80.353963
11
69.960596
21
80.084314
0
LINE
8
Layer 1
10
69.960596
20
80.084314
11
73.276408
21
79.909268
0
LINE
8
Layer 1
10
73.276408
20
79.909268
11
77.117948
21
80.206196
0
LINE
8
Layer 1
10
77.117948
20
80.206196
11
78.934266
21
80.526514
0
LINE
8
Layer 1
10
78.934266
20
80.526514
11
80.520097
21
80.958663
0
LINE
8
Layer 1
10
80.520097
20
80.958663
11
81.987883
21
81.617794
0
LINE
8
Layer 1
10
81.987883
20
81.617794
11
83.949876
21
82.747427
0
LINE
8
Layer 1
10
83.949876
20
82.747427
11
89.105641
21
86.237302
0
LINE
8
Layer 1
10
89.105641
20
86.237302
11
95.485703
21
91.066494
0
LINE
8
Layer 1
10
95.485703
20
91.066494
11
102.588373
21
96.873211
0
LINE
8
Layer 1
10
102.588373
20
96.873211
11
107.154909
21
101.009224
0
LINE
8
Layer 1
10
107.154909
20
101.009224
11
111.778749
21
105.708883
0
LINE
8
Layer 1
10
111.778749
20
105.708883
11
116.272770
21
110.771831
0
LINE
8
Layer 1
10
116.272770
20
110.771831
11
120.449848
21
115.997712
0
LINE
8
Layer 1
10
120.449848
20
115.997712
11
122.947315
21
119.090862
0
LINE
8
Layer 1
10
122.947315
20
119.090862
11
123.794821
21
119.980684
0
LINE
8
Layer 1
10
123.794821
20
119.980684
11
124.210321
21
120.246774
0
LINE
8
Layer 1
10
124.210321
20
120.246774
11
124.403377
21
120.046956
0
LINE
8
Layer 1
10
124.403377
20
120.046956
11
124.433668
21
119.719920
0
LINE
8
Layer 1
10
124.433668
20
119.719920
11
123.882308
21
118.472409
0
LINE
8
Layer 1
10
123.882308
20
118.472409
11
122.308945
21
116.080665
0
LINE
8
Layer 1
10
122.308945
20
116.080665
11
119.466284
21
112.121116
0
LINE
8
Layer 1
10
119.466284
20
112.121116
11
115.199437
21
106.800656
0
LINE
8
Layer 1
10
115.199437
20
106.800656
11
110.149412
21
101.396377
0
LINE
8
Layer 1
10
110.149412
20
101.396377
11
104.631619
21
96.223954
0
LINE
8
Layer 1
10
104.631619
20
96.223954
11
98.961471
21
91.599062
0
LINE
8
Layer 1
10
98.961471
20
91.599062
11
95.317242
21
88.580301
0
LINE
8
Layer 1
10
95.317242
20
88.580301
11
94.279808
21
87.441877
0
LINE
8
Layer 1
10
94.279808
20
87.441877
11
93.760543
21
86.535723
0
LINE
8
Layer 1
10
93.760543
20
86.535723
11
93.755733
21
85.850565
0
LINE
8
Layer 1
10
93.755733
20
85.850565
11
94.261665
21
85.375127
0
LINE
8
Layer 1
10
94.261665
20
85.375127
11
95.274626
21
85.098132
0
LINE
8
Layer 1
10
95.274626
20
85.098132
11
96.790902
21
85.008306
0
LINE
8
Layer 1
10
96.790902
20
85.008306
11
98.432366
21
85.179152
0
LINE
8
Layer 1
10
98.432366
20
85.179152
11
100.264429
21
85.677005
0
LINE
8
Layer 1
10
100.264429
20
85.677005
11
102.261306
21
86.479837
0
LINE
8
Layer 1
10
102.261306
20
86.479837
11
104.397210
21
87.565620
0
LINE
8
Layer 1
10
104.397210
20
87.565620
11
106.646355
21
88.912326
0
LINE
8
Layer 1
10
106.646355
20
88.912326
11
108.982957
21
90.497929
0
LINE
8
Layer 1
10
108.982957
20
90.497929
11
113.815387
21
94.297711
0
LINE
8
Layer 1
10
113.815387
20
94.297711
11
118.688214
21
98.788744
0
LINE
8
Layer 1
10
118.688214
20
98.788744
11
123.395153
21
103.794807
0
LINE
8
Layer 1
10
123.395153
20
103.794807
11
127.729918
21
109.139678
0
LINE
8
Layer 1
10
127.729918
20
109.139678
11
129.693271
21
111.884097
0
LINE
8
Layer 1
10
129.693271
20
111.884097
11
131.486224
21
114.647135
0
LINE
8
Layer 1
10
131.486224
20
114.647135
11
134.317956
21
118.902302
0
LINE
8
Layer 1
10
134.317956
20
118.902302
11
135.238724
21
120.018703
0
LINE
8
Layer 1
10
135.238724
20
120.018703
11
135.515599
21
120.244145
0
LINE
8
Layer 1
10
135.515599
20
120.244145
11
135.647379
21
120.217287
0
LINE
8
Layer 1
10
135.647379
20
120.217287
11
135.523631
21
119.328533
0
LINE
8
Layer 1
10
135.523631
20
119.328533
11
134.843970
21
117.808022
0
LINE
8
Layer 1
10
134.843970
20
117.808022
11
132.111053
21
113.312337
0
LINE
8
Layer 1
10
132.111053
20
113.312337
11
128.036916
21
107.611448
0
LINE
8
Layer 1
10
128.036916
20
107.611448
11
123.209843
21
101.586570
0
LINE
8
Layer 1
10
123.209843
20
101.586570
11
118.546785
21
95.931249
0
LINE
8
Layer 1
10
118.546785
20
95.931249
11
116.607285
21
93.245992
0
LINE
8
Layer 1
10
116.607285
20
93.245992
11
116.774701
21
92.953577
0
LINE
8
Layer 1
10
116.774701
20
92.953577
11
117.235797
21
92.769768
0
LINE
8
Layer 1
10
117.235797
20
92.769768
11
118.792135
21
92.709850
0
LINE
8
Layer 1
10
118.792135
20
92.709850
11
120.782502
21
93.030007
0
LINE
8
Layer 1
10
120.782502
20
93.030007
11
122.713104
21
93.694006
0
LINE
8
Layer 1
10
122.713104
20
93.694006
11
124.125373
21
94.511889
0
LINE
8
Layer 1
10
124.125373
20
94.511889
11
125.892719
21
95.764704
0
LINE
8
Layer 1
10
125.892719
20
95.764704
11
130.065052
21
99.198253
0
LINE
8
Layer 1
10
130.065052
20
99.198253
11
134.374918
21
103.240898
0
LINE
8
Layer 1
10
134.374918
20
103.240898
11
137.967136
21
107.138883
0
LINE
8
Layer 1
10
137.967136
20
107.138883
11
140.640068
21
110.820175
0
LINE
8
Layer 1
10
140.640068
20
110.820175
11
143.150655
21
115.038343
0
LINE
8
Layer 1
10
143.150655
20
115.038343
11
145.149312
21
119.147777
0
LINE
8
Layer 1
10
145.149312
20
119.147777
11
145.847423
21
120.959965
0
LINE
8
Layer 1
10
145.847423
20
120.959965
11
146.286457
21
122.502866
0
LINE
8
Layer 1
10
146.286457
20
122.502866
11
146.811503
21
123.953477
0
LINE
8
Layer 1
10
146.811503
20
123.953477
11
147.572405
21
125.195754
0
LINE
8
Layer 1
10
147.572405
20
125.195754
11
148.257499
21
125.826084
0
LINE
8
Layer 1
10
148.257499
20
125.826084
11
148.474224
21
125.785639
0
LINE
8
Layer 1
10
148.474224
20
125.785639
11
148.555123
21
125.440853
0
LINE
8
Layer 1
10
148.555123
20
125.440853
11
148.139093
21
123.700915
0
LINE
8
Layer 1
10
148.139093
20
123.700915
11
147.045147
21
120.616482
0
LINE
8
Layer 1
10
147.045147
20
120.616482
11
145.504499
21
116.793735
0
LINE
8
Layer 1
10
145.504499
20
116.793735
11
143.748362
21
112.838855
0
LINE
8
Layer 1
10
143.748362
20
112.838855
11
141.373493
21
107.763125
0
LINE
8
Layer 1
10
141.373493
20
107.763125
11
142.725628
21
106.668233
0
LINE
8
Layer 1
10
142.725628
20
106.668233
11
143.421428
21
106.205297
0
LINE
8
Layer 1
10
143.421428
20
106.205297
11
144.128416
21
105.946494
0
LINE
8
Layer 1
10
144.128416
20
105.946494
11
144.862501
21
105.897269
0
LINE
8
Layer 1
10
144.862501
20
105.897269
11
145.639589
21
106.063066
0
LINE
8
Layer 1
10
145.639589
20
106.063066
11
146.475587
21
106.449327
0
LINE
8
Layer 1
10
146.475587
20
106.449327
11
147.386402
21
107.061498
0
LINE
8
Layer 1
10
147.386402
20
107.061498
11
149.496108
21
108.985345
0
LINE
8
Layer 1
10
149.496108
20
108.985345
11
150.697009
21
110.361758
0
LINE
8
Layer 1
10
150.697009
20
110.361758
11
151.866075
21
111.971479
0
LINE
8
Layer 1
10
151.866075
20
111.971479
11
154.014239
21
115.700692
0
LINE
8
Layer 1
10
154.014239
20
115.700692
11
155.751665
21
119.792681
0
LINE
8
Layer 1
10
155.751665
20
119.792681
11
156.407308
21
121.855872
0
LINE
8
Layer 1
10
156.407308
20
121.855872
11
156.889416
21
123.867143
0
LINE
8
Layer 1
10
156.889416
20
123.867143
11
157.605129
21
126.780060
0
LINE
8
Layer 1
10
157.605129
20
126.780060
11
157.949220
21
127.744279
0
LINE
8
Layer 1
10
157.949220
20
127.744279
11
158.225671
21
128.191160
0
LINE
8
Layer 1
10
158.225671
20
128.191160
11
158.584895
21
128.221884
0
LINE
8
Layer 1
10
158.584895
20
128.221884
11
158.766995
21
127.784427
0
LINE
8
Layer 1
10
158.766995
20
127.784427
11
158.625623
21
125.664112
0
LINE
8
Layer 1
10
158.625623
20
125.664112
11
157.853165
21
122.148510
0
LINE
8
Layer 1
10
157.853165
20
122.148510
11
156.501231
21
117.555917
0
LINE
8
Layer 1
10
156.501231
20
117.555917
11
155.091781
21
112.869097
0
LINE
8
Layer 1
10
155.091781
20
112.869097
11
154.542145
21
109.899191
0
LINE
8
Layer 1
10
154.542145
20
109.899191
11
154.580445
21
108.893885
0
LINE
8
Layer 1
10
154.580445
20
108.893885
11
154.822525
21
108.120773
0
LINE
8
Layer 1
10
154.822525
20
108.120773
11
155.264661
21
107.514176
0
LINE
8
Layer 1
10
155.264661
20
107.514176
11
155.903128
21
107.008415
0
LINE
8
Layer 1
10
155.903128
20
107.008415
11
156.632068
21
106.626237
0
LINE
8
Layer 1
10
156.632068
20
106.626237
11
157.337855
21
106.507843
0
LINE
8
Layer 1
10
157.337855
20
106.507843
11
158.170866
21
106.656156
0
LINE
8
Layer 1
10
158.170866
20
106.656156
11
159.281478
21
107.074099
0
LINE
8
Layer 1
10
159.281478
20
107.074099
11
160.401847
21
107.774179
0
LINE
8
Layer 1
10
160.401847
20
107.774179
11
161.471709
21
108.878742
0
LINE
8
Layer 1
10
161.471709
20
108.878742
11
162.475064
21
110.351913
0
LINE
8
Layer 1
10
162.475064
20
110.351913
11
163.395911
21
112.157814
0
LINE
8
Layer 1
10
163.395911
20
112.157814
11
164.218250
21
114.260567
0
LINE
8
Layer 1
10
164.218250
20
114.260567
11
164.926080
21
116.624297
0
LINE
8
Layer 1
10
164.926080
20
116.624297
11
165.503401
21
119.213126
0
LINE
8
Layer 1
10
165.503401
20
119.213126
11
165.934212
21
121.991178
0
LINE
8
Layer 1
10
165.934212
20
121.991178
11
166.626223
21
126.106660
0
LINE
8
Layer 1
10
166.626223
20
126.106660
11
166.980935
21
127.358606
0
LINE
8
Layer 1
10
166.980935
20
127.358606
11
167.282464
21
127.818412
0
LINE
8
Layer 1
10
167.282464
20
127.818412
11
167.474614
21
127.651171
0
LINE
8
Layer 1
10
167.474614
20
127.651171
11
167.594535
21
127.118389
0
LINE
8
Layer 1
10
167.594535
20
127.118389
11
167.609874
21
124.769831
0
LINE
8
Layer 1
10
167.609874
20
124.769831
11
166.687850
21
113.636178
0
LINE
8
Layer 1
10
166.687850
20
113.636178
11
166.473538
21
111.161825
0
LINE
8
Layer 1
10
166.473538
20
111.161825
11
166.540644
21
109.842817
0
LINE
8
Layer 1
10
166.540644
20
109.842817
11
166.718060
21
109.479824
0
LINE
8
Layer 1
10
166.718060
20
109.479824
11
167.011830
21
109.241573
0
LINE
8
Layer 1
10
167.011830
20
109.241573
11
168.009762
21
108.920510
0
LINE
8
Layer 1
10
168.009762
20
108.920510
11
168.817094
21
108.820489
0
LINE
8
Layer 1
10
168.817094
20
108.820489
11
169.643226
21
108.914838
0
LINE
8
Layer 1
10
169.643226
20
108.914838
11
170.478125
21
109.196886
0
LINE
8
Layer 1
10
170.478125
20
109.196886
11
171.311754
21
109.659964
0
LINE
8
Layer 1
10
171.311754
20
109.659964
11
172.935064
21
111.102535
0
LINE
8
Layer 1
10
172.935064
20
111.102535
11
174.432874
21
113.189197
0
LINE
8
Layer 1
10
174.432874
20
113.189197
11
175.089145
21
114.582277
0
LINE
8
Layer 1
10
175.089145
20
114.582277
11
175.477695
21
116.332396
0
LINE
8
Layer 1
10
175.477695
20
116.332396
11
175.663313
21
118.930175
0
LINE
8
Layer 1
10
175.663313
20
118.930175
11
175.710788
21
122.866236
0
LINE
8
Layer 1
10
175.710788
20
122.866236
11
175.774223
21
127.146556
0
LINE
8
Layer 1
10
175.774223
20
127.146556
11
175.976481
21
129.610008
0
LINE
8
Layer 1
10
175.976481
20
129.610008
11
176.135272
21
130.192481
0
LINE
8
Layer 1
10
176.135272
20
130.192481
11
176.335493
21
130.359225
0
LINE
8
Layer 1
10
176.335493
20
130.359225
11
176.579386
21
130.123068
0
LINE
8
Layer 1
10
176.579386
20
130.123068
11
176.869192
21
129.496838
0
LINE
8
Layer 1
10
176.869192
20
129.496838
11
177.241249
21
126.696798
0
LINE
8
Layer 1
10
177.241249
20
126.696798
11
177.662967
21
121.196883
0
LINE
8
Layer 1
10
177.662967
20
121.196883
11
178.084905
21
116.310906
0
LINE
8
Layer 1
10
178.084905
20
116.310906
11
178.365093
21
114.702590
0
LINE
8
Layer 1
10
178.365093
20
114.702590
11
178.722124
21
113.582754
0
LINE
8
Layer 1
10
178.722124
20
113.582754
11
179.179021
21
112.900420
0
LINE
8
Layer 1
10
179.179021
20
112.900420
11
179.758807
21
112.604612
0
LINE
8
Layer 1
10
179.758807
20
112.604612
11
180.484505
21
112.644353
0
LINE
8
Layer 1
10
180.484505
20
112.644353
11
181.379139
21
112.968666
0
LINE
8
Layer 1
10
181.379139
20
112.968666
11
182.635179
21
113.854454
0
LINE
8
Layer 1
10
182.635179
20
113.854454
11
183.621524
21
115.202697
0
LINE
8
Layer 1
10
183.621524
20
115.202697
11
184.329919
21
116.947132
0
LINE
8
Layer 1
10
184.329919
20
116.947132
11
184.752104
21
119.021499
0
LINE
8
Layer 1
10
184.752104
20
119.021499
11
184.879823
21
121.359535
0
LINE
8
Layer 1
10
184.879823
20
121.359535
11
184.704816
21
123.894978
0
LINE
8
Layer 1
10
184.704816
20
123.894978
11
184.218827
21
126.561568
0
LINE
8
Layer 1
10
184.218827
20
126.561568
11
183.413598
21
129.293043
0
LINE
8
Layer 1
10
183.413598
20
129.293043
11
182.496551
21
132.400699
0
LINE
8
Layer 1
10
182.496551
20
132.400699
11
182.425322
21
133.195508
0
LINE
8
Layer 1
10
182.425322
20
133.195508
11
182.491810
21
133.375548
0
LINE
8
Layer 1
10
182.491810
20
133.375548
11
182.628376
21
133.400161
0
LINE
8
Layer 1
10
182.628376
20
133.400161
11
183.115434
21
133.077049
0
LINE
8
Layer 1
10
183.115434
20
133.077049
11
183.623869
21
132.439070
0
LINE
8
Layer 1
10
183.623869
20
132.439070
11
184.642894
21
130.375727
0
LINE
8
Layer 1
10
184.642894
20
130.375727
11
185.561485
21
127.524557
0
LINE
8
Layer 1
10
185.561485
20
127.524557
11
186.255677
21
124.199987
0
LINE
8
Layer 1
10
186.255677
20
124.199987
11
187.259762
21
118.771731
0
LINE
8
Layer 1
10
187.259762
20
118.771731
11
187.792025
21
118.148136
0
LINE
8
Layer 1
10
187.792025
20
118.148136
11
189.004156
21
117.233616
0
LINE
8
Layer 1
10
189.004156
20
117.233616
11
192.747722
21
115.023724
0
LINE
8
Layer 1
10
192.747722
20
115.023724
11
196.622800
21
112.852453
0
LINE
8
Layer 1
10
196.622800
20
112.852453
11
199.755827
21
110.651794
0
LINE
8
Layer 1
10
199.755827
20
110.651794
11
201.083146
21
109.470905
0
LINE
8
Layer 1
10
201.083146
20
109.470905
11
202.271843
21
108.199222
0
LINE
8
Layer 1
10
202.271843
20
108.199222
11
203.337548
21
106.808931
0
LINE
8
Layer 1
10
203.337548
20
106.808931
11
204.295891
21
105.272214
0
LINE
8
Layer 1
10
204.295891
20
105.272214
11
205.162503
21
103.561258
0
LINE
8
Layer 1
10
205.162503
20
103.561258
11
205.953013
21
101.648247
0
LINE
8
Layer 1
10
205.953013
20
101.648247
11
207.368250
21
97.104796
0
LINE
8
Layer 1
10
207.368250
20
97.104796
11
208.666644
21
91.419338
0
LINE
8
Layer 1
10
208.666644
20
91.419338
11
209.973237
21
84.369350
0
LINE
8
Layer 1
10
209.973237
20
84.369350
11
211.477647
21
76.633463
0
LINE
8
Layer 1
10
211.477647
20
76.633463
11
212.172576
21
74.126166
0
LINE
8
Layer 1
10
212.172576
20
74.126166
11
212.900651
21
72.397702
0
LINE
8
Layer 1
10
212.900651
20
72.397702
11
213.715370
21
71.351869
0
LINE
8
Layer 1
10
213.715370
20
71.351869
11
214.670229
21
70.892468
0
LINE
8
Layer 1
10
214.670229
20
70.892468
11
215.818725
21
70.923300
0
LINE
8
Layer 1
10
215.818725
20
70.923300
11
217.214357
21
71.348164
0
LINE
8
Layer 1
10
217.214357
20
71.348164
11
217.214357
21
71.348164
0
LINE
8
Layer 1
10
157.217271
20
187.383571
11
156.479631
21
188.650429
0
LINE
8
Layer 1
10
156.479631
20
188.650429
11
156.295659
21
189.651148
0
LINE
8
Layer 1
10
156.295659
20
189.651148
11
156.678848
21
190.511782
0
LINE
8
Layer 1
10
156.678848
20
190.511782
11
157.642693
21
191.358386
0
LINE
8
Layer 1
10
157.642693
20
191.358386
11
158.713654
21
191.934148
0
LINE
8
Layer 1
10
158.713654
20
191.934148
11
159.798060
21
192.206988
0
LINE
8
Layer 1
10
159.798060
20
192.206988
11
160.847753
21
192.197773
0
LINE
8
Layer 1
10
160.847753
20
192.197773
11
161.814578
21
191.927369
0
LINE
8
Layer 1
10
161.814578
20
191.927369
11
162.650380
21
191.416645
0
LINE
8
Layer 1
10
162.650380
20
191.416645
11
163.307003
21
190.686467
0
LINE
8
Layer 1
10
163.307003
20
190.686467
11
163.736291
21
189.757701
0
LINE
8
Layer 1
10
163.736291
20
189.757701
11
163.890088
21
188.651214
0
LINE
8
Layer 1
10
163.890088
20
188.651214
11
163.673121
21
187.707264
0
LINE
8
Layer 1
10
163.673121
20
187.707264
11
163.086623
21
186.951036
0
LINE
8
Layer 1
10
163.086623
20
186.951036
11
162.227196
21
186.400884
0
LINE
8
Layer 1
10
162.227196
20
186.400884
11
161.191446
21
186.075159
0
LINE
8
Layer 1
10
161.191446
20
186.075159
11
160.075974
21
185.992214
0
LINE
8
Layer 1
10
160.075974
20
185.992214
11
158.977386
21
186.170399
0
LINE
8
Layer 1
10
158.977386
20
186.170399
11
157.992283
21
186.628068
0
LINE
8
Layer 1
10
157.992283
20
186.628068
11
157.217271
21
187.383571
0
LINE
8
Layer 1
10
157.217271
20
187.383571
11
157.217271
21
187.383571
0
LINE
8
Layer 1
10
53.952157
20
121.367932
11
56.585572
21
122.313898
0
LINE
8
Layer 1
10
56.585572
20
122.313898
11
58.852873
21
123.470729
0
LINE
8
Layer 1
10
58.852873
20
123.470729
11
60.869824
21
124.982611
0
LINE
8
Layer 1
10
60.869824
20
124.982611
11
62.752184
21
126.993730
0
LINE
8
Layer 1
10
62.752184
20
126.993730
11
64.615718
21
129.648272
0
LINE
8
Layer 1
10
64.615718
20
129.648272
11
66.576185
21
133.090423
0
LINE
8
Layer 1
10
66.576185
20
133.090423
11
68.749348
21
137.464368
0
LINE
8
Layer 1
10
68.749348
20
137.464368
11
71.250968
21
142.914292
0
LINE
8
Layer 1
10
71.250968
20
142.914292
11
75.052803
21
150.972886
0
LINE
8
Layer 1
10
75.052803
20
150.972886
11
78.482444
21
157.241486
0
LINE
8
Layer 1
10
78.482444
20
157.241486
11
80.144091
21
159.847677
0
LINE
8
Layer 1
10
80.144091
20
159.847677
11
81.816368
21
162.178135
0
LINE
8
Layer 1
10
81.816368
20
162.178135
11
83.533835
21
164.290115
0
LINE
8
Layer 1
10
83.533835
20
164.290115
11
85.331052
21
166.240873
0
LINE
8
Layer 1
10
85.331052
20
166.240873
11
87.747543
21
169.000770
0
LINE
8
Layer 1
10
87.747543
20
169.000770
11
88.344883
21
169.925485
0
LINE
8
Layer 1
10
88.344883
20
169.925485
11
88.400659
21
170.366226
0
LINE
8
Layer 1
10
88.400659
20
170.366226
11
87.960454
21
170.474010
0
LINE
8
Layer 1
10
87.960454
20
170.474010
11
87.382213
21
170.337043
0
LINE
8
Layer 1
10
87.382213
20
170.337043
11
85.805284
21
169.323709
0
LINE
8
Layer 1
10
85.805284
20
169.323709
11
83.657195
21
167.315944
0
LINE
8
Layer 1
10
83.657195
20
167.315944
11
80.925266
21
164.303466
0
LINE
8
Layer 1
10
80.925266
20
164.303466
11
76.286547
21
158.512652
0
LINE
8
Layer 1
10
76.286547
20
158.512652
11
74.272303
21
155.629135
0
LINE
8
Layer 1
10
74.272303
20
155.629135
11
72.389886
21
152.633271
0
LINE
8
Layer 1
10
72.389886
20
152.633271
11
70.585609
21
149.434855
0
LINE
8
Layer 1
10
70.585609
20
149.434855
11
68.805783
21
145.943682
0
LINE
8
Layer 1
10
68.805783
20
145.943682
11
65.104732
21
137.722244
0
LINE
8
Layer 1
10
65.104732
20
137.722244
11
63.857882
21
135.055394
0
LINE
8
Layer 1
10
63.857882
20
135.055394
11
62.477239
21
132.624385
0
LINE
8
Layer 1
10
62.477239
20
132.624385
11
60.974962
21
130.442272
0
LINE
8
Layer 1
10
60.974962
20
130.442272
11
59.363209
21
128.522107
0
LINE
8
Layer 1
10
59.363209
20
128.522107
11
57.654137
21
126.876943
0
LINE
8
Layer 1
10
57.654137
20
126.876943
11
55.859906
21
125.519835
0
LINE
8
Layer 1
10
55.859906
20
125.519835
11
53.992673
21
124.463835
0
LINE
8
Layer 1
10
53.992673
20
124.463835
11
52.064595
21
123.721996
0
LINE
8
Layer 1
10
52.064595
20
123.721996
11
49.261911
21
123.006030
0
LINE
8
Layer 1
10
49.261911
20
123.006030
11
47.324239
21
122.710322
0
LINE
8
Layer 1
10
47.324239
20
122.710322
11
45.325599
21
122.935537
0
LINE
8
Layer 1
10
45.325599
20
122.935537
11
43.275937
21
123.562377
0
LINE
8
Layer 1
10
43.275937
20
123.562377
11
41.251950
21
124.533391
0
LINE
8
Layer 1
10
41.251950
20
124.533391
11
39.330335
21
125.791126
0
LINE
8
Layer 1
10
39.330335
20
125.791126
11
37.587791
21
127.278129
0
LINE
8
Layer 1
10
37.587791
20
127.278129
11
36.101014
21
128.936948
0
LINE
8
Layer 1
10
36.101014
20
128.936948
11
34.946703
21
130.710129
0
LINE
8
Layer 1
10
34.946703
20
130.710129
11
34.201554
21
132.540221
0
LINE
8
Layer 1
10
34.201554
20
132.540221
11
33.840455
21
134.038610
0
LINE
8
Layer 1
10
33.840455
20
134.038610
11
33.751589
21
135.169253
0
LINE
8
Layer 1
10
33.751589
20
135.169253
11
33.946829
21
136.170422
0
LINE
8
Layer 1
10
33.946829
20
136.170422
11
34.438051
21
137.280386
0
LINE
8
Layer 1
10
34.438051
20
137.280386
11
35.515141
21
138.907306
0
LINE
8
Layer 1
10
35.515141
20
138.907306
11
36.829135
21
140.155136
0
LINE
8
Layer 1
10
36.829135
20
140.155136
11
38.286290
21
140.954621
0
LINE
8
Layer 1
10
38.286290
20
140.954621
11
39.792868
21
141.236507
0
LINE
8
Layer 1
10
39.792868
20
141.236507
11
40.773124
21
141.425344
0
LINE
8
Layer 1
10
40.773124
20
141.425344
11
40.928912
21
141.649192
0
LINE
8
Layer 1
10
40.928912
20
141.649192
11
40.845774
21
141.948483
0
LINE
8
Layer 1
10
40.845774
20
141.948483
11
40.435012
21
142.253256
0
LINE
8
Layer 1
10
40.435012
20
142.253256
11
39.735324
21
142.403033
0
LINE
8
Layer 1
10
39.735324
20
142.403033
11
37.795907
21
142.292214
0
LINE
8
Layer 1
10
37.795907
20
142.292214
11
35.680999
21
141.725269
0
LINE
8
Layer 1
10
35.680999
20
141.725269
11
34.761948
21
141.304888
0
LINE
8
Layer 1
10
34.761948
20
141.304888
11
34.044077
21
140.811440
0
LINE
8
Layer 1
10
34.044077
20
140.811440
11
32.858670
21
139.379508
0
LINE
8
Layer 1
10
32.858670
20
139.379508
11
31.857352
21
137.583027
0
LINE
8
Layer 1
10
31.857352
20
137.583027
11
31.176245
21
135.243804
0
LINE
8
Layer 1
10
31.176245
20
135.243804
11
31.083777
21
132.911504
0
LINE
8
Layer 1
10
31.083777
20
132.911504
11
31.551628
21
130.633661
0
LINE
8
Layer 1
10
31.551628
20
130.633661
11
32.551479
21
128.457808
0
LINE
8
Layer 1
10
32.551479
20
128.457808
11
34.055012
21
126.431476
0
LINE
8
Layer 1
10
34.055012
20
126.431476
11
36.033906
21
124.602198
0
LINE
8
Layer 1
10
36.033906
20
124.602198
11
38.459844
21
123.017508
0
LINE
8
Layer 1
10
38.459844
20
123.017508
11
41.304506
21
121.724938
0
LINE
8
Layer 1
10
41.304506
20
121.724938
11
44.675991
21
120.666987
0
LINE
8
Layer 1
10
44.675991
20
120.666987
11
46.168852
21
120.384152
0
LINE
8
Layer 1
10
46.168852
20
120.384152
11
47.608053
21
120.263296
0
LINE
8
Layer 1
10
47.608053
20
120.263296
11
49.049789
21
120.302832
0
LINE
8
Layer 1
10
49.049789
20
120.302832
11
50.550254
21
120.501174
0
LINE
8
Layer 1
10
50.550254
20
120.501174
11
53.952157
21
121.367932
0
LINE
8
Layer 1
10
53.952157
20
121.367932
11
53.952157
21
121.367932
0
LINE
8
Layer 1
10
89.813102
20
125.285064
11
90.203560
21
125.562511
0
LINE
8
Layer 1
10
90.203560
20
125.562511
11
90.501915
21
126.042326
0
LINE
8
Layer 1
10
90.501915
20
126.042326
11
90.720508
21
126.903168
0
LINE
8
Layer 1
10
90.720508
20
126.903168
11
90.871681
21
128.323697
0
LINE
8
Layer 1
10
90.871681
20
128.323697
11
91.021135
21
133.558450
0
LINE
8
Layer 1
10
91.021135
20
133.558450
11
91.049012
21
143.175856
0
LINE
8
Layer 1
10
91.049012
20
143.175856
11
91.152872
21
155.344087
0
LINE
8
Layer 1
10
91.152872
20
155.344087
11
91.402577
21
160.405209
0
LINE
8
Layer 1
10
91.402577
20
160.405209
11
92.922912
21
159.378589
0
LINE
8
Layer 1
10
92.922912
20
159.378589
11
96.081683
21
156.910327
0
LINE
8
Layer 1
10
96.081683
20
156.910327
11
98.660512
21
154.928542
0
LINE
8
Layer 1
10
98.660512
20
154.928542
11
101.005073
21
153.367985
0
LINE
8
Layer 1
10
101.005073
20
153.367985
11
103.197166
21
152.205056
0
LINE
8
Layer 1
10
103.197166
20
152.205056
11
105.318592
21
151.416154
0
LINE
8
Layer 1
10
105.318592
20
151.416154
11
107.451153
21
150.977676
0
LINE
8
Layer 1
10
107.451153
20
150.977676
11
109.676647
21
150.866022
0
LINE
8
Layer 1
10
109.676647
20
150.866022
11
112.076876
21
151.057590
0
LINE
8
Layer 1
10
112.076876
20
151.057590
11
114.733640
21
151.528779
0
LINE
8
Layer 1
10
114.733640
20
151.528779
11
118.490010
21
152.568228
0
LINE
8
Layer 1
10
118.490010
20
152.568228
11
121.795880
21
154.031283
0
LINE
8
Layer 1
10
121.795880
20
154.031283
11
124.890515
21
156.048026
0
LINE
8
Layer 1
10
124.890515
20
156.048026
11
128.013175
21
158.748537
0
LINE
8
Layer 1
10
128.013175
20
158.748537
11
131.009697
21
161.900856
0
LINE
8
Layer 1
10
131.009697
20
161.900856
11
133.293670
21
164.862721
0
LINE
8
Layer 1
10
133.293670
20
164.862721
11
134.689053
21
167.372346
0
LINE
8
Layer 1
10
134.689053
20
167.372346
11
134.998511
21
168.375761
0
LINE
8
Layer 1
10
134.998511
20
168.375761
11
135.019807
21
169.167947
0
LINE
8
Layer 1
10
135.019807
20
169.167947
11
134.921166
21
169.403432
0
LINE
8
Layer 1
10
134.921166
20
169.403432
11
134.739740
21
169.478993
0
LINE
8
Layer 1
10
134.739740
20
169.478993
11
134.092324
21
169.120108
0
LINE
8
Layer 1
10
134.092324
20
169.120108
11
133.005138
21
168.030834
0
LINE
8
Layer 1
10
133.005138
20
168.030834
11
131.405765
21
166.150709
0
LINE
8
Layer 1
10
131.405765
20
166.150709
11
128.528774
21
162.784060
0
LINE
8
Layer 1
10
128.528774
20
162.784060
11
126.161111
21
160.471561
0
LINE
8
Layer 1
10
126.161111
20
160.471561
11
123.754459
21
158.749901
0
LINE
8
Layer 1
10
123.754459
20
158.749901
11
120.760504
21
157.155770
0
LINE
8
Layer 1
10
120.760504
20
157.155770
11
118.506104
21
156.153296
0
LINE
8
Layer 1
10
118.506104
20
156.153296
11
116.486845
21
155.592511
0
LINE
8
Layer 1
10
116.486845
20
155.592511
11
114.000721
21
155.347929
0
LINE
8
Layer 1
10
114.000721
20
155.347929
11
110.345725
21
155.294060
0
LINE
8
Layer 1
10
110.345725
20
155.294060
11
105.731491
21
155.419967
0
LINE
8
Layer 1
10
105.731491
20
155.419967
11
104.012653
21
155.666544
0
LINE
8
Layer 1
10
104.012653
20
155.666544
11
102.478412
21
156.114530
0
LINE
8
Layer 1
10
102.478412
20
156.114530
11
100.973074
21
156.823172
0
LINE
8
Layer 1
10
100.973074
20
156.823172
11
99.340945
21
157.851713
0
LINE
8
Layer 1
10
99.340945
20
157.851713
11
95.073546
21
161.105473
0
LINE
8
Layer 1
10
95.073546
20
161.105473
11
91.451587
21
163.769755
0
LINE
8
Layer 1
10
91.451587
20
163.769755
11
90.140236
21
164.580238
0
LINE
8
Layer 1
10
90.140236
20
164.580238
11
89.409761
21
164.877907
0
LINE
8
Layer 1
10
89.409761
20
164.877907
11
89.154951
21
164.797848
0
LINE
8
Layer 1
10
89.154951
20
164.797848
11
88.950002
21
164.527316
0
LINE
8
Layer 1
10
88.950002
20
164.527316
11
88.670100
21
163.232709
0
LINE
8
Layer 1
10
88.670100
20
163.232709
11
88.530885
21
160.629829
0
LINE
8
Layer 1
10
88.530885
20
160.629829
11
88.493185
21
156.354423
0
LINE
8
Layer 1
10
88.493185
20
156.354423
11
88.072872
21
136.227282
0
LINE
8
Layer 1
10
88.072872
20
136.227282
11
87.911834
21
128.032202
0
LINE
8
Layer 1
10
87.911834
20
128.032202
11
87.968534
21
125.539229
0
LINE
8
Layer 1
10
87.968534
20
125.539229
11
88.114878
21
124.623628
0
LINE
8
Layer 1
10
88.114878
20
124.623628
11
89.813102
21
125.285064
0
LINE
8
Layer 1
10
89.813102
20
125.285064
11
89.813102
21
125.285064
0
LINE
8
Layer 1
10
-10.342936
20
133.322304
11
-9.217739
21
133.989142
0
LINE
8
Layer 1
10
-9.217739
20
133.989142
11
-8.169058
21
134.898642
0
LINE
8
Layer 1
10
-8.169058
20
134.898642
11
-7.175280
21
136.089018
0
LINE
8
Layer 1
10
-7.175280
20
136.089018
11
-6.214794
21
137.598484
0
LINE
8
Layer 1
10
-6.214794
20
137.598484
11
-5.265989
21
139.465254
0
LINE
8
Layer 1
10
-5.265989
20
139.465254
11
-4.307254
21
141.727544
0
LINE
8
Layer 1
10
-4.307254
20
141.727544
11
-2.273547
21
147.591539
0
LINE
8
Layer 1
10
-2.273547
20
147.591539
11
-0.259276
21
153.325324
0
LINE
8
Layer 1
10
-0.259276
20
153.325324
11
0.746964
21
155.656473
0
LINE
8
Layer 1
10
0.746964
20
155.656473
11
1.779203
21
157.677960
0
LINE
8
Layer 1
10
1.779203
20
157.677960
11
2.857390
21
159.425410
0
LINE
8
Layer 1
10
2.857390
20
159.425410
11
4.001473
21
160.934451
0
LINE
8
Layer 1
10
4.001473
20
160.934451
11
5.231400
21
162.240706
0
LINE
8
Layer 1
10
5.231400
20
162.240706
11
6.567120
21
163.379803
0
LINE
8
Layer 1
10
6.567120
20
163.379803
11
8.042964
21
164.396355
0
LINE
8
Layer 1
10
8.042964
20
164.396355
11
9.555594
21
164.935381
0
LINE
8
Layer 1
10
9.555594
20
164.935381
11
11.845239
21
165.142053
0
LINE
8
Layer 1
10
11.845239
20
165.142053
11
15.652130
21
165.161546
0
LINE
8
Layer 1
10
15.652130
20
165.161546
11
30.667613
21
164.882419
0
LINE
8
Layer 1
10
30.667613
20
164.882419
11
36.959733
21
164.879145
0
LINE
8
Layer 1
10
36.959733
20
164.879145
11
39.608247
21
165.133272
0
LINE
8
Layer 1
10
39.608247
20
165.133272
11
42.276908
21
165.641316
0
LINE
8
Layer 1
10
42.276908
20
165.641316
11
45.229601
21
166.465829
0
LINE
8
Layer 1
10
45.229601
20
166.465829
11
48.730210
21
167.669366
0
LINE
8
Layer 1
10
48.730210
20
167.669366
11
58.430713
21
171.463731
0
LINE
8
Layer 1
10
58.430713
20
171.463731
11
69.580958
21
175.954621
0
LINE
8
Layer 1
10
69.580958
20
175.954621
11
77.279940
21
175.208024
0
LINE
8
Layer 1
10
77.279940
20
175.208024
11
84.112162
21
174.315435
0
LINE
8
Layer 1
10
84.112162
20
174.315435
11
89.727233
21
173.217841
0
LINE
8
Layer 1
10
89.727233
20
173.217841
11
93.223177
21
172.427587
0
LINE
8
Layer 1
10
93.223177
20
172.427587
11
94.960468
21
172.273941
0
LINE
8
Layer 1
10
94.960468
20
172.273941
11
95.102757
21
172.527841
0
LINE
8
Layer 1
10
95.102757
20
172.527841
11
95.131703
21
172.997609
0
LINE
8
Layer 1
10
95.131703
20
172.997609
11
94.862441
21
174.316643
0
LINE
8
Layer 1
10
94.862441
20
174.316643
11
94.259391
21
177.475857
0
LINE
8
Layer 1
10
94.259391
20
177.475857
11
93.628117
21
182.623777
0
LINE
8
Layer 1
10
93.628117
20
182.623777
11
92.990895
21
187.247655
0
LINE
8
Layer 1
10
92.990895
20
187.247655
11
92.565157
21
189.108820
0
LINE
8
Layer 1
10
92.565157
20
189.108820
11
92.046209
21
190.727149
0
LINE
8
Layer 1
10
92.046209
20
190.727149
11
91.417707
21
192.145900
0
LINE
8
Layer 1
10
91.417707
20
192.145900
11
90.663307
21
193.408332
0
LINE
8
Layer 1
10
90.663307
20
193.408332
11
89.766666
21
194.557705
0
LINE
8
Layer 1
10
89.766666
20
194.557705
11
88.711439
21
195.637276
0
LINE
8
Layer 1
10
88.711439
20
195.637276
11
86.926021
21
197.095701
0
LINE
8
Layer 1
10
86.926021
20
197.095701
11
84.989646
21
198.294046
0
LINE
8
Layer 1
10
84.989646
20
198.294046
11
82.903007
21
199.232147
0
LINE
8
Layer 1
10
82.903007
20
199.232147
11
80.666801
21
199.909839
0
LINE
8
Layer 1
10
80.666801
20
199.909839
11
78.281723
21
200.326958
0
LINE
8
Layer 1
10
78.281723
20
200.326958
11
75.748468
21
200.483339
0
LINE
8
Layer 1
10
75.748468
20
200.483339
11
73.067732
21
200.378818
0
LINE
8
Layer 1
10
73.067732
20
200.378818
11
70.240209
21
200.013230
0
LINE
8
Layer 1
10
70.240209
20
200.013230
11
65.458453
21
199.195279
0
LINE
8
Layer 1
10
65.458453
20
199.195279
11
61.161634
21
202.140336
0
LINE
8
Layer 1
10
61.161634
20
202.140336
11
57.000850
21
204.739756
0
LINE
8
Layer 1
10
57.000850
20
204.739756
11
53.031082
21
206.853831
0
LINE
8
Layer 1
10
53.031082
20
206.853831
11
50.664057
21
207.834616
0
LINE
8
Layer 1
10
50.664057
20
207.834616
11
48.232366
21
208.394235
0
LINE
8
Layer 1
10
48.232366
20
208.394235
11
44.662156
21
208.684799
0
LINE
8
Layer 1
10
44.662156
20
208.684799
11
38.879574
21
208.858421
0
LINE
8
Layer 1
10
38.879574
20
208.858421
11
33.694960
21
208.926613
0
LINE
8
Layer 1
10
33.694960
20
208.926613
11
29.967743
21
208.836444
0
LINE
8
Layer 1
10
29.967743
20
208.836444
11
27.243018
21
208.562225
0
LINE
8
Layer 1
10
27.243018
20
208.562225
11
25.065878
21
208.078263
0
LINE
8
Layer 1
10
25.065878
20
208.078263
11
22.183408
21
207.085610
0
LINE
8
Layer 1
10
22.183408
20
207.085610
11
21.329025
21
206.596427
0
LINE
8
Layer 1
10
21.329025
20
206.596427
11
20.837974
21
206.061731
0
LINE
8
Layer 1
10
20.837974
20
206.061731
11
20.689327
21
205.443815
0
LINE
8
Layer 1
10
20.689327
20
205.443815
11
20.862156
21
204.704971
0
LINE
8
Layer 1
10
20.862156
20
204.704971
11
22.088532
21
202.713670
0
LINE
8
Layer 1
10
22.088532
20
202.713670
11
24.255145
21
200.359687
0
LINE
8
Layer 1
10
24.255145
20
200.359687
11
27.382146
21
197.602223
0
LINE
8
Layer 1
10
27.382146
20
197.602223
11
30.686002
21
195.084070
0
LINE
8
Layer 1
10
30.686002
20
195.084070
11
33.383180
21
193.448018
0
LINE
8
Layer 1
10
33.383180
20
193.448018
11
34.398504
21
192.810879
0
LINE
8
Layer 1
10
34.398504
20
192.810879
11
34.820812
21
192.207432
0
LINE
8
Layer 1
10
34.820812
20
192.207432
11
34.727309
21
191.915798
0
LINE
8
Layer 1
10
34.727309
20
191.915798
11
34.457044
21
191.785036
0
LINE
8
Layer 1
10
34.457044
20
191.785036
11
33.447698
21
191.966506
0
LINE
8
Layer 1
10
33.447698
20
191.966506
11
31.915707
21
192.672590
0
LINE
8
Layer 1
10
31.915707
20
192.672590
11
29.984007
21
193.824038
0
LINE
8
Layer 1
10
29.984007
20
193.824038
11
25.413216
21
197.146019
0
LINE
8
Layer 1
10
25.413216
20
197.146019
11
23.019994
21
199.158052
0
LINE
8
Layer 1
10
23.019994
20
199.158052
11
20.718801
21
201.298444
0
LINE
8
Layer 1
10
20.718801
20
201.298444
11
19.050142
21
203.031524
0
LINE
8
Layer 1
10
19.050142
20
203.031524
11
17.630539
21
204.773488
0
LINE
8
Layer 1
10
17.630539
20
204.773488
11
16.373809
21
206.715100
0
LINE
8
Layer 1
10
16.373809
20
206.715100
11
15.193773
21
209.047127
0
LINE
8
Layer 1
10
15.193773
20
209.047127
11
14.004248
21
211.960333
0
LINE
8
Layer 1
10
14.004248
20
211.960333
11
12.719053
21
215.645484
0
LINE
8
Layer 1
10
12.719053
20
215.645484
11
9.516929
21
226.094678
0
LINE
8
Layer 1
10
9.516929
20
226.094678
11
7.061339
21
233.902032
0
LINE
8
Layer 1
10
7.061339
20
233.902032
11
5.305694
21
238.592559
0
LINE
8
Layer 1
10
5.305694
20
238.592559
11
4.304827
21
240.105424
0
LINE
8
Layer 1
10
4.304827
20
240.105424
11
2.509003
21
242.397995
0
LINE
8
Layer 1
10
2.509003
20
242.397995
11
-2.449581
21
248.077368
0
LINE
8
Layer 1
10
-2.449581
20
248.077368
11
-11.656172
21
258.135604
0
LINE
8
Layer 1
10
-11.656172
20
258.135604
11
-18.350501
21
265.757038
0
LINE
8
Layer 1
10
-18.350501
20
265.757038
11
-23.035135
21
271.533393
0
LINE
8
Layer 1
10
-23.035135
20
271.533393
11
-26.212641
21
276.056391
0
LINE
8
Layer 1
10
-26.212641
20
276.056391
11
-27.731165
21
278.657697
0
LINE
8
Layer 1
10
-27.731165
20
278.657697
11
-29.459675
21
281.954695
0
LINE
8
Layer 1
10
-29.459675
20
281.954695
11
-33.169086
21
289.791945
0
LINE
8
Layer 1
10
-33.169086
20
289.791945
11
-36.585729
21
297.880494
0
LINE
8
Layer 1
10
-36.585729
20
297.880494
11
-37.948282
21
301.491616
0
LINE
8
Layer 1
10
-37.948282
20
301.491616
11
-38.954464
21
304.532695
0
LINE
8
Layer 1
10
-38.954464
20
304.532695
11
-39.856614
21
308.611095
0
LINE
8
Layer 1
10
-39.856614
20
308.611095
11
-40.569245
21
313.901475
0
LINE
8
Layer 1
10
-40.569245
20
313.901475
11
-41.038316
21
319.887981
0
LINE
8
Layer 1
10
-41.038316
20
319.887981
11
-41.209787
21
326.054761
0
LINE
8
Layer 1
10
-41.209787
20
326.054761
11
-41.387160
21
330.910811
0
LINE
8
Layer 1
10
-41.387160
20
330.910811
11
-41.576638
21
332.383421
0
LINE
8
Layer 1
10
-41.576638
20
332.383421
11
-41.807590
21
332.923547
0
LINE
8
Layer 1
10
-41.807590
20
332.923547
11
-42.219894
21
332.814450
0
LINE
8
Layer 1
10
-42.219894
20
332.814450
11
-42.665111
21
332.498613
0
LINE
8
Layer 1
10
-42.665111
20
332.498613
11
-43.626989
21
331.315449
0
LINE
8
Layer 1
10
-43.626989
20
331.315449
11
-44.638630
21
329.511510
0
LINE
8
Layer 1
10
-44.638630
20
329.511510
11
-45.645442
21
327.224255
0
LINE
8
Layer 1
10
-45.645442
20
327.224255
11
-46.592832
21
324.591139
0
LINE
8
Layer 1
10
-46.592832
20
324.591139
11
-47.426209
21
321.749618
0
LINE
8
Layer 1
10
-47.426209
20
321.749618
11
-48.090979
21
318.837151
0
LINE
8
Layer 1
10
-48.090979
20
318.837151
11
-48.532550
21
315.991192
0
LINE
8
Layer 1
10
-48.532550
20
315.991192
11
-48.720036
21
313.389601
0
LINE
8
Layer 1
10
-48.720036
20
313.389601
11
-48.715406
21
310.657128
0
LINE
8
Layer 1
10
-48.715406
20
310.657128
11
-48.523727
21
307.808255
0
LINE
8
Layer 1
10
-48.523727
20
307.808255
11
-48.150061
21
304.857460
0
LINE
8
Layer 1
10
-48.150061
20
304.857460
11
-47.599476
21
301.819222
0
LINE
8
Layer 1
10
-47.599476
20
301.819222
11
-46.877035
21
298.708022
0
LINE
8
Layer 1
10
-46.877035
20
298.708022
11
-44.936845
21
292.324654
0
LINE
8
Layer 1
10
-44.936845
20
292.324654
11
-42.370013
21
285.823190
0
LINE
8
Layer 1
10
-42.370013
20
285.823190
11
-39.217057
21
279.319468
0
LINE
8
Layer 1
10
-39.217057
20
279.319468
11
-35.518496
21
272.929326
0
LINE
8
Layer 1
10
-35.518496
20
272.929326
11
-31.314850
21
266.768598
0
LINE
8
Layer 1
10
-31.314850
20
266.768598
11
-29.158101
21
264.102304
0
LINE
8
Layer 1
10
-29.158101
20
264.102304
11
-25.944783
21
260.438131
0
LINE
8
Layer 1
10
-25.944783
20
260.438131
11
-18.084856
21
252.048198
0
LINE
8
Layer 1
10
-18.084856
20
252.048198
11
-11.457651
21
245.087033
0
LINE
8
Layer 1
10
-11.457651
20
245.087033
11
-9.578686
21
242.969421
0
LINE
8
Layer 1
10
-9.578686
20
242.969421
11
-9.051348
21
242.191680
0
LINE
8
Layer 1
10
-9.051348
20
242.191680
11
-9.883024
21
242.681815
0
LINE
8
Layer 1
10
-9.883024
20
242.681815
11
-11.531292
21
244.019847
0
LINE
8
Layer 1
10
-11.531292
20
244.019847
11
-16.430093
21
248.445373
0
LINE
8
Layer 1
10
-16.430093
20
248.445373
11
-22.052715
21
253.879789
0
LINE
8
Layer 1
10
-22.052715
20
253.879789
11
-26.704125
21
258.734629
0
LINE
8
Layer 1
10
-26.704125
20
258.734629
11
-29.640242
21
262.193599
0
LINE
8
Layer 1
10
-29.640242
20
262.193599
11
-32.446889
21
265.846990
0
LINE
8
Layer 1
10
-32.446889
20
265.846990
11
-35.131852
21
269.707781
0
LINE
8
Layer 1
10
-35.131852
20
269.707781
11
-37.702914
21
273.788952
0
LINE
8
Layer 1
10
-37.702914
20
273.788952
11
-40.167860
21
278.103481
0
LINE
8
Layer 1
10
-40.167860
20
278.103481
11
-42.534473
21
282.664347
0
LINE
8
Layer 1
10
-42.534473
20
282.664347
11
-44.810537
21
287.484530
0
LINE
8
Layer 1
10
-44.810537
20
287.484530
11
-47.003837
21
292.577009
0
LINE
8
Layer 1
10
-47.003837
20
292.577009
11
-48.682140
21
296.176807
0
LINE
8
Layer 1
10
-48.682140
20
296.176807
11
-50.404495
21
299.040428
0
LINE
8
Layer 1
10
-50.404495
20
299.040428
11
-52.005851
21
300.931752
0
LINE
8
Layer 1
10
-52.005851
20
300.931752
11
-52.709576
21
301.439017
0
LINE
8
Layer 1
10
-52.709576
20
301.439017
11
-53.321156
21
301.614664
0
LINE
8
Layer 1
10
-53.321156
20
301.614664
11
-54.298199
21
301.153963
0
LINE
8
Layer 1
10
-54.298199
20
301.153963
11
-55.620618
21
300.046313
0
LINE
8
Layer 1
10
-55.620618
20
300.046313
11
-56.447893
21
299.067509
0
LINE
8
Layer 1
10
-56.447893
20
299.067509
11
-56.920992
21
297.952637
0
LINE
8
Layer 1
10
-56.920992
20
297.952637
11
-57.133625
21
296.327145
0
LINE
8
Layer 1
10
-57.133625
20
296.327145
11
-57.179501
21
293.816483
0
LINE
8
Layer 1
10
-57.179501
20
293.816483
11
-57.095276
21
291.388045
0
LINE
8
Layer 1
10
-57.095276
20
291.388045
11
-56.852276
21
288.959039
0
LINE
8
Layer 1
10
-56.852276
20
288.959039
11
-56.450263
21
286.529011
0
LINE
8
Layer 1
10
-56.450263
20
286.529011
11
-55.888999
21
284.097508
0
LINE
8
Layer 1
10
-55.888999
20
284.097508
11
-55.168247
21
281.664075
0
LINE
8
Layer 1
10
-55.168247
20
281.664075
11
-54.287768
21
279.228259
0
LINE
8
Layer 1
10
-54.287768
20
279.228259
11
-52.046679
21
274.347661
0
LINE
8
Layer 1
10
-52.046679
20
274.347661
11
-49.163832
21
269.452084
0
LINE
8
Layer 1
10
-49.163832
20
269.452084
11
-45.637324
21
264.537897
0
LINE
8
Layer 1
10
-45.637324
20
264.537897
11
-41.465253
21
259.601468
0
LINE
8
Layer 1
10
-41.465253
20
259.601468
11
-36.645717
21
254.639167
0
LINE
8
Layer 1
10
-36.645717
20
254.639167
11
-31.329422
21
249.702090
0
LINE
8
Layer 1
10
-31.329422
20
249.702090
11
-26.531283
21
245.734838
0
LINE
8
Layer 1
10
-26.531283
20
245.734838
11
-21.829693
21
242.413961
0
LINE
8
Layer 1
10
-21.829693
20
242.413961
11
-16.803045
21
239.416007
0
LINE
8
Layer 1
10
-16.803045
20
239.416007
11
-14.231789
21
237.917381
0
LINE
8
Layer 1
10
-14.231789
20
237.917381
11
-12.575002
21
236.778878
0
LINE
8
Layer 1
10
-12.575002
20
236.778878
11
-11.901473
21
236.055465
0
LINE
8
Layer 1
10
-11.901473
20
236.055465
11
-11.954929
21
235.866595
0
LINE
8
Layer 1
10
-11.954929
20
235.866595
11
-12.279996
21
235.802112
0
LINE
8
Layer 1
10
-12.279996
20
235.802112
11
-14.326780
21
236.704576
0
LINE
8
Layer 1
10
-14.326780
20
236.704576
11
-18.263155
21
238.930358
0
LINE
8
Layer 1
10
-18.263155
20
238.930358
11
-22.867896
21
241.757047
0
LINE
8
Layer 1
10
-22.867896
20
241.757047
11
-26.919774
21
244.462228
0
LINE
8
Layer 1
10
-26.919774
20
244.462228
11
-32.120397
21
248.400253
0
LINE
8
Layer 1
10
-32.120397
20
248.400253
11
-36.802820
21
252.469070
0
LINE
8
Layer 1
10
-36.802820
20
252.469070
11
-41.283614
21
256.964546
0
LINE
8
Layer 1
10
-41.283614
20
256.964546
11
-45.879351
21
262.182549
0
LINE
8
Layer 1
10
-45.879351
20
262.182549
11
-51.350303
21
268.487909
0
LINE
8
Layer 1
10
-51.350303
20
268.487909
11
-53.325212
21
270.502308
0
LINE
8
Layer 1
10
-53.325212
20
270.502308
11
-54.913782
21
271.844942
0
LINE
8
Layer 1
10
-54.913782
20
271.844942
11
-56.206544
21
272.581126
0
LINE
8
Layer 1
10
-56.206544
20
272.581126
11
-57.294028
21
272.776176
0
LINE
8
Layer 1
10
-57.294028
20
272.776176
11
-58.266764
21
272.495409
0
LINE
8
Layer 1
10
-58.266764
20
272.495409
11
-59.215282
21
271.804141
0
LINE
8
Layer 1
10
-59.215282
20
271.804141
11
-59.776560
21
271.138200
0
LINE
8
Layer 1
10
-59.776560
20
271.138200
11
-60.141499
21
270.330523
0
LINE
8
Layer 1
10
-60.141499
20
270.330523
11
-60.309591
21
269.376411
0
LINE
8
Layer 1
10
-60.309591
20
269.376411
11
-60.280329
21
268.271168
0
LINE
8
Layer 1
10
-60.280329
20
268.271168
11
-60.053205
21
267.010096
0
LINE
8
Layer 1
10
-60.053205
20
267.010096
11
-59.627711
21
265.588497
0
LINE
8
Layer 1
10
-59.627711
20
265.588497
11
-58.179583
21
262.244932
0
LINE
8
Layer 1
10
-58.179583
20
262.244932
11
-56.061240
21
258.533528
0
LINE
8
Layer 1
10
-56.061240
20
258.533528
11
-53.496294
21
255.032025
0
LINE
8
Layer 1
10
-53.496294
20
255.032025
11
-50.397785
21
251.670108
0
LINE
8
Layer 1
10
-50.397785
20
251.670108
11
-46.678754
21
248.377463
0
LINE
8
Layer 1
10
-46.678754
20
248.377463
11
-42.252242
21
245.083777
0
LINE
8
Layer 1
10
-42.252242
20
245.083777
11
-37.031287
21
241.718735
0
LINE
8
Layer 1
10
-37.031287
20
241.718735
11
-30.928931
21
238.212025
0
LINE
8
Layer 1
10
-30.928931
20
238.212025
11
-23.858214
21
234.493332
0
LINE
8
Layer 1
10
-23.858214
20
234.493332
11
-18.627166
21
231.770242
0
LINE
8
Layer 1
10
-18.627166
20
231.770242
11
-15.606540
21
230.007344
0
LINE
8
Layer 1
10
-15.606540
20
230.007344
11
-14.856482
21
229.439988
0
LINE
8
Layer 1
10
-14.856482
20
229.439988
11
-14.576645
21
229.057504
0
LINE
8
Layer 1
10
-14.576645
20
229.057504
11
-14.739567
21
228.841502
0
LINE
8
Layer 1
10
-14.739567
20
228.841502
11
-15.317788
21
228.773588
0
LINE
8
Layer 1
10
-15.317788
20
228.773588
11
-16.127270
21
228.930497
0
LINE
8
Layer 1
10
-16.127270
20
228.930497
11
-17.398513
21
229.407153
0
LINE
8
Layer 1
10
-17.398513
20
229.407153
11
-21.393917
21
231.355287
0
LINE
8
Layer 1
10
-21.393917
20
231.355287
11
-27.439271
21
234.689147
0
LINE
8
Layer 1
10
-27.439271
20
234.689147
11
-35.669849
21
239.479891
0
LINE
8
Layer 1
10
-35.669849
20
239.479891
11
-42.731426
21
243.522291
0
LINE
8
Layer 1
10
-42.731426
20
243.522291
11
-45.247257
21
244.805939
0
LINE
8
Layer 1
10
-45.247257
20
244.805939
11
-47.223960
21
245.647921
0
LINE
8
Layer 1
10
-47.223960
20
245.647921
11
-48.764668
21
246.085763
0
LINE
8
Layer 1
10
-48.764668
20
246.085763
11
-49.972514
21
246.156991
0
LINE
8
Layer 1
10
-49.972514
20
246.156991
11
-50.950631
21
245.899130
0
LINE
8
Layer 1
10
-50.950631
20
245.899130
11
-51.802151
21
245.349707
0
LINE
8
Layer 1
10
-51.802151
20
245.349707
11
-52.377413
21
244.670940
0
LINE
8
Layer 1
10
-52.377413
20
244.670940
11
-52.671025
21
243.845791
0
LINE
8
Layer 1
10
-52.671025
20
243.845791
11
-52.700011
21
242.893937
0
LINE
8
Layer 1
10
-52.700011
20
242.893937
11
-52.481396
21
241.835057
0
LINE
8
Layer 1
10
-52.481396
20
241.835057
11
-52.032207
21
240.688829
0
LINE
8
Layer 1
10
-52.032207
20
240.688829
11
-51.369467
21
239.474931
0
LINE
8
Layer 1
10
-51.369467
20
239.474931
11
-49.471437
21
236.922837
0
LINE
8
Layer 1
10
-49.471437
20
236.922837
11
-46.923507
21
234.336202
0
LINE
8
Layer 1
10
-46.923507
20
234.336202
11
-43.861877
21
231.872450
0
LINE
8
Layer 1
10
-43.861877
20
231.872450
11
-40.422749
21
229.689006
0
LINE
8
Layer 1
10
-40.422749
20
229.689006
11
-36.742322
21
227.943296
0
LINE
8
Layer 1
10
-36.742322
20
227.943296
11
-32.176280
21
226.393273
0
LINE
8
Layer 1
10
-32.176280
20
226.393273
11
-26.037338
21
224.614247
0
LINE
8
Layer 1
10
-26.037338
20
224.614247
11
-19.540213
21
222.938345
0
LINE
8
Layer 1
10
-19.540213
20
222.938345
11
-13.899624
21
221.697698
0
LINE
8
Layer 1
10
-13.899624
20
221.697698
11
-11.222919
21
221.020922
0
LINE
8
Layer 1
10
-11.222919
20
221.020922
11
-9.991995
21
220.402755
0
LINE
8
Layer 1
10
-9.991995
20
220.402755
11
-9.977625
21
220.183948
0
LINE
8
Layer 1
10
-9.977625
20
220.183948
11
-10.395408
21
220.061752
0
LINE
8
Layer 1
10
-10.395408
20
220.061752
11
-12.621711
21
220.216469
0
LINE
8
Layer 1
10
-12.621711
20
220.216469
11
-17.770703
21
221.323543
0
LINE
8
Layer 1
10
-17.770703
20
221.323543
11
-26.336853
21
223.418796
0
LINE
8
Layer 1
10
-26.336853
20
223.418796
11
-33.665967
21
225.213444
0
LINE
8
Layer 1
10
-33.665967
20
225.213444
11
-38.066979
21
226.029863
0
LINE
8
Layer 1
10
-38.066979
20
226.029863
11
-39.472473
21
226.105009
0
LINE
8
Layer 1
10
-39.472473
20
226.105009
11
-40.509573
21
225.976124
0
LINE
8
Layer 1
10
-40.509573
20
225.976124
11
-41.299490
21
225.656716
0
LINE
8
Layer 1
10
-41.299490
20
225.656716
11
-41.963433
21
225.160294
0
LINE
8
Layer 1
10
-41.963433
20
225.160294
11
-42.844635
21
224.123958
0
LINE
8
Layer 1
10
-42.844635
20
224.123958
11
-43.221167
21
223.058066
0
LINE
8
Layer 1
10
-43.221167
20
223.058066
11
-43.087159
21
221.955061
0
LINE
8
Layer 1
10
-43.087159
20
221.955061
11
-42.436741
21
220.807388
0
LINE
8
Layer 1
10
-42.436741
20
220.807388
11
-41.264043
21
219.607490
0
LINE
8
Layer 1
10
-41.264043
20
219.607490
11
-39.563197
21
218.347811
0
LINE
8
Layer 1
10
-39.563197
20
218.347811
11
-37.328331
21
217.020795
0
LINE
8
Layer 1
10
-37.328331
20
217.020795
11
-34.553576
21
215.618885
0
LINE
8
Layer 1
10
-34.553576
20
215.618885
11
-29.731848
21
213.611858
0
LINE
8
Layer 1
10
-29.731848
20
213.611858
11
-27.412888
21
212.900301
0
LINE
8
Layer 1
10
-27.412888
20
212.900301
11
-25.023341
21
212.358540
0
LINE
8
Layer 1
10
-25.023341
20
212.358540
11
-22.464315
21
211.967941
0
LINE
8
Layer 1
10
-22.464315
20
211.967941
11
-19.636919
21
211.709872
0
LINE
8
Layer 1
10
-19.636919
20
211.709872
11
-12.781448
21
211.516797
0
LINE
8
Layer 1
10
-12.781448
20
211.516797
11
-7.238196
21
211.353254
0
LINE
8
Layer 1
10
-7.238196
20
211.353254
11
-6.117533
21
211.157280
0
LINE
8
Layer 1
10
-6.117533
20
211.157280
11
-5.961704
21
211.029964
0
LINE
8
Layer 1
10
-5.961704
20
211.029964
11
-6.072403
21
210.882799
0
LINE
8
Layer 1
10
-6.072403
20
210.882799
11
-7.256314
21
210.641527
0
LINE
8
Layer 1
10
-7.256314
20
210.641527
11
-9.771324
21
210.442478
0
LINE
8
Layer 1
10
-9.771324
20
210.442478
11
-17.318555
21
210.253624
0
LINE
8
Layer 1
10
-17.318555
20
210.253624
11
-23.992577
21
210.135278
0
LINE
8
Layer 1
10
-23.992577
20
210.135278
11
-28.428871
21
209.715210
0
LINE
8
Layer 1
10
-28.428871
20
209.715210
11
-30.026582
21
209.354391
0
LINE
8
Layer 1
10
-30.026582
20
209.354391
11
-31.327318
21
208.872975
0
LINE
8
Layer 1
10
-31.327318
20
208.872975
11
-32.418562
21
208.255903
0
LINE
8
Layer 1
10
-32.418562
20
208.255903
11
-33.387800
21
207.488122
0
LINE
8
Layer 1
10
-33.387800
20
207.488122
11
-34.058743
21
206.731514
0
LINE
8
Layer 1
10
-34.058743
20
206.731514
11
-34.526027
21
205.882709
0
LINE
8
Layer 1
10
-34.526027
20
205.882709
11
-34.790926
21
204.974533
0
LINE
8
Layer 1
10
-34.790926
20
204.974533
11
-34.854714
21
204.039812
0
LINE
8
Layer 1
10
-34.854714
20
204.039812
11
-34.718665
21
203.111371
0
LINE
8
Layer 1
10
-34.718665
20
203.111371
11
-34.384052
21
202.222035
0
LINE
8
Layer 1
10
-34.384052
20
202.222035
11
-33.852150
21
201.404629
0
LINE
8
Layer 1
10
-33.852150
20
201.404629
11
-33.124233
21
200.691980
0
LINE
8
Layer 1
10
-33.124233
20
200.691980
11
-31.240424
21
199.493240
0
LINE
8
Layer 1
10
-31.240424
20
199.493240
11
-30.272952
21
199.157729
0
LINE
8
Layer 1
10
-30.272952
20
199.157729
11
-29.199300
21
198.991691
0
LINE
8
Layer 1
10
-29.199300
20
198.991691
11
-26.466049
21
199.148743
0
LINE
8
Layer 1
10
-26.466049
20
199.148743
11
-22.505861
21
199.925806
0
LINE
8
Layer 1
10
-22.505861
20
199.925806
11
-11.245701
21
202.158098
0
LINE
8
Layer 1
10
-11.245701
20
202.158098
11
-6.488055
21
202.919506
0
LINE
8
Layer 1
10
-6.488055
20
202.919506
11
-3.638617
21
203.213277
0
LINE
8
Layer 1
10
-3.638617
20
203.213277
11
-2.373701
21
203.036371
0
LINE
8
Layer 1
10
-2.373701
20
203.036371
11
-2.338144
21
202.844495
0
LINE
8
Layer 1
10
-2.338144
20
202.844495
11
-2.647331
21
202.611653
0
LINE
8
Layer 1
10
-2.647331
20
202.611653
11
-4.140367
21
202.107007
0
LINE
8
Layer 1
10
-4.140367
20
202.107007
11
-6.533667
21
201.690318
0
LINE
8
Layer 1
10
-6.533667
20
201.690318
11
-11.103586
21
200.917991
0
LINE
8
Layer 1
10
-11.103586
20
200.917991
11
-17.014626
21
199.632928
0
LINE
8
Layer 1
10
-17.014626
20
199.632928
11
-22.628252
21
198.218879
0
LINE
8
Layer 1
10
-22.628252
20
198.218879
11
-26.305930
21
197.059594
0
LINE
8
Layer 1
10
-26.305930
20
197.059594
11
-27.290010
21
196.566757
0
LINE
8
Layer 1
10
-27.290010
20
196.566757
11
-28.102150
21
195.993075
0
LINE
8
Layer 1
10
-28.102150
20
195.993075
11
-28.746325
21
195.352848
0
LINE
8
Layer 1
10
-28.746325
20
195.352848
11
-29.226507
21
194.660372
0
LINE
8
Layer 1
10
-29.226507
20
194.660372
11
-29.546671
21
193.929948
0
LINE
8
Layer 1
10
-29.546671
20
193.929948
11
-29.710790
21
193.175873
0
LINE
8
Layer 1
10
-29.710790
20
193.175873
11
-29.586788
21
191.653968
0
LINE
8
Layer 1
10
-29.586788
20
191.653968
11
-28.886291
21
190.209046
0
LINE
8
Layer 1
10
-28.886291
20
190.209046
11
-27.641087
21
188.955496
0
LINE
8
Layer 1
10
-27.641087
20
188.955496
11
-25.882965
21
188.007708
0
LINE
8
Layer 1
10
-25.882965
20
188.007708
11
-23.643716
21
187.480071
0
LINE
8
Layer 1
10
-23.643716
20
187.480071
11
-21.525069
21
187.324730
0
LINE
8
Layer 1
10
-21.525069
20
187.324730
11
-20.503810
21
187.421168
0
LINE
8
Layer 1
10
-20.503810
20
187.421168
11
-19.264185
21
187.700750
0
LINE
8
Layer 1
10
-19.264185
20
187.700750
11
-15.398605
21
189.010560
0
LINE
8
Layer 1
10
-15.398605
20
189.010560
11
-8.465870
21
191.656593
0
LINE
8
Layer 1
10
-8.465870
20
191.656593
11
-3.672228
21
193.401680
0
LINE
8
Layer 1
10
-3.672228
20
193.401680
11
-0.104258
21
194.507558
0
LINE
8
Layer 1
10
-0.104258
20
194.507558
11
1.798144
21
194.857183
0
LINE
8
Layer 1
10
1.798144
20
194.857183
11
1.987288
21
194.711824
0
LINE
8
Layer 1
10
1.987288
20
194.711824
11
1.595079
21
194.333510
0
LINE
8
Layer 1
10
1.595079
20
194.333510
11
-0.301824
21
193.445184
0
LINE
8
Layer 1
10
-0.301824
20
193.445184
11
-3.516576
21
192.268459
0
LINE
8
Layer 1
10
-3.516576
20
192.268459
11
-7.450018
21
190.807690
0
LINE
8
Layer 1
10
-7.450018
20
190.807690
11
-11.272281
21
189.130177
0
LINE
8
Layer 1
10
-11.272281
20
189.130177
11
-14.454093
21
187.486864
0
LINE
8
Layer 1
10
-14.454093
20
187.486864
11
-16.466184
21
186.128698
0
LINE
8
Layer 1
10
-16.466184
20
186.128698
11
-17.552126
21
184.989552
0
LINE
8
Layer 1
10
-17.552126
20
184.989552
11
-18.362914
21
183.812099
0
LINE
8
Layer 1
10
-18.362914
20
183.812099
11
-18.894513
21
182.638149
0
LINE
8
Layer 1
10
-18.894513
20
182.638149
11
-19.142886
21
181.509512
0
LINE
8
Layer 1
10
-19.142886
20
181.509512
11
-19.103999
21
180.467998
0
LINE
8
Layer 1
10
-19.103999
20
180.467998
11
-18.773815
21
179.555418
0
LINE
8
Layer 1
10
-18.773815
20
179.555418
11
-18.148298
21
178.813582
0
LINE
8
Layer 1
10
-18.148298
20
178.813582
11
-17.223412
21
178.284300
0
LINE
8
Layer 1
10
-17.223412
20
178.284300
11
-16.511566
21
178.073439
0
LINE
8
Layer 1
10
-16.511566
20
178.073439
11
-15.721762
21
178.017969
0
LINE
8
Layer 1
10
-15.721762
20
178.017969
11
-14.717269
21
178.164130
0
LINE
8
Layer 1
10
-14.717269
20
178.164130
11
-13.361359
21
178.558158
0
LINE
8
Layer 1
10
-13.361359
20
178.558158
11
-9.048371
21
180.274774
0
LINE
8
Layer 1
10
-9.048371
20
180.274774
11
-1.688966
21
183.537726
0
LINE
8
Layer 1
10
-1.688966
20
183.537726
11
5.326451
21
186.571705
0
LINE
8
Layer 1
10
5.326451
20
186.571705
11
7.525821
21
187.429388
0
LINE
8
Layer 1
10
7.525821
20
187.429388
11
8.411087
21
187.666883
0
LINE
8
Layer 1
10
8.411087
20
187.666883
11
8.128308
21
187.318702
0
LINE
8
Layer 1
10
8.128308
20
187.318702
11
7.147358
21
186.581716
0
LINE
8
Layer 1
10
7.147358
20
186.581716
11
3.708172
21
184.373578
0
LINE
8
Layer 1
10
3.708172
20
184.373578
11
-0.318447
21
181.798848
0
LINE
8
Layer 1
10
-0.318447
20
181.798848
11
-2.941451
21
179.730134
0
LINE
8
Layer 1
10
-2.941451
20
179.730134
11
-3.790493
21
178.825148
0
LINE
8
Layer 1
10
-3.790493
20
178.825148
11
-4.365308
21
177.974203
0
LINE
8
Layer 1
10
-4.365308
20
177.974203
11
-4.691454
21
177.153146
0
LINE
8
Layer 1
10
-4.691454
20
177.153146
11
-4.794489
21
176.337822
0
LINE
8
Layer 1
10
-4.794489
20
176.337822
11
-4.726729
21
175.489695
0
LINE
8
Layer 1
10
-4.726729
20
175.489695
11
-4.520534
21
174.782031
0
LINE
8
Layer 1
10
-4.520534
20
174.782031
11
-4.171529
21
174.212007
0
LINE
8
Layer 1
10
-4.171529
20
174.212007
11
-3.675340
21
173.776802
0
LINE
8
Layer 1
10
-3.675340
20
173.776802
11
-3.027592
21
173.473592
0
LINE
8
Layer 1
10
-3.027592
20
173.473592
11
-2.223912
21
173.299555
0
LINE
8
Layer 1
10
-2.223912
20
173.299555
11
-0.131255
21
173.327708
0
LINE
8
Layer 1
10
-0.131255
20
173.327708
11
2.614981
21
173.879584
0
LINE
8
Layer 1
10
2.614981
20
173.879584
11
5.259089
21
174.976334
0
LINE
8
Layer 1
10
5.259089
20
174.976334
11
8.060105
21
176.754728
0
LINE
8
Layer 1
10
8.060105
20
176.754728
11
11.277065
21
179.351538
0
LINE
8
Layer 1
10
11.277065
20
179.351538
11
14.334339
21
181.926549
0
LINE
8
Layer 1
10
14.334339
20
181.926549
11
16.308593
21
183.377118
0
LINE
8
Layer 1
10
16.308593
20
183.377118
11
16.925391
21
183.702936
0
LINE
8
Layer 1
10
16.925391
20
183.702936
11
17.314397
21
183.774282
0
LINE
8
Layer 1
10
17.314397
20
183.774282
11
17.489933
21
183.600035
0
LINE
8
Layer 1
10
17.489933
20
183.600035
11
17.466319
21
183.189074
0
LINE
8
Layer 1
10
17.466319
20
183.189074
11
16.935919
21
182.330666
0
LINE
8
Layer 1
10
16.935919
20
182.330666
11
15.741379
21
181.100178
0
LINE
8
Layer 1
10
15.741379
20
181.100178
11
12.040258
21
178.037905
0
LINE
8
Layer 1
10
12.040258
20
178.037905
11
7.723714
21
175.032130
0
LINE
8
Layer 1
10
7.723714
20
175.032130
11
5.759895
21
173.872266
0
LINE
8
Layer 1
10
5.759895
20
173.872266
11
4.152503
21
173.112730
0
LINE
8
Layer 1
10
4.152503
20
173.112730
11
2.046328
21
172.459224
0
LINE
8
Layer 1
10
2.046328
20
172.459224
11
0.046157
21
172.102240
0
LINE
8
Layer 1
10
0.046157
20
172.102240
11
-1.794128
21
172.029844
0
LINE
8
Layer 1
10
-1.794128
20
172.029844
11
-3.420644
21
172.230102
0
LINE
8
Layer 1
10
-3.420644
20
172.230102
11
-4.779508
21
172.691080
0
LINE
8
Layer 1
10
-4.779508
20
172.691080
11
-5.816837
21
173.400842
0
LINE
8
Layer 1
10
-5.816837
20
173.400842
11
-6.478748
21
174.347456
0
LINE
8
Layer 1
10
-6.478748
20
174.347456
11
-6.711359
21
175.518985
0
LINE
8
Layer 1
10
-6.711359
20
175.518985
11
-6.970377
21
176.705443
0
LINE
8
Layer 1
10
-6.970377
20
176.705443
11
-7.250749
21
177.143717
0
LINE
8
Layer 1
10
-7.250749
20
177.143717
11
-7.593120
21
177.396548
0
LINE
8
Layer 1
10
-7.593120
20
177.396548
11
-8.156332
21
177.435626
0
LINE
8
Layer 1
10
-8.156332
20
177.435626
11
-9.069950
21
177.277985
0
LINE
8
Layer 1
10
-9.069950
20
177.277985
11
-11.783539
21
176.446747
0
LINE
8
Layer 1
10
-11.783539
20
176.446747
11
-15.404149
21
175.051243
0
LINE
8
Layer 1
10
-15.404149
20
175.051243
11
-19.602042
21
173.239879
0
LINE
8
Layer 1
10
-19.602042
20
173.239879
11
-28.410728
21
168.963207
0
LINE
8
Layer 1
10
-28.410728
20
168.963207
11
-32.362044
21
166.794714
0
LINE
8
Layer 1
10
-32.362044
20
166.794714
11
-35.571692
21
164.803993
0
LINE
8
Layer 1
10
-35.571692
20
164.803993
11
-38.520879
21
162.501848
0
LINE
8
Layer 1
10
-38.520879
20
162.501848
11
-41.109446
21
159.927310
0
LINE
8
Layer 1
10
-41.109446
20
159.927310
11
-43.057600
21
157.395318
0
LINE
8
Layer 1
10
-43.057600
20
157.395318
11
-43.704087
21
156.243697
0
LINE
8
Layer 1
10
-43.704087
20
156.243697
11
-44.085547
21
155.220815
0
LINE
8
Layer 1
10
-44.085547
20
155.220815
11
-44.202785
21
154.347860
0
LINE
8
Layer 1
10
-44.202785
20
154.347860
11
-44.073725
21
153.533624
0
LINE
8
Layer 1
10
-44.073725
20
153.533624
11
-43.674880
21
152.705000
0
LINE
8
Layer 1
10
-43.674880
20
152.705000
11
-42.982763
21
151.788877
0
LINE
8
Layer 1
10
-42.982763
20
151.788877
11
-42.088411
21
150.815213
0
LINE
8
Layer 1
10
-42.088411
20
150.815213
11
-41.412218
21
150.403099
0
LINE
8
Layer 1
10
-41.412218
20
150.403099
11
-40.670990
21
150.486948
0
LINE
8
Layer 1
10
-40.670990
20
150.486948
11
-39.581534
21
151.001173
0
LINE
8
Layer 1
10
-39.581534
20
151.001173
11
-35.633968
21
153.886479
0
LINE
8
Layer 1
10
-35.633968
20
153.886479
11
-28.784050
21
159.447406
0
LINE
8
Layer 1
10
-28.784050
20
159.447406
11
-22.553370
21
164.577609
0
LINE
8
Layer 1
10
-22.553370
20
164.577609
11
-18.026773
21
168.105095
0
LINE
8
Layer 1
10
-18.026773
20
168.105095
11
-15.176046
21
170.050793
0
LINE
8
Layer 1
10
-15.176046
20
170.050793
11
-14.370318
21
170.437011
0
LINE
8
Layer 1
10
-14.370318
20
170.437011
11
-13.972977
21
170.435630
0
LINE
8
Layer 1
10
-13.972977
20
170.435630
11
-14.370329
21
169.893058
0
LINE
8
Layer 1
10
-14.370329
20
169.893058
11
-15.685827
21
168.649402
0
LINE
8
Layer 1
10
-15.685827
20
168.649402
11
-20.247722
21
164.798690
0
LINE
8
Layer 1
10
-20.247722
20
164.798690
11
-26.544779
21
159.424496
0
LINE
8
Layer 1
10
-26.544779
20
159.424496
11
-32.429374
21
153.975439
0
LINE
8
Layer 1
10
-32.429374
20
153.975439
11
-36.055293
21
150.148531
0
LINE
8
Layer 1
10
-36.055293
20
150.148531
11
-37.162264
21
148.672295
0
LINE
8
Layer 1
10
-37.162264
20
148.672295
11
-37.833866
21
147.396098
0
LINE
8
Layer 1
10
-37.833866
20
147.396098
11
-38.096567
21
146.251357
0
LINE
8
Layer 1
10
-38.096567
20
146.251357
11
-37.976837
21
145.169492
0
LINE
8
Layer 1
10
-37.976837
20
145.169492
11
-37.501143
21
144.081922
0
LINE
8
Layer 1
10
-37.501143
20
144.081922
11
-36.695953
21
142.920067
0
LINE
8
Layer 1
10
-36.695953
20
142.920067
11
-35.670642
21
141.825346
0
LINE
8
Layer 1
10
-35.670642
20
141.825346
11
-34.611160
21
141.256626
0
LINE
8
Layer 1
10
-34.611160
20
141.256626
11
-34.031581
21
141.193649
0
LINE
8
Layer 1
10
-34.031581
20
141.193649
11
-33.399030
21
141.291132
0
LINE
8
Layer 1
10
-33.399030
20
141.291132
11
-31.915775
21
142.006091
0
LINE
8
Layer 1
10
-31.915775
20
142.006091
11
-30.042917
21
143.478731
0
LINE
8
Layer 1
10
-30.042917
20
143.478731
11
-27.661978
21
145.786279
0
LINE
8
Layer 1
10
-27.661978
20
145.786279
11
-20.901950
21
153.215003
0
LINE
8
Layer 1
10
-20.901950
20
153.215003
11
-15.262862
21
159.534105
0
LINE
8
Layer 1
10
-15.262862
20
159.534105
11
-11.226516
21
163.863572
0
LINE
8
Layer 1
10
-11.226516
20
163.863572
11
-8.799718
21
166.196391
0
LINE
8
Layer 1
10
-8.799718
20
166.196391
11
-8.192026
21
166.611866
0
LINE
8
Layer 1
10
-8.192026
20
166.611866
11
-8.039979
21
166.631486
0
LINE
8
Layer 1
10
-8.039979
20
166.631486
11
-7.989273
21
166.525548
0
LINE
8
Layer 1
10
-7.989273
20
166.525548
11
-9.278025
21
164.725794
0
LINE
8
Layer 1
10
-9.278025
20
164.725794
11
-12.376541
21
161.128816
0
LINE
8
Layer 1
10
-12.376541
20
161.128816
11
-17.724525
21
154.921762
0
LINE
8
Layer 1
10
-17.724525
20
154.921762
11
-22.906771
21
148.493901
0
LINE
8
Layer 1
10
-22.906771
20
148.493901
11
-26.872143
21
143.192962
0
LINE
8
Layer 1
10
-26.872143
20
143.192962
11
-28.070021
21
141.386254
0
LINE
8
Layer 1
10
-28.070021
20
141.386254
11
-28.569505
21
140.366675
0
LINE
8
Layer 1
10
-28.569505
20
140.366675
11
-28.701000
21
139.196348
0
LINE
8
Layer 1
10
-28.701000
20
139.196348
11
-28.643578
21
138.170378
0
LINE
8
Layer 1
10
-28.643578
20
138.170378
11
-28.415763
21
137.290028
0
LINE
8
Layer 1
10
-28.415763
20
137.290028
11
-28.036081
21
136.556562
0
LINE
8
Layer 1
10
-28.036081
20
136.556562
11
-27.523058
21
135.971242
0
LINE
8
Layer 1
10
-27.523058
20
135.971242
11
-26.895219
21
135.535333
0
LINE
8
Layer 1
10
-26.895219
20
135.535333
11
-26.171091
21
135.250096
0
LINE
8
Layer 1
10
-26.171091
20
135.250096
11
-25.369199
21
135.116796
0
LINE
8
Layer 1
10
-25.369199
20
135.116796
11
-24.508068
21
135.136696
0
LINE
8
Layer 1
10
-24.508068
20
135.136696
11
-23.606224
21
135.311058
0
LINE
8
Layer 1
10
-23.606224
20
135.311058
11
-21.754499
21
136.128226
0
LINE
8
Layer 1
10
-21.754499
20
136.128226
11
-19.962231
21
137.578404
0
LINE
8
Layer 1
10
-19.962231
20
137.578404
11
-19.134707
21
138.544031
0
LINE
8
Layer 1
10
-19.134707
20
138.544031
11
-18.377624
21
139.671700
0
LINE
8
Layer 1
10
-18.377624
20
139.671700
11
-15.237549
21
144.654365
0
LINE
8
Layer 1
10
-15.237549
20
144.654365
11
-10.875361
21
151.242405
0
LINE
8
Layer 1
10
-10.875361
20
151.242405
11
-6.657681
21
157.404887
0
LINE
8
Layer 1
10
-6.657681
20
157.404887
11
-3.951130
21
161.110875
0
LINE
8
Layer 1
10
-3.951130
20
161.110875
11
-2.149336
21
163.280515
0
LINE
8
Layer 1
10
-2.149336
20
163.280515
11
-3.606348
21
160.724688
0
LINE
8
Layer 1
10
-3.606348
20
160.724688
11
-9.495549
21
151.140336
0
LINE
8
Layer 1
10
-9.495549
20
151.140336
11
-13.385659
21
144.740259
0
LINE
8
Layer 1
10
-13.385659
20
144.740259
11
-15.809434
21
140.147505
0
LINE
8
Layer 1
10
-15.809434
20
140.147505
11
-16.515137
21
138.433543
0
LINE
8
Layer 1
10
-16.515137
20
138.433543
11
-16.906687
21
137.057013
0
LINE
8
Layer 1
10
-16.906687
20
137.057013
11
-17.001558
21
135.979783
0
LINE
8
Layer 1
10
-17.001558
20
135.979783
11
-16.817229
21
135.163719
0
LINE
8
Layer 1
10
-16.817229
20
135.163719
11
-16.155905
21
134.196364
0
LINE
8
Layer 1
10
-16.155905
20
134.196364
11
-15.172426
21
133.313786
0
LINE
8
Layer 1
10
-15.172426
20
133.313786
11
-14.047770
21
132.648832
0
LINE
8
Layer 1
10
-14.047770
20
132.648832
11
-12.962912
21
132.334354
0
LINE
8
Layer 1
10
-12.962912
20
132.334354
11
-12.004526
21
132.606728
0
LINE
8
Layer 1
10
-12.004526
20
132.606728
11
-10.342936
21
133.322304
0
LINE
8
Layer 1
10
-10.342936
20
133.322304
11
-10.342936
21
133.322304
0
LINE
8
Layer 1
10
79.689963
20
183.763363
11
78.920368
21
184.503740
0
LINE
8
Layer 1
10
78.920368
20
184.503740
11
78.492091
21
185.353595
0
LINE
8
Layer 1
10
78.492091
20
185.353595
11
78.380858
21
186.248759
0
LINE
8
Layer 1
10
78.380858
20
186.248759
11
78.562394
21
187.125062
0
LINE
8
Layer 1
10
78.562394
20
187.125062
11
79.012425
21
187.918334
0
LINE
8
Layer 1
10
79.012425
20
187.918334
11
79.706676
21
188.564405
0
LINE
8
Layer 1
10
79.706676
20
188.564405
11
80.620875
21
188.999106
0
LINE
8
Layer 1
10
80.620875
20
188.999106
11
81.730746
21
189.158266
0
LINE
8
Layer 1
10
81.730746
20
189.158266
11
82.806030
21
188.966923
0
LINE
8
Layer 1
10
82.806030
20
188.966923
11
83.728434
21
188.451090
0
LINE
8
Layer 1
10
83.728434
20
188.451090
11
84.462425
21
187.698058
0
LINE
8
Layer 1
10
84.462425
20
187.698058
11
84.972469
21
186.795119
0
LINE
8
Layer 1
10
84.972469
20
186.795119
11
85.223032
21
185.829565
0
LINE
8
Layer 1
10
85.223032
20
185.829565
11
85.178579
21
184.888688
0
LINE
8
Layer 1
10
85.178579
20
184.888688
11
84.803577
21
184.059781
0
LINE
8
Layer 1
10
84.803577
20
184.059781
11
84.062491
21
183.430134
0
LINE
8
Layer 1
10
84.062491
20
183.430134
11
82.896999
21
182.935222
0
LINE
8
Layer 1
10
82.896999
20
182.935222
11
81.863150
21
182.819432
0
LINE
8
Layer 1
10
81.863150
20
182.819432
11
80.835840
21
183.092301
0
LINE
8
Layer 1
10
80.835840
20
183.092301
11
79.689963
21
183.763363
0
LINE
8
Layer 1
10
79.689963
20
183.763363
11
79.689963
21
183.763363
0
LINE
8
Layer 1
10
3.916345
20
135.979322
11
4.699478
21
136.686931
0
LINE
8
Layer 1
10
4.699478
20
136.686931
11
5.326990
21
137.474069
0
LINE
8
Layer 1
10
5.326990
20
137.474069
11
5.825536
21
138.450960
0
LINE
8
Layer 1
10
5.825536
20
138.450960
11
6.221774
21
139.727826
0
LINE
8
Layer 1
10
6.221774
20
139.727826
11
6.813944
21
143.622381
0
LINE
8
Layer 1
10
6.813944
20
143.622381
11
7.316745
21
150.039523
0
LINE
8
Layer 1
10
7.316745
20
150.039523
11
7.911343
21
157.606774
0
LINE
8
Layer 1
10
7.911343
20
157.606774
11
8.380480
21
161.332309
0
LINE
8
Layer 1
10
8.380480
20
161.332309
11
8.510292
21
161.831440
0
LINE
8
Layer 1
10
8.510292
20
161.831440
11
8.459934
21
162.148065
0
LINE
8
Layer 1
10
8.459934
20
162.148065
11
8.251805
21
162.288428
0
LINE
8
Layer 1
10
8.251805
20
162.288428
11
7.908307
21
162.258777
0
LINE
8
Layer 1
10
7.908307
20
162.258777
11
6.904801
21
161.714416
0
LINE
8
Layer 1
10
6.904801
20
161.714416
11
5.628621
21
160.564950
0
LINE
8
Layer 1
10
5.628621
20
160.564950
11
4.570821
21
159.255530
0
LINE
8
Layer 1
10
4.570821
20
159.255530
11
3.505440
21
157.588924
0
LINE
8
Layer 1
10
3.505440
20
157.588924
11
1.467176
21
153.456173
0
LINE
8
Layer 1
10
1.467176
20
153.456173
11
-0.255690
21
148.710746
0
LINE
8
Layer 1
10
-0.255690
20
148.710746
11
-0.926825
21
146.278293
0
LINE
8
Layer 1
10
-0.926825
20
146.278293
11
-1.432680
21
143.896688
0
LINE
8
Layer 1
10
-1.432680
20
143.896688
11
-1.965018
21
140.697065
0
LINE
8
Layer 1
10
-1.965018
20
140.697065
11
-2.135391
21
138.763387
0
LINE
8
Layer 1
10
-2.135391
20
138.763387
11
-1.939329
21
137.546010
0
LINE
8
Layer 1
10
-1.939329
20
137.546010
11
-1.372364
21
136.495292
0
LINE
8
Layer 1
10
-1.372364
20
136.495292
11
-0.865413
21
135.856654
0
LINE
8
Layer 1
10
-0.865413
20
135.856654
11
-0.293991
21
135.380064
0
LINE
8
Layer 1
10
-0.293991
20
135.380064
11
0.331685
21
135.066517
0
LINE
8
Layer 1
10
0.331685
20
135.066517
11
1.001401
21
134.917011
0
LINE
8
Layer 1
10
1.001401
20
134.917011
11
1.704941
21
134.932541
0
LINE
8
Layer 1
10
1.704941
20
134.932541
11
2.432088
21
135.114106
0
LINE
8
Layer 1
10
2.432088
20
135.114106
11
3.916345
21
135.979322
0
LINE
8
Layer 1
10
3.916345
20
135.979322
11
3.916345
21
135.979322
0
LINE
8
Layer 1
10
222.686905
20
139.645727
11
224.099730
21
140.584760
0
LINE
8
Layer 1
10
224.099730
20
140.584760
11
225.091803
21
141.733071
0
LINE
8
Layer 1
10
225.091803
20
141.733071
11
225.676925
21
143.112781
0
LINE
8
Layer 1
10
225.676925
20
143.112781
11
225.868899
21
144.746013
0
LINE
8
Layer 1
10
225.868899
20
144.746013
11
225.562673
21
145.847196
0
LINE
8
Layer 1
10
225.562673
20
145.847196
11
224.533144
21
147.374046
0
LINE
8
Layer 1
10
224.533144
20
147.374046
11
222.614035
21
149.534495
0
LINE
8
Layer 1
10
222.614035
20
149.534495
11
219.639069
21
152.536476
0
LINE
8
Layer 1
10
219.639069
20
152.536476
11
216.452485
21
155.778051
0
LINE
8
Layer 1
10
216.452485
20
155.778051
11
215.778242
21
156.586948
0
LINE
8
Layer 1
10
215.778242
20
156.586948
11
215.720637
21
156.854537
0
LINE
8
Layer 1
10
215.720637
20
156.854537
11
217.467157
21
155.765644
0
LINE
8
Layer 1
10
217.467157
20
155.765644
11
221.715677
21
152.511084
0
LINE
8
Layer 1
10
221.715677
20
152.511084
11
224.071423
21
150.801568
0
LINE
8
Layer 1
10
224.071423
20
150.801568
11
226.330183
21
149.446770
0
LINE
8
Layer 1
10
226.330183
20
149.446770
11
228.456098
21
148.455016
0
LINE
8
Layer 1
10
228.456098
20
148.455016
11
230.413308
21
147.834627
0
LINE
8
Layer 1
10
230.413308
20
147.834627
11
232.165950
21
147.593929
0
LINE
8
Layer 1
10
232.165950
20
147.593929
11
233.678166
21
147.741244
0
LINE
8
Layer 1
10
233.678166
20
147.741244
11
234.914093
21
148.284897
0
LINE
8
Layer 1
10
234.914093
20
148.284897
11
235.837871
21
149.233211
0
LINE
8
Layer 1
10
235.837871
20
149.233211
11
236.593355
21
150.823937
0
LINE
8
Layer 1
10
236.593355
20
150.823937
11
236.846455
21
152.437227
0
LINE
8
Layer 1
10
236.846455
20
152.437227
11
236.597020
21
153.943659
0
LINE
8
Layer 1
10
236.597020
20
153.943659
11
235.844898
21
155.213813
0
LINE
8
Layer 1
10
235.844898
20
155.213813
11
234.909051
21
155.904920
0
LINE
8
Layer 1
10
234.909051
20
155.904920
11
233.134195
21
156.932219
0
LINE
8
Layer 1
10
233.134195
20
156.932219
11
228.085831
21
159.440633
0
LINE
8
Layer 1
10
228.085831
20
159.440633
11
223.421708
21
161.686506
0
LINE
8
Layer 1
10
223.421708
20
161.686506
11
222.062769
21
162.429614
0
LINE
8
Layer 1
10
222.062769
20
162.429614
11
221.634812
21
162.773683
0
LINE
8
Layer 1
10
221.634812
20
162.773683
11
224.058195
21
162.197005
0
LINE
8
Layer 1
10
224.058195
20
162.197005
11
229.516652
21
160.442550
0
LINE
8
Layer 1
10
229.516652
20
160.442550
11
235.316375
21
158.611126
0
LINE
8
Layer 1
10
235.316375
20
158.611126
11
238.560243
21
157.849382
0
LINE
8
Layer 1
10
238.560243
20
157.849382
11
239.256873
21
157.968277
0
LINE
8
Layer 1
10
239.256873
20
157.968277
11
240.008499
21
158.295928
0
LINE
8
Layer 1
10
240.008499
20
158.295928
11
241.494425
21
159.403296
0
LINE
8
Layer 1
10
241.494425
20
159.403296
11
242.653382
21
160.823079
0
LINE
8
Layer 1
10
242.653382
20
160.823079
11
242.996297
21
161.541249
0
LINE
8
Layer 1
10
242.996297
20
161.541249
11
243.120731
21
162.206871
0
LINE
8
Layer 1
10
243.120731
20
162.206871
11
243.011196
21
163.075120
0
LINE
8
Layer 1
10
243.011196
20
163.075120
11
242.692361
21
163.906160
0
LINE
8
Layer 1
10
242.692361
20
163.906160
11
242.178879
21
164.687147
0
LINE
8
Layer 1
10
242.178879
20
164.687147
11
241.485407
21
165.405238
0
LINE
8
Layer 1
10
241.485407
20
165.405238
11
240.626598
21
166.047590
0
LINE
8
Layer 1
10
240.626598
20
166.047590
11
239.617106
21
166.601359
0
LINE
8
Layer 1
10
239.617106
20
166.601359
11
237.204696
21
167.391776
0
LINE
8
Layer 1
10
237.204696
20
167.391776
11
227.124388
21
169.648226
0
LINE
8
Layer 1
10
227.124388
20
169.648226
11
225.146833
21
170.287670
0
LINE
8
Layer 1
10
225.146833
20
170.287670
11
224.720259
21
170.539639
0
LINE
8
Layer 1
10
224.720259
20
170.539639
11
224.590985
21
170.767179
0
LINE
8
Layer 1
10
224.590985
20
170.767179
11
224.701672
21
170.992230
0
LINE
8
Layer 1
10
224.701672
20
170.992230
11
225.005954
21
171.113595
0
LINE
8
Layer 1
10
225.005954
20
171.113595
11
226.028637
21
171.016378
0
LINE
8
Layer 1
10
226.028637
20
171.016378
11
233.679591
21
169.608930
0
LINE
8
Layer 1
10
233.679591
20
169.608930
11
238.361256
21
169.051233
0
LINE
8
Layer 1
10
238.361256
20
169.051233
11
240.159961
21
169.042806
0
LINE
8
Layer 1
10
240.159961
20
169.042806
11
241.672944
21
169.230443
0
LINE
8
Layer 1
10
241.672944
20
169.230443
11
242.956976
21
169.625981
0
LINE
8
Layer 1
10
242.956976
20
169.625981
11
244.068831
21
170.241256
0
LINE
8
Layer 1
10
244.068831
20
170.241256
11
245.065278
21
171.088106
0
LINE
8
Layer 1
10
245.065278
20
171.088106
11
246.003092
21
172.178366
0
LINE
8
Layer 1
10
246.003092
20
172.178366
11
247.139269
21
173.922604
0
LINE
8
Layer 1
10
247.139269
20
173.922604
11
247.414237
21
174.656327
0
LINE
8
Layer 1
10
247.414237
20
174.656327
11
247.492361
21
175.344735
0
LINE
8
Layer 1
10
247.492361
20
175.344735
11
247.372565
21
176.023040
0
LINE
8
Layer 1
10
247.372565
20
176.023040
11
247.053777
21
176.726454
0
LINE
8
Layer 1
10
247.053777
20
176.726454
11
245.814926
21
178.349454
0
LINE
8
Layer 1
10
245.814926
20
178.349454
11
244.036427
21
180.339948
0
LINE
8
Layer 1
10
244.036427
20
180.339948
11
235.751356
21
180.341875
0
LINE
8
Layer 1
10
235.751356
20
180.341875
11
227.466291
21
180.343806
0
LINE
8
Layer 1
10
227.466291
20
180.343806
11
233.216902
21
181.145715
0
LINE
8
Layer 1
10
233.216902
20
181.145715
11
238.205030
21
181.891806
0
LINE
8
Layer 1
10
238.205030
20
181.891806
11
241.407199
21
182.566447
0
LINE
8
Layer 1
10
241.407199
20
182.566447
11
243.660521
21
183.401255
0
LINE
8
Layer 1
10
243.660521
20
183.401255
11
245.802108
21
184.627846
0
LINE
8
Layer 1
10
245.802108
20
184.627846
11
247.005379
21
185.483739
0
LINE
8
Layer 1
10
247.005379
20
185.483739
11
248.040026
21
186.408470
0
LINE
8
Layer 1
10
248.040026
20
186.408470
11
248.893284
21
187.379202
0
LINE
8
Layer 1
10
248.893284
20
187.379202
11
249.552388
21
188.373099
0
LINE
8
Layer 1
10
249.552388
20
188.373099
11
250.004574
21
189.367325
0
LINE
8
Layer 1
10
250.004574
20
189.367325
11
250.237076
21
190.339044
0
LINE
8
Layer 1
10
250.237076
20
190.339044
11
250.237131
21
191.265419
0
LINE
8
Layer 1
10
250.237131
20
191.265419
11
249.991973
21
192.123614
0
LINE
8
Layer 1
10
249.991973
20
192.123614
11
249.175122
21
193.278650
0
LINE
8
Layer 1
10
249.175122
20
193.278650
11
248.159922
21
193.973446
0
LINE
8
Layer 1
10
248.159922
20
193.973446
11
247.116556
21
193.955350
0
LINE
8
Layer 1
10
247.116556
20
193.955350
11
245.130588
21
193.634755
0
LINE
8
Layer 1
10
245.130588
20
193.634755
11
239.471234
21
192.305038
0
LINE
8
Layer 1
10
239.471234
20
192.305038
11
228.233071
21
189.423090
0
LINE
8
Layer 1
10
228.233071
20
189.423090
11
225.911075
21
189.021640
0
LINE
8
Layer 1
10
225.911075
20
189.021640
11
225.391519
21
189.040822
0
LINE
8
Layer 1
10
225.391519
20
189.040822
11
225.229942
21
189.191382
0
LINE
8
Layer 1
10
225.229942
20
189.191382
11
225.393800
21
189.421942
0
LINE
8
Layer 1
10
225.393800
20
189.421942
11
225.839946
21
189.676909
0
LINE
8
Layer 1
10
225.839946
20
189.676909
11
227.306550
21
190.136076
0
LINE
8
Layer 1
10
227.306550
20
190.136076
11
231.238535
21
191.182185
0
LINE
8
Layer 1
10
231.238535
20
191.182185
11
236.260507
21
192.777686
0
LINE
8
Layer 1
10
236.260507
20
192.777686
11
241.085729
21
194.490303
0
LINE
8
Layer 1
10
241.085729
20
194.490303
11
244.427462
21
195.887765
0
LINE
8
Layer 1
10
244.427462
20
195.887765
11
247.526565
21
197.821759
0
LINE
8
Layer 1
10
247.526565
20
197.821759
11
250.724332
21
200.458387
0
LINE
8
Layer 1
10
250.724332
20
200.458387
11
253.707483
21
203.509370
0
LINE
8
Layer 1
10
253.707483
20
203.509370
11
256.162737
21
206.686431
0
LINE
8
Layer 1
10
256.162737
20
206.686431
11
257.615923
21
209.259175
0
LINE
8
Layer 1
10
257.615923
20
209.259175
11
258.359675
21
211.411607
0
LINE
8
Layer 1
10
258.359675
20
211.411607
11
258.449600
21
212.250760
0
LINE
8
Layer 1
10
258.449600
20
212.250760
11
258.343071
21
212.889500
0
LINE
8
Layer 1
10
258.343071
20
212.889500
11
258.033723
21
213.296048
0
LINE
8
Layer 1
10
258.033723
20
213.296048
11
257.515191
21
213.438626
0
LINE
8
Layer 1
10
257.515191
20
213.438626
11
256.682230
21
213.129868
0
LINE
8
Layer 1
10
256.682230
20
213.129868
11
255.109524
21
212.289191
0
LINE
8
Layer 1
10
255.109524
20
212.289191
11
250.646404
21
209.525660
0
LINE
8
Layer 1
10
250.646404
20
209.525660
11
245.007456
21
206.110388
0
LINE
8
Layer 1
10
245.007456
20
206.110388
11
238.531677
21
202.595987
0
LINE
8
Layer 1
10
238.531677
20
202.595987
11
232.898538
21
199.850661
0
LINE
8
Layer 1
10
232.898538
20
199.850661
11
230.922794
21
199.037716
0
LINE
8
Layer 1
10
230.922794
20
199.037716
11
229.787512
21
198.742617
0
LINE
8
Layer 1
10
229.787512
20
198.742617
11
229.748453
21
198.824353
0
LINE
8
Layer 1
10
229.748453
20
198.824353
11
230.026365
21
199.058611
0
LINE
8
Layer 1
10
230.026365
20
199.058611
11
231.418862
21
199.918990
0
LINE
8
Layer 1
10
231.418862
20
199.918990
11
236.750843
21
202.747291
0
LINE
8
Layer 1
10
236.750843
20
202.747291
11
243.559955
21
206.383202
0
LINE
8
Layer 1
10
243.559955
20
206.383202
11
248.742702
21
209.501264
0
LINE
8
Layer 1
10
248.742702
20
209.501264
11
252.452006
21
212.207890
0
LINE
8
Layer 1
10
252.452006
20
212.207890
11
256.092191
21
215.183171
0
LINE
8
Layer 1
10
256.092191
20
215.183171
11
259.543105
21
218.300731
0
LINE
8
Layer 1
10
259.543105
20
218.300731
11
262.684593
21
221.434197
0
LINE
8
Layer 1
10
262.684593
20
221.434197
11
265.396502
21
224.457193
0
LINE
8
Layer 1
10
265.396502
20
224.457193
11
267.558679
21
227.243344
0
LINE
8
Layer 1
10
267.558679
20
227.243344
11
269.050969
21
229.666275
0
LINE
8
Layer 1
10
269.050969
20
229.666275
11
269.508358
21
230.702041
0
LINE
8
Layer 1
10
269.508358
20
230.702041
11
269.753218
21
231.599612
0
LINE
8
Layer 1
10
269.753218
20
231.599612
11
269.864669
21
232.632593
0
LINE
8
Layer 1
10
269.864669
20
232.632593
11
269.801341
21
233.347978
0
LINE
8
Layer 1
10
269.801341
20
233.347978
11
269.546486
21
233.743133
0
LINE
8
Layer 1
10
269.546486
20
233.743133
11
269.083354
21
233.815426
0
LINE
8
Layer 1
10
269.083354
20
233.815426
11
268.395196
21
233.562227
0
LINE
8
Layer 1
10
268.395196
20
233.562227
11
267.465262
21
232.980902
0
LINE
8
Layer 1
10
267.465262
20
232.980902
11
264.813074
21
230.823348
0
LINE
8
Layer 1
10
264.813074
20
230.823348
11
257.609388
21
224.763760
0
LINE
8
Layer 1
10
257.609388
20
224.763760
11
250.956570
21
219.828085
0
LINE
8
Layer 1
10
250.956570
20
219.828085
11
247.619141
21
217.632485
0
LINE
8
Layer 1
10
247.619141
20
217.632485
11
244.158315
21
215.538786
0
LINE
8
Layer 1
10
244.158315
20
215.538786
11
236.518320
21
211.418327
0
LINE
8
Layer 1
10
236.518320
20
211.418327
11
231.082671
21
208.819159
0
LINE
8
Layer 1
10
231.082671
20
208.819159
11
229.928262
21
208.396427
0
LINE
8
Layer 1
10
229.928262
20
208.396427
11
229.728888
21
208.389813
0
LINE
8
Layer 1
10
229.728888
20
208.389813
11
229.776437
21
208.514191
0
LINE
8
Layer 1
10
229.776437
20
208.514191
11
232.361452
21
210.238987
0
LINE
8
Layer 1
10
232.361452
20
210.238987
11
238.599551
21
213.729114
0
LINE
8
Layer 1
10
238.599551
20
213.729114
11
245.587945
21
217.692693
0
LINE
8
Layer 1
10
245.587945
20
217.692693
11
251.242192
21
221.240650
0
LINE
8
Layer 1
10
251.242192
20
221.240650
11
253.784683
21
223.147646
0
LINE
8
Layer 1
10
253.784683
20
223.147646
11
256.765541
21
225.620208
0
LINE
8
Layer 1
10
256.765541
20
225.620208
11
263.212897
21
231.471282
0
LINE
8
Layer 1
10
263.212897
20
231.471282
11
268.925329
21
237.212381
0
LINE
8
Layer 1
10
268.925329
20
237.212381
11
270.987532
21
239.547473
0
LINE
8
Layer 1
10
270.987532
20
239.547473
11
272.243906
21
241.262011
0
LINE
8
Layer 1
10
272.243906
20
241.262011
11
273.219088
21
243.079929
0
LINE
8
Layer 1
10
273.219088
20
243.079929
11
273.965760
21
244.793232
0
LINE
8
Layer 1
10
273.965760
20
244.793232
11
274.478792
21
246.359456
0
LINE
8
Layer 1
10
274.478792
20
246.359456
11
274.753052
21
247.736136
0
LINE
8
Layer 1
10
274.753052
20
247.736136
11
274.783411
21
248.880807
0
LINE
8
Layer 1
10
274.783411
20
248.880807
11
274.564738
21
249.751005
0
LINE
8
Layer 1
10
274.564738
20
249.751005
11
274.091902
21
250.304264
0
LINE
8
Layer 1
10
274.091902
20
250.304264
11
273.359773
21
250.498120
0
LINE
8
Layer 1
10
273.359773
20
250.498120
11
272.466421
21
250.011202
0
LINE
8
Layer 1
10
272.466421
20
250.011202
11
270.761232
21
248.685434
0
LINE
8
Layer 1
10
270.761232
20
248.685434
11
265.895088
21
244.327272
0
LINE
8
Layer 1
10
265.895088
20
244.327272
11
258.115875
21
237.278714
0
LINE
8
Layer 1
10
258.115875
20
237.278714
11
250.356771
21
231.000676
0
LINE
8
Layer 1
10
250.356771
20
231.000676
11
246.400370
21
228.086425
0
LINE
8
Layer 1
10
246.400370
20
228.086425
11
242.347727
21
225.287794
0
LINE
8
Layer 1
10
242.347727
20
225.287794
11
233.818690
21
219.934707
0
LINE
8
Layer 1
10
233.818690
20
219.934707
11
231.016757
21
218.317437
0
LINE
8
Layer 1
10
231.016757
20
218.317437
11
229.380263
21
217.499929
0
LINE
8
Layer 1
10
229.380263
20
217.499929
11
228.614491
21
217.365384
0
LINE
8
Layer 1
10
228.614491
20
217.365384
11
228.466027
21
217.517722
0
LINE
8
Layer 1
10
228.466027
20
217.517722
11
228.424726
21
217.797000
0
LINE
8
Layer 1
10
228.424726
20
217.797000
11
228.858696
21
218.244294
0
LINE
8
Layer 1
10
228.858696
20
218.244294
11
230.040296
21
219.074350
0
LINE
8
Layer 1
10
230.040296
20
219.074350
11
233.924540
21
221.408711
0
LINE
8
Layer 1
10
233.924540
20
221.408711
11
240.762900
21
225.586423
0
LINE
8
Layer 1
10
240.762900
20
225.586423
11
247.655099
21
230.421839
0
LINE
8
Layer 1
10
247.655099
20
230.421839
11
254.388713
21
235.719076
0
LINE
8
Layer 1
10
254.388713
20
235.719076
11
260.751321
21
241.282251
0
LINE
8
Layer 1
10
260.751321
20
241.282251
11
266.530501
21
246.915481
0
LINE
8
Layer 1
10
266.530501
20
246.915481
11
271.513830
21
252.422885
0
LINE
8
Layer 1
10
271.513830
20
252.422885
11
273.640669
21
255.068189
0
LINE
8
Layer 1
10
273.640669
20
255.068189
11
275.488887
21
257.608580
0
LINE
8
Layer 1
10
275.488887
20
257.608580
11
277.031932
21
260.019572
0
LINE
8
Layer 1
10
277.031932
20
260.019572
11
278.243250
21
262.276682
0
LINE
8
Layer 1
10
278.243250
20
262.276682
11
279.211049
21
264.594297
0
LINE
8
Layer 1
10
279.211049
20
264.594297
11
279.957491
21
266.965217
0
LINE
8
Layer 1
10
279.957491
20
266.965217
11
280.473966
21
269.277768
0
LINE
8
Layer 1
10
280.473966
20
269.277768
11
280.751865
21
271.420275
0
LINE
8
Layer 1
10
280.751865
20
271.420275
11
280.782579
21
273.281065
0
LINE
8
Layer 1
10
280.782579
20
273.281065
11
280.557500
21
274.748464
0
LINE
8
Layer 1
10
280.557500
20
274.748464
11
280.068019
21
275.710797
0
LINE
8
Layer 1
10
280.068019
20
275.710797
11
279.721437
21
275.967666
0
LINE
8
Layer 1
10
279.721437
20
275.967666
11
279.305526
21
276.056391
0
LINE
8
Layer 1
10
279.305526
20
276.056391
11
278.682705
21
275.615237
0
LINE
8
Layer 1
10
278.682705
20
275.615237
11
277.615507
21
274.414073
0
LINE
8
Layer 1
10
277.615507
20
274.414073
11
274.746373
21
270.465521
0
LINE
8
Layer 1
10
274.746373
20
270.465521
11
269.265558
21
262.613216
0
LINE
8
Layer 1
10
269.265558
20
262.613216
11
266.649026
21
259.230120
0
LINE
8
Layer 1
10
266.649026
20
259.230120
11
263.996794
21
256.074295
0
LINE
8
Layer 1
10
263.996794
20
256.074295
11
261.220150
21
253.044664
0
LINE
8
Layer 1
10
261.220150
20
253.044664
11
258.230383
21
250.040152
0
LINE
8
Layer 1
10
258.230383
20
250.040152
11
251.256628
21
243.702187
0
LINE
8
Layer 1
10
251.256628
20
243.702187
11
245.114415
21
238.784088
0
LINE
8
Layer 1
10
245.114415
20
238.784088
11
238.030336
21
233.615177
0
LINE
8
Layer 1
10
238.030336
20
233.615177
11
232.071513
21
229.644027
0
LINE
8
Layer 1
10
232.071513
20
229.644027
11
230.160048
21
228.560292
0
LINE
8
Layer 1
10
230.160048
20
228.560292
11
229.305067
21
228.319213
0
LINE
8
Layer 1
10
229.305067
20
228.319213
11
229.753354
21
228.831476
0
LINE
8
Layer 1
10
229.753354
20
228.831476
11
231.205751
21
229.994430
0
LINE
8
Layer 1
10
231.205751
20
229.994430
11
236.215840
21
233.581706
0
LINE
8
Layer 1
10
236.215840
20
233.581706
11
242.735420
21
238.328633
0
LINE
8
Layer 1
10
242.735420
20
238.328633
11
249.067582
21
243.481638
0
LINE
8
Layer 1
10
249.067582
20
243.481638
11
255.101112
21
248.923732
0
LINE
8
Layer 1
10
255.101112
20
248.923732
11
260.724796
21
254.537925
0
LINE
8
Layer 1
10
260.724796
20
254.537925
11
265.827421
21
260.207226
0
LINE
8
Layer 1
10
265.827421
20
260.207226
11
270.297775
21
265.814643
0
LINE
8
Layer 1
10
270.297775
20
265.814643
11
274.024643
21
271.243188
0
LINE
8
Layer 1
10
274.024643
20
271.243188
11
275.574516
21
273.853824
0
LINE
8
Layer 1
10
275.574516
20
273.853824
11
276.896813
21
276.375870
0
LINE
8
Layer 1
10
276.896813
20
276.375870
11
278.798416
21
280.608673
0
LINE
8
Layer 1
10
278.798416
20
280.608673
11
280.344340
21
284.707562
0
LINE
8
Layer 1
10
280.344340
20
284.707562
11
281.511439
21
288.539859
0
LINE
8
Layer 1
10
281.511439
20
288.539859
11
282.276564
21
291.972890
0
LINE
8
Layer 1
10
282.276564
20
291.972890
11
282.616567
21
294.873978
0
LINE
8
Layer 1
10
282.616567
20
294.873978
11
282.508300
21
297.110450
0
LINE
8
Layer 1
10
282.508300
20
297.110450
11
282.278832
21
297.937993
0
LINE
8
Layer 1
10
282.278832
20
297.937993
11
281.928615
21
298.549628
0
LINE
8
Layer 1
10
281.928615
20
298.549628
11
281.454757
21
298.928771
0
LINE
8
Layer 1
10
281.454757
20
298.928771
11
280.854364
21
299.058837
0
LINE
8
Layer 1
10
280.854364
20
299.058837
11
280.276319
21
299.004991
0
LINE
8
Layer 1
10
280.276319
20
299.004991
11
279.762283
21
298.807628
0
LINE
8
Layer 1
10
279.762283
20
298.807628
11
279.278051
21
298.413012
0
LINE
8
Layer 1
10
279.278051
20
298.413012
11
278.789417
21
297.767405
0
LINE
8
Layer 1
10
278.789417
20
297.767405
11
277.662124
21
295.508277
0
LINE
8
Layer 1
10
277.662124
20
295.508277
11
276.106763
21
291.600350
0
LINE
8
Layer 1
10
276.106763
20
291.600350
11
273.183637
21
284.569950
0
LINE
8
Layer 1
10
273.183637
20
284.569950
11
271.693302
21
281.517031
0
LINE
8
Layer 1
10
271.693302
20
281.517031
11
270.120105
21
278.663701
0
LINE
8
Layer 1
10
270.120105
20
278.663701
11
268.416286
21
275.928510
0
LINE
8
Layer 1
10
268.416286
20
275.928510
11
266.534083
21
273.230009
0
LINE
8
Layer 1
10
266.534083
20
273.230009
11
262.043489
21
267.617280
0
LINE
8
Layer 1
10
262.043489
20
267.617280
11
259.178871
21
264.468873
0
LINE
8
Layer 1
10
259.178871
20
264.468873
11
255.831809
21
261.140497
0
LINE
8
Layer 1
10
255.831809
20
261.140497
11
252.041011
21
257.664274
0
LINE
8
Layer 1
10
252.041011
20
257.664274
11
247.845186
21
254.072325
0
LINE
8
Layer 1
10
247.845186
20
254.072325
11
243.283040
21
250.396769
0
LINE
8
Layer 1
10
243.283040
20
250.396769
11
238.393283
21
246.669729
0
LINE
8
Layer 1
10
238.393283
20
246.669729
11
233.214624
21
242.923324
0
LINE
8
Layer 1
10
233.214624
20
242.923324
11
227.785769
21
239.189676
0
LINE
8
Layer 1
10
227.785769
20
239.189676
11
222.726761
21
235.717181
0
LINE
8
Layer 1
10
222.726761
20
235.717181
11
218.354474
21
232.536501
0
LINE
8
Layer 1
10
218.354474
20
232.536501
11
214.607773
21
229.591205
0
LINE
8
Layer 1
10
214.607773
20
229.591205
11
211.425522
21
226.824861
0
LINE
8
Layer 1
10
211.425522
20
226.824861
11
208.746585
21
224.181038
0
LINE
8
Layer 1
10
208.746585
20
224.181038
11
206.509825
21
221.603304
0
LINE
8
Layer 1
10
206.509825
20
221.603304
11
204.654108
21
219.035229
0
LINE
8
Layer 1
10
204.654108
20
219.035229
11
203.118297
21
216.420380
0
LINE
8
Layer 1
10
203.118297
20
216.420380
11
201.973997
21
214.020417
0
LINE
8
Layer 1
10
201.973997
20
214.020417
11
201.132316
21
211.696167
0
LINE
8
Layer 1
10
201.132316
20
211.696167
11
200.589664
21
209.357612
0
LINE
8
Layer 1
10
200.589664
20
209.357612
11
200.342452
21
206.914735
0
LINE
8
Layer 1
10
200.342452
20
206.914735
11
200.387090
21
204.277520
0
LINE
8
Layer 1
10
200.387090
20
204.277520
11
200.719990
21
201.355950
0
LINE
8
Layer 1
10
200.719990
20
201.355950
11
201.337562
21
198.060008
0
LINE
8
Layer 1
10
201.337562
20
198.060008
11
202.236217
21
194.299678
0
LINE
8
Layer 1
10
202.236217
20
194.299678
11
203.342798
21
189.844617
0
LINE
8
Layer 1
10
203.342798
20
189.844617
11
203.860355
21
187.015015
0
LINE
8
Layer 1
10
203.860355
20
187.015015
11
203.882853
21
184.961187
0
LINE
8
Layer 1
10
203.882853
20
184.961187
11
203.504258
21
182.833449
0
LINE
8
Layer 1
10
203.504258
20
182.833449
11
202.965246
21
180.925852
0
LINE
8
Layer 1
10
202.965246
20
180.925852
11
202.188523
21
179.290857
0
LINE
8
Layer 1
10
202.188523
20
179.290857
11
200.995440
21
177.629511
0
LINE
8
Layer 1
10
200.995440
20
177.629511
11
199.207351
21
175.642861
0
LINE
8
Layer 1
10
199.207351
20
175.642861
11
195.695734
21
171.961292
0
LINE
8
Layer 1
10
195.695734
20
171.961292
11
200.749826
21
166.662468
0
LINE
8
Layer 1
10
200.749826
20
166.662468
11
204.160004
21
162.874063
0
LINE
8
Layer 1
10
204.160004
20
162.874063
11
207.016073
21
159.044179
0
LINE
8
Layer 1
10
207.016073
20
159.044179
11
209.979994
21
154.184471
0
LINE
8
Layer 1
10
209.979994
20
154.184471
11
213.713723
21
147.306596
0
LINE
8
Layer 1
10
213.713723
20
147.306596
11
216.644003
21
141.969398
0
LINE
8
Layer 1
10
216.644003
20
141.969398
11
217.713880
21
140.347123
0
LINE
8
Layer 1
10
217.713880
20
140.347123
11
218.639457
21
139.320621
0
LINE
8
Layer 1
10
218.639457
20
139.320621
11
219.510141
21
138.813562
0
LINE
8
Layer 1
10
219.510141
20
138.813562
11
220.415339
21
138.749614
0
LINE
8
Layer 1
10
220.415339
20
138.749614
11
221.444459
21
139.052446
0
LINE
8
Layer 1
10
221.444459
20
139.052446
11
222.686905
21
139.645727
0
LINE
8
Layer 1
10
222.686905
20
139.645727
11
222.686905
21
139.645727
0
LINE
8
Layer 1
10
57.475360
20
211.465672
11
58.565477
21
213.347972
0
LINE
8
Layer 1
10
58.565477
20
213.347972
11
59.819529
21
214.925707
0
LINE
8
Layer 1
10
59.819529
20
214.925707
11
61.328745
21
216.243636
0
LINE
8
Layer 1
10
61.328745
20
216.243636
11
63.184357
21
217.346518
0
LINE
8
Layer 1
10
63.184357
20
217.346518
11
65.477595
21
218.279112
0
LINE
8
Layer 1
10
65.477595
20
218.279112
11
68.299687
21
219.086176
0
LINE
8
Layer 1
10
68.299687
20
219.086176
11
71.741865
21
219.812470
0
LINE
8
Layer 1
10
71.741865
20
219.812470
11
75.895358
21
220.502752
0
LINE
8
Layer 1
10
75.895358
20
220.502752
11
82.891677
21
221.698658
0
LINE
8
Layer 1
10
82.891677
20
221.698658
11
87.854228
21
222.778818
0
LINE
8
Layer 1
10
87.854228
20
222.778818
11
90.104449
21
223.501043
0
LINE
8
Layer 1
10
90.104449
20
223.501043
11
92.342975
21
224.392542
0
LINE
8
Layer 1
10
92.342975
20
224.392542
11
94.583609
21
225.466025
0
LINE
8
Layer 1
10
94.583609
20
225.466025
11
96.840153
21
226.734207
0
LINE
8
Layer 1
10
96.840153
20
226.734207
11
99.126410
21
228.209800
0
LINE
8
Layer 1
10
99.126410
20
228.209800
11
101.456183
21
229.905518
0
LINE
8
Layer 1
10
101.456183
20
229.905518
11
106.301487
21
234.008177
0
LINE
8
Layer 1
10
106.301487
20
234.008177
11
111.486485
21
239.143889
0
LINE
8
Layer 1
10
111.486485
20
239.143889
11
117.121600
21
245.414355
0
LINE
8
Layer 1
10
117.121600
20
245.414355
11
123.317253
21
252.921279
0
LINE
8
Layer 1
10
123.317253
20
252.921279
11
130.183865
21
261.766365
0
LINE
8
Layer 1
10
130.183865
20
261.766365
11
134.897788
21
267.760602
0
LINE
8
Layer 1
10
134.897788
20
267.760602
11
139.527224
21
273.185160
0
LINE
8
Layer 1
10
139.527224
20
273.185160
11
144.113675
21
278.077615
0
LINE
8
Layer 1
10
144.113675
20
278.077615
11
148.698643
21
282.475545
0
LINE
8
Layer 1
10
148.698643
20
282.475545
11
153.323630
21
286.416526
0
LINE
8
Layer 1
10
153.323630
20
286.416526
11
158.030137
21
289.938134
0
LINE
8
Layer 1
10
158.030137
20
289.938134
11
162.859667
21
293.077947
0
LINE
8
Layer 1
10
162.859667
20
293.077947
11
167.853721
21
295.873542
0
LINE
8
Layer 1
10
167.853721
20
295.873542
11
172.342754
21
298.319584
0
LINE
8
Layer 1
10
172.342754
20
298.319584
11
174.429163
21
299.691788
0
LINE
8
Layer 1
10
174.429163
20
299.691788
11
174.499188
21
300.066219
0
LINE
8
Layer 1
10
174.499188
20
300.066219
11
174.221659
21
300.364010
0
LINE
8
Layer 1
10
174.221659
20
300.364010
11
172.752115
21
300.717803
0
LINE
8
Layer 1
10
172.752115
20
300.717803
11
170.276885
21
300.729421
0
LINE
8
Layer 1
10
170.276885
20
300.729421
11
167.052323
21
300.375119
0
LINE
8
Layer 1
10
167.052323
20
300.375119
11
165.067386
21
299.981659
0
LINE
8
Layer 1
10
165.067386
20
299.981659
11
162.939858
21
299.398528
0
LINE
8
Layer 1
10
162.939858
20
299.398528
11
158.332942
21
297.695564
0
LINE
8
Layer 1
10
158.332942
20
297.695564
11
153.383403
21
295.330852
0
LINE
8
Layer 1
10
153.383403
20
295.330852
11
148.243070
21
292.369016
0
LINE
8
Layer 1
10
148.243070
20
292.369016
11
145.751161
21
290.632183
0
LINE
8
Layer 1
10
145.751161
20
290.632183
11
142.971657
21
288.334997
0
LINE
8
Layer 1
10
142.971657
20
288.334997
11
139.834624
21
285.403535
0
LINE
8
Layer 1
10
139.834624
20
285.403535
11
136.270132
21
281.763875
0
LINE
8
Layer 1
10
136.270132
20
281.763875
11
127.579036
21
272.064274
0
LINE
8
Layer 1
10
127.579036
20
272.064274
11
116.338909
21
258.644817
0
LINE
8
Layer 1
10
116.338909
20
258.644817
11
105.874501
21
246.122263
0
LINE
8
Layer 1
10
105.874501
20
246.122263
11
102.545268
21
242.312857
0
LINE
8
Layer 1
10
102.545268
20
242.312857
11
101.149232
21
240.913766
0
LINE
8
Layer 1
10
101.149232
20
240.913766
11
100.988832
21
241.031493
0
LINE
8
Layer 1
10
100.988832
20
241.031493
11
101.137696
21
241.466537
0
LINE
8
Layer 1
10
101.137696
20
241.466537
11
102.731901
21
243.779748
0
LINE
8
Layer 1
10
102.731901
20
243.779748
11
113.687042
21
257.616871
0
LINE
8
Layer 1
10
113.687042
20
257.616871
11
122.109796
21
268.044297
0
LINE
8
Layer 1
10
122.109796
20
268.044297
11
128.297073
21
275.508723
0
LINE
8
Layer 1
10
128.297073
20
275.508723
11
133.149303
21
281.072812
0
LINE
8
Layer 1
10
133.149303
20
281.072812
11
137.566919
21
285.799225
0
LINE
8
Layer 1
10
137.566919
20
285.799225
11
140.292455
21
288.690465
0
LINE
8
Layer 1
10
140.292455
20
288.690465
11
141.817914
21
290.532659
0
LINE
8
Layer 1
10
141.817914
20
290.532659
11
142.367795
21
291.645463
0
LINE
8
Layer 1
10
142.367795
20
291.645463
11
142.347049
21
292.028236
0
LINE
8
Layer 1
10
142.347049
20
292.028236
11
142.166597
21
292.348533
0
LINE
8
Layer 1
10
142.166597
20
292.348533
11
141.708400
21
292.783920
0
LINE
8
Layer 1
10
141.708400
20
292.783920
11
141.165322
21
293.076162
0
LINE
8
Layer 1
10
141.165322
20
293.076162
11
140.523423
21
293.224047
0
LINE
8
Layer 1
10
140.523423
20
293.224047
11
139.768761
21
293.226364
0
LINE
8
Layer 1
10
139.768761
20
293.226364
11
137.865393
21
292.789449
0
LINE
8
Layer 1
10
137.865393
20
292.789449
11
135.343697
21
291.755728
0
LINE
8
Layer 1
10
135.343697
20
291.755728
11
131.030000
21
289.423968
0
LINE
8
Layer 1
10
131.030000
20
289.423968
11
126.557902
21
286.446340
0
LINE
8
Layer 1
10
126.557902
20
286.446340
11
122.357904
21
283.135039
0
LINE
8
Layer 1
10
122.357904
20
283.135039
11
118.860508
21
279.802262
0
LINE
8
Layer 1
10
118.860508
20
279.802262
11
115.330526
21
275.691973
0
LINE
8
Layer 1
10
115.330526
20
275.691973
11
110.711613
21
269.800236
0
LINE
8
Layer 1
10
110.711613
20
269.800236
11
104.985175
21
262.102630
0
LINE
8
Layer 1
10
104.985175
20
262.102630
11
98.132621
21
252.574728
0
LINE
8
Layer 1
10
98.132621
20
252.574728
11
93.709073
21
246.595492
0
LINE
8
Layer 1
10
93.709073
20
246.595492
11
92.225316
21
244.776587
0
LINE
8
Layer 1
10
92.225316
20
244.776587
11
91.516364
21
244.108553
0
LINE
8
Layer 1
10
91.516364
20
244.108553
11
91.215970
21
244.222325
0
LINE
8
Layer 1
10
91.215970
20
244.222325
11
91.209725
21
244.627559
0
LINE
8
Layer 1
10
91.209725
20
244.627559
11
92.326297
21
246.695928
0
LINE
8
Layer 1
10
92.326297
20
246.695928
11
95.359298
21
251.080681
0
LINE
8
Layer 1
10
95.359298
20
251.080681
11
100.801952
21
258.548842
0
LINE
8
Layer 1
10
100.801952
20
258.548842
11
112.296147
21
274.471814
0
LINE
8
Layer 1
10
112.296147
20
274.471814
11
114.645894
21
278.092690
0
LINE
8
Layer 1
10
114.645894
20
278.092690
11
115.167856
21
279.103840
0
LINE
8
Layer 1
10
115.167856
20
279.103840
11
115.329372
21
279.691033
0
LINE
8
Layer 1
10
115.329372
20
279.691033
11
115.157787
21
280.059432
0
LINE
8
Layer 1
10
115.157787
20
280.059432
11
114.640459
21
280.321130
0
LINE
8
Layer 1
10
114.640459
20
280.321130
11
112.553129
21
280.529089
0
LINE
8
Layer 1
10
112.553129
20
280.529089
11
111.148120
21
280.374235
0
LINE
8
Layer 1
10
111.148120
20
280.374235
11
109.596999
21
279.922716
0
LINE
8
Layer 1
10
109.596999
20
279.922716
11
107.931190
21
279.194099
0
LINE
8
Layer 1
10
107.931190
20
279.194099
11
106.182117
21
278.207947
0
LINE
8
Layer 1
10
106.182117
20
278.207947
11
104.381203
21
276.983825
0
LINE
8
Layer 1
10
104.381203
20
276.983825
11
102.559873
21
275.541300
0
LINE
8
Layer 1
10
102.559873
20
275.541300
11
100.749551
21
273.899935
0
LINE
8
Layer 1
10
100.749551
20
273.899935
11
98.981661
21
272.079296
0
LINE
8
Layer 1
10
98.981661
20
272.079296
11
95.489134
21
267.791396
0
LINE
8
Layer 1
10
95.489134
20
267.791396
11
91.362010
21
262.010006
0
LINE
8
Layer 1
10
91.362010
20
262.010006
11
87.079628
21
255.439199
0
LINE
8
Layer 1
10
87.079628
20
255.439199
11
83.121328
21
248.783045
0
LINE
8
Layer 1
10
83.121328
20
248.783045
11
80.901208
21
244.994931
0
LINE
8
Layer 1
10
80.901208
20
244.994931
11
79.165240
21
242.352399
0
LINE
8
Layer 1
10
79.165240
20
242.352399
11
78.034713
21
241.023491
0
LINE
8
Layer 1
10
78.034713
20
241.023491
11
77.734393
21
240.904159
0
LINE
8
Layer 1
10
77.734393
20
240.904159
11
77.630917
21
241.176250
0
LINE
8
Layer 1
10
77.630917
20
241.176250
11
78.257519
21
242.824109
0
LINE
8
Layer 1
10
78.257519
20
242.824109
11
80.068554
21
246.210199
0
LINE
8
Layer 1
10
80.068554
20
246.210199
11
86.831317
21
257.466511
0
LINE
8
Layer 1
10
86.831317
20
257.466511
11
90.449960
21
263.502004
0
LINE
8
Layer 1
10
90.449960
20
263.502004
11
92.400688
21
267.429501
0
LINE
8
Layer 1
10
92.400688
20
267.429501
11
92.804096
21
268.740440
0
LINE
8
Layer 1
10
92.804096
20
268.740440
11
92.854739
21
269.689605
0
LINE
8
Layer 1
10
92.854739
20
269.689605
11
92.574022
21
270.332073
0
LINE
8
Layer 1
10
92.574022
20
270.332073
11
91.983351
21
270.722919
0
LINE
8
Layer 1
10
91.983351
20
270.722919
11
91.249262
21
270.817228
0
LINE
8
Layer 1
10
91.249262
20
270.817228
11
90.251684
21
270.675751
0
LINE
8
Layer 1
10
90.251684
20
270.675751
11
87.741548
21
269.807014
0
LINE
8
Layer 1
10
87.741548
20
269.807014
11
85.003911
21
268.359858
0
LINE
8
Layer 1
10
85.003911
20
268.359858
11
82.589743
21
266.577429
0
LINE
8
Layer 1
10
82.589743
20
266.577429
11
81.275147
21
265.065557
0
LINE
8
Layer 1
10
81.275147
20
265.065557
11
79.713355
21
262.744248
0
LINE
8
Layer 1
10
79.713355
20
262.744248
11
77.990145
21
259.784480
0
LINE
8
Layer 1
10
77.990145
20
259.784480
11
76.191293
21
256.357232
0
LINE
8
Layer 1
10
76.191293
20
256.357232
11
72.709777
21
248.784204
0
LINE
8
Layer 1
10
72.709777
20
248.784204
11
71.198666
21
244.980379
0
LINE
8
Layer 1
10
71.198666
20
244.980379
11
69.955023
21
241.392985
0
LINE
8
Layer 1
10
69.955023
20
241.392985
11
68.385922
21
236.993168
0
LINE
8
Layer 1
10
68.385922
20
236.993168
11
67.769382
21
235.654728
0
LINE
8
Layer 1
10
67.769382
20
235.654728
11
67.377612
21
235.163155
0
LINE
8
Layer 1
10
67.377612
20
235.163155
11
66.950349
21
235.397772
0
LINE
8
Layer 1
10
66.950349
20
235.397772
11
66.778243
21
235.961853
0
LINE
8
Layer 1
10
66.778243
20
235.961853
11
67.314671
21
238.377083
0
LINE
8
Layer 1
10
67.314671
20
238.377083
11
68.729269
21
242.900533
0
LINE
8
Layer 1
10
68.729269
20
242.900533
11
70.769912
21
248.773581
0
LINE
8
Layer 1
10
70.769912
20
248.773581
11
73.184475
21
255.237608
0
LINE
8
Layer 1
10
73.184475
20
255.237608
11
75.425419
21
261.610244
0
LINE
8
Layer 1
10
75.425419
20
261.610244
11
76.020049
21
263.775730
0
LINE
8
Layer 1
10
76.020049
20
263.775730
11
76.135032
21
264.840532
0
LINE
8
Layer 1
10
76.135032
20
264.840532
11
75.826345
21
265.346215
0
LINE
8
Layer 1
10
75.826345
20
265.346215
11
75.377442
21
265.651501
0
LINE
8
Layer 1
10
75.377442
20
265.651501
11
74.802565
21
265.766832
0
LINE
8
Layer 1
10
74.802565
20
265.766832
11
74.115954
21
265.702647
0
LINE
8
Layer 1
10
74.115954
20
265.702647
11
72.464489
21
265.077490
0
LINE
8
Layer 1
10
72.464489
20
265.077490
11
70.536972
21
263.859552
0
LINE
8
Layer 1
10
70.536972
20
263.859552
11
68.447324
21
262.132355
0
LINE
8
Layer 1
10
68.447324
20
262.132355
11
66.309468
21
259.979418
0
LINE
8
Layer 1
10
66.309468
20
259.979418
11
64.237326
21
257.484262
0
LINE
8
Layer 1
10
64.237326
20
257.484262
11
62.344822
21
254.730409
0
LINE
8
Layer 1
10
62.344822
20
254.730409
11
61.637709
21
253.359184
0
LINE
8
Layer 1
10
61.637709
20
253.359184
11
60.944281
21
251.597868
0
LINE
8
Layer 1
10
60.944281
20
251.597868
11
59.697844
21
247.317452
0
LINE
8
Layer 1
10
59.697844
20
247.317452
11
58.804244
21
242.714141
0
LINE
8
Layer 1
10
58.804244
20
242.714141
11
58.462215
21
238.612916
0
LINE
8
Layer 1
10
58.462215
20
238.612916
11
58.274521
21
235.662524
0
LINE
8
Layer 1
10
58.274521
20
235.662524
11
58.071353
21
234.674727
0
LINE
8
Layer 1
10
58.071353
20
234.674727
11
57.823258
21
234.204720
0
LINE
8
Layer 1
10
57.823258
20
234.204720
11
57.523805
21
234.222834
0
LINE
8
Layer 1
10
57.523805
20
234.222834
11
57.323989
21
234.702348
0
LINE
8
Layer 1
10
57.323989
20
234.702348
11
57.222058
21
237.005523
0
LINE
8
Layer 1
10
57.222058
20
237.005523
11
57.515049
21
241.034145
0
LINE
8
Layer 1
10
57.515049
20
241.034145
11
58.200544
21
246.708110
0
LINE
8
Layer 1
10
58.200544
20
246.708110
11
58.725277
21
250.821136
0
LINE
8
Layer 1
10
58.725277
20
250.821136
11
58.898228
21
253.321791
0
LINE
8
Layer 1
10
58.898228
20
253.321791
11
58.718235
21
254.880745
0
LINE
8
Layer 1
10
58.718235
20
254.880745
11
58.184136
21
256.168670
0
LINE
8
Layer 1
10
58.184136
20
256.168670
11
57.562130
21
257.201684
0
LINE
8
Layer 1
10
57.562130
20
257.201684
11
56.898383
21
257.808019
0
LINE
8
Layer 1
10
56.898383
20
257.808019
11
56.007820
21
258.093912
0
LINE
8
Layer 1
10
56.007820
20
258.093912
11
54.705366
21
258.165601
0
LINE
8
Layer 1
10
54.705366
20
258.165601
11
53.690382
21
258.085718
0
LINE
8
Layer 1
10
53.690382
20
258.085718
11
52.723553
21
257.845789
0
LINE
8
Layer 1
10
52.723553
20
257.845789
11
51.804325
21
257.445396
0
LINE
8
Layer 1
10
51.804325
20
257.445396
11
50.932144
21
256.884121
0
LINE
8
Layer 1
10
50.932144
20
256.884121
11
49.326707
21
255.277245
0
LINE
8
Layer 1
10
49.326707
20
255.277245
11
47.902814
21
253.021813
0
LINE
8
Layer 1
10
47.902814
20
253.021813
11
47.385858
21
251.508779
0
LINE
8
Layer 1
10
47.385858
20
251.508779
11
47.076295
21
249.468055
0
LINE
8
Layer 1
10
47.076295
20
249.468055
11
46.965968
21
247.030825
0
LINE
8
Layer 1
10
46.965968
20
247.030825
11
47.046720
21
244.328270
0
LINE
8
Layer 1
10
47.046720
20
244.328270
11
47.310393
21
241.491574
0
LINE
8
Layer 1
10
47.310393
20
241.491574
11
47.748831
21
238.651918
0
LINE
8
Layer 1
10
47.748831
20
238.651918
11
48.353877
21
235.940485
0
LINE
8
Layer 1
10
48.353877
20
235.940485
11
49.117374
21
233.488457
0
LINE
8
Layer 1
10
49.117374
20
233.488457
11
50.204875
21
230.304330
0
LINE
8
Layer 1
10
50.204875
20
230.304330
11
50.705730
21
228.322757
0
LINE
8
Layer 1
10
50.705730
20
228.322757
11
50.726694
21
227.845922
0
LINE
8
Layer 1
10
50.726694
20
227.845922
11
50.589632
21
227.745317
0
LINE
8
Layer 1
10
50.589632
20
227.745317
11
49.826271
21
228.773588
0
LINE
8
Layer 1
10
49.826271
20
228.773588
11
48.804655
21
231.092955
0
LINE
8
Layer 1
10
48.804655
20
231.092955
11
47.631276
21
234.625633
0
LINE
8
Layer 1
10
47.631276
20
234.625633
11
46.450679
21
238.892694
0
LINE
8
Layer 1
10
46.450679
20
238.892694
11
45.407408
21
243.415206
0
LINE
8
Layer 1
10
45.407408
20
243.415206
11
44.742431
21
246.002256
0
LINE
8
Layer 1
10
44.742431
20
246.002256
11
43.928664
21
248.071878
0
LINE
8
Layer 1
10
43.928664
20
248.071878
11
42.978211
21
249.616151
0
LINE
8
Layer 1
10
42.978211
20
249.616151
11
41.903173
21
250.627154
0
LINE
8
Layer 1
10
41.903173
20
250.627154
11
40.715653
21
251.096966
0
LINE
8
Layer 1
10
40.715653
20
251.096966
11
39.427754
21
251.017666
0
LINE
8
Layer 1
10
39.427754
20
251.017666
11
38.051578
21
250.381333
0
LINE
8
Layer 1
10
38.051578
20
250.381333
11
36.599227
21
249.180047
0
LINE
8
Layer 1
10
36.599227
20
249.180047
11
35.502820
21
247.988888
0
LINE
8
Layer 1
10
35.502820
20
247.988888
11
34.961002
21
246.900893
0
LINE
8
Layer 1
10
34.961002
20
246.900893
11
34.839135
21
245.388558
0
LINE
8
Layer 1
10
34.839135
20
245.388558
11
35.002583
21
242.924379
0
LINE
8
Layer 1
10
35.002583
20
242.924379
11
35.516530
21
239.253553
0
LINE
8
Layer 1
10
35.516530
20
239.253553
11
36.483500
21
235.904701
0
LINE
8
Layer 1
10
36.483500
20
235.904701
11
38.034188
21
232.528730
0
LINE
8
Layer 1
10
38.034188
20
232.528730
11
40.299287
21
228.776545
0
LINE
8
Layer 1
10
40.299287
20
228.776545
11
42.128119
21
225.750706
0
LINE
8
Layer 1
10
42.128119
20
225.750706
11
42.608669
21
224.756524
0
LINE
8
Layer 1
10
42.608669
20
224.756524
11
42.695156
21
224.303848
0
LINE
8
Layer 1
10
42.695156
20
224.303848
11
42.363052
21
224.325937
0
LINE
8
Layer 1
10
42.363052
20
224.325937
11
41.808338
21
224.754154
0
LINE
8
Layer 1
10
41.808338
20
224.754154
11
40.209499
21
226.597197
0
LINE
8
Layer 1
10
40.209499
20
226.597197
11
38.255475
21
229.369436
0
LINE
8
Layer 1
10
38.255475
20
229.369436
11
36.303102
21
232.607328
0
LINE
8
Layer 1
10
36.303102
20
232.607328
11
34.183846
21
236.206610
0
LINE
8
Layer 1
10
34.183846
20
236.206610
11
33.309156
21
237.436483
0
LINE
8
Layer 1
10
33.309156
20
237.436483
11
32.496885
21
238.344768
0
LINE
8
Layer 1
10
32.496885
20
238.344768
11
31.701374
21
238.975155
0
LINE
8
Layer 1
10
31.701374
20
238.975155
11
30.876969
21
239.371337
0
LINE
8
Layer 1
10
30.876969
20
239.371337
11
29.978013
21
239.577006
0
LINE
8
Layer 1
10
29.978013
20
239.577006
11
28.958850
21
239.635853
0
LINE
8
Layer 1
10
28.958850
20
239.635853
11
27.904085
21
239.554821
0
LINE
8
Layer 1
10
27.904085
20
239.554821
11
26.943404
21
239.319896
0
LINE
8
Layer 1
10
26.943404
20
239.319896
11
26.091154
21
238.943334
0
LINE
8
Layer 1
10
26.091154
20
238.943334
11
25.361684
21
238.437389
0
LINE
8
Layer 1
10
25.361684
20
238.437389
11
24.769343
21
237.814317
0
LINE
8
Layer 1
10
24.769343
20
237.814317
11
24.328478
21
237.086372
0
LINE
8
Layer 1
10
24.328478
20
237.086372
11
24.053437
21
236.265811
0
LINE
8
Layer 1
10
24.053437
20
236.265811
11
23.958568
21
235.364888
0
LINE
8
Layer 1
10
23.958568
20
235.364888
11
24.194441
21
233.633729
0
LINE
8
Layer 1
10
24.194441
20
233.633729
11
24.869756
21
231.721794
0
LINE
8
Layer 1
10
24.869756
20
231.721794
11
25.936060
21
229.693651
0
LINE
8
Layer 1
10
25.936060
20
229.693651
11
27.344896
21
227.613870
0
LINE
8
Layer 1
10
27.344896
20
227.613870
11
29.047811
21
225.547018
0
LINE
8
Layer 1
10
29.047811
20
225.547018
11
30.996350
21
223.557665
0
LINE
8
Layer 1
10
30.996350
20
223.557665
11
33.142058
21
221.710380
0
LINE
8
Layer 1
10
33.142058
20
221.710380
11
35.436480
21
220.069730
0
LINE
8
Layer 1
10
35.436480
20
220.069730
11
38.154255
21
218.174132
0
LINE
8
Layer 1
10
38.154255
20
218.174132
11
39.287918
21
217.096217
0
LINE
8
Layer 1
10
39.287918
20
217.096217
11
39.104033
21
216.904457
0
LINE
8
Layer 1
10
39.104033
20
216.904457
11
38.574567
21
217.010637
0
LINE
8
Layer 1
10
38.574567
20
217.010637
11
36.659396
21
218.006576
0
LINE
8
Layer 1
10
36.659396
20
218.006576
11
33.903410
21
219.863550
0
LINE
8
Layer 1
10
33.903410
20
219.863550
11
30.667613
21
222.361076
0
LINE
8
Layer 1
10
30.667613
20
222.361076
11
27.225459
21
225.088297
0
LINE
8
Layer 1
10
27.225459
20
225.088297
11
24.862658
21
226.639433
0
LINE
8
Layer 1
10
24.862658
20
226.639433
11
23.896392
21
227.074143
0
LINE
8
Layer 1
10
23.896392
20
227.074143
11
22.972415
21
227.335040
0
LINE
8
Layer 1
10
22.972415
20
227.335040
11
20.947931
21
227.495674
0
LINE
8
Layer 1
10
20.947931
20
227.495674
11
19.374369
21
227.367920
0
LINE
8
Layer 1
10
19.374369
20
227.367920
11
18.091361
21
227.002535
0
LINE
8
Layer 1
10
18.091361
20
227.002535
11
17.090403
21
226.426340
0
LINE
8
Layer 1
10
17.090403
20
226.426340
11
16.362992
21
225.666153
0
LINE
8
Layer 1
10
16.362992
20
225.666153
11
15.900624
21
224.748794
0
LINE
8
Layer 1
10
15.900624
20
224.748794
11
15.694796
21
223.701082
0
LINE
8
Layer 1
10
15.694796
20
223.701082
11
15.737005
21
222.549835
0
LINE
8
Layer 1
10
15.737005
20
222.549835
11
16.018746
21
221.321873
0
LINE
8
Layer 1
10
16.018746
20
221.321873
11
16.531516
21
220.044015
0
LINE
8
Layer 1
10
16.531516
20
220.044015
11
17.266813
21
218.743080
0
LINE
8
Layer 1
10
17.266813
20
218.743080
11
18.216131
21
217.445887
0
LINE
8
Layer 1
10
18.216131
20
217.445887
11
19.370969
21
216.179255
0
LINE
8
Layer 1
10
19.370969
20
216.179255
11
20.722822
21
214.970004
0
LINE
8
Layer 1
10
20.722822
20
214.970004
11
22.263187
21
213.844952
0
LINE
8
Layer 1
10
22.263187
20
213.844952
11
23.983560
21
212.830919
0
LINE
8
Layer 1
10
23.983560
20
212.830919
11
25.875438
21
211.954724
0
LINE
8
Layer 1
10
25.875438
20
211.954724
11
27.474148
21
211.551358
0
LINE
8
Layer 1
10
27.474148
20
211.551358
11
30.093835
21
211.186814
0
LINE
8
Layer 1
10
30.093835
20
211.186814
11
37.696117
21
210.651374
0
LINE
8
Layer 1
10
37.696117
20
210.651374
11
45.403535
21
210.103411
0
LINE
8
Layer 1
10
45.403535
20
210.103411
11
48.478515
21
209.729731
0
LINE
8
Layer 1
10
48.478515
20
209.729731
11
50.475255
21
209.346663
0
LINE
8
Layer 1
10
50.475255
20
209.346663
11
53.424710
21
208.597247
0
LINE
8
Layer 1
10
53.424710
20
208.597247
11
54.418355
21
208.487472
0
LINE
8
Layer 1
10
54.418355
20
208.487472
11
55.187931
21
208.583577
0
LINE
8
Layer 1
10
55.187931
20
208.583577
11
55.805930
21
208.907506
0
LINE
8
Layer 1
10
55.805930
20
208.907506
11
56.344841
21
209.481202
0
LINE
8
Layer 1
10
56.344841
20
209.481202
11
57.475360
21
211.465672
0
LINE
8
Layer 1
10
57.475360
20
211.465672
11
57.475360
21
211.465672
0
LINE
8
Layer 1
10
266.123177
20
217.539583
11
265.953867
21
218.384414
0
LINE
8
Layer 1
10
265.953867
20
218.384414
11
265.506246
21
219.116986
0
LINE
8
Layer 1
10
265.506246
20
219.116986
11
264.870783
21
219.633010
0
LINE
8
Layer 1
10
264.870783
20
219.633010
11
264.137944
21
219.828193
0
LINE
8
Layer 1
10
264.137944
20
219.828193
11
263.635407
21
219.753426
0
LINE
8
Layer 1
10
263.635407
20
219.753426
11
263.270099
21
219.552963
0
LINE
8
Layer 1
10
263.270099
20
219.552963
11
263.043565
21
219.262557
0
LINE
8
Layer 1
10
263.043565
20
219.262557
11
262.957350
21
218.917963
0
LINE
8
Layer 1
10
262.957350
20
218.917963
11
263.212054
21
218.209235
0
LINE
8
Layer 1
10
263.212054
20
218.209235
11
263.556063
21
217.916609
0
LINE
8
Layer 1
10
263.556063
20
217.916609
11
264.046569
21
217.712816
0
LINE
8
Layer 1
10
264.046569
20
217.712816
11
265.708184
21
217.352420
0
LINE
8
Layer 1
10
265.708184
20
217.352420
11
266.032449
21
217.380815
0
LINE
8
Layer 1
10
266.032449
20
217.380815
11
266.123177
21
217.539583
0
LINE
8
Layer 1
10
266.123177
20
217.539583
11
266.123177
21
217.539583
0
LINE
8
Layer 1
10
240.362732
20
249.825644
11
243.374100
21
251.986840
0
LINE
8
Layer 1
10
243.374100
20
251.986840
11
245.310053
21
253.640944
0
LINE
8
Layer 1
10
245.310053
20
253.640944
11
245.934867
21
254.416894
0
LINE
8
Layer 1
10
245.934867
20
254.416894
11
246.035319
21
255.050265
0
LINE
8
Layer 1
10
246.035319
20
255.050265
11
245.524382
21
255.843512
0
LINE
8
Layer 1
10
245.524382
20
255.843512
11
244.315031
21
257.099092
0
LINE
8
Layer 1
10
244.315031
20
257.099092
11
243.001542
21
258.205512
0
LINE
8
Layer 1
10
243.001542
20
258.205512
11
241.346612
21
259.189175
0
LINE
8
Layer 1
10
241.346612
20
259.189175
11
239.198500
21
260.126739
0
LINE
8
Layer 1
10
239.198500
20
260.126739
11
236.405468
21
261.094859
0
LINE
8
Layer 1
10
236.405468
20
261.094859
11
231.436705
21
262.847128
0
LINE
8
Layer 1
10
231.436705
20
262.847128
11
229.617700
21
263.658650
0
LINE
8
Layer 1
10
229.617700
20
263.658650
11
228.186060
21
264.463496
0
LINE
8
Layer 1
10
228.186060
20
264.463496
11
227.099622
21
265.288964
0
LINE
8
Layer 1
10
227.099622
20
265.288964
11
226.316222
21
266.162354
0
LINE
8
Layer 1
10
226.316222
20
266.162354
11
225.793696
21
267.110964
0
LINE
8
Layer 1
10
225.793696
20
267.110964
11
225.489880
21
268.162093
0
LINE
8
Layer 1
10
225.489880
20
268.162093
11
225.345621
21
270.054973
0
LINE
8
Layer 1
10
225.345621
20
270.054973
11
225.432020
21
270.811009
0
LINE
8
Layer 1
10
225.432020
20
270.811009
11
225.618477
21
271.302708
0
LINE
8
Layer 1
10
225.618477
20
271.302708
11
227.678573
21
274.086398
0
LINE
8
Layer 1
10
227.678573
20
274.086398
11
229.168765
21
276.081766
0
LINE
8
Layer 1
10
229.168765
20
276.081766
11
226.400659
21
277.294238
0
LINE
8
Layer 1
10
226.400659
20
277.294238
11
222.568744
21
278.657192
0
LINE
8
Layer 1
10
222.568744
20
278.657192
11
217.242980
21
280.231457
0
LINE
8
Layer 1
10
217.242980
20
280.231457
11
210.999956
21
282.148897
0
LINE
8
Layer 1
10
210.999956
20
282.148897
11
208.743098
21
283.082721
0
LINE
8
Layer 1
10
208.743098
20
283.082721
11
206.983034
21
284.051944
0
LINE
8
Layer 1
10
206.983034
20
284.051944
11
205.660033
21
285.095562
0
LINE
8
Layer 1
10
205.660033
20
285.095562
11
204.714362
21
286.252572
0
LINE
8
Layer 1
10
204.714362
20
286.252572
11
204.086290
21
287.561970
0
LINE
8
Layer 1
10
204.086290
20
287.561970
11
203.716086
21
289.062755
0
LINE
8
Layer 1
10
203.716086
20
289.062755
11
203.589380
21
290.328478
0
LINE
8
Layer 1
10
203.589380
20
290.328478
11
203.755827
21
291.287714
0
LINE
8
Layer 1
10
203.755827
20
291.287714
11
204.306437
21
292.174805
0
LINE
8
Layer 1
10
204.306437
20
292.174805
11
205.332220
21
293.224093
0
LINE
8
Layer 1
10
205.332220
20
293.224093
11
206.485391
21
294.431656
0
LINE
8
Layer 1
10
206.485391
20
294.431656
11
206.732381
21
294.889119
0
LINE
8
Layer 1
10
206.732381
20
294.889119
11
206.747572
21
295.294491
0
LINE
8
Layer 1
10
206.747572
20
295.294491
11
206.521914
21
295.681862
0
LINE
8
Layer 1
10
206.521914
20
295.681862
11
206.046356
21
296.085322
0
LINE
8
Layer 1
10
206.046356
20
296.085322
11
204.309339
21
297.076870
0
LINE
8
Layer 1
10
204.309339
20
297.076870
11
202.988565
21
297.442058
0
LINE
8
Layer 1
10
202.988565
20
297.442058
11
200.451295
21
297.886825
0
LINE
8
Layer 1
10
200.451295
20
297.886825
11
193.187069
21
298.790218
0
LINE
8
Layer 1
10
193.187069
20
298.790218
11
185.950756
21
299.677887
0
LINE
8
Layer 1
10
185.950756
20
299.677887
11
183.443705
21
300.105631
0
LINE
8
Layer 1
10
183.443705
20
300.105631
11
182.159831
21
300.450032
0
LINE
8
Layer 1
10
182.159831
20
300.450032
11
180.865743
21
301.228316
0
LINE
8
Layer 1
10
180.865743
20
301.228316
11
179.858321
21
302.076511
0
LINE
8
Layer 1
10
179.858321
20
302.076511
11
179.139406
21
302.988142
0
LINE
8
Layer 1
10
179.139406
20
302.988142
11
178.710838
21
303.956732
0
LINE
8
Layer 1
10
178.710838
20
303.956732
11
178.574458
21
304.975808
0
LINE
8
Layer 1
10
178.574458
20
304.975808
11
178.732105
21
306.038893
0
LINE
8
Layer 1
10
178.732105
20
306.038893
11
179.185622
21
307.139512
0
LINE
8
Layer 1
10
179.185622
20
307.139512
11
179.936848
21
308.271189
0
LINE
8
Layer 1
10
179.936848
20
308.271189
11
180.759837
21
309.614857
0
LINE
8
Layer 1
10
180.759837
20
309.614857
11
180.908252
21
310.125465
0
LINE
8
Layer 1
10
180.908252
20
310.125465
11
180.841695
21
310.433968
0
LINE
8
Layer 1
10
180.841695
20
310.433968
11
179.747306
21
310.613926
0
LINE
8
Layer 1
10
179.747306
20
310.613926
11
177.097165
21
310.774529
0
LINE
8
Layer 1
10
177.097165
20
310.774529
11
168.720536
21
310.967630
0
LINE
8
Layer 1
10
168.720536
20
310.967630
11
159.692394
21
311.226110
0
LINE
8
Layer 1
10
159.692394
20
311.226110
11
157.008676
21
311.477965
0
LINE
8
Layer 1
10
157.008676
20
311.477965
11
155.644932
21
311.805175
0
LINE
8
Layer 1
10
155.644932
20
311.805175
11
154.960512
21
312.267637
0
LINE
8
Layer 1
10
154.960512
20
312.267637
11
154.386550
21
312.852250
0
LINE
8
Layer 1
10
154.386550
20
312.852250
11
153.597092
21
314.306951
0
LINE
8
Layer 1
10
153.597092
20
314.306951
11
153.330756
21
316.007319
0
LINE
8
Layer 1
10
153.330756
20
316.007319
11
153.410695
21
316.899016
0
LINE
8
Layer 1
10
153.410695
20
316.899016
11
153.641738
21
317.791395
0
LINE
8
Layer 1
10
153.641738
20
317.791395
11
154.305737
21
320.239757
0
LINE
8
Layer 1
10
154.305737
20
320.239757
11
154.014814
21
320.533357
0
LINE
8
Layer 1
10
154.014814
20
320.533357
11
153.194190
21
320.707895
0
LINE
8
Layer 1
10
153.194190
20
320.707895
11
150.276684
21
320.717743
0
LINE
8
Layer 1
10
150.276684
20
320.717743
11
146.178920
21
320.305215
0
LINE
8
Layer 1
10
146.178920
20
320.305215
11
141.526599
21
319.506228
0
LINE
8
Layer 1
10
141.526599
20
319.506228
11
135.760793
21
318.429734
0
LINE
8
Layer 1
10
135.760793
20
318.429734
11
131.350862
21
317.883638
0
LINE
8
Layer 1
10
131.350862
20
317.883638
11
128.211725
21
317.861539
0
LINE
8
Layer 1
10
128.211725
20
317.861539
11
127.092118
21
318.044986
0
LINE
8
Layer 1
10
127.092118
20
318.044986
11
126.258306
21
318.357032
0
LINE
8
Layer 1
10
126.258306
20
318.357032
11
125.479033
21
318.858842
0
LINE
8
Layer 1
10
125.479033
20
318.858842
11
124.876472
21
319.425132
0
LINE
8
Layer 1
10
124.876472
20
319.425132
11
124.450409
21
320.056874
0
LINE
8
Layer 1
10
124.450409
20
320.056874
11
124.200628
21
320.755043
0
LINE
8
Layer 1
10
124.200628
20
320.755043
11
124.126915
21
321.520612
0
LINE
8
Layer 1
10
124.126915
20
321.520612
11
124.229055
21
322.354553
0
LINE
8
Layer 1
10
124.229055
20
322.354553
11
124.960033
21
324.231448
0
LINE
8
Layer 1
10
124.960033
20
324.231448
11
125.612657
21
325.502707
0
LINE
8
Layer 1
10
125.612657
20
325.502707
11
125.843518
21
326.204277
0
LINE
8
Layer 1
10
125.843518
20
326.204277
11
125.661303
21
326.517394
0
LINE
8
Layer 1
10
125.661303
20
326.517394
11
125.074703
21
326.623292
0
LINE
8
Layer 1
10
125.074703
20
326.623292
11
122.378407
21
326.627125
0
LINE
8
Layer 1
10
122.378407
20
326.627125
11
119.654355
21
326.152645
0
LINE
8
Layer 1
10
119.654355
20
326.152645
11
116.647201
21
325.133299
0
LINE
8
Layer 1
10
116.647201
20
325.133299
11
113.101603
21
323.502532
0
LINE
8
Layer 1
10
113.101603
20
323.502532
11
110.163004
21
322.108991
0
LINE
8
Layer 1
10
110.163004
20
322.108991
11
107.735092
21
321.165349
0
LINE
8
Layer 1
10
107.735092
20
321.165349
11
105.565931
21
320.588266
0
LINE
8
Layer 1
10
105.565931
20
320.588266
11
103.403586
21
320.294400
0
LINE
8
Layer 1
10
103.403586
20
320.294400
11
101.223591
21
320.168969
0
LINE
8
Layer 1
10
101.223591
20
320.168969
11
99.823869
21
320.287884
0
LINE
8
Layer 1
10
99.823869
20
320.287884
11
98.816147
21
320.743862
0
LINE
8
Layer 1
10
98.816147
20
320.743862
11
97.812152
21
321.629622
0
LINE
8
Layer 1
10
97.812152
20
321.629622
11
97.066868
21
322.506087
0
LINE
8
Layer 1
10
97.066868
20
322.506087
11
96.553307
21
323.427065
0
LINE
8
Layer 1
10
96.553307
20
323.427065
11
96.256298
21
324.428541
0
LINE
8
Layer 1
10
96.256298
20
324.428541
11
96.160666
21
325.546504
0
LINE
8
Layer 1
10
96.160666
20
325.546504
11
96.109583
21
326.764385
0
LINE
8
Layer 1
10
96.109583
20
326.764385
11
95.878017
21
327.445227
0
LINE
8
Layer 1
10
95.878017
20
327.445227
11
95.348492
21
327.739547
0
LINE
8
Layer 1
10
95.348492
20
327.739547
11
94.403534
21
327.797861
0
LINE
8
Layer 1
10
94.403534
20
327.797861
11
93.415963
21
327.705194
0
LINE
8
Layer 1
10
93.415963
20
327.705194
11
92.298646
21
327.437998
0
LINE
8
Layer 1
10
92.298646
20
327.437998
11
89.625622
21
326.356030
0
LINE
8
Layer 1
10
89.625622
20
326.356030
11
86.286149
21
324.503981
0
LINE
8
Layer 1
10
86.286149
20
324.503981
11
82.181920
21
321.833877
0
LINE
8
Layer 1
10
82.181920
20
321.833877
11
78.926492
21
319.747374
0
LINE
8
Layer 1
10
78.926492
20
319.747374
11
76.099769
21
318.248635
0
LINE
8
Layer 1
10
76.099769
20
318.248635
11
73.683392
21
317.337353
0
LINE
8
Layer 1
10
73.683392
20
317.337353
11
71.658997
21
317.013222
0
LINE
8
Layer 1
10
71.658997
20
317.013222
11
70.788055
21
317.071242
0
LINE
8
Layer 1
10
70.788055
20
317.071242
11
70.008224
21
317.275934
0
LINE
8
Layer 1
10
70.008224
20
317.275934
11
69.317207
21
317.627260
0
LINE
8
Layer 1
10
69.317207
20
317.627260
11
68.712710
21
318.125183
0
LINE
8
Layer 1
10
68.712710
20
318.125183
11
68.192438
21
318.769663
0
LINE
8
Layer 1
10
68.192438
20
318.769663
11
67.754095
21
319.560662
0
LINE
8
Layer 1
10
67.754095
20
319.560662
11
67.114016
21
321.582064
0
LINE
8
Layer 1
10
67.114016
20
321.582064
11
66.706914
21
322.626148
0
LINE
8
Layer 1
10
66.706914
20
322.626148
11
66.018059
21
323.183992
0
LINE
8
Layer 1
10
66.018059
20
323.183992
11
65.034879
21
323.249659
0
LINE
8
Layer 1
10
65.034879
20
323.249659
11
63.744802
21
322.817214
0
LINE
8
Layer 1
10
63.744802
20
322.817214
11
62.135254
21
321.880722
0
LINE
8
Layer 1
10
62.135254
20
321.880722
11
60.193662
21
320.434246
0
LINE
8
Layer 1
10
60.193662
20
320.434246
11
55.264056
21
315.987601
0
LINE
8
Layer 1
10
55.264056
20
315.987601
11
51.057080
21
312.228815
0
LINE
8
Layer 1
10
51.057080
20
312.228815
11
49.303614
21
310.960217
0
LINE
8
Layer 1
10
49.303614
20
310.960217
11
47.743505
21
310.080073
0
LINE
8
Layer 1
10
47.743505
20
310.080073
11
46.346756
21
309.574323
0
LINE
8
Layer 1
10
46.346756
20
309.574323
11
45.083374
21
309.428908
0
LINE
8
Layer 1
10
45.083374
20
309.428908
11
43.923364
21
309.629770
0
LINE
8
Layer 1
10
43.923364
20
309.629770
11
42.836730
21
310.162851
0
LINE
8
Layer 1
10
42.836730
20
310.162851
11
42.205250
21
310.677867
0
LINE
8
Layer 1
10
42.205250
20
310.677867
11
41.688121
21
311.292397
0
LINE
8
Layer 1
10
41.688121
20
311.292397
11
41.338709
21
311.929370
0
LINE
8
Layer 1
10
41.338709
20
311.929370
11
41.210380
21
312.511715
0
LINE
8
Layer 1
10
41.210380
20
312.511715
11
41.140642
21
313.100233
0
LINE
8
Layer 1
10
41.140642
20
313.100233
11
40.942310
21
313.567494
0
LINE
8
Layer 1
10
40.942310
20
313.567494
11
40.631698
21
313.908345
0
LINE
8
Layer 1
10
40.631698
20
313.908345
11
40.225126
21
314.117635
0
LINE
8
Layer 1
10
40.225126
20
314.117635
11
39.189370
21
314.120924
0
LINE
8
Layer 1
10
39.189370
20
314.120924
11
37.965580
21
313.536148
0
LINE
8
Layer 1
10
37.965580
20
313.536148
11
35.460795
21
310.819361
0
LINE
8
Layer 1
10
35.460795
20
310.819361
11
31.386630
21
305.651938
0
LINE
8
Layer 1
10
31.386630
20
305.651938
11
27.578035
21
300.924183
0
LINE
8
Layer 1
10
27.578035
20
300.924183
11
25.988554
21
299.271227
0
LINE
8
Layer 1
10
25.988554
20
299.271227
11
24.557469
21
298.054170
0
LINE
8
Layer 1
10
24.557469
20
298.054170
11
23.246167
21
297.244475
0
LINE
8
Layer 1
10
23.246167
20
297.244475
11
22.016037
21
296.813607
0
LINE
8
Layer 1
10
22.016037
20
296.813607
11
20.828465
21
296.733028
0
LINE
8
Layer 1
10
20.828465
20
296.733028
11
19.644841
21
296.974203
0
LINE
8
Layer 1
10
19.644841
20
296.974203
11
18.862026
21
297.356672
0
LINE
8
Layer 1
10
18.862026
20
297.356672
11
18.029008
21
297.971393
0
LINE
8
Layer 1
10
18.029008
20
297.971393
11
17.245337
21
298.733569
0
LINE
8
Layer 1
10
17.245337
20
298.733569
11
16.610565
21
299.558405
0
LINE
8
Layer 1
10
16.610565
20
299.558405
11
15.548714
21
300.983101
0
LINE
8
Layer 1
10
15.548714
20
300.983101
11
14.790305
21
301.590052
0
LINE
8
Layer 1
10
14.790305
20
301.590052
11
14.210249
21
301.399774
0
LINE
8
Layer 1
10
14.210249
20
301.399774
11
13.470270
21
300.815535
0
LINE
8
Layer 1
10
13.470270
20
300.815535
11
11.645494
21
298.650951
0
LINE
8
Layer 1
10
11.645494
20
298.650951
11
9.585866
21
295.467856
0
LINE
8
Layer 1
10
9.585866
20
295.467856
11
7.561273
21
291.637807
0
LINE
8
Layer 1
10
7.561273
20
291.637807
11
5.212485
21
287.026402
0
LINE
8
Layer 1
10
5.212485
20
287.026402
11
3.455914
21
284.117299
0
LINE
8
Layer 1
10
3.455914
20
284.117299
11
2.316305
21
282.888956
0
LINE
8
Layer 1
10
2.316305
20
282.888956
11
1.051198
21
281.914193
0
LINE
8
Layer 1
10
1.051198
20
281.914193
11
-0.299918
21
281.201534
0
LINE
8
Layer 1
10
-0.299918
20
281.201534
11
-1.697553
21
280.759505
0
LINE
8
Layer 1
10
-1.697553
20
280.759505
11
-3.102218
21
280.596628
0
LINE
8
Layer 1
10
-3.102218
20
280.596628
11
-4.474422
21
280.721428
0
LINE
8
Layer 1
10
-4.474422
20
280.721428
11
-5.774676
21
281.142430
0
LINE
8
Layer 1
10
-5.774676
20
281.142430
11
-6.963491
21
281.868157
0
LINE
8
Layer 1
10
-6.963491
20
281.868157
11
-8.433299
21
282.711206
0
LINE
8
Layer 1
10
-8.433299
20
282.711206
11
-9.088630
21
282.887766
0
LINE
8
Layer 1
10
-9.088630
20
282.887766
11
-9.576570
21
282.857724
0
LINE
8
Layer 1
10
-9.576570
20
282.857724
11
-10.119367
21
282.493327
0
LINE
8
Layer 1
10
-10.119367
20
282.493327
11
-10.697490
21
281.809875
0
LINE
8
Layer 1
10
-10.697490
20
281.809875
11
-11.937771
21
279.534577
0
LINE
8
Layer 1
10
-11.937771
20
279.534577
11
-13.253529
21
276.129373
0
LINE
8
Layer 1
10
-13.253529
20
276.129373
11
-14.600879
21
271.691805
0
LINE
8
Layer 1
10
-14.600879
20
271.691805
11
-16.230859
21
265.743508
0
LINE
8
Layer 1
10
-16.230859
20
265.743508
11
-14.085815
21
263.402867
0
LINE
8
Layer 1
10
-14.085815
20
263.402867
11
-11.940773
21
261.062229
0
LINE
8
Layer 1
10
-11.940773
20
261.062229
11
-5.332619
21
267.491375
0
LINE
8
Layer 1
10
-5.332619
20
267.491375
11
3.077292
21
275.450471
0
LINE
8
Layer 1
10
3.077292
20
275.450471
11
6.668533
21
278.619903
0
LINE
8
Layer 1
10
6.668533
20
278.619903
11
10.076248
21
281.428027
0
LINE
8
Layer 1
10
10.076248
20
281.428027
11
13.469649
21
284.008923
0
LINE
8
Layer 1
10
13.469649
20
284.008923
11
17.017949
21
286.496668
0
LINE
8
Layer 1
10
17.017949
20
286.496668
11
25.256096
21
291.729018
0
LINE
8
Layer 1
10
25.256096
20
291.729018
11
32.699122
21
295.921203
0
LINE
8
Layer 1
10
32.699122
20
295.921203
11
40.576134
21
299.736573
0
LINE
8
Layer 1
10
40.576134
20
299.736573
11
48.797643
21
303.146437
0
LINE
8
Layer 1
10
48.797643
20
303.146437
11
57.274158
21
306.122103
0
LINE
8
Layer 1
10
57.274158
20
306.122103
11
65.916191
21
308.634879
0
LINE
8
Layer 1
10
65.916191
20
308.634879
11
74.634252
21
310.656073
0
LINE
8
Layer 1
10
74.634252
20
310.656073
11
83.338850
21
312.156993
0
LINE
8
Layer 1
10
83.338850
20
312.156993
11
91.940496
21
313.108948
0
LINE
8
Layer 1
10
91.940496
20
313.108948
11
100.627151
21
313.577260
0
LINE
8
Layer 1
10
100.627151
20
313.577260
11
109.857822
21
313.729100
0
LINE
8
Layer 1
10
109.857822
20
313.729100
11
118.377326
21
313.565312
0
LINE
8
Layer 1
10
118.377326
20
313.565312
11
124.930481
21
313.086744
0
LINE
8
Layer 1
10
124.930481
20
313.086744
11
131.874652
21
311.957538
0
LINE
8
Layer 1
10
131.874652
20
311.957538
11
139.740668
21
310.229988
0
LINE
8
Layer 1
10
139.740668
20
310.229988
11
147.777667
21
308.086849
0
LINE
8
Layer 1
10
147.777667
20
308.086849
11
155.234784
21
305.710874
0
LINE
8
Layer 1
10
155.234784
20
305.710874
11
159.348802
21
304.346344
0
LINE
8
Layer 1
10
159.348802
20
304.346344
11
162.962855
21
303.331579
0
LINE
8
Layer 1
10
162.962855
20
303.331579
11
166.234481
21
302.627250
0
LINE
8
Layer 1
10
166.234481
20
302.627250
11
169.321220
21
302.194024
0
LINE
8
Layer 1
10
169.321220
20
302.194024
11
173.522946
21
301.722176
0
LINE
8
Layer 1
10
173.522946
20
301.722176
11
175.717697
21
301.246569
0
LINE
8
Layer 1
10
175.717697
20
301.246569
11
176.253784
21
300.930669
0
LINE
8
Layer 1
10
176.253784
20
300.930669
11
176.517720
21
300.521802
0
LINE
8
Layer 1
10
176.517720
20
300.521802
11
176.535261
21
299.302471
0
LINE
8
Layer 1
10
176.535261
20
299.302471
11
176.527718
21
298.754546
0
LINE
8
Layer 1
10
176.527718
20
298.754546
11
176.684871
21
298.232370
0
LINE
8
Layer 1
10
176.684871
20
298.232370
11
177.085186
21
297.672801
0
LINE
8
Layer 1
10
177.085186
20
297.672801
11
177.807129
21
297.012694
0
LINE
8
Layer 1
10
177.807129
20
297.012694
11
180.529758
21
295.138301
0
LINE
8
Layer 1
10
180.529758
20
295.138301
11
185.480483
21
292.104046
0
LINE
8
Layer 1
10
185.480483
20
292.104046
11
192.426171
21
287.797327
0
LINE
8
Layer 1
10
192.426171
20
287.797327
11
198.570822
21
283.698089
0
LINE
8
Layer 1
10
198.570822
20
283.698089
11
204.126916
21
279.622653
0
LINE
8
Layer 1
10
204.126916
20
279.622653
11
209.306938
21
275.387343
0
LINE
8
Layer 1
10
209.306938
20
275.387343
11
214.323369
21
270.808482
0
LINE
8
Layer 1
10
214.323369
20
270.808482
11
219.388691
21
265.702393
0
LINE
8
Layer 1
10
219.388691
20
265.702393
11
224.715388
21
259.885398
0
LINE
8
Layer 1
10
224.715388
20
259.885398
11
230.515942
21
253.173821
0
LINE
8
Layer 1
10
230.515942
20
253.173821
11
234.185561
21
249.027793
0
LINE
8
Layer 1
10
234.185561
20
249.027793
11
235.427958
21
247.766555
0
LINE
8
Layer 1
10
235.427958
20
247.766555
11
236.033999
21
247.303336
0
LINE
8
Layer 1
10
236.033999
20
247.303336
11
237.533078
21
248.044263
0
LINE
8
Layer 1
10
237.533078
20
248.044263
11
240.362732
21
249.825644
0
LINE
8
Layer 1
10
240.362732
20
249.825644
11
240.362732
21
249.825644
 0 
ENDSEC
 0 
EOF
