0
SECTION
2
HEADER
9
$ACADVER
1
AC1009
9
$ANGDIR
70
0
9
$EXTMIN
10
0
20
0
9
$EXTMAX
10
24.0000
20
18.0000
0
ENDSEC
0
SECTION
2
ENTITIES
0
POLYLINE
8
Layer 1
66
1
0
VERTEX
8
0
10
4.3883
20
6.7312
42
0.0853
0
VERTEX
8
0
10
4.2504
20
6.7606
42
0.0343
0
VERTEX
8
0
10
4.1089
20
6.7609
42
-0.0170
0
VERTEX
8
0
10
3.9674
20
6.7611
42
-0.0699
0
VERTEX
8
0
10
3.8295
20
6.7905
42
-0.1312
0
VERTEX
8
0
10
3.6876
20
6.8967
42
-0.1042
0
VERTEX
8
0
10
3.6068
20
7.0553
42
-0.1235
0
VERTEX
8
0
10
3.7958
20
7.1100
42
-0.0990
0
VERTEX
8
0
10
3.9480
20
7.0852
42
-0.0849
0
VERTEX
8
0
10
4.0670
20
7.0082
42
-0.0337
0
VERTEX
8
0
10
4.1681
20
6.9082
42
0.0167
0
VERTEX
8
0
10
4.2693
20
6.8083
42
0.0691
0
VERTEX
8
0
10
4.3883
20
6.7312
0
SEQEND
8
0
0
POLYLINE
8
Layer 1
66
1
0
VERTEX
8
0
10
4.3883
20
5.2688
42
-0.0700
0
VERTEX
8
0
10
4.2504
20
5.2394
42
-0.0169
0
VERTEX
8
0
10
4.1089
20
5.2391
42
0.0343
0
VERTEX
8
0
10
3.9674
20
5.2389
42
0.0853
0
VERTEX
8
0
10
3.8295
20
5.2095
42
0.2374
0
VERTEX
8
0
10
3.6068
20
4.9447
42
0.1244
0
VERTEX
8
0
10
3.7958
20
4.8900
42
0.1016
0
VERTEX
8
0
10
3.9480
20
4.9148
42
0.0689
0
VERTEX
8
0
10
4.0670
20
4.9918
42
0.0165
0
VERTEX
8
0
10
4.1681
20
5.0918
42
-0.0337
0
VERTEX
8
0
10
4.2693
20
5.1917
42
-0.0848
0
VERTEX
8
0
10
4.3883
20
5.2688
0
SEQEND
8
0
0
POLYLINE
8
Layer 1
66
1
0
VERTEX
8
0
10
5.3325
20
4.3178
42
-0.0688
0
VERTEX
8
0
10
5.2555
20
4.1986
42
-0.0165
0
VERTEX
8
0
10
5.1555
20
4.0972
42
0.0335
0
VERTEX
8
0
10
5.0555
20
3.9959
42
0.0844
0
VERTEX
8
0
10
4.9785
20
3.8767
42
0.2437
0
VERTEX
8
0
10
5.0093
20
3.5355
42
0.1038
0
VERTEX
8
0
10
5.1673
20
3.6174
42
0.1293
0
VERTEX
8
0
10
5.2733
20
3.7597
42
0.0700
0
VERTEX
8
0
10
5.3026
20
3.8974
42
0.0170
0
VERTEX
8
0
10
5.3029
20
4.0387
42
-0.0345
0
VERTEX
8
0
10
5.3031
20
4.1801
42
-0.0853
0
VERTEX
8
0
10
5.3325
20
4.3178
0
SEQEND
8
0
0
POLYLINE
8
Layer 1
66
1
0
VERTEX
8
0
10
6.6675
20
4.3178
42
-0.0699
0
VERTEX
8
0
10
6.6969
20
4.1801
42
-0.0169
0
VERTEX
8
0
10
6.6971
20
4.0388
42
0.0345
0
VERTEX
8
0
10
6.6974
20
3.8974
42
0.0852
0
VERTEX
8
0
10
6.7267
20
3.7597
42
0.2356
0
VERTEX
8
0
10
6.9907
20
3.5355
42
0.1075
0
VERTEX
8
0
10
7.0465
20
3.7028
42
0.1315
0
VERTEX
8
0
10
7.0215
20
3.8767
42
0.0688
0
VERTEX
8
0
10
6.9445
20
3.9959
42
0.0166
0
VERTEX
8
0
10
6.8445
20
4.0972
42
-0.0335
0
VERTEX
8
0
10
6.7445
20
4.1986
42
-0.0847
0
VERTEX
8
0
10
6.6675
20
4.3178
0
SEQEND
8
0
0
POLYLINE
8
Layer 1
66
1
0
VERTEX
8
0
10
7.6117
20
5.2688
42
-0.0691
0
VERTEX
8
0
10
7.7307
20
5.1917
42
-0.0167
0
VERTEX
8
0
10
7.8319
20
5.0918
42
0.0337
0
VERTEX
8
0
10
7.9330
20
4.9918
42
0.0849
0
VERTEX
8
0
10
8.0520
20
4.9148
42
0.0990
0
VERTEX
8
0
10
8.2042
20
4.8900
42
0.1235
0
VERTEX
8
0
10
8.3932
20
4.9447
42
0.1042
0
VERTEX
8
0
10
8.3124
20
5.1033
42
0.1312
0
VERTEX
8
0
10
8.1705
20
5.2095
42
0.0699
0
VERTEX
8
0
10
8.0326
20
5.2389
42
0.0170
0
VERTEX
8
0
10
7.8911
20
5.2391
42
-0.0343
0
VERTEX
8
0
10
7.7496
20
5.2394
42
-0.0853
0
VERTEX
8
0
10
7.6117
20
5.2688
0
SEQEND
8
0
0
POLYLINE
8
Layer 1
66
1
0
VERTEX
8
0
10
6.5617
20
6.0000
42
0.4141
0
VERTEX
8
0
10
6.0000
20
6.5617
42
0.4141
0
VERTEX
8
0
10
5.4383
20
6.0000
42
0.4141
0
VERTEX
8
0
10
6.0000
20
5.4383
42
0.4141
0
VERTEX
8
0
10
6.5617
20
6.0000
0
SEQEND
8
0
0
POLYLINE
8
Layer 1
66
1
0
VERTEX
8
0
10
7.8319
20
6.9082
42
-0.0165
0
VERTEX
8
0
10
7.9330
20
7.0082
42
-0.0689
0
VERTEX
8
0
10
8.0520
20
7.0852
42
-0.0740
0
VERTEX
8
0
10
8.1653
20
7.1100
42
-0.0326
0
VERTEX
8
0
10
8.2042
20
7.1100
42
-0.1244
0
VERTEX
8
0
10
8.3932
20
7.0553
42
-0.2374
0
VERTEX
8
0
10
8.1705
20
6.7905
42
-0.0853
0
VERTEX
8
0
10
8.0326
20
6.7611
42
-0.0343
0
VERTEX
8
0
10
7.8911
20
6.7609
42
0.0170
0
VERTEX
8
0
10
7.7496
20
6.7606
42
0.0699
0
VERTEX
8
0
10
7.6117
20
6.7312
42
0.0848
0
VERTEX
8
0
10
7.7307
20
6.8083
42
0.0337
0
VERTEX
8
0
10
7.8319
20
6.9082
0
SEQEND
8
0
0
POLYLINE
8
Layer 1
66
1
0
VERTEX
8
0
10
6.6974
20
8.1026
42
-0.0700
0
VERTEX
8
0
10
6.7267
20
8.2403
42
-0.1293
0
VERTEX
8
0
10
6.8327
20
8.3826
42
-0.1038
0
VERTEX
8
0
10
6.9907
20
8.4645
42
-0.2437
0
VERTEX
8
0
10
7.0215
20
8.1233
42
-0.0844
0
VERTEX
8
0
10
6.9445
20
8.0041
42
-0.0335
0
VERTEX
8
0
10
6.8445
20
7.9028
42
0.0165
0
VERTEX
8
0
10
6.7445
20
7.8014
42
0.0688
0
VERTEX
8
0
10
6.6675
20
7.6822
42
0.0853
0
VERTEX
8
0
10
6.6969
20
7.8199
42
0.0345
0
VERTEX
8
0
10
6.6971
20
7.9613
42
-0.0170
0
VERTEX
8
0
10
6.6974
20
8.1026
0
SEQEND
8
0
0
POLYLINE
8
Layer 1
66
1
0
VERTEX
8
0
10
5.0093
20
8.4645
42
0.1075
0
VERTEX
8
0
10
4.9535
20
8.2972
42
0.1315
0
VERTEX
8
0
10
4.9785
20
8.1233
42
0.0688
0
VERTEX
8
0
10
5.0555
20
8.0041
42
0.0166
0
VERTEX
8
0
10
5.1555
20
7.9028
42
-0.0335
0
VERTEX
8
0
10
5.2555
20
7.8014
42
-0.0847
0
VERTEX
8
0
10
5.3325
20
7.6822
42
-0.0699
0
VERTEX
8
0
10
5.3031
20
7.8199
42
-0.0169
0
VERTEX
8
0
10
5.3029
20
7.9612
42
0.0345
0
VERTEX
8
0
10
5.3026
20
8.1026
42
0.0852
0
VERTEX
8
0
10
5.2733
20
8.2403
42
0.2356
0
VERTEX
8
0
10
5.0093
20
8.4645
0
SEQEND
8
0
0
POLYLINE
8
Layer 1
66
1
0
VERTEX
8
0
10
4.9500
20
9.9225
42
0.1247
0
VERTEX
8
0
10
5.0713
20
9.8852
42
0.0638
0
VERTEX
8
0
10
5.1990
20
9.8888
42
0.1203
0
VERTEX
8
0
10
5.2993
20
9.9276
42
0.1565
0
VERTEX
8
0
10
5.3611
20
10.0150
42
0.2426
0
VERTEX
8
0
10
5.3269
20
10.2229
42
0.1654
0
VERTEX
8
0
10
5.1596
20
10.3564
42
0.1133
0
VERTEX
8
0
10
4.9470
20
10.3890
42
0.0593
0
VERTEX
8
0
10
4.7491
20
10.3572
42
0.1027
0
VERTEX
8
0
10
4.5750
20
10.2600
42
0.0669
0
VERTEX
8
0
10
4.2518
20
10.4227
42
-0.1201
0
VERTEX
8
0
10
4.5543
20
10.6815
42
-0.1068
0
VERTEX
8
0
10
4.9410
20
10.7813
42
-0.0139
0
VERTEX
8
0
10
5.0048
20
10.7835
42
-0.0808
0
VERTEX
8
0
10
5.2563
20
10.7432
42
-0.1154
0
VERTEX
8
0
10
5.4689
20
10.6048
42
-0.1050
0
VERTEX
8
0
10
5.6017
20
10.3878
42
-0.0776
0
VERTEX
8
0
10
5.6542
20
10.1393
42
-0.1382
0
VERTEX
8
0
10
5.5029
20
9.7848
42
-0.1903
0
VERTEX
8
0
10
5.1712
20
9.5992
42
0.0576
0
VERTEX
8
0
10
4.9500
20
9.9225
0
SEQEND
8
0
0
POLYLINE
8
Layer 1
66
1
0
VERTEX
8
0
10
4.8810
20
9.9968
42
0.0324
0
VERTEX
8
0
10
4.6560
20
10.2008
42
-0.1772
0
VERTEX
8
0
10
4.8300
20
10.2577
42
-0.0939
0
VERTEX
8
0
10
4.9890
20
10.2292
42
-0.1973
0
VERTEX
8
0
10
5.0726
20
10.1554
42
-0.2406
0
VERTEX
8
0
10
5.0586
20
10.0444
42
-0.1950
0
VERTEX
8
0
10
4.9706
20
9.9752
42
-0.3126
0
VERTEX
8
0
10
4.8728
20
10.0185
42
0.0448
0
VERTEX
8
0
10
4.8810
20
9.9968
0
SEQEND
8
0
0
POLYLINE
8
Layer 1
66
1
0
VERTEX
8
0
10
4.6192
20
9.7571
42
-0.1653
0
VERTEX
8
0
10
4.5540
20
9.9435
42
-0.1251
0
VERTEX
8
0
10
4.5930
20
10.1265
42
-0.0614
0
VERTEX
8
0
10
4.8893
20
9.8550
42
-0.0475
0
VERTEX
8
0
10
5.0767
20
9.5933
42
-0.0841
0
VERTEX
8
0
10
4.7828
20
9.6458
42
-0.1681
0
VERTEX
8
0
10
4.6192
20
9.7571
0
SEQEND
8
0
0
POLYLINE
8
Layer 1
66
1
0
VERTEX
8
0
10
4.4022
20
9.4426
42
0.2428
0
VERTEX
8
0
10
4.2885
20
9.8670
42
0.1710
0
VERTEX
8
0
10
4.0740
20
9.9878
42
-0.0742
0
VERTEX
8
0
10
4.1880
20
10.3192
42
-0.0800
0
VERTEX
8
0
10
4.5097
20
10.1813
42
0.1645
0
VERTEX
8
0
10
4.4557
20
9.9398
42
0.1084
0
VERTEX
8
0
10
4.5295
20
9.7256
42
0.1250
0
VERTEX
8
0
10
4.6948
20
9.5710
42
0.0898
0
VERTEX
8
0
10
4.9093
20
9.4951
42
0.0530
0
VERTEX
8
0
10
5.1368
20
9.4762
42
-0.1394
0
VERTEX
8
0
10
5.2478
20
8.6933
42
0.0741
0
VERTEX
8
0
10
5.1714
20
8.9354
42
0.1007
0
VERTEX
8
0
10
5.0138
20
9.1335
42
-0.0522
0
VERTEX
8
0
10
4.5278
20
9.6270
42
-0.0376
0
VERTEX
8
0
10
4.5468
20
9.2825
42
-0.0245
0
VERTEX
8
0
10
4.5307
20
8.9378
42
0.1085
0
VERTEX
8
0
10
4.5618
20
8.6789
42
0.0850
0
VERTEX
8
0
10
4.6860
20
8.4488
42
-0.1448
0
VERTEX
8
0
10
4.1767
20
9.0510
42
0.0451
0
VERTEX
8
0
10
4.3149
20
9.2326
42
0.0757
0
VERTEX
8
0
10
4.4022
20
9.4426
0
SEQEND
8
0
0
POLYLINE
8
Layer 1
66
1
0
VERTEX
8
0
10
4.0620
20
9.4860
42
-0.0579
0
VERTEX
8
0
10
4.0597
20
9.8895
42
-0.1510
0
VERTEX
8
0
10
4.2202
20
9.7965
42
-0.1502
0
VERTEX
8
0
10
4.3150
20
9.6229
42
-0.1554
0
VERTEX
8
0
10
4.2877
20
9.4267
42
-0.0691
0
VERTEX
8
0
10
4.1302
20
9.1748
42
-0.0486
0
VERTEX
8
0
10
4.0620
20
9.4860
0
SEQEND
8
0
0
POLYLINE
8
Layer 1
66
1
0
VERTEX
8
0
10
3.9510
20
9.6097
0
VERTEX
8
0
10
3.9510
20
9.6098
0
VERTEX
8
0
10
3.9510
20
9.6098
0
SEQEND
8
0
0
POLYLINE
8
Layer 1
66
1
0
VERTEX
8
0
10
3.7140
20
9.5546
42
-0.2480
0
VERTEX
8
0
10
3.7162
20
9.6638
42
-0.0859
0
VERTEX
8
0
10
3.8105
20
9.8099
42
-0.1461
0
VERTEX
8
0
10
3.9615
20
9.8925
42
0.0383
0
VERTEX
8
0
10
3.9622
20
9.5865
42
0.0356
0
VERTEX
8
0
10
3.9510
20
9.6097
42
-0.2559
0
VERTEX
8
0
10
3.9157
20
9.5065
42
-0.2383
0
VERTEX
8
0
10
3.8048
20
9.4891
42
-0.2018
0
VERTEX
8
0
10
3.7140
20
9.5546
0
SEQEND
8
0
0
POLYLINE
8
Layer 1
66
1
0
VERTEX
8
0
10
3.3375
20
9.1095
42
-0.1854
0
VERTEX
8
0
10
3.1143
20
9.5923
42
-0.1250
0
VERTEX
8
0
10
3.1757
20
9.8548
42
-0.0908
0
VERTEX
8
0
10
3.3383
20
10.0703
42
-0.0833
0
VERTEX
8
0
10
3.6330
20
10.2746
42
-0.1081
0
VERTEX
8
0
10
3.9832
20
10.3470
42
-0.0286
0
VERTEX
8
0
10
4.0680
20
10.3410
42
0.0802
0
VERTEX
8
0
10
3.9720
20
9.9930
42
0.1192
0
VERTEX
8
0
10
3.7828
20
9.9281
42
0.0720
0
VERTEX
8
0
10
3.6263
20
9.8018
42
0.0970
0
VERTEX
8
0
10
3.5079
20
9.6212
42
0.1490
0
VERTEX
8
0
10
3.4954
20
9.4077
42
0.2066
0
VERTEX
8
0
10
3.6273
20
9.2436
42
0.3063
0
VERTEX
8
0
10
3.8288
20
9.2798
42
0.0517
0
VERTEX
8
0
10
3.9180
20
9.3739
42
0.1019
0
VERTEX
8
0
10
3.9712
20
9.4913
42
0.0561
0
VERTEX
8
0
10
4.0620
20
9.1073
42
-0.1886
0
VERTEX
8
0
10
3.7019
20
8.9850
42
-0.1414
0
VERTEX
8
0
10
3.3375
20
9.1095
0
SEQEND
8
0
0
POLYLINE
8
Layer 1
66
1
0
VERTEX
8
0
10
2.4352
20
8.0317
42
0.0317
0
VERTEX
8
0
10
2.1307
20
8.0160
42
-0.1921
0
VERTEX
8
0
10
2.1980
20
8.1921
42
-0.1179
0
VERTEX
8
0
10
2.3527
20
8.3048
42
-0.1971
0
VERTEX
8
0
10
2.4640
20
8.3101
42
-0.2423
0
VERTEX
8
0
10
2.5310
20
8.2207
42
-0.1954
0
VERTEX
8
0
10
2.5154
20
8.1099
42
-0.3104
0
VERTEX
8
0
10
2.4150
20
8.0730
42
0.1875
0
VERTEX
8
0
10
2.5073
20
8.0533
42
0.1124
0
VERTEX
8
0
10
2.5984
20
8.0811
42
0.1194
0
VERTEX
8
0
10
2.7405
20
8.2080
42
0.1199
0
VERTEX
8
0
10
2.7854
20
8.3057
42
0.1567
0
VERTEX
8
0
10
2.7688
20
8.4113
42
0.2434
0
VERTEX
8
0
10
2.5995
20
8.5362
42
0.1653
0
VERTEX
8
0
10
2.3867
20
8.5150
42
0.1130
0
VERTEX
8
0
10
2.2118
20
8.3902
42
0.0659
0
VERTEX
8
0
10
2.0827
20
8.2129
42
0.1200
0
VERTEX
8
0
10
2.0332
20
8.0010
42
0.0661
0
VERTEX
8
0
10
1.6965
20
7.8908
42
-0.1236
0
VERTEX
8
0
10
1.7191
20
8.3076
42
-0.1140
0
VERTEX
8
0
10
1.9327
20
8.6678
42
-0.0768
0
VERTEX
8
0
10
2.1432
20
8.8390
42
-0.1191
0
VERTEX
8
0
10
2.4037
20
8.9093
42
-0.1140
0
VERTEX
8
0
10
2.6665
20
8.8525
42
-0.0827
0
VERTEX
8
0
10
2.8920
20
8.7045
42
-0.1426
0
VERTEX
8
0
10
3.0320
20
8.3325
42
-0.1977
0
VERTEX
8
0
10
2.9070
20
7.9612
0
VERTEX
8
0
10
2.9063
20
7.9612
42
0.0708
0
VERTEX
8
0
10
2.4352
20
8.0317
0
SEQEND
8
0
0
POLYLINE
8
Layer 1
66
1
0
VERTEX
8
0
10
2.4161
20
7.7082
42
-0.1660
0
VERTEX
8
0
10
2.2387
20
7.7963
42
-0.0992
0
VERTEX
8
0
10
2.1510
20
7.9215
42
-0.0396
0
VERTEX
8
0
10
2.3977
20
7.9410
42
-0.0145
0
VERTEX
8
0
10
2.5207
20
7.9388
42
-0.0483
0
VERTEX
8
0
10
2.8373
20
7.8908
42
-0.0714
0
VERTEX
8
0
10
2.6115
20
7.7430
42
-0.1685
0
VERTEX
8
0
10
2.4161
20
7.7082
0
SEQEND
8
0
0
POLYLINE
8
Layer 1
66
1
0
VERTEX
8
0
10
2.5988
20
6.8903
42
0.0457
0
VERTEX
8
0
10
2.5620
20
7.1095
42
0.0762
0
VERTEX
8
0
10
2.4706
20
7.3113
42
0.2378
0
VERTEX
8
0
10
2.0940
20
7.5165
42
0.1497
0
VERTEX
8
0
10
1.8847
20
7.4640
42
-0.0702
0
VERTEX
8
0
10
1.7258
20
7.7753
42
-0.0777
0
VERTEX
8
0
10
2.0520
20
7.9020
42
0.1383
0
VERTEX
8
0
10
2.1720
20
7.7258
42
0.1056
0
VERTEX
8
0
10
2.3682
20
7.6251
42
0.1222
0
VERTEX
8
0
10
2.5885
20
7.6254
42
0.0900
0
VERTEX
8
0
10
2.7915
20
7.7137
42
0.0539
0
VERTEX
8
0
10
2.9655
20
7.8518
42
-0.1449
0
VERTEX
8
0
10
3.6023
20
7.3928
42
0.0733
0
VERTEX
8
0
10
3.3805
20
7.5065
42
0.0995
0
VERTEX
8
0
10
3.1335
20
7.5337
42
-0.0503
0
VERTEX
8
0
10
2.4442
20
7.5368
42
-0.0372
0
VERTEX
8
0
10
2.7027
20
7.3060
42
-0.0248
0
VERTEX
8
0
10
2.9363
20
7.0500
42
0.1023
0
VERTEX
8
0
10
3.1292
20
6.8950
42
0.0832
0
VERTEX
8
0
10
3.3652
20
6.8182
42
-0.1442
0
VERTEX
8
0
10
2.5988
20
6.8903
0
SEQEND
8
0
0
POLYLINE
8
Layer 1
66
1
0
VERTEX
8
0
10
2.4780
20
6.9465
42
-0.0514
0
VERTEX
8
0
10
2.2057
20
7.1257
42
-0.0508
0
VERTEX
8
0
10
1.9455
20
7.3838
42
-0.1159
0
VERTEX
8
0
10
2.0963
20
7.4182
42
-0.1502
0
VERTEX
8
0
10
2.2867
20
7.3651
42
-0.1561
0
VERTEX
8
0
10
2.4082
20
7.2090
42
-0.0595
0
VERTEX
8
0
10
2.4780
20
6.9465
0
SEQEND
8
0
0
POLYLINE
8
Layer 1
66
1
0
VERTEX
8
0
10
2.3256
20
6.4891
42
-0.1477
0
VERTEX
8
0
10
1.9733
20
6.3067
42
-0.1854
0
VERTEX
8
0
10
1.4716
20
6.4840
42
-0.1249
0
VERTEX
8
0
10
1.3264
20
6.7112
42
-0.0908
0
VERTEX
8
0
10
1.2855
20
6.9780
42
-0.0991
0
VERTEX
8
0
10
1.3671
20
7.3862
42
-0.1275
0
VERTEX
8
0
10
1.6268
20
7.7100
42
0.0758
0
VERTEX
8
0
10
1.8052
20
7.4025
42
0.1353
0
VERTEX
8
0
10
1.7009
20
7.2132
42
0.0816
0
VERTEX
8
0
10
1.6777
20
6.9968
42
0.0970
0
VERTEX
8
0
10
1.7246
20
6.7859
42
0.1491
0
VERTEX
8
0
10
1.8692
20
6.6280
42
0.2062
0
VERTEX
8
0
10
2.0790
20
6.6081
42
0.3062
0
VERTEX
8
0
10
2.1937
20
6.7778
42
0.0870
0
VERTEX
8
0
10
2.1732
20
6.9669
42
0.0976
0
VERTEX
8
0
10
2.1241
20
7.0483
42
0.1428
0
VERTEX
8
0
10
2.0423
20
7.0950
42
-0.2551
0
VERTEX
8
0
10
2.0917
20
6.9979
42
-0.2395
0
VERTEX
8
0
10
2.0270
20
6.9064
42
-0.2029
0
VERTEX
8
0
10
1.9169
20
6.8875
42
-0.2476
0
VERTEX
8
0
10
1.8405
20
6.9652
42
-0.0941
0
VERTEX
8
0
10
1.8010
20
7.1511
42
-0.1715
0
VERTEX
8
0
10
1.8675
20
7.3260
42
0.0362
0
VERTEX
8
0
10
2.0798
20
7.1145
42
0.0691
0
VERTEX
8
0
10
2.4817
20
6.8483
42
-0.1915
0
VERTEX
8
0
10
2.3256
20
6.4891
0
SEQEND
8
0
0
POLYLINE
8
Layer 1
66
1
0
VERTEX
8
0
10
2.5695
20
6.0450
42
0.1108
0
VERTEX
8
0
10
2.7275
20
6.2053
42
0.1520
0
VERTEX
8
0
10
2.7862
20
6.4200
42
0.1166
0
VERTEX
8
0
10
2.7353
20
6.5800
42
0.1796
0
VERTEX
8
0
10
2.6010
20
6.6772
42
0.0146
0
VERTEX
8
0
10
2.6032
20
6.7980
42
0.1366
0
VERTEX
8
0
10
3.5070
20
6.7163
42
0.1457
0
VERTEX
8
0
10
3.3855
20
6.5050
42
0.1655
0
VERTEX
8
0
10
3.4192
20
6.2640
42
-0.0867
0
VERTEX
8
0
10
3.8474
20
6.4828
42
-0.0776
0
VERTEX
8
0
10
4.3237
20
6.5526
42
-0.0589
0
VERTEX
8
0
10
4.8026
20
6.4974
42
-0.0504
0
VERTEX
8
0
10
5.2598
20
6.3442
0
VERTEX
8
0
10
5.2747
20
6.3900
42
-0.0631
0
VERTEX
8
0
10
4.8430
20
6.6050
42
-0.0540
0
VERTEX
8
0
10
4.4652
20
6.9047
42
-0.0714
0
VERTEX
8
0
10
4.1778
20
7.2909
42
-0.0861
0
VERTEX
8
0
10
4.0298
20
7.7482
42
0.1772
0
VERTEX
8
0
10
3.8323
20
7.5977
42
0.1699
0
VERTEX
8
0
10
3.7717
20
7.3567
42
0.0772
0
VERTEX
8
0
10
3.4403
20
7.6888
42
0.0691
0
VERTEX
8
0
10
3.0308
20
7.9178
42
0.0157
0
VERTEX
8
0
10
3.1102
20
8.0085
42
0.2160
0
VERTEX
8
0
10
3.2755
20
7.9906
42
0.1421
0
VERTEX
8
0
10
3.4208
20
8.0753
42
0.1765
0
VERTEX
8
0
10
3.5207
20
8.2745
42
0.1049
0
VERTEX
8
0
10
3.5100
20
8.4998
42
-0.1836
0
VERTEX
8
0
10
3.4310
20
8.3636
42
-0.1820
0
VERTEX
8
0
10
3.3531
20
8.3487
42
-0.1023
0
VERTEX
8
0
10
3.2775
20
8.3753
42
-0.1096
0
VERTEX
8
0
10
3.1875
20
8.4526
42
-0.0433
0
VERTEX
8
0
10
3.1186
20
8.5499
42
-0.0130
0
VERTEX
8
0
10
2.9985
20
8.7562
42
0.1120
0
VERTEX
8
0
10
2.8594
20
8.8941
42
0.0601
0
VERTEX
8
0
10
2.6854
20
8.9860
42
0.0503
0
VERTEX
8
0
10
2.4962
20
9.0400
42
0.0828
0
VERTEX
8
0
10
2.3002
20
9.0413
42
0.1095
0
VERTEX
8
0
10
2.3431
20
9.2832
42
0.0810
0
VERTEX
8
0
10
2.3175
20
9.4035
42
0.1121
0
VERTEX
8
0
10
2.2462
20
9.5033
42
0.1670
0
VERTEX
8
0
10
2.1015
20
9.5633
42
0.2241
0
VERTEX
8
0
10
1.9267
20
9.4785
42
0.2581
0
VERTEX
8
0
10
1.8933
20
9.3510
42
0.1830
0
VERTEX
8
0
10
1.9582
20
9.2348
42
0.1082
0
VERTEX
8
0
10
2.0284
20
9.2012
42
0.1561
0
VERTEX
8
0
10
2.1051
20
9.2110
42
0.1742
0
VERTEX
8
0
10
2.2170
20
9.3173
42
-0.1370
0
VERTEX
8
0
10
2.2420
20
9.2415
42
-0.0822
0
VERTEX
8
0
10
2.2352
20
9.1615
42
-0.0855
0
VERTEX
8
0
10
2.1743
20
9.0128
42
0.1184
0
VERTEX
8
0
10
1.6917
20
8.5072
42
0.0848
0
VERTEX
8
0
10
1.5718
20
8.1778
42
0.1039
0
VERTEX
8
0
10
1.5877
20
7.8285
42
0.1015
0
VERTEX
8
0
10
1.3437
20
7.5793
42
0.0935
0
VERTEX
8
0
10
1.2134
20
7.2550
42
0.0659
0
VERTEX
8
0
10
1.1846
20
6.9058
42
0.0518
0
VERTEX
8
0
10
1.2330
20
6.5587
42
-0.0829
0
VERTEX
8
0
10
1.1790
20
6.4075
42
-0.0669
0
VERTEX
8
0
10
1.1306
20
6.3433
42
-0.1205
0
VERTEX
8
0
10
1.0614
20
6.3038
42
0.1419
0
VERTEX
8
0
10
1.0490
20
6.4585
42
0.2945
0
VERTEX
8
0
10
0.9240
20
6.5393
42
0.2016
0
VERTEX
8
0
10
0.7979
20
6.4966
42
0.2047
0
VERTEX
8
0
10
0.7372
20
6.3795
42
0.1590
0
VERTEX
8
0
10
0.7964
20
6.2133
42
0.2314
0
VERTEX
8
0
10
0.9577
20
6.1470
42
0.2202
0
VERTEX
8
0
10
1.1773
20
6.2455
42
0.1108
0
VERTEX
8
0
10
1.3080
20
6.4538
42
0.1259
0
VERTEX
8
0
10
1.4542
20
6.3235
42
0.0537
0
VERTEX
8
0
10
1.6310
20
6.2370
42
0.0535
0
VERTEX
8
0
10
1.8217
20
6.1888
42
0.0876
0
VERTEX
8
0
10
2.0175
20
6.1980
42
0.0180
0
VERTEX
8
0
10
2.2451
20
6.2700
42
-0.0310
0
VERTEX
8
0
10
2.3616
20
6.2956
42
-0.0791
0
VERTEX
8
0
10
2.4802
20
6.2925
42
-0.0776
0
VERTEX
8
0
10
2.5543
20
6.2615
42
-0.1633
0
VERTEX
8
0
10
2.6020
20
6.1984
42
-0.1500
0
VERTEX
8
0
10
2.6012
20
6.1187
42
-0.0794
0
VERTEX
8
0
10
2.5695
20
6.0450
0
SEQEND
8
0
0
POLYLINE
8
Layer 1
66
1
0
VERTEX
8
0
10
2.0798
20
4.8855
42
0.0313
0
VERTEX
8
0
10
1.8675
20
4.6740
42
-0.1918
0
VERTEX
8
0
10
1.8010
20
4.8490
42
-0.1170
0
VERTEX
8
0
10
1.8405
20
5.0348
42
-0.1969
0
VERTEX
8
0
10
1.9195
20
5.1133
42
-0.2412
0
VERTEX
8
0
10
2.0292
20
5.0921
42
-0.1963
0
VERTEX
8
0
10
2.0920
20
4.9996
42
-0.3105
0
VERTEX
8
0
10
2.0423
20
4.9050
42
0.1864
0
VERTEX
8
0
10
2.1241
20
4.9517
42
0.1122
0
VERTEX
8
0
10
2.1732
20
5.0331
42
0.1209
0
VERTEX
8
0
10
2.1937
20
5.2222
42
0.1205
0
VERTEX
8
0
10
2.1615
20
5.3249
42
0.1565
0
VERTEX
8
0
10
2.0782
20
5.3922
42
0.2426
0
VERTEX
8
0
10
1.8684
20
5.3715
42
0.1651
0
VERTEX
8
0
10
1.7242
20
5.2133
42
0.1133
0
VERTEX
8
0
10
1.6777
20
5.0032
42
0.0670
0
VERTEX
8
0
10
1.7009
20
4.7868
42
0.1179
0
VERTEX
8
0
10
1.8052
20
4.5975
42
0.0646
0
VERTEX
8
0
10
1.6268
20
4.2900
42
-0.1235
0
VERTEX
8
0
10
1.3671
20
4.6138
42
-0.1133
0
VERTEX
8
0
10
1.2855
20
5.0220
42
-0.0741
0
VERTEX
8
0
10
1.3243
20
5.2827
42
-0.1140
0
VERTEX
8
0
10
1.4614
20
5.5063
42
-0.1135
0
VERTEX
8
0
10
1.6848
20
5.6444
42
-0.0817
0
VERTEX
8
0
10
1.9432
20
5.6933
42
-0.0123
0
VERTEX
8
0
10
1.9733
20
5.6933
42
-0.1428
0
VERTEX
8
0
10
2.3258
20
5.5107
42
-0.1974
0
VERTEX
8
0
10
2.4817
20
5.1517
42
0.0711
0
VERTEX
8
0
10
2.0798
20
4.8855
0
SEQEND
8
0
0
POLYLINE
8
Layer 1
66
1
0
VERTEX
8
0
10
2.2866
20
4.6348
42
-0.1658
0
VERTEX
8
0
10
2.0963
20
4.5818
42
-0.1007
0
VERTEX
8
0
10
1.9455
20
4.6162
42
-0.0546
0
VERTEX
8
0
10
2.2057
20
4.8743
42
-0.0483
0
VERTEX
8
0
10
2.4780
20
5.0535
42
-0.0733
0
VERTEX
8
0
10
2.4082
20
4.7910
42
-0.1671
0
VERTEX
8
0
10
2.2866
20
4.6348
0
SEQEND
8
0
0
POLYLINE
8
Layer 1
66
1
0
VERTEX
8
0
10
2.9655
20
4.1482
42
0.0456
0
VERTEX
8
0
10
2.7915
20
4.2863
42
0.0763
0
VERTEX
8
0
10
2.5885
20
4.3746
42
0.2381
0
VERTEX
8
0
10
2.1720
20
4.2742
42
0.1458
0
VERTEX
8
0
10
2.0520
20
4.0980
42
-0.0722
0
VERTEX
8
0
10
1.7258
20
4.2247
42
-0.0777
0
VERTEX
8
0
10
1.8847
20
4.5360
42
0.1387
0
VERTEX
8
0
10
2.0940
20
4.4835
42
0.1064
0
VERTEX
8
0
10
2.3072
20
4.5406
42
0.1220
0
VERTEX
8
0
10
2.4706
20
4.6887
42
0.0899
0
VERTEX
8
0
10
2.5620
20
4.8905
42
0.0542
0
VERTEX
8
0
10
2.5988
20
5.1097
42
-0.1030
0
VERTEX
8
0
10
3.1065
20
5.2065
42
-0.0462
0
VERTEX
8
0
10
3.3652
20
5.1818
42
0.0739
0
VERTEX
8
0
10
3.1292
20
5.1050
42
0.0994
0
VERTEX
8
0
10
2.9363
20
4.9500
42
-0.0509
0
VERTEX
8
0
10
2.4442
20
4.4632
42
-0.0376
0
VERTEX
8
0
10
2.7888
20
4.4823
42
-0.0245
0
VERTEX
8
0
10
3.1335
20
4.4663
42
0.1036
0
VERTEX
8
0
10
3.3805
20
4.4935
42
0.0828
0
VERTEX
8
0
10
3.6023
20
4.6072
42
-0.1447
0
VERTEX
8
0
10
2.9655
20
4.1482
0
SEQEND
8
0
0
POLYLINE
8
Layer 1
66
1
0
VERTEX
8
0
10
2.8373
20
4.1092
42
-0.0489
0
VERTEX
8
0
10
2.5207
20
4.0612
42
-0.0186
0
VERTEX
8
0
10
2.3977
20
4.0590
42
-0.0351
0
VERTEX
8
0
10
2.1510
20
4.0785
42
-0.1147
0
VERTEX
8
0
10
2.2387
20
4.2037
42
-0.1678
0
VERTEX
8
0
10
2.4375
20
4.2938
42
-0.0306
0
VERTEX
8
0
10
2.4630
20
4.2938
42
-0.1130
0
VERTEX
8
0
10
2.6115
20
4.2570
42
-0.0611
0
VERTEX
8
0
10
2.8373
20
4.1092
0
SEQEND
8
0
0
POLYLINE
8
Layer 1
66
1
0
VERTEX
8
0
10
3.0320
20
3.6672
42
-0.1478
0
VERTEX
8
0
10
2.8920
20
3.2955
42
-0.1874
0
VERTEX
8
0
10
2.4037
20
3.0907
42
-0.1253
0
VERTEX
8
0
10
2.1432
20
3.1610
42
-0.0917
0
VERTEX
8
0
10
1.9327
20
3.3322
42
-0.1001
0
VERTEX
8
0
10
1.7191
20
3.6924
42
-0.1277
0
VERTEX
8
0
10
1.6965
20
4.1092
42
0.0744
0
VERTEX
8
0
10
2.0332
20
3.9990
42
0.1388
0
VERTEX
8
0
10
2.0828
20
3.7871
42
0.0814
0
VERTEX
8
0
10
2.2118
20
3.6098
42
0.0967
0
VERTEX
8
0
10
2.3875
20
3.4847
42
0.1487
0
VERTEX
8
0
10
2.6003
20
3.4640
42
0.2067
0
VERTEX
8
0
10
2.7692
20
3.5895
42
0.3060
0
VERTEX
8
0
10
2.7405
20
3.7920
42
0.0863
0
VERTEX
8
0
10
2.5984
20
3.9189
42
0.0970
0
VERTEX
8
0
10
2.5073
20
3.9467
42
0.1415
0
VERTEX
8
0
10
2.4150
20
3.9270
42
-0.2554
0
VERTEX
8
0
10
2.5168
20
3.8880
42
-0.2390
0
VERTEX
8
0
10
2.5303
20
3.7768
42
-0.2030
0
VERTEX
8
0
10
2.4616
20
3.6887
42
-0.2488
0
VERTEX
8
0
10
2.3527
20
3.6952
42
-0.0961
0
VERTEX
8
0
10
2.1980
20
3.8079
42
-0.1722
0
VERTEX
8
0
10
2.1307
20
3.9840
42
0.0378
0
VERTEX
8
0
10
2.4352
20
3.9683
42
0.0675
0
VERTEX
8
0
10
2.9063
20
4.0388
0
VERTEX
8
0
10
2.9070
20
4.0388
42
-0.1919
0
VERTEX
8
0
10
3.0320
20
3.6672
0
SEQEND
8
0
0
POLYLINE
8
Layer 1
66
1
0
VERTEX
8
0
10
3.5100
20
3.5002
42
0.1089
0
VERTEX
8
0
10
3.5207
20
3.7255
42
0.1529
0
VERTEX
8
0
10
3.4208
20
3.9247
42
0.1162
0
VERTEX
8
0
10
3.2754
20
4.0094
42
0.1786
0
VERTEX
8
0
10
3.1102
20
3.9915
42
0.0157
0
VERTEX
8
0
10
3.0308
20
4.0822
42
0.1401
0
VERTEX
8
0
10
3.7717
20
4.6433
42
0.1470
0
VERTEX
8
0
10
3.8324
20
4.4022
42
0.1698
0
VERTEX
8
0
10
4.0298
20
4.2518
42
-0.0867
0
VERTEX
8
0
10
4.1778
20
4.7092
42
-0.0777
0
VERTEX
8
0
10
4.4654
20
5.0954
42
-0.0589
0
VERTEX
8
0
10
4.8431
20
5.3950
42
-0.0504
0
VERTEX
8
0
10
5.2747
20
5.6100
0
VERTEX
8
0
10
5.2598
20
5.6558
42
-0.0630
0
VERTEX
8
0
10
4.8025
20
5.5026
42
-0.0540
0
VERTEX
8
0
10
4.3235
20
5.4474
42
-0.0714
0
VERTEX
8
0
10
3.8472
20
5.5173
42
-0.0861
0
VERTEX
8
0
10
3.4192
20
5.7360
42
0.1809
0
VERTEX
8
0
10
3.3855
20
5.4948
42
0.1675
0
VERTEX
8
0
10
3.5070
20
5.2837
42
0.1419
0
VERTEX
8
0
10
2.6032
20
5.2020
42
0.0176
0
VERTEX
8
0
10
2.6010
20
5.3228
42
0.2170
0
VERTEX
8
0
10
2.7354
20
5.4201
42
0.1415
0
VERTEX
8
0
10
2.7862
20
5.5800
42
0.1738
0
VERTEX
8
0
10
2.7275
20
5.7947
42
0.1044
0
VERTEX
8
0
10
2.5695
20
5.9550
42
-0.1856
0
VERTEX
8
0
10
2.6019
20
5.8013
42
-0.1813
0
VERTEX
8
0
10
2.5541
20
5.7383
42
-0.1016
0
VERTEX
8
0
10
2.4802
20
5.7075
42
-0.1081
0
VERTEX
8
0
10
2.3616
20
5.7044
42
-0.0424
0
VERTEX
8
0
10
2.2451
20
5.7300
42
-0.0142
0
VERTEX
8
0
10
2.0175
20
5.8020
42
0.1117
0
VERTEX
8
0
10
1.8219
20
5.8112
42
0.0602
0
VERTEX
8
0
10
1.6311
20
5.7630
42
0.0503
0
VERTEX
8
0
10
1.4544
20
5.6765
42
0.0829
0
VERTEX
8
0
10
1.3080
20
5.5462
42
0.1092
0
VERTEX
8
0
10
1.1773
20
5.7545
42
0.0816
0
VERTEX
8
0
10
1.0776
20
5.8267
42
0.1120
0
VERTEX
8
0
10
0.9577
20
5.8530
42
0.1907
0
VERTEX
8
0
10
0.7964
20
5.7866
42
0.1938
0
VERTEX
8
0
10
0.7372
20
5.6205
42
0.2566
0
VERTEX
8
0
10
0.7979
20
5.5034
42
0.1833
0
VERTEX
8
0
10
0.9240
20
5.4607
42
0.2576
0
VERTEX
8
0
10
1.0491
20
5.5419
42
0.1728
0
VERTEX
8
0
10
1.0612
20
5.6963
42
-0.1383
0
VERTEX
8
0
10
1.1305
20
5.6567
42
-0.0829
0
VERTEX
8
0
10
1.1790
20
5.5927
42
-0.0859
0
VERTEX
8
0
10
1.2330
20
5.4413
42
0.1179
0
VERTEX
8
0
10
1.2135
20
4.7448
42
0.0842
0
VERTEX
8
0
10
1.3438
20
4.4205
42
0.1036
0
VERTEX
8
0
10
1.5877
20
4.1715
42
0.2029
0
VERTEX
8
0
10
1.6918
20
3.4926
42
0.0664
0
VERTEX
8
0
10
1.9049
20
3.2130
42
0.0520
0
VERTEX
8
0
10
2.1743
20
2.9872
42
-0.0831
0
VERTEX
8
0
10
2.2352
20
2.8386
42
-0.0679
0
VERTEX
8
0
10
2.2420
20
2.7586
42
-0.1211
0
VERTEX
8
0
10
2.2171
20
2.6829
42
0.1433
0
VERTEX
8
0
10
2.1047
20
2.7892
42
0.2945
0
VERTEX
8
0
10
1.9582
20
2.7652
42
0.2019
0
VERTEX
8
0
10
1.8933
20
2.6490
42
0.2056
0
VERTEX
8
0
10
1.9267
20
2.5215
42
0.1817
0
VERTEX
8
0
10
2.1015
20
2.4367
42
0.2042
0
VERTEX
8
0
10
2.2462
20
2.4967
42
0.2206
0
VERTEX
8
0
10
2.3431
20
2.7169
42
0.1118
0
VERTEX
8
0
10
2.3002
20
2.9587
42
0.0766
0
VERTEX
8
0
10
2.3981
20
2.9498
42
0.0388
0
VERTEX
8
0
10
2.4961
20
2.9599
42
0.0537
0
VERTEX
8
0
10
2.6853
20
3.0140
42
0.0535
0
VERTEX
8
0
10
2.8593
20
3.1058
42
0.0879
0
VERTEX
8
0
10
2.9985
20
3.2438
42
0.0192
0
VERTEX
8
0
10
3.1186
20
3.4501
42
-0.0312
0
VERTEX
8
0
10
3.1875
20
3.5474
42
-0.0803
0
VERTEX
8
0
10
3.2775
20
3.6247
42
-0.0777
0
VERTEX
8
0
10
3.3534
20
3.6514
42
-0.1644
0
VERTEX
8
0
10
3.4312
20
3.6363
42
-0.1499
0
VERTEX
8
0
10
3.4840
20
3.5763
42
-0.0791
0
VERTEX
8
0
10
3.5100
20
3.5002
0
SEQEND
8
0
0
POLYLINE
8
Layer 1
66
1
0
VERTEX
8
0
10
3.9712
20
2.5087
42
0.1278
0
VERTEX
8
0
10
3.9180
20
2.6261
42
0.0649
0
VERTEX
8
0
10
3.8288
20
2.7202
42
0.1203
0
VERTEX
8
0
10
3.7328
20
2.7687
42
0.1567
0
VERTEX
8
0
10
3.6265
20
2.7561
42
0.2428
0
VERTEX
8
0
10
3.4952
20
2.5915
42
0.1652
0
VERTEX
8
0
10
3.5082
20
2.3779
42
0.1131
0
VERTEX
8
0
10
3.6263
20
2.1982
42
0.0594
0
VERTEX
8
0
10
3.7828
20
2.0719
42
0.1028
0
VERTEX
8
0
10
3.9720
20
2.0070
42
0.0684
0
VERTEX
8
0
10
4.0680
20
1.6590
42
-0.0204
0
VERTEX
8
0
10
3.9832
20
1.6530
42
-0.1092
0
VERTEX
8
0
10
3.6330
20
1.7254
42
-0.0937
0
VERTEX
8
0
10
3.3383
20
1.9297
42
-0.0766
0
VERTEX
8
0
10
3.1752
20
2.1462
42
-0.1185
0
VERTEX
8
0
10
3.1143
20
2.4088
42
-0.1147
0
VERTEX
8
0
10
3.1811
20
2.6706
42
-0.0828
0
VERTEX
8
0
10
3.3375
20
2.8905
42
-0.1481
0
VERTEX
8
0
10
3.7178
20
3.0157
42
-0.1845
0
VERTEX
8
0
10
4.0620
20
2.8927
42
0.0587
0
VERTEX
8
0
10
3.9712
20
2.5087
0
SEQEND
8
0
0
POLYLINE
8
Layer 1
66
1
0
VERTEX
8
0
10
3.9510
20
2.3903
0
VERTEX
8
0
10
3.9510
20
2.3902
0
VERTEX
8
0
10
3.9510
20
2.3902
0
SEQEND
8
0
0
POLYLINE
8
Layer 1
66
1
0
VERTEX
8
0
10
3.9622
20
2.4135
42
0.0332
0
VERTEX
8
0
10
3.9615
20
2.1075
42
-0.1668
0
VERTEX
8
0
10
3.8105
20
2.1901
42
-0.1042
0
VERTEX
8
0
10
3.7162
20
2.3362
42
-0.0972
0
VERTEX
8
0
10
3.7028
20
2.4007
42
-0.1550
0
VERTEX
8
0
10
3.7245
20
2.4622
42
-0.2519
0
VERTEX
8
0
10
3.8415
20
2.5147
42
-0.1842
0
VERTEX
8
0
10
3.9294
20
2.4810
42
-0.2628
0
VERTEX
8
0
10
3.9510
20
2.3903
42
0.0478
0
VERTEX
8
0
10
3.9622
20
2.4135
0
SEQEND
8
0
0
POLYLINE
8
Layer 1
66
1
0
VERTEX
8
0
10
4.3150
20
2.3770
42
-0.1649
0
VERTEX
8
0
10
4.2202
20
2.2035
42
-0.1253
0
VERTEX
8
0
10
4.0597
20
2.1105
42
-0.0603
0
VERTEX
8
0
10
4.0620
20
2.5140
42
-0.0486
0
VERTEX
8
0
10
4.1302
20
2.8252
42
-0.0818
0
VERTEX
8
0
10
4.2877
20
2.5733
42
-0.1686
0
VERTEX
8
0
10
4.3150
20
2.3770
0
SEQEND
8
0
0
POLYLINE
8
Layer 1
66
1
0
VERTEX
8
0
10
4.9462
20
2.0265
42
0.1803
0
VERTEX
8
0
10
4.8728
20
1.9815
42
-0.0357
0
VERTEX
8
0
10
4.8810
20
2.0032
42
-0.0380
0
VERTEX
8
0
10
4.6560
20
1.7992
42
0.1541
0
VERTEX
8
0
10
4.8300
20
1.7423
42
0.0778
0
VERTEX
8
0
10
4.9890
20
1.7708
42
0.4070
0
VERTEX
8
0
10
5.0753
20
1.9133
42
0.1443
0
VERTEX
8
0
10
5.0296
20
1.9926
42
0.2362
0
VERTEX
8
0
10
4.9462
20
2.0265
0
SEQEND
8
0
0
POLYLINE
8
Layer 1
66
1
0
VERTEX
8
0
10
5.1368
20
2.5238
42
0.0450
0
VERTEX
8
0
10
4.9093
20
2.5049
42
0.0756
0
VERTEX
8
0
10
4.6948
20
2.4290
42
0.2431
0
VERTEX
8
0
10
4.4557
20
2.0602
42
0.1693
0
VERTEX
8
0
10
4.5097
20
1.8187
42
-0.0722
0
VERTEX
8
0
10
4.1880
20
1.6808
42
-0.0811
0
VERTEX
8
0
10
4.0740
20
2.0122
42
0.1625
0
VERTEX
8
0
10
4.2885
20
2.1330
42
0.1085
0
VERTEX
8
0
10
4.3981
20
2.3312
42
0.1250
0
VERTEX
8
0
10
4.4022
20
2.5574
42
0.0898
0
VERTEX
8
0
10
4.3149
20
2.7674
42
0.0530
0
VERTEX
8
0
10
4.1767
20
2.9490
42
-0.0790
0
VERTEX
8
0
10
4.3877
20
3.2868
42
-0.0691
0
VERTEX
8
0
10
4.6860
20
3.5512
42
0.0752
0
VERTEX
8
0
10
4.5618
20
3.3211
42
0.1033
0
VERTEX
8
0
10
4.5307
20
3.0622
42
-0.0506
0
VERTEX
8
0
10
4.5278
20
2.3730
42
-0.0383
0
VERTEX
8
0
10
4.7578
20
2.6325
42
-0.0252
0
VERTEX
8
0
10
5.0138
20
2.8665
42
0.1051
0
VERTEX
8
0
10
5.1714
20
3.0646
42
0.0834
0
VERTEX
8
0
10
5.2478
20
3.3067
42
-0.1394
0
VERTEX
8
0
10
5.1368
20
2.5238
0
SEQEND
8
0
0
POLYLINE
8
Layer 1
66
1
0
VERTEX
8
0
10
5.0767
20
2.4067
42
0.0685
0
VERTEX
8
0
10
4.7828
20
2.3542
42
0.1563
0
VERTEX
8
0
10
4.6192
20
2.2430
42
0.1490
0
VERTEX
8
0
10
4.5540
20
2.0565
42
0.1513
0
VERTEX
8
0
10
4.5930
20
1.8735
42
0.0560
0
VERTEX
8
0
10
4.8893
20
2.1450
42
0.0505
0
VERTEX
8
0
10
5.0767
20
2.4067
0
SEQEND
8
0
0
POLYLINE
8
Layer 1
66
1
0
VERTEX
8
0
10
5.5031
20
2.2150
42
-0.1416
0
VERTEX
8
0
10
5.6542
20
1.8607
42
-0.1735
0
VERTEX
8
0
10
5.4683
20
1.3946
42
-0.1182
0
VERTEX
8
0
10
5.2554
20
1.2565
42
-0.0938
0
VERTEX
8
0
10
5.0048
20
1.2165
42
-0.0162
0
VERTEX
8
0
10
4.9410
20
1.2187
42
-0.0939
0
VERTEX
8
0
10
4.5543
20
1.3185
42
-0.1217
0
VERTEX
8
0
10
4.2518
20
1.5773
42
0.0800
0
VERTEX
8
0
10
4.5750
20
1.7400
42
0.1185
0
VERTEX
8
0
10
4.7491
20
1.6428
42
0.0724
0
VERTEX
8
0
10
4.9470
20
1.6110
42
0.0970
0
VERTEX
8
0
10
5.1604
20
1.6440
42
0.1491
0
VERTEX
8
0
10
5.3273
20
1.7779
42
0.2066
0
VERTEX
8
0
10
5.3608
20
1.9858
42
0.3058
0
VERTEX
8
0
10
5.1990
20
2.1112
42
0.0509
0
VERTEX
8
0
10
5.0713
20
2.1148
42
0.0995
0
VERTEX
8
0
10
4.9500
20
2.0775
42
0.0576
0
VERTEX
8
0
10
5.1712
20
2.4008
42
-0.1888
0
VERTEX
8
0
10
5.5031
20
2.2150
0
SEQEND
8
0
0
POLYLINE
8
Layer 1
66
1
0
VERTEX
8
0
10
5.9550
20
2.4383
42
0.1097
0
VERTEX
8
0
10
5.8055
20
2.6069
42
0.1530
0
VERTEX
8
0
10
5.5950
20
2.6797
42
0.1151
0
VERTEX
8
0
10
5.4319
20
2.6394
42
0.1788
0
VERTEX
8
0
10
5.3258
20
2.5118
42
0.0131
0
VERTEX
8
0
10
5.2283
20
2.5200
42
0.1399
0
VERTEX
8
0
10
5.3460
20
3.4380
42
0.1476
0
VERTEX
8
0
10
5.5580
20
3.3148
42
0.1665
0
VERTEX
8
0
10
5.8005
20
3.3487
42
-0.0865
0
VERTEX
8
0
10
5.5817
20
3.7767
42
-0.0777
0
VERTEX
8
0
10
5.5117
20
4.2527
42
-0.0590
0
VERTEX
8
0
10
5.5666
20
4.7315
42
-0.0505
0
VERTEX
8
0
10
5.7195
20
5.1885
0
VERTEX
8
0
10
5.6737
20
5.2035
42
-0.0631
0
VERTEX
8
0
10
5.4586
20
4.7719
42
-0.0541
0
VERTEX
8
0
10
5.1589
20
4.3944
42
-0.0713
0
VERTEX
8
0
10
4.7727
20
4.1072
42
-0.0861
0
VERTEX
8
0
10
4.3155
20
3.9592
42
0.1763
0
VERTEX
8
0
10
4.4592
20
3.7669
42
0.1649
0
VERTEX
8
0
10
4.6897
20
3.7005
42
0.1372
0
VERTEX
8
0
10
4.1130
20
3.0150
42
0.0137
0
VERTEX
8
0
10
4.0410
20
3.0817
42
0.2155
0
VERTEX
8
0
10
4.0653
20
3.2462
42
0.1423
0
VERTEX
8
0
10
3.9862
20
3.3945
42
0.1740
0
VERTEX
8
0
10
3.7914
20
3.5020
42
0.1047
0
VERTEX
8
0
10
3.5662
20
3.5002
42
-0.1861
0
VERTEX
8
0
10
3.6988
20
3.4159
42
-0.1820
0
VERTEX
8
0
10
3.7104
20
3.3376
42
-0.1019
0
VERTEX
8
0
10
3.6810
20
3.2632
42
-0.1072
0
VERTEX
8
0
10
3.6004
20
3.1762
42
-0.0420
0
VERTEX
8
0
10
3.5007
20
3.1109
42
-0.0141
0
VERTEX
8
0
10
3.2902
20
2.9985
42
0.1119
0
VERTEX
8
0
10
3.1471
20
2.8647
42
0.0598
0
VERTEX
8
0
10
3.0485
20
2.6944
42
0.0502
0
VERTEX
8
0
10
2.9871
20
2.5073
42
0.0830
0
VERTEX
8
0
10
2.9782
20
2.3115
42
0.1100
0
VERTEX
8
0
10
2.7382
20
2.3633
42
0.1870
0
VERTEX
8
0
10
2.5147
20
2.2747
42
0.1923
0
VERTEX
8
0
10
2.4498
20
2.1128
42
0.1932
0
VERTEX
8
0
10
2.5275
20
1.9545
42
0.2576
0
VERTEX
8
0
10
2.6539
20
1.9164
42
0.1825
0
VERTEX
8
0
10
2.7727
20
1.9770
42
0.2570
0
VERTEX
8
0
10
2.8020
20
2.1228
42
0.1745
0
VERTEX
8
0
10
2.7000
20
2.2387
42
-0.1363
0
VERTEX
8
0
10
2.7765
20
2.2609
42
-0.0822
0
VERTEX
8
0
10
2.8561
20
2.2512
42
-0.0849
0
VERTEX
8
0
10
3.0022
20
2.1848
42
0.1153
0
VERTEX
8
0
10
3.4740
20
1.6933
42
0.0809
0
VERTEX
8
0
10
3.7873
20
1.5571
42
0.1009
0
VERTEX
8
0
10
4.1280
20
1.5472
42
0.1003
0
VERTEX
8
0
10
4.3637
20
1.3014
42
0.0898
0
VERTEX
8
0
10
4.6744
20
1.1603
42
0.0634
0
VERTEX
8
0
10
5.0132
20
1.1132
42
0.0506
0
VERTEX
8
0
10
5.3543
20
1.1392
42
-0.0834
0
VERTEX
8
0
10
5.5016
20
1.0754
42
-0.0671
0
VERTEX
8
0
10
5.5623
20
1.0228
42
-0.1209
0
VERTEX
8
0
10
5.5972
20
0.9511
42
0.1431
0
VERTEX
8
0
10
5.4425
20
0.9488
42
0.2944
0
VERTEX
8
0
10
5.3543
20
0.8295
42
0.2016
0
VERTEX
8
0
10
5.3885
20
0.7010
42
0.2048
0
VERTEX
8
0
10
5.5012
20
0.6330
42
0.1574
0
VERTEX
8
0
10
5.6711
20
0.6806
42
0.2328
0
VERTEX
8
0
10
5.7480
20
0.8370
42
0.2212
0
VERTEX
8
0
10
5.6639
20
1.0627
42
0.1107
0
VERTEX
8
0
10
5.4645
20
1.2067
42
0.1256
0
VERTEX
8
0
10
5.6040
20
1.3440
42
0.0537
0
VERTEX
8
0
10
5.7018
20
1.5146
42
0.0536
0
VERTEX
8
0
10
5.7624
20
1.7017
42
0.0877
0
VERTEX
8
0
10
5.7660
20
1.8975
42
0.0179
0
VERTEX
8
0
10
5.7088
20
2.1293
42
-0.0311
0
VERTEX
8
0
10
5.6907
20
2.2472
42
-0.0802
0
VERTEX
8
0
10
5.7015
20
2.3655
42
-0.0791
0
VERTEX
8
0
10
5.7374
20
2.4375
42
-0.1634
0
VERTEX
8
0
10
5.8037
20
2.4809
42
-0.1502
0
VERTEX
8
0
10
5.8834
20
2.4747
42
-0.0792
0
VERTEX
8
0
10
5.9550
20
2.4383
0
SEQEND
8
0
0
POLYLINE
8
Layer 1
66
1
0
VERTEX
8
0
10
7.0500
20
2.0775
42
0.1247
0
VERTEX
8
0
10
6.9287
20
2.1148
42
0.0638
0
VERTEX
8
0
10
6.8010
20
2.1112
42
0.1203
0
VERTEX
8
0
10
6.7007
20
2.0724
42
0.1565
0
VERTEX
8
0
10
6.6389
20
1.9850
42
0.2426
0
VERTEX
8
0
10
6.6731
20
1.7771
42
0.1654
0
VERTEX
8
0
10
6.8404
20
1.6436
42
0.1133
0
VERTEX
8
0
10
7.0530
20
1.6110
42
0.0593
0
VERTEX
8
0
10
7.2509
20
1.6428
42
0.1027
0
VERTEX
8
0
10
7.4250
20
1.7400
42
0.0669
0
VERTEX
8
0
10
7.7482
20
1.5773
42
-0.1201
0
VERTEX
8
0
10
7.4457
20
1.3185
42
-0.1068
0
VERTEX
8
0
10
7.0590
20
1.2187
42
-0.0139
0
VERTEX
8
0
10
6.9952
20
1.2165
42
-0.0808
0
VERTEX
8
0
10
6.7437
20
1.2568
42
-0.1154
0
VERTEX
8
0
10
6.5311
20
1.3952
42
-0.1050
0
VERTEX
8
0
10
6.3983
20
1.6122
42
-0.0776
0
VERTEX
8
0
10
6.3458
20
1.8607
42
-0.1382
0
VERTEX
8
0
10
6.4971
20
2.2152
42
-0.1903
0
VERTEX
8
0
10
6.8288
20
2.4008
42
0.0576
0
VERTEX
8
0
10
7.0500
20
2.0775
0
SEQEND
8
0
0
POLYLINE
8
Layer 1
66
1
0
VERTEX
8
0
10
7.1190
20
2.0032
42
0.0324
0
VERTEX
8
0
10
7.3440
20
1.7992
42
-0.1772
0
VERTEX
8
0
10
7.1700
20
1.7423
42
-0.0939
0
VERTEX
8
0
10
7.0110
20
1.7708
42
-0.1424
0
VERTEX
8
0
10
6.9392
20
1.8216
42
-0.2103
0
VERTEX
8
0
10
6.9234
20
1.9074
42
-0.3030
0
VERTEX
8
0
10
7.0410
20
2.0265
42
-0.2804
0
VERTEX
8
0
10
7.1272
20
1.9815
42
0.0460
0
VERTEX
8
0
10
7.1190
20
2.0032
0
SEQEND
8
0
0
POLYLINE
8
Layer 1
66
1
0
VERTEX
8
0
10
7.3808
20
2.2429
42
-0.1651
0
VERTEX
8
0
10
7.4460
20
2.0565
42
-0.1251
0
VERTEX
8
0
10
7.4070
20
1.8735
42
-0.0614
0
VERTEX
8
0
10
7.1107
20
2.1450
42
-0.0475
0
VERTEX
8
0
10
6.9233
20
2.4067
42
-0.0841
0
VERTEX
8
0
10
7.2172
20
2.3542
42
-0.1681
0
VERTEX
8
0
10
7.3808
20
2.2429
0
SEQEND
8
0
0
POLYLINE
8
Layer 1
66
1
0
VERTEX
8
0
10
8.0490
20
2.3903
0
VERTEX
8
0
10
8.0490
20
2.3902
0
VERTEX
8
0
10
8.0490
20
2.3902
0
SEQEND
8
0
0
POLYLINE
8
Layer 1
66
1
0
VERTEX
8
0
10
8.0706
20
2.4810
42
-0.2321
0
VERTEX
8
0
10
8.1585
20
2.5147
42
-0.2144
0
VERTEX
8
0
10
8.2755
20
2.4621
42
-0.3029
0
VERTEX
8
0
10
8.2838
20
2.3362
42
-0.0859
0
VERTEX
8
0
10
8.1895
20
2.1901
42
-0.1461
0
VERTEX
8
0
10
8.0385
20
2.1075
42
0.0383
0
VERTEX
8
0
10
8.0378
20
2.4135
42
0.0356
0
VERTEX
8
0
10
8.0490
20
2.3903
42
-0.2045
0
VERTEX
8
0
10
8.0706
20
2.4810
0
SEQEND
8
0
0
POLYLINE
8
Layer 1
66
1
0
VERTEX
8
0
10
7.8233
20
2.9490
42
0.0451
0
VERTEX
8
0
10
7.6851
20
2.7674
42
0.0757
0
VERTEX
8
0
10
7.5978
20
2.5574
42
0.2428
0
VERTEX
8
0
10
7.7115
20
2.1330
42
0.1710
0
VERTEX
8
0
10
7.9260
20
2.0122
42
-0.0742
0
VERTEX
8
0
10
7.8120
20
1.6808
42
-0.0800
0
VERTEX
8
0
10
7.4903
20
1.8187
42
0.1645
0
VERTEX
8
0
10
7.5443
20
2.0602
42
0.1084
0
VERTEX
8
0
10
7.4705
20
2.2744
42
0.1250
0
VERTEX
8
0
10
7.3052
20
2.4290
42
0.0898
0
VERTEX
8
0
10
7.0907
20
2.5049
42
0.0530
0
VERTEX
8
0
10
6.8632
20
2.5238
42
-0.1394
0
VERTEX
8
0
10
6.7522
20
3.3067
42
0.0741
0
VERTEX
8
0
10
6.8286
20
3.0646
42
0.1007
0
VERTEX
8
0
10
6.9862
20
2.8665
42
-0.0522
0
VERTEX
8
0
10
7.4722
20
2.3730
42
-0.0376
0
VERTEX
8
0
10
7.4532
20
2.7175
42
-0.0245
0
VERTEX
8
0
10
7.4693
20
3.0622
42
0.1085
0
VERTEX
8
0
10
7.4382
20
3.3211
42
0.0850
0
VERTEX
8
0
10
7.3140
20
3.5512
42
-0.1448
0
VERTEX
8
0
10
7.8233
20
2.9490
0
SEQEND
8
0
0
POLYLINE
8
Layer 1
66
1
0
VERTEX
8
0
10
7.8698
20
2.8252
42
0.0691
0
VERTEX
8
0
10
7.7123
20
2.5733
42
0.1554
0
VERTEX
8
0
10
7.6850
20
2.3771
42
0.1502
0
VERTEX
8
0
10
7.7798
20
2.2035
42
0.1510
0
VERTEX
8
0
10
7.9403
20
2.1105
42
0.0579
0
VERTEX
8
0
10
7.9380
20
2.5140
42
0.0486
0
VERTEX
8
0
10
7.8698
20
2.8252
0
SEQEND
8
0
0
POLYLINE
8
Layer 1
66
1
0
VERTEX
8
0
10
8.2822
20
3.0157
42
0.1811
0
VERTEX
8
0
10
7.9380
20
2.8927
42
-0.0561
0
VERTEX
8
0
10
8.0288
20
2.5087
42
-0.1019
0
VERTEX
8
0
10
8.0820
20
2.6261
42
-0.0517
0
VERTEX
8
0
10
8.1712
20
2.7202
42
-0.3063
0
VERTEX
8
0
10
8.3727
20
2.7564
42
-0.2066
0
VERTEX
8
0
10
8.5046
20
2.5923
42
-0.1490
0
VERTEX
8
0
10
8.4921
20
2.3788
42
-0.0970
0
VERTEX
8
0
10
8.3737
20
2.1982
42
-0.0720
0
VERTEX
8
0
10
8.2172
20
2.0719
42
-0.1192
0
VERTEX
8
0
10
8.0280
20
2.0070
42
-0.0802
0
VERTEX
8
0
10
7.9320
20
1.6590
42
0.0286
0
VERTEX
8
0
10
8.0168
20
1.6530
42
0.1081
0
VERTEX
8
0
10
8.3670
20
1.7254
42
0.0833
0
VERTEX
8
0
10
8.6617
20
1.9297
42
0.0908
0
VERTEX
8
0
10
8.8243
20
2.1452
42
0.1250
0
VERTEX
8
0
10
8.8857
20
2.4077
42
0.1854
0
VERTEX
8
0
10
8.6625
20
2.8905
42
0.1494
0
VERTEX
8
0
10
8.2822
20
3.0157
0
SEQEND
8
0
0
POLYLINE
8
Layer 1
66
1
0
VERTEX
8
0
10
8.4338
20
3.5002
42
0.1103
0
VERTEX
8
0
10
8.2086
20
3.5020
42
0.1530
0
VERTEX
8
0
10
8.0138
20
3.3945
42
0.1159
0
VERTEX
8
0
10
7.9347
20
3.2461
42
0.1782
0
VERTEX
8
0
10
7.9590
20
3.0817
42
0.0115
0
VERTEX
8
0
10
7.8870
20
3.0150
42
0.1352
0
VERTEX
8
0
10
7.3103
20
3.7005
42
0.1456
0
VERTEX
8
0
10
7.5410
20
3.7670
42
0.1623
0
VERTEX
8
0
10
7.6845
20
3.9592
42
-0.0865
0
VERTEX
8
0
10
7.2271
20
4.1072
42
-0.0777
0
VERTEX
8
0
10
6.8410
20
4.3945
42
-0.0590
0
VERTEX
8
0
10
6.5413
20
4.7721
42
-0.0504
0
VERTEX
8
0
10
6.3263
20
5.2035
0
VERTEX
8
0
10
6.2805
20
5.1885
42
-0.0632
0
VERTEX
8
0
10
6.4334
20
4.7313
42
-0.0541
0
VERTEX
8
0
10
6.4883
20
4.2525
42
-0.0714
0
VERTEX
8
0
10
6.4182
20
3.7765
42
-0.0860
0
VERTEX
8
0
10
6.1995
20
3.3487
42
0.1811
0
VERTEX
8
0
10
6.4422
20
3.3148
42
0.1688
0
VERTEX
8
0
10
6.6540
20
3.4380
42
0.0760
0
VERTEX
8
0
10
6.6492
20
2.9709
42
0.0692
0
VERTEX
8
0
10
6.7717
20
2.5200
42
0.0116
0
VERTEX
8
0
10
6.6742
20
2.5118
42
0.2153
0
VERTEX
8
0
10
6.5680
20
2.6394
42
0.1416
0
VERTEX
8
0
10
6.4050
20
2.6797
42
0.1748
0
VERTEX
8
0
10
6.1945
20
2.6069
42
0.1049
0
VERTEX
8
0
10
6.0450
20
2.4383
42
-0.1851
0
VERTEX
8
0
10
6.1966
20
2.4808
42
-0.1821
0
VERTEX
8
0
10
6.2628
20
2.4373
42
-0.1025
0
VERTEX
8
0
10
6.2985
20
2.3655
42
-0.1086
0
VERTEX
8
0
10
6.3093
20
2.2473
42
-0.0415
0
VERTEX
8
0
10
6.2912
20
2.1294
42
-0.0143
0
VERTEX
8
0
10
6.2340
20
1.8975
42
0.1120
0
VERTEX
8
0
10
6.2375
20
1.7018
42
0.0603
0
VERTEX
8
0
10
6.2981
20
1.5147
42
0.0503
0
VERTEX
8
0
10
6.3960
20
1.3441
42
0.0828
0
VERTEX
8
0
10
6.5355
20
1.2067
42
0.1083
0
VERTEX
8
0
10
6.3361
20
1.0626
42
0.0806
0
VERTEX
8
0
10
6.2704
20
0.9584
42
0.1122
0
VERTEX
8
0
10
6.2520
20
0.8370
42
0.1931
0
VERTEX
8
0
10
6.3290
20
0.6806
42
0.1923
0
VERTEX
8
0
10
6.4988
20
0.6330
42
0.2567
0
VERTEX
8
0
10
6.6115
20
0.7010
42
0.1836
0
VERTEX
8
0
10
6.6457
20
0.8295
42
0.1078
0
VERTEX
8
0
10
6.6189
20
0.9025
42
0.1557
0
VERTEX
8
0
10
6.5571
20
0.9490
42
0.1748
0
VERTEX
8
0
10
6.4027
20
0.9510
42
-0.1370
0
VERTEX
8
0
10
6.4376
20
1.0227
42
-0.0819
0
VERTEX
8
0
10
6.4983
20
1.0753
42
-0.0855
0
VERTEX
8
0
10
6.6457
20
1.1392
42
0.1150
0
VERTEX
8
0
10
7.3258
20
1.1603
42
0.0808
0
VERTEX
8
0
10
7.6365
20
1.3015
42
0.1008
0
VERTEX
8
0
10
7.8720
20
1.5472
42
0.1003
0
VERTEX
8
0
10
8.2129
20
1.5572
42
0.0900
0
VERTEX
8
0
10
8.5262
20
1.6934
42
0.0637
0
VERTEX
8
0
10
8.7885
20
1.9137
42
0.0507
0
VERTEX
8
0
10
8.9978
20
2.1847
42
-0.0832
0
VERTEX
8
0
10
9.1438
20
2.2511
42
-0.0673
0
VERTEX
8
0
10
9.2234
20
2.2609
42
-0.1203
0
VERTEX
8
0
10
9.2999
20
2.2388
42
0.1424
0
VERTEX
8
0
10
9.1978
20
2.1225
42
0.2950
0
VERTEX
8
0
10
9.2273
20
1.9770
42
0.2013
0
VERTEX
8
0
10
9.3461
20
1.9164
42
0.2046
0
VERTEX
8
0
10
9.4725
20
1.9545
42
0.1599
0
VERTEX
8
0
10
9.5503
20
2.1129
42
0.2321
0
VERTEX
8
0
10
9.4853
20
2.2747
42
0.2193
0
VERTEX
8
0
10
9.2618
20
2.3633
42
0.1117
0
VERTEX
8
0
10
9.0218
20
2.3115
42
0.0770
0
VERTEX
8
0
10
9.0269
20
2.4097
42
0.0391
0
VERTEX
8
0
10
9.0130
20
2.5072
42
0.0534
0
VERTEX
8
0
10
8.9515
20
2.6942
42
0.0535
0
VERTEX
8
0
10
8.8530
20
2.8646
42
0.0876
0
VERTEX
8
0
10
8.7098
20
2.9985
42
0.0191
0
VERTEX
8
0
10
8.4993
20
3.1109
42
-0.0310
0
VERTEX
8
0
10
8.3996
20
3.1762
42
-0.0792
0
VERTEX
8
0
10
8.3190
20
3.2632
42
-0.0777
0
VERTEX
8
0
10
8.2895
20
3.3380
42
-0.1621
0
VERTEX
8
0
10
8.3013
20
3.4162
42
-0.1505
0
VERTEX
8
0
10
8.3589
20
3.4714
42
-0.0799
0
VERTEX
8
0
10
8.4338
20
3.5002
0
SEQEND
8
0
0
POLYLINE
8
Layer 1
66
1
0
VERTEX
8
0
10
9.5648
20
3.9683
42
0.0317
0
VERTEX
8
0
10
9.8693
20
3.9840
42
-0.1921
0
VERTEX
8
0
10
9.8020
20
3.8079
42
-0.1179
0
VERTEX
8
0
10
9.6473
20
3.6952
42
-0.1971
0
VERTEX
8
0
10
9.5360
20
3.6899
42
-0.2423
0
VERTEX
8
0
10
9.4690
20
3.7793
42
-0.1954
0
VERTEX
8
0
10
9.4846
20
3.8901
42
-0.3104
0
VERTEX
8
0
10
9.5850
20
3.9270
42
0.1875
0
VERTEX
8
0
10
9.4927
20
3.9467
42
0.1124
0
VERTEX
8
0
10
9.4016
20
3.9189
42
0.1194
0
VERTEX
8
0
10
9.2595
20
3.7920
42
0.1199
0
VERTEX
8
0
10
9.2146
20
3.6943
42
0.1567
0
VERTEX
8
0
10
9.2312
20
3.5887
42
0.2434
0
VERTEX
8
0
10
9.4005
20
3.4638
42
0.1653
0
VERTEX
8
0
10
9.6133
20
3.4850
42
0.1130
0
VERTEX
8
0
10
9.7882
20
3.6098
42
0.0659
0
VERTEX
8
0
10
9.9172
20
3.7871
42
0.1199
0
VERTEX
8
0
10
9.9668
20
3.9990
42
0.0661
0
VERTEX
8
0
10
10.3035
20
4.1092
42
-0.1236
0
VERTEX
8
0
10
10.2809
20
3.6924
42
-0.1140
0
VERTEX
8
0
10
10.0673
20
3.3322
42
-0.0768
0
VERTEX
8
0
10
9.8568
20
3.1610
42
-0.1191
0
VERTEX
8
0
10
9.5963
20
3.0907
42
-0.0068
0
VERTEX
8
0
10
9.5700
20
3.0907
42
-0.1062
0
VERTEX
8
0
10
9.3214
20
3.1527
42
-0.0783
0
VERTEX
8
0
10
9.1080
20
3.2955
42
-0.1426
0
VERTEX
8
0
10
8.9680
20
3.6675
42
-0.1979
0
VERTEX
8
0
10
9.0930
20
4.0388
0
VERTEX
8
0
10
9.0937
20
4.0388
42
0.0708
0
VERTEX
8
0
10
9.5648
20
3.9683
0
SEQEND
8
0
0
POLYLINE
8
Layer 1
66
1
0
VERTEX
8
0
10
9.5370
20
4.2938
42
0.1291
0
VERTEX
8
0
10
9.3885
20
4.2570
42
0.0714
0
VERTEX
8
0
10
9.1627
20
4.1092
42
0.0483
0
VERTEX
8
0
10
9.4793
20
4.0612
42
0.0145
0
VERTEX
8
0
10
9.6023
20
4.0590
42
0.0396
0
VERTEX
8
0
10
9.8490
20
4.0785
42
0.0992
0
VERTEX
8
0
10
9.7613
20
4.2037
42
0.2029
0
VERTEX
8
0
10
9.5370
20
4.2938
0
SEQEND
8
0
0
POLYLINE
8
Layer 1
66
1
0
VERTEX
8
0
10
9.4012
20
5.1097
42
0.0457
0
VERTEX
8
0
10
9.4380
20
4.8905
42
0.0762
0
VERTEX
8
0
10
9.5294
20
4.6887
42
0.2378
0
VERTEX
8
0
10
9.9060
20
4.4835
42
0.1497
0
VERTEX
8
0
10
10.1153
20
4.5360
42
-0.0702
0
VERTEX
8
0
10
10.2742
20
4.2247
42
-0.0777
0
VERTEX
8
0
10
9.9480
20
4.0980
42
0.1383
0
VERTEX
8
0
10
9.8280
20
4.2742
42
0.1056
0
VERTEX
8
0
10
9.6318
20
4.3749
42
0.1222
0
VERTEX
8
0
10
9.4115
20
4.3746
42
0.0900
0
VERTEX
8
0
10
9.2085
20
4.2863
42
0.0539
0
VERTEX
8
0
10
9.0345
20
4.1482
42
-0.1449
0
VERTEX
8
0
10
8.3977
20
4.6072
42
0.0733
0
VERTEX
8
0
10
8.6195
20
4.4935
42
0.0995
0
VERTEX
8
0
10
8.8665
20
4.4663
42
-0.0503
0
VERTEX
8
0
10
9.5558
20
4.4632
42
-0.0372
0
VERTEX
8
0
10
9.2973
20
4.6940
42
-0.0248
0
VERTEX
8
0
10
9.0637
20
4.9500
42
0.1023
0
VERTEX
8
0
10
8.8708
20
5.1050
42
0.0832
0
VERTEX
8
0
10
8.6348
20
5.1818
42
-0.0486
0
VERTEX
8
0
10
8.8935
20
5.2065
42
-0.0959
0
VERTEX
8
0
10
9.4012
20
5.1097
0
SEQEND
8
0
0
POLYLINE
8
Layer 1
66
1
0
VERTEX
8
0
10
9.5220
20
5.0535
42
0.0596
0
VERTEX
8
0
10
9.5917
20
4.7910
42
0.3048
0
VERTEX
8
0
10
9.8820
20
4.5818
42
0.0127
0
VERTEX
8
0
10
9.9037
20
4.5818
42
0.1159
0
VERTEX
8
0
10
10.0545
20
4.6162
42
0.0508
0
VERTEX
8
0
10
9.7943
20
4.8743
42
0.0514
0
VERTEX
8
0
10
9.5220
20
5.0535
0
SEQEND
8
0
0
POLYLINE
8
Layer 1
66
1
0
VERTEX
8
0
10
9.6744
20
5.5109
42
-0.1477
0
VERTEX
8
0
10
10.0267
20
5.6933
42
-0.1854
0
VERTEX
8
0
10
10.5284
20
5.5160
42
-0.1249
0
VERTEX
8
0
10
10.6736
20
5.2888
42
-0.0908
0
VERTEX
8
0
10
10.7145
20
5.0220
42
-0.0991
0
VERTEX
8
0
10
10.6329
20
4.6138
42
-0.1275
0
VERTEX
8
0
10
10.3732
20
4.2900
42
0.0758
0
VERTEX
8
0
10
10.1948
20
4.5975
42
0.1353
0
VERTEX
8
0
10
10.2991
20
4.7868
42
0.0816
0
VERTEX
8
0
10
10.3223
20
5.0032
42
0.0970
0
VERTEX
8
0
10
10.2754
20
5.2141
42
0.1491
0
VERTEX
8
0
10
10.1308
20
5.3720
42
0.2062
0
VERTEX
8
0
10
9.9210
20
5.3919
42
0.3062
0
VERTEX
8
0
10
9.8063
20
5.2222
42
0.0870
0
VERTEX
8
0
10
9.8268
20
5.0331
42
0.0976
0
VERTEX
8
0
10
9.8759
20
4.9517
42
0.1428
0
VERTEX
8
0
10
9.9577
20
4.9050
42
-0.2551
0
VERTEX
8
0
10
9.9083
20
5.0021
42
-0.2396
0
VERTEX
8
0
10
9.9730
20
5.0936
42
-0.2029
0
VERTEX
8
0
10
10.0831
20
5.1125
42
-0.2472
0
VERTEX
8
0
10
10.1595
20
5.0348
42
-0.0941
0
VERTEX
8
0
10
10.1990
20
4.8489
42
-0.1715
0
VERTEX
8
0
10
10.1325
20
4.6740
42
0.0362
0
VERTEX
8
0
10
9.9202
20
4.8855
42
0.0691
0
VERTEX
8
0
10
9.5183
20
5.1517
42
-0.1915
0
VERTEX
8
0
10
9.6744
20
5.5109
0
SEQEND
8
0
0
POLYLINE
8
Layer 1
66
1
0
VERTEX
8
0
10
9.4305
20
5.9550
42
0.0794
0
VERTEX
8
0
10
9.3988
20
5.8813
42
0.1500
0
VERTEX
8
0
10
9.3980
20
5.8016
42
0.1633
0
VERTEX
8
0
10
9.4457
20
5.7385
42
0.0776
0
VERTEX
8
0
10
9.5198
20
5.7075
42
0.0791
0
VERTEX
8
0
10
9.6384
20
5.7044
42
0.0310
0
VERTEX
8
0
10
9.7549
20
5.7300
42
-0.0180
0
VERTEX
8
0
10
9.9825
20
5.8020
42
-0.0876
0
VERTEX
8
0
10
10.1783
20
5.8112
42
-0.0535
0
VERTEX
8
0
10
10.3690
20
5.7630
42
-0.0537
0
VERTEX
8
0
10
10.5458
20
5.6765
42
-0.1259
0
VERTEX
8
0
10
10.6920
20
5.5462
42
-0.1108
0
VERTEX
8
0
10
10.8227
20
5.7545
42
-0.2202
0
VERTEX
8
0
10
11.0423
20
5.8530
42
-0.2314
0
VERTEX
8
0
10
11.2036
20
5.7867
42
-0.1590
0
VERTEX
8
0
10
11.2628
20
5.6205
42
-0.2047
0
VERTEX
8
0
10
11.2021
20
5.5034
42
-0.2016
0
VERTEX
8
0
10
11.0760
20
5.4607
42
-0.2945
0
VERTEX
8
0
10
10.9510
20
5.5415
42
-0.1419
0
VERTEX
8
0
10
10.9388
20
5.6963
42
0.1205
0
VERTEX
8
0
10
10.8694
20
5.6566
42
0.0666
0
VERTEX
8
0
10
10.8210
20
5.5925
42
0.0829
0
VERTEX
8
0
10
10.7670
20
5.4413
42
-0.0518
0
VERTEX
8
0
10
10.8154
20
5.0942
42
-0.0659
0
VERTEX
8
0
10
10.7866
20
4.7450
42
-0.0935
0
VERTEX
8
0
10
10.6563
20
4.4207
42
-0.1015
0
VERTEX
8
0
10
10.4123
20
4.1715
42
-0.1039
0
VERTEX
8
0
10
10.4282
20
3.8222
42
-0.0848
0
VERTEX
8
0
10
10.3083
20
3.4928
42
-0.1184
0
VERTEX
8
0
10
9.8257
20
2.9872
42
0.0855
0
VERTEX
8
0
10
9.7648
20
2.8385
42
0.0822
0
VERTEX
8
0
10
9.7580
20
2.7585
42
0.1370
0
VERTEX
8
0
10
9.7830
20
2.6827
42
-0.1749
0
VERTEX
8
0
10
9.8949
20
2.7890
42
-0.1562
0
VERTEX
8
0
10
9.9716
20
2.7988
42
-0.1082
0
VERTEX
8
0
10
10.0418
20
2.7652
42
-0.1830
0
VERTEX
8
0
10
10.1067
20
2.6490
42
-0.2581
0
VERTEX
8
0
10
10.0733
20
2.5215
42
-0.2241
0
VERTEX
8
0
10
9.8985
20
2.4367
42
-0.1670
0
VERTEX
8
0
10
9.7538
20
2.4967
42
-0.1121
0
VERTEX
8
0
10
9.6825
20
2.5965
42
-0.0810
0
VERTEX
8
0
10
9.6569
20
2.7168
42
-0.1095
0
VERTEX
8
0
10
9.6998
20
2.9587
42
-0.0828
0
VERTEX
8
0
10
9.5038
20
2.9600
42
-0.0503
0
VERTEX
8
0
10
9.3146
20
3.0140
42
-0.0601
0
VERTEX
8
0
10
9.1406
20
3.1059
42
-0.1120
0
VERTEX
8
0
10
9.0015
20
3.2438
42
0.0130
0
VERTEX
8
0
10
8.8814
20
3.4501
42
0.0433
0
VERTEX
8
0
10
8.8125
20
3.5474
42
0.1096
0
VERTEX
8
0
10
8.7225
20
3.6247
42
0.1023
0
VERTEX
8
0
10
8.6469
20
3.6513
42
0.1820
0
VERTEX
8
0
10
8.5690
20
3.6364
42
0.1836
0
VERTEX
8
0
10
8.4900
20
3.5002
42
-0.1049
0
VERTEX
8
0
10
8.4793
20
3.7255
42
-0.1765
0
VERTEX
8
0
10
8.5792
20
3.9247
42
-0.1421
0
VERTEX
8
0
10
8.7245
20
4.0094
42
-0.2160
0
VERTEX
8
0
10
8.8898
20
3.9915
42
-0.0157
0
VERTEX
8
0
10
8.9692
20
4.0822
42
-0.0691
0
VERTEX
8
0
10
8.5597
20
4.3112
42
-0.0772
0
VERTEX
8
0
10
8.2283
20
4.6433
42
-0.1700
0
VERTEX
8
0
10
8.1677
20
4.4023
42
-0.1769
0
VERTEX
8
0
10
7.9702
20
4.2518
42
0.0861
0
VERTEX
8
0
10
7.8222
20
4.7091
42
0.0714
0
VERTEX
8
0
10
7.5348
20
5.0953
42
0.0540
0
VERTEX
8
0
10
7.1570
20
5.3950
42
0.0631
0
VERTEX
8
0
10
6.7253
20
5.6100
0
VERTEX
8
0
10
6.7402
20
5.6558
42
0.0504
0
VERTEX
8
0
10
7.1974
20
5.5026
42
0.0589
0
VERTEX
8
0
10
7.6763
20
5.4474
42
0.0776
0
VERTEX
8
0
10
8.1526
20
5.5172
42
0.0867
0
VERTEX
8
0
10
8.5808
20
5.7360
42
-0.1655
0
VERTEX
8
0
10
8.6145
20
5.4950
42
-0.1457
0
VERTEX
8
0
10
8.4930
20
5.2837
42
-0.1366
0
VERTEX
8
0
10
9.3968
20
5.2020
42
-0.0146
0
VERTEX
8
0
10
9.3990
20
5.3228
42
-0.1796
0
VERTEX
8
0
10
9.2647
20
5.4200
42
-0.1166
0
VERTEX
8
0
10
9.2138
20
5.5800
42
-0.1520
0
VERTEX
8
0
10
9.2725
20
5.7947
42
-0.1108
0
VERTEX
8
0
10
9.4305
20
5.9550
0
SEQEND
8
0
0
POLYLINE
8
Layer 1
66
1
0
VERTEX
8
0
10
9.9202
20
7.1145
42
0.0313
0
VERTEX
8
0
10
10.1325
20
7.3260
42
-0.1918
0
VERTEX
8
0
10
10.1990
20
7.1510
42
-0.1170
0
VERTEX
8
0
10
10.1595
20
6.9652
42
-0.1969
0
VERTEX
8
0
10
10.0805
20
6.8867
42
-0.2412
0
VERTEX
8
0
10
9.9708
20
6.9079
42
-0.1963
0
VERTEX
8
0
10
9.9080
20
7.0004
42
-0.3105
0
VERTEX
8
0
10
9.9577
20
7.0950
42
0.1864
0
VERTEX
8
0
10
9.8759
20
7.0483
42
0.1122
0
VERTEX
8
0
10
9.8268
20
6.9669
42
0.1209
0
VERTEX
8
0
10
9.8063
20
6.7778
42
0.1205
0
VERTEX
8
0
10
9.8385
20
6.6751
42
0.1565
0
VERTEX
8
0
10
9.9218
20
6.6078
42
0.2426
0
VERTEX
8
0
10
10.1316
20
6.6285
42
0.1651
0
VERTEX
8
0
10
10.2758
20
6.7867
42
0.1133
0
VERTEX
8
0
10
10.3223
20
6.9968
42
0.0670
0
VERTEX
8
0
10
10.2991
20
7.2132
42
0.1179
0
VERTEX
8
0
10
10.1948
20
7.4025
42
0.0646
0
VERTEX
8
0
10
10.3732
20
7.7100
42
-0.1235
0
VERTEX
8
0
10
10.6329
20
7.3862
42
-0.1131
0
VERTEX
8
0
10
10.7145
20
6.9780
42
-0.0765
0
VERTEX
8
0
10
10.6732
20
6.7101
42
-0.1184
0
VERTEX
8
0
10
10.5275
20
6.4833
42
-0.1146
0
VERTEX
8
0
10
10.2935
20
6.3482
42
-0.0828
0
VERTEX
8
0
10
10.0267
20
6.3067
42
-0.1428
0
VERTEX
8
0
10
9.6742
20
6.4893
42
-0.1974
0
VERTEX
8
0
10
9.5183
20
6.8483
42
0.0711
0
VERTEX
8
0
10
9.9202
20
7.1145
0
SEQEND
8
0
0
POLYLINE
8
Layer 1
66
1
0
VERTEX
8
0
10
9.7046
20
7.3588
42
-0.1577
0
VERTEX
8
0
10
9.8820
20
7.4182
42
-0.0167
0
VERTEX
8
0
10
9.9037
20
7.4182
42
-0.1007
0
VERTEX
8
0
10
10.0545
20
7.3838
42
-0.0546
0
VERTEX
8
0
10
9.7943
20
7.1257
42
-0.0483
0
VERTEX
8
0
10
9.5220
20
6.9465
42
-0.0732
0
VERTEX
8
0
10
9.5917
20
7.2090
42
-0.1590
0
VERTEX
8
0
10
9.7046
20
7.3588
0
SEQEND
8
0
0
POLYLINE
8
Layer 1
66
1
0
VERTEX
8
0
10
9.0345
20
7.8518
42
0.0456
0
VERTEX
8
0
10
9.2085
20
7.7137
42
0.0763
0
VERTEX
8
0
10
9.4115
20
7.6254
42
0.2381
0
VERTEX
8
0
10
9.8280
20
7.7258
42
0.1458
0
VERTEX
8
0
10
9.9480
20
7.9020
42
-0.0722
0
VERTEX
8
0
10
10.2742
20
7.7753
42
-0.0777
0
VERTEX
8
0
10
10.1153
20
7.4640
42
0.1387
0
VERTEX
8
0
10
9.9060
20
7.5165
42
0.1064
0
VERTEX
8
0
10
9.6928
20
7.4594
42
0.1220
0
VERTEX
8
0
10
9.5294
20
7.3113
42
0.0899
0
VERTEX
8
0
10
9.4380
20
7.1095
42
0.0542
0
VERTEX
8
0
10
9.4012
20
6.8903
42
-0.1442
0
VERTEX
8
0
10
8.6348
20
6.8182
42
0.0739
0
VERTEX
8
0
10
8.8708
20
6.8950
42
0.0994
0
VERTEX
8
0
10
9.0637
20
7.0500
42
-0.0509
0
VERTEX
8
0
10
9.5558
20
7.5368
42
-0.0376
0
VERTEX
8
0
10
9.2112
20
7.5177
42
-0.0245
0
VERTEX
8
0
10
8.8665
20
7.5337
42
0.1036
0
VERTEX
8
0
10
8.6195
20
7.5065
42
0.0828
0
VERTEX
8
0
10
8.3977
20
7.3928
42
-0.1447
0
VERTEX
8
0
10
9.0345
20
7.8518
0
SEQEND
8
0
0
POLYLINE
8
Layer 1
66
1
0
VERTEX
8
0
10
9.1627
20
7.8908
42
-0.0489
0
VERTEX
8
0
10
9.4793
20
7.9388
42
-0.0085
0
VERTEX
8
0
10
9.5408
20
7.9410
42
-0.0110
0
VERTEX
8
0
10
9.6023
20
7.9410
42
-0.0351
0
VERTEX
8
0
10
9.8490
20
7.9215
42
-0.1147
0
VERTEX
8
0
10
9.7613
20
7.7963
42
-0.1497
0
VERTEX
8
0
10
9.5838
20
7.7082
42
-0.1557
0
VERTEX
8
0
10
9.3885
20
7.7430
42
-0.0611
0
VERTEX
8
0
10
9.1627
20
7.8908
0
SEQEND
8
0
0
POLYLINE
8
Layer 1
66
1
0
VERTEX
8
0
10
8.9680
20
8.3328
42
-0.1479
0
VERTEX
8
0
10
9.1080
20
8.7045
42
-0.1777
0
VERTEX
8
0
10
9.5700
20
8.9093
42
-0.0151
0
VERTEX
8
0
10
9.5963
20
8.9093
42
-0.1253
0
VERTEX
8
0
10
9.8568
20
8.8390
42
-0.0917
0
VERTEX
8
0
10
10.0673
20
8.6678
42
-0.1001
0
VERTEX
8
0
10
10.2809
20
8.3076
42
-0.1277
0
VERTEX
8
0
10
10.3035
20
7.8908
42
0.0744
0
VERTEX
8
0
10
9.9668
20
8.0010
42
0.1388
0
VERTEX
8
0
10
9.9172
20
8.2129
42
0.0814
0
VERTEX
8
0
10
9.7882
20
8.3902
42
0.0967
0
VERTEX
8
0
10
9.6125
20
8.5153
42
0.1487
0
VERTEX
8
0
10
9.3997
20
8.5360
42
0.2067
0
VERTEX
8
0
10
9.2308
20
8.4105
42
0.3060
0
VERTEX
8
0
10
9.2595
20
8.2080
42
0.0863
0
VERTEX
8
0
10
9.4016
20
8.0811
42
0.0970
0
VERTEX
8
0
10
9.4927
20
8.0533
42
0.1415
0
VERTEX
8
0
10
9.5850
20
8.0730
42
-0.2554
0
VERTEX
8
0
10
9.4832
20
8.1120
42
-0.2390
0
VERTEX
8
0
10
9.4697
20
8.2232
42
-0.2030
0
VERTEX
8
0
10
9.5384
20
8.3113
42
-0.2488
0
VERTEX
8
0
10
9.6473
20
8.3048
42
-0.0961
0
VERTEX
8
0
10
9.8020
20
8.1921
42
-0.1722
0
VERTEX
8
0
10
9.8693
20
8.0160
42
0.0378
0
VERTEX
8
0
10
9.5648
20
8.0317
42
0.0675
0
VERTEX
8
0
10
9.0937
20
7.9612
0
VERTEX
8
0
10
9.0930
20
7.9612
42
-0.1919
0
VERTEX
8
0
10
8.9680
20
8.3328
0
SEQEND
8
0
0
POLYLINE
8
Layer 1
66
1
0
VERTEX
8
0
10
8.4900
20
8.4998
42
0.1089
0
VERTEX
8
0
10
8.4793
20
8.2745
42
0.1529
0
VERTEX
8
0
10
8.5792
20
8.0753
42
0.1162
0
VERTEX
8
0
10
8.7246
20
7.9906
42
0.1786
0
VERTEX
8
0
10
8.8898
20
8.0085
42
0.0157
0
VERTEX
8
0
10
8.9692
20
7.9178
42
0.1401
0
VERTEX
8
0
10
8.2283
20
7.3567
42
0.1470
0
VERTEX
8
0
10
8.1676
20
7.5978
42
0.1698
0
VERTEX
8
0
10
7.9702
20
7.7482
42
-0.0867
0
VERTEX
8
0
10
7.8222
20
7.2908
42
-0.0777
0
VERTEX
8
0
10
7.5346
20
6.9046
42
-0.0589
0
VERTEX
8
0
10
7.1569
20
6.6050
42
-0.0504
0
VERTEX
8
0
10
6.7253
20
6.3900
0
VERTEX
8
0
10
6.7402
20
6.3442
42
-0.0630
0
VERTEX
8
0
10
7.1975
20
6.4974
42
-0.0540
0
VERTEX
8
0
10
7.6765
20
6.5526
42
-0.0714
0
VERTEX
8
0
10
8.1528
20
6.4827
42
-0.0861
0
VERTEX
8
0
10
8.5808
20
6.2640
42
0.1809
0
VERTEX
8
0
10
8.6145
20
6.5052
42
0.1675
0
VERTEX
8
0
10
8.4930
20
6.7163
42
0.1419
0
VERTEX
8
0
10
9.3968
20
6.7980
42
0.0176
0
VERTEX
8
0
10
9.3990
20
6.6772
42
0.2170
0
VERTEX
8
0
10
9.2646
20
6.5799
42
0.1415
0
VERTEX
8
0
10
9.2138
20
6.4200
42
0.1738
0
VERTEX
8
0
10
9.2725
20
6.2053
42
0.1044
0
VERTEX
8
0
10
9.4305
20
6.0450
42
-0.1856
0
VERTEX
8
0
10
9.3981
20
6.1987
42
-0.1813
0
VERTEX
8
0
10
9.4459
20
6.2617
42
-0.1016
0
VERTEX
8
0
10
9.5198
20
6.2925
42
-0.1081
0
VERTEX
8
0
10
9.6384
20
6.2956
42
-0.0424
0
VERTEX
8
0
10
9.7549
20
6.2700
42
-0.0142
0
VERTEX
8
0
10
9.9825
20
6.1980
42
0.1117
0
VERTEX
8
0
10
10.1781
20
6.1888
42
0.0602
0
VERTEX
8
0
10
10.3689
20
6.2370
42
0.0503
0
VERTEX
8
0
10
10.5456
20
6.3235
42
0.0829
0
VERTEX
8
0
10
10.6920
20
6.4538
42
0.1092
0
VERTEX
8
0
10
10.8227
20
6.2455
42
0.0816
0
VERTEX
8
0
10
10.9224
20
6.1733
42
0.1120
0
VERTEX
8
0
10
11.0423
20
6.1470
42
0.1907
0
VERTEX
8
0
10
11.2036
20
6.2134
42
0.1938
0
VERTEX
8
0
10
11.2628
20
6.3795
42
0.2566
0
VERTEX
8
0
10
11.2021
20
6.4966
42
0.1833
0
VERTEX
8
0
10
11.0760
20
6.5393
42
0.2576
0
VERTEX
8
0
10
10.9509
20
6.4581
42
0.1728
0
VERTEX
8
0
10
10.9388
20
6.3037
42
-0.1378
0
VERTEX
8
0
10
10.8695
20
6.3433
42
-0.0829
0
VERTEX
8
0
10
10.8210
20
6.4074
42
-0.0864
0
VERTEX
8
0
10
10.7670
20
6.5587
42
0.1179
0
VERTEX
8
0
10
10.7865
20
7.2552
42
0.0842
0
VERTEX
8
0
10
10.6562
20
7.5795
42
0.1036
0
VERTEX
8
0
10
10.4123
20
7.8285
42
0.2029
0
VERTEX
8
0
10
10.3082
20
8.5074
42
0.0664
0
VERTEX
8
0
10
10.0951
20
8.7870
42
0.0520
0
VERTEX
8
0
10
9.8257
20
9.0128
42
-0.0831
0
VERTEX
8
0
10
9.7648
20
9.1614
42
-0.0679
0
VERTEX
8
0
10
9.7580
20
9.2414
42
-0.1211
0
VERTEX
8
0
10
9.7829
20
9.3171
42
0.1420
0
VERTEX
8
0
10
9.8953
20
9.2108
42
0.2944
0
VERTEX
8
0
10
10.0418
20
9.2348
42
0.2019
0
VERTEX
8
0
10
10.1067
20
9.3510
42
0.2056
0
VERTEX
8
0
10
10.0733
20
9.4785
42
0.1817
0
VERTEX
8
0
10
9.8985
20
9.5633
42
0.0045
0
VERTEX
8
0
10
9.8813
20
9.5633
42
0.1788
0
VERTEX
8
0
10
9.7538
20
9.5033
42
0.2206
0
VERTEX
8
0
10
9.6569
20
9.2831
42
0.1118
0
VERTEX
8
0
10
9.6998
20
9.0413
42
0.0766
0
VERTEX
8
0
10
9.6019
20
9.0502
42
0.0388
0
VERTEX
8
0
10
9.5039
20
9.0401
42
0.0537
0
VERTEX
8
0
10
9.3147
20
8.9860
42
0.0535
0
VERTEX
8
0
10
9.1407
20
8.8942
42
0.0879
0
VERTEX
8
0
10
9.0015
20
8.7562
42
0.0192
0
VERTEX
8
0
10
8.8814
20
8.5499
42
-0.0312
0
VERTEX
8
0
10
8.8125
20
8.4526
42
-0.0803
0
VERTEX
8
0
10
8.7225
20
8.3753
42
-0.0777
0
VERTEX
8
0
10
8.6466
20
8.3486
42
-0.1644
0
VERTEX
8
0
10
8.5688
20
8.3637
42
-0.1499
0
VERTEX
8
0
10
8.5160
20
8.4237
42
-0.0791
0
VERTEX
8
0
10
8.4900
20
8.4998
0
SEQEND
8
0
0
POLYLINE
8
Layer 1
66
1
0
VERTEX
8
0
10
8.0288
20
9.4913
42
0.1278
0
VERTEX
8
0
10
8.0820
20
9.3739
42
0.0649
0
VERTEX
8
0
10
8.1712
20
9.2798
42
0.1203
0
VERTEX
8
0
10
8.2672
20
9.2313
42
0.1567
0
VERTEX
8
0
10
8.3735
20
9.2439
42
0.2428
0
VERTEX
8
0
10
8.5048
20
9.4085
42
0.1652
0
VERTEX
8
0
10
8.4918
20
9.6221
42
0.1131
0
VERTEX
8
0
10
8.3737
20
9.8018
42
0.0594
0
VERTEX
8
0
10
8.2172
20
9.9281
42
0.1028
0
VERTEX
8
0
10
8.0280
20
9.9930
42
0.0684
0
VERTEX
8
0
10
7.9320
20
10.3410
42
-0.0204
0
VERTEX
8
0
10
8.0168
20
10.3470
42
-0.1092
0
VERTEX
8
0
10
8.3670
20
10.2746
42
-0.0937
0
VERTEX
8
0
10
8.6617
20
10.0703
42
-0.0766
0
VERTEX
8
0
10
8.8248
20
9.8538
42
-0.1185
0
VERTEX
8
0
10
8.8857
20
9.5912
42
-0.1147
0
VERTEX
8
0
10
8.8189
20
9.3294
42
-0.0828
0
VERTEX
8
0
10
8.6625
20
9.1095
42
-0.1382
0
VERTEX
8
0
10
8.2978
20
8.9850
42
-0.1901
0
VERTEX
8
0
10
7.9380
20
9.1073
42
0.0587
0
VERTEX
8
0
10
8.0288
20
9.4913
0
SEQEND
8
0
0
POLYLINE
8
Layer 1
66
1
0
VERTEX
8
0
10
8.0490
20
9.6097
0
VERTEX
8
0
10
8.0490
20
9.6098
0
VERTEX
8
0
10
8.0490
20
9.6098
0
SEQEND
8
0
0
POLYLINE
8
Layer 1
66
1
0
VERTEX
8
0
10
8.0378
20
9.5865
42
0.0332
0
VERTEX
8
0
10
8.0385
20
9.8925
42
-0.1668
0
VERTEX
8
0
10
8.1895
20
9.8099
42
-0.1042
0
VERTEX
8
0
10
8.2838
20
9.6638
42
-0.1985
0
VERTEX
8
0
10
8.2848
20
9.5522
42
-0.2411
0
VERTEX
8
0
10
8.1927
20
9.4885
42
-0.1951
0
VERTEX
8
0
10
8.0823
20
9.5080
42
-0.3125
0
VERTEX
8
0
10
8.0490
20
9.6097
42
0.0478
0
VERTEX
8
0
10
8.0378
20
9.5865
0
SEQEND
8
0
0
POLYLINE
8
Layer 1
66
1
0
VERTEX
8
0
10
7.6850
20
9.6230
42
-0.1649
0
VERTEX
8
0
10
7.7798
20
9.7965
42
-0.1253
0
VERTEX
8
0
10
7.9403
20
9.8895
42
-0.0603
0
VERTEX
8
0
10
7.9380
20
9.4860
42
-0.0486
0
VERTEX
8
0
10
7.8698
20
9.1748
42
-0.0818
0
VERTEX
8
0
10
7.7123
20
9.4267
42
-0.1686
0
VERTEX
8
0
10
7.6850
20
9.6230
0
SEQEND
8
0
0
POLYLINE
8
Layer 1
66
1
0
VERTEX
8
0
10
7.3052
20
9.5710
42
0.2431
0
VERTEX
8
0
10
7.5443
20
9.9398
42
0.1693
0
VERTEX
8
0
10
7.4903
20
10.1813
42
-0.0722
0
VERTEX
8
0
10
7.8120
20
10.3192
42
-0.0811
0
VERTEX
8
0
10
7.9260
20
9.9878
42
0.1625
0
VERTEX
8
0
10
7.7115
20
9.8670
42
0.1085
0
VERTEX
8
0
10
7.6019
20
9.6688
42
0.1250
0
VERTEX
8
0
10
7.5978
20
9.4426
42
0.0898
0
VERTEX
8
0
10
7.6851
20
9.2326
42
0.0530
0
VERTEX
8
0
10
7.8233
20
9.0510
42
-0.0790
0
VERTEX
8
0
10
7.6123
20
8.7132
42
-0.0691
0
VERTEX
8
0
10
7.3140
20
8.4488
42
0.0752
0
VERTEX
8
0
10
7.4382
20
8.6789
42
0.1033
0
VERTEX
8
0
10
7.4693
20
8.9378
42
-0.0506
0
VERTEX
8
0
10
7.4722
20
9.6270
42
-0.0383
0
VERTEX
8
0
10
7.2422
20
9.3675
42
-0.0252
0
VERTEX
8
0
10
6.9862
20
9.1335
42
0.1051
0
VERTEX
8
0
10
6.8286
20
8.9354
42
0.0834
0
VERTEX
8
0
10
6.7522
20
8.6933
42
-0.1394
0
VERTEX
8
0
10
6.8632
20
9.4762
42
0.0450
0
VERTEX
8
0
10
7.0907
20
9.4951
42
0.0756
0
VERTEX
8
0
10
7.3052
20
9.5710
0
SEQEND
8
0
0
POLYLINE
8
Layer 1
66
1
0
VERTEX
8
0
10
7.1107
20
9.8550
42
0.0505
0
VERTEX
8
0
10
6.9233
20
9.5933
42
0.0685
0
VERTEX
8
0
10
7.2172
20
9.6458
42
0.1559
0
VERTEX
8
0
10
7.3808
20
9.7570
42
0.1491
0
VERTEX
8
0
10
7.4460
20
9.9435
42
0.1513
0
VERTEX
8
0
10
7.4070
20
10.1265
42
0.0560
0
VERTEX
8
0
10
7.1107
20
9.8550
0
SEQEND
8
0
0
POLYLINE
8
Layer 1
66
1
0
VERTEX
8
0
10
6.9284
20
10.1579
42
-0.2476
0
VERTEX
8
0
10
7.0110
20
10.2292
42
-0.0778
0
VERTEX
8
0
10
7.1700
20
10.2577
42
-0.1541
0
VERTEX
8
0
10
7.3440
20
10.2008
42
0.0380
0
VERTEX
8
0
10
7.1190
20
9.9968
42
0.0357
0
VERTEX
8
0
10
7.1272
20
10.0185
42
-0.2566
0
VERTEX
8
0
10
7.0269
20
9.9757
42
-0.2395
0
VERTEX
8
0
10
6.9401
20
10.0467
42
-0.2023
0
VERTEX
8
0
10
6.9284
20
10.1579
0
SEQEND
8
0
0
POLYLINE
8
Layer 1
66
1
0
VERTEX
8
0
10
6.5317
20
10.6054
42
-0.1182
0
VERTEX
8
0
10
6.7446
20
10.7435
42
-0.0938
0
VERTEX
8
0
10
6.9952
20
10.7835
42
-0.0162
0
VERTEX
8
0
10
7.0590
20
10.7813
42
-0.0939
0
VERTEX
8
0
10
7.4457
20
10.6815
42
-0.1217
0
VERTEX
8
0
10
7.7482
20
10.4227
42
0.0800
0
VERTEX
8
0
10
7.4250
20
10.2600
42
0.1185
0
VERTEX
8
0
10
7.2509
20
10.3572
42
0.0724
0
VERTEX
8
0
10
7.0530
20
10.3890
42
0.0970
0
VERTEX
8
0
10
6.8396
20
10.3560
42
0.1491
0
VERTEX
8
0
10
6.6727
20
10.2221
42
0.2066
0
VERTEX
8
0
10
6.6392
20
10.0142
42
0.3058
0
VERTEX
8
0
10
6.8010
20
9.8888
42
0.0509
0
VERTEX
8
0
10
6.9287
20
9.8852
42
0.0995
0
VERTEX
8
0
10
7.0500
20
9.9225
42
0.0576
0
VERTEX
8
0
10
6.8288
20
9.5992
42
-0.1888
0
VERTEX
8
0
10
6.4969
20
9.7850
42
-0.1416
0
VERTEX
8
0
10
6.3458
20
10.1393
42
-0.1735
0
VERTEX
8
0
10
6.5317
20
10.6054
0
SEQEND
8
0
0
POLYLINE
8
Layer 1
66
1
0
VERTEX
8
0
10
6.2520
20
11.1630
42
0.2212
0
VERTEX
8
0
10
6.3361
20
10.9373
42
0.1107
0
VERTEX
8
0
10
6.5355
20
10.7933
42
0.1256
0
VERTEX
8
0
10
6.3960
20
10.6560
42
0.0537
0
VERTEX
8
0
10
6.2982
20
10.4854
42
0.0536
0
VERTEX
8
0
10
6.2376
20
10.2983
42
0.0877
0
VERTEX
8
0
10
6.2340
20
10.1025
42
0.0179
0
VERTEX
8
0
10
6.2912
20
9.8707
42
-0.0311
0
VERTEX
8
0
10
6.3093
20
9.7528
42
-0.0802
0
VERTEX
8
0
10
6.2985
20
9.6345
42
-0.0791
0
VERTEX
8
0
10
6.2626
20
9.5625
42
-0.1634
0
VERTEX
8
0
10
6.1963
20
9.5191
42
-0.1502
0
VERTEX
8
0
10
6.1166
20
9.5253
42
-0.0792
0
VERTEX
8
0
10
6.0450
20
9.5617
42
0.1097
0
VERTEX
8
0
10
6.1945
20
9.3931
42
0.1530
0
VERTEX
8
0
10
6.4050
20
9.3203
42
0.1151
0
VERTEX
8
0
10
6.5681
20
9.3606
42
0.1788
0
VERTEX
8
0
10
6.6742
20
9.4882
42
0.0131
0
VERTEX
8
0
10
6.7717
20
9.4800
42
0.1399
0
VERTEX
8
0
10
6.6540
20
8.5620
42
0.1476
0
VERTEX
8
0
10
6.4420
20
8.6852
42
0.1667
0
VERTEX
8
0
10
6.1995
20
8.6513
42
-0.0865
0
VERTEX
8
0
10
6.4183
20
8.2233
42
-0.0777
0
VERTEX
8
0
10
6.4883
20
7.7473
42
-0.0590
0
VERTEX
8
0
10
6.4334
20
7.2685
42
-0.0504
0
VERTEX
8
0
10
6.2805
20
6.8115
0
VERTEX
8
0
10
6.3263
20
6.7965
42
-0.0631
0
VERTEX
8
0
10
6.5414
20
7.2281
42
-0.0541
0
VERTEX
8
0
10
6.8411
20
7.6056
42
-0.0713
0
VERTEX
8
0
10
7.2273
20
7.8928
42
-0.0861
0
VERTEX
8
0
10
7.6845
20
8.0408
42
0.1763
0
VERTEX
8
0
10
7.5408
20
8.2331
42
0.1649
0
VERTEX
8
0
10
7.3103
20
8.2995
42
0.1372
0
VERTEX
8
0
10
7.8870
20
8.9850
42
0.0137
0
VERTEX
8
0
10
7.9590
20
8.9183
42
0.2155
0
VERTEX
8
0
10
7.9347
20
8.7538
42
0.1423
0
VERTEX
8
0
10
8.0138
20
8.6055
42
0.1740
0
VERTEX
8
0
10
8.2086
20
8.4980
42
0.1047
0
VERTEX
8
0
10
8.4338
20
8.4998
42
-0.1861
0
VERTEX
8
0
10
8.3012
20
8.5841
42
-0.1813
0
VERTEX
8
0
10
8.2896
20
8.6624
42
-0.1019
0
VERTEX
8
0
10
8.3190
20
8.7368
42
-0.1072
0
VERTEX
8
0
10
8.3996
20
8.8238
42
-0.0420
0
VERTEX
8
0
10
8.4993
20
8.8891
42
-0.0141
0
VERTEX
8
0
10
8.7098
20
9.0015
42
0.1119
0
VERTEX
8
0
10
8.8529
20
9.1353
42
0.0598
0
VERTEX
8
0
10
8.9515
20
9.3056
42
0.0502
0
VERTEX
8
0
10
9.0129
20
9.4927
42
0.0830
0
VERTEX
8
0
10
9.0218
20
9.6885
42
0.1081
0
VERTEX
8
0
10
9.2618
20
9.6367
42
0.0812
0
VERTEX
8
0
10
9.3830
20
9.6578
42
0.1118
0
VERTEX
8
0
10
9.4853
20
9.7253
42
0.1923
0
VERTEX
8
0
10
9.5502
20
9.8872
42
0.1932
0
VERTEX
8
0
10
9.4725
20
10.0455
42
0.2576
0
VERTEX
8
0
10
9.3461
20
10.0836
42
0.1825
0
VERTEX
8
0
10
9.2273
20
10.0230
42
0.2570
0
VERTEX
8
0
10
9.1980
20
9.8772
42
0.1745
0
VERTEX
8
0
10
9.3000
20
9.7613
42
-0.1363
0
VERTEX
8
0
10
9.2235
20
9.7391
42
-0.0822
0
VERTEX
8
0
10
9.1439
20
9.7488
42
-0.0849
0
VERTEX
8
0
10
8.9978
20
9.8152
42
0.1153
0
VERTEX
8
0
10
8.5260
20
10.3067
42
0.0809
0
VERTEX
8
0
10
8.2127
20
10.4429
42
0.1009
0
VERTEX
8
0
10
7.8720
20
10.4528
42
0.1003
0
VERTEX
8
0
10
7.6363
20
10.6986
42
0.0899
0
VERTEX
8
0
10
7.3256
20
10.8397
42
0.0635
0
VERTEX
8
0
10
6.9868
20
10.8868
42
0.0506
0
VERTEX
8
0
10
6.6457
20
10.8608
42
-0.0834
0
VERTEX
8
0
10
6.4984
20
10.9246
42
-0.0671
0
VERTEX
8
0
10
6.4377
20
10.9772
42
-0.1209
0
VERTEX
8
0
10
6.4028
20
11.0489
42
0.1431
0
VERTEX
8
0
10
6.5575
20
11.0512
42
0.2944
0
VERTEX
8
0
10
6.6457
20
11.1705
42
0.2016
0
VERTEX
8
0
10
6.6115
20
11.2990
42
0.2052
0
VERTEX
8
0
10
6.4988
20
11.3670
42
0.1574
0
VERTEX
8
0
10
6.3289
20
11.3194
42
0.2329
0
VERTEX
8
0
10
6.2520
20
11.1630
0
SEQEND
8
0
0
POLYLINE
8
Layer 1
66
1
0
VERTEX
8
0
10
5.6710
20
11.3194
42
0.1933
0
VERTEX
8
0
10
5.5012
20
11.3670
42
0.2567
0
VERTEX
8
0
10
5.3885
20
11.2990
42
0.1837
0
VERTEX
8
0
10
5.3543
20
11.1705
42
0.1078
0
VERTEX
8
0
10
5.3811
20
11.0975
42
0.1557
0
VERTEX
8
0
10
5.4429
20
11.0510
42
0.1748
0
VERTEX
8
0
10
5.5973
20
11.0490
42
-0.1370
0
VERTEX
8
0
10
5.5624
20
10.9773
42
-0.0819
0
VERTEX
8
0
10
5.5017
20
10.9247
42
-0.0855
0
VERTEX
8
0
10
5.3543
20
10.8608
42
0.1150
0
VERTEX
8
0
10
4.6742
20
10.8397
42
0.0808
0
VERTEX
8
0
10
4.3635
20
10.6985
42
0.1008
0
VERTEX
8
0
10
4.1280
20
10.4528
42
0.1003
0
VERTEX
8
0
10
3.7871
20
10.4428
42
0.0900
0
VERTEX
8
0
10
3.4738
20
10.3066
42
0.0637
0
VERTEX
8
0
10
3.2115
20
10.0863
42
0.0507
0
VERTEX
8
0
10
3.0022
20
9.8153
42
-0.0832
0
VERTEX
8
0
10
2.8562
20
9.7489
42
-0.0673
0
VERTEX
8
0
10
2.7766
20
9.7391
42
-0.1203
0
VERTEX
8
0
10
2.7001
20
9.7612
42
0.1424
0
VERTEX
8
0
10
2.8022
20
9.8775
42
0.2950
0
VERTEX
8
0
10
2.7727
20
10.0230
42
0.2013
0
VERTEX
8
0
10
2.6539
20
10.0836
42
0.2046
0
VERTEX
8
0
10
2.5275
20
10.0455
42
0.1599
0
VERTEX
8
0
10
2.4497
20
9.8871
42
0.2321
0
VERTEX
8
0
10
2.5147
20
9.7253
42
0.2193
0
VERTEX
8
0
10
2.7382
20
9.6367
42
0.1117
0
VERTEX
8
0
10
2.9782
20
9.6885
42
0.0770
0
VERTEX
8
0
10
2.9731
20
9.5903
42
0.0391
0
VERTEX
8
0
10
2.9870
20
9.4928
42
0.0534
0
VERTEX
8
0
10
3.0485
20
9.3058
42
0.0535
0
VERTEX
8
0
10
3.1470
20
9.1354
42
0.0876
0
VERTEX
8
0
10
3.2902
20
9.0015
42
0.0191
0
VERTEX
8
0
10
3.5007
20
8.8891
42
-0.0310
0
VERTEX
8
0
10
3.6004
20
8.8238
42
-0.0792
0
VERTEX
8
0
10
3.6810
20
8.7368
42
-0.0774
0
VERTEX
8
0
10
3.7105
20
8.6620
42
-0.1620
0
VERTEX
8
0
10
3.6987
20
8.5838
42
-0.1499
0
VERTEX
8
0
10
3.6411
20
8.5286
42
-0.0800
0
VERTEX
8
0
10
3.5662
20
8.4998
42
0.1103
0
VERTEX
8
0
10
3.7914
20
8.4980
42
0.1530
0
VERTEX
8
0
10
3.9862
20
8.6055
42
0.1159
0
VERTEX
8
0
10
4.0653
20
8.7539
42
0.1782
0
VERTEX
8
0
10
4.0410
20
8.9183
42
0.0115
0
VERTEX
8
0
10
4.1130
20
8.9850
42
0.1352
0
VERTEX
8
0
10
4.6897
20
8.2995
42
0.1456
0
VERTEX
8
0
10
4.4590
20
8.2330
42
0.1623
0
VERTEX
8
0
10
4.3155
20
8.0408
42
-0.0865
0
VERTEX
8
0
10
4.7729
20
7.8928
42
-0.0777
0
VERTEX
8
0
10
5.1590
20
7.6055
42
-0.0590
0
VERTEX
8
0
10
5.4587
20
7.2279
42
-0.0504
0
VERTEX
8
0
10
5.6737
20
6.7965
0
VERTEX
8
0
10
5.7195
20
6.8115
42
-0.0632
0
VERTEX
8
0
10
5.5666
20
7.2687
42
-0.0541
0
VERTEX
8
0
10
5.5117
20
7.7475
42
-0.0713
0
VERTEX
8
0
10
5.5818
20
8.2235
42
-0.0860
0
VERTEX
8
0
10
5.8005
20
8.6513
42
0.1811
0
VERTEX
8
0
10
5.5578
20
8.6852
42
0.1687
0
VERTEX
8
0
10
5.3460
20
8.5620
42
0.0760
0
VERTEX
8
0
10
5.3508
20
9.0291
42
0.0692
0
VERTEX
8
0
10
5.2283
20
9.4800
42
0.0116
0
VERTEX
8
0
10
5.3258
20
9.4882
42
0.2153
0
VERTEX
8
0
10
5.4320
20
9.3606
42
0.1416
0
VERTEX
8
0
10
5.5950
20
9.3203
42
0.1748
0
VERTEX
8
0
10
5.8055
20
9.3931
42
0.1049
0
VERTEX
8
0
10
5.9550
20
9.5617
42
-0.1851
0
VERTEX
8
0
10
5.8034
20
9.5192
42
-0.1821
0
VERTEX
8
0
10
5.7372
20
9.5627
42
-0.1025
0
VERTEX
8
0
10
5.7015
20
9.6345
42
-0.1086
0
VERTEX
8
0
10
5.6907
20
9.7527
42
-0.0416
0
VERTEX
8
0
10
5.7088
20
9.8706
42
-0.0137
0
VERTEX
8
0
10
5.7660
20
10.1025
42
0.1120
0
VERTEX
8
0
10
5.7625
20
10.2982
42
0.0603
0
VERTEX
8
0
10
5.7019
20
10.4853
42
0.0503
0
VERTEX
8
0
10
5.6040
20
10.6559
42
0.0828
0
VERTEX
8
0
10
5.4645
20
10.7933
42
0.1083
0
VERTEX
8
0
10
5.6639
20
10.9374
42
0.0806
0
VERTEX
8
0
10
5.7296
20
11.0416
42
0.1122
0
VERTEX
8
0
10
5.7480
20
11.1630
42
0.1930
0
VERTEX
8
0
10
5.6710
20
11.3194
0
SEQEND
8
0
0
POLYLINE
8
Layer 1
66
1
0
VERTEX
8
0
10
6.0000
20
11.7863
42
-0.1006
0
VERTEX
8
0
10
8.2517
20
11.3314
42
-0.0965
0
VERTEX
8
0
10
10.0910
20
10.0910
42
-0.0965
0
VERTEX
8
0
10
11.3314
20
8.2517
42
-0.1006
0
VERTEX
8
0
10
11.7863
20
6.0000
42
-0.1006
0
VERTEX
8
0
10
11.3314
20
3.7483
42
-0.0965
0
VERTEX
8
0
10
10.0910
20
1.9090
42
-0.0965
0
VERTEX
8
0
10
8.2517
20
0.6686
42
-0.1006
0
VERTEX
8
0
10
6.0000
20
0.2137
42
-0.1006
0
VERTEX
8
0
10
3.7483
20
0.6686
42
-0.0965
0
VERTEX
8
0
10
1.9090
20
1.9090
42
-0.0965
0
VERTEX
8
0
10
0.6686
20
3.7483
42
-0.1006
0
VERTEX
8
0
10
0.2137
20
6.0000
42
-0.1006
0
VERTEX
8
0
10
0.6686
20
8.2517
42
-0.0965
0
VERTEX
8
0
10
1.9090
20
10.0910
42
-0.0965
0
VERTEX
8
0
10
3.7483
20
11.3314
42
-0.1006
0
VERTEX
8
0
10
6.0000
20
11.7863
0
SEQEND
8
0
0
POLYLINE
8
Layer 1
66
1
0
VERTEX
8
0
10
6.0000
20
12.0000
42
0.1006
0
VERTEX
8
0
10
3.6652
20
11.5283
42
0.0965
0
VERTEX
8
0
10
1.7580
20
10.2420
42
0.0965
0
VERTEX
8
0
10
0.4717
20
8.3348
42
0.1006
0
VERTEX
8
0
10
0.0000
20
6.0000
42
0.1006
0
VERTEX
8
0
10
0.4717
20
3.6652
42
0.0965
0
VERTEX
8
0
10
1.7580
20
1.7580
42
0.0965
0
VERTEX
8
0
10
3.6652
20
0.4717
42
0.1006
0
VERTEX
8
0
10
6.0000
20
0.0000
42
0.1006
0
VERTEX
8
0
10
8.3348
20
0.4717
42
0.0965
0
VERTEX
8
0
10
10.2420
20
1.7580
42
0.0965
0
VERTEX
8
0
10
11.5283
20
3.6652
42
0.1006
0
VERTEX
8
0
10
12.0000
20
6.0000
42
0.1006
0
VERTEX
8
0
10
11.5283
20
8.3348
42
0.0965
0
VERTEX
8
0
10
10.2420
20
10.2420
42
0.0965
0
VERTEX
8
0
10
8.3348
20
11.5283
42
0.1006
0
VERTEX
8
0
10
6.0000
20
12.0000
0
SEQEND
8
0
0
ENDSEC
0
EOF
