0
SECTION
2
HEADER
9
$ACADVER
1
AC1009
9
$ANGDIR
70
0
9
$EXTMIN
10
0
20
0
9
$EXTMAX
10
24.0000
20
18.0000
0
ENDSEC
0
SECTION
2
ENTITIES
0
POLYLINE
8
Layer 1
66
1
0
VERTEX
8
0
10
7.5324
20
4.8505
42
-0.2331
0
VERTEX
8
0
10
7.5203
20
4.8195
42
-0.1210
0
VERTEX
8
0
10
7.4907
20
4.8020
0
VERTEX
8
0
10
7.4633
20
4.7916
0
VERTEX
8
0
10
7.4979
20
4.7496
42
-0.0732
0
VERTEX
8
0
10
7.5634
20
4.6402
42
-0.0240
0
VERTEX
8
0
10
7.5878
20
4.5811
42
-0.0999
0
VERTEX
8
0
10
7.5963
20
4.5191
42
-0.2027
0
VERTEX
8
0
10
7.5897
20
4.5182
42
-0.0567
0
VERTEX
8
0
10
7.5277
20
4.5248
42
-0.1282
0
VERTEX
8
0
10
7.3477
20
4.6041
42
0.0077
0
VERTEX
8
0
10
7.3266
20
4.6202
42
0.1076
0
VERTEX
8
0
10
7.3151
20
4.6251
42
0.4378
0
VERTEX
8
0
10
7.3173
20
4.6121
42
-0.4975
0
VERTEX
8
0
10
7.2690
20
4.5439
42
-0.2671
0
VERTEX
8
0
10
7.1665
20
4.6028
42
-0.0944
0
VERTEX
8
0
10
7.1106
20
4.7114
42
-0.0780
0
VERTEX
8
0
10
7.0663
20
4.9517
0
VERTEX
8
0
10
7.0597
20
5.0494
0
VERTEX
8
0
10
7.1169
20
5.0486
42
-0.0630
0
VERTEX
8
0
10
7.2415
20
5.0307
42
-0.0325
0
VERTEX
8
0
10
7.3779
20
4.9867
42
-0.0873
0
VERTEX
8
0
10
7.4967
20
4.9079
42
-0.1299
0
VERTEX
8
0
10
7.5324
20
4.8505
0
SEQEND
8
0
0
POLYLINE
8
Layer 1
66
1
0
VERTEX
8
0
10
11.4345
20
6.0001
0
VERTEX
8
0
10
11.5281
20
6.1139
42
0.0208
0
VERTEX
8
0
10
11.5996
20
6.0594
42
-0.0377
0
VERTEX
8
0
10
11.6670
20
6.0001
42
-0.0578
0
VERTEX
8
0
10
11.5996
20
5.9407
0
VERTEX
8
0
10
11.5281
20
5.8862
0
VERTEX
8
0
10
11.4345
20
6.0001
0
SEQEND
8
0
0
POLYLINE
8
Layer 1
66
1
0
VERTEX
8
0
10
10.4716
20
6.0001
42
-0.1292
0
VERTEX
8
0
10
10.5658
20
6.0550
42
-0.0184
0
VERTEX
8
0
10
10.6708
20
6.0877
42
-0.0279
0
VERTEX
8
0
10
10.6531
20
6.1351
42
-0.1434
0
VERTEX
8
0
10
10.6565
20
6.1849
42
-0.3109
0
VERTEX
8
0
10
10.7191
20
6.2251
42
-0.1061
0
VERTEX
8
0
10
10.7811
20
6.2122
42
-0.0393
0
VERTEX
8
0
10
10.8389
20
6.1858
0
VERTEX
8
0
10
11.0917
20
6.0001
0
VERTEX
8
0
10
10.8389
20
5.8144
42
-0.0868
0
VERTEX
8
0
10
10.7191
20
5.7750
42
-0.2911
0
VERTEX
8
0
10
10.6565
20
5.8152
42
-0.1474
0
VERTEX
8
0
10
10.6531
20
5.8650
42
-0.0692
0
VERTEX
8
0
10
10.6708
20
5.9124
42
0.0191
0
VERTEX
8
0
10
10.5658
20
5.9451
42
-0.0952
0
VERTEX
8
0
10
10.4716
20
6.0001
0
SEQEND
8
0
0
POLYLINE
8
Layer 1
66
1
0
VERTEX
8
0
10
9.6203
20
5.5547
0
VERTEX
8
0
10
9.5726
20
5.5189
0
VERTEX
8
0
10
9.5249
20
5.4835
0
VERTEX
8
0
10
9.5875
20
5.4236
42
-0.0270
0
VERTEX
8
0
10
9.6247
20
5.3854
42
-0.2588
0
VERTEX
8
0
10
9.6501
20
5.3398
42
0.0994
0
VERTEX
8
0
10
9.6640
20
5.2897
42
0.1918
0
VERTEX
8
0
10
9.6972
20
5.2501
42
0.0382
0
VERTEX
8
0
10
9.7484
20
5.2262
42
0.1107
0
VERTEX
8
0
10
9.8033
20
5.2140
0
VERTEX
8
0
10
9.8021
20
5.1684
42
0.2537
0
VERTEX
8
0
10
9.7774
20
5.0902
42
0.0394
0
VERTEX
8
0
10
9.8081
20
5.0110
42
-0.0132
0
VERTEX
8
0
10
9.8844
20
4.8363
42
-0.0424
0
VERTEX
8
0
10
9.9186
20
4.7370
42
-0.0731
0
VERTEX
8
0
10
9.9261
20
4.6851
42
-0.2057
0
VERTEX
8
0
10
9.9100
20
4.6363
42
0.0504
0
VERTEX
8
0
10
9.9034
20
4.6288
42
0.8551
0
VERTEX
8
0
10
9.9038
20
4.6208
42
0.0255
0
VERTEX
8
0
10
9.9261
20
4.6238
42
0.2443
0
VERTEX
8
0
10
10.0595
20
4.7154
42
0.1118
0
VERTEX
8
0
10
10.0865
20
4.8789
0
VERTEX
8
0
10
10.0823
20
4.9517
0
VERTEX
8
0
10
10.1372
20
4.9114
42
0.0603
0
VERTEX
8
0
10
10.4424
20
4.7531
42
0.0673
0
VERTEX
8
0
10
10.5919
20
4.7187
42
0.0928
0
VERTEX
8
0
10
10.7447
20
4.7287
42
0.1086
0
VERTEX
8
0
10
10.9253
20
4.8163
42
0.0842
0
VERTEX
8
0
10
10.9958
20
4.8906
42
0.1288
0
VERTEX
8
0
10
11.0321
20
4.9857
42
0.1230
0
VERTEX
8
0
10
11.0166
20
5.0834
42
0.0751
0
VERTEX
8
0
10
10.9617
20
5.1666
42
0.2198
0
VERTEX
8
0
10
10.8721
20
5.1921
42
0.2740
0
VERTEX
8
0
10
10.7984
20
5.1371
42
0.2466
0
VERTEX
8
0
10
10.7913
20
5.0555
42
0.2085
0
VERTEX
8
0
10
10.8207
20
5.0274
42
0.1112
0
VERTEX
8
0
10
10.8621
20
5.0247
42
-0.1464
0
VERTEX
8
0
10
10.8912
20
5.0273
42
-0.1633
0
VERTEX
8
0
10
10.8997
20
5.0021
42
-0.1944
0
VERTEX
8
0
10
10.8733
20
4.9486
42
-0.0485
0
VERTEX
8
0
10
10.8216
20
4.9153
42
-0.1083
0
VERTEX
8
0
10
10.7667
20
4.8983
42
-0.0252
0
VERTEX
8
0
10
10.7089
20
4.8989
42
-0.1257
0
VERTEX
8
0
10
10.5682
20
4.9399
42
-0.0298
0
VERTEX
8
0
10
10.4496
20
5.0283
42
0.0076
0
VERTEX
8
0
10
10.2856
20
5.1621
42
-0.0138
0
VERTEX
8
0
10
10.2517
20
5.1903
42
-0.0141
0
VERTEX
8
0
10
10.2355
20
5.2050
42
-0.0193
0
VERTEX
8
0
10
10.2279
20
5.2128
0
VERTEX
8
0
10
10.2244
20
5.2170
0
VERTEX
8
0
10
10.2236
20
5.2214
42
0.0092
0
VERTEX
8
0
10
10.3089
20
5.2349
42
0.1489
0
VERTEX
8
0
10
10.4696
20
5.2995
42
0.1066
0
VERTEX
8
0
10
10.5309
20
5.3908
42
0.0443
0
VERTEX
8
0
10
10.5475
20
5.4439
42
0.1914
0
VERTEX
8
0
10
10.5492
20
5.4990
42
0.3530
0
VERTEX
8
0
10
10.5295
20
5.5121
42
-0.1116
0
VERTEX
8
0
10
10.4557
20
5.4547
42
-0.0565
0
VERTEX
8
0
10
10.3655
20
5.4286
42
-0.0243
0
VERTEX
8
0
10
10.1777
20
5.4131
42
0.0076
0
VERTEX
8
0
10
10.0760
20
5.4090
42
0.0307
0
VERTEX
8
0
10
10.0252
20
5.4046
42
0.1647
0
VERTEX
8
0
10
9.9798
20
5.3839
42
0.0183
0
VERTEX
8
0
10
9.9518
20
5.3374
0
VERTEX
8
0
10
9.9145
20
5.3365
42
0.1047
0
VERTEX
8
0
10
9.8415
20
5.4638
42
0.0330
0
VERTEX
8
0
10
9.7723
20
5.4757
42
-0.1437
0
VERTEX
8
0
10
9.6662
20
5.5183
0
VERTEX
8
0
10
9.6203
20
5.5547
0
SEQEND
8
0
0
POLYLINE
8
Layer 1
66
1
0
VERTEX
8
0
10
9.5249
20
6.5166
0
VERTEX
8
0
10
9.5875
20
6.5766
42
0.0169
0
VERTEX
8
0
10
9.6247
20
6.6147
42
0.1057
0
VERTEX
8
0
10
9.6501
20
6.6603
42
-0.2460
0
VERTEX
8
0
10
9.6972
20
6.7501
42
-0.0825
0
VERTEX
8
0
10
9.8033
20
6.7861
0
VERTEX
8
0
10
9.8021
20
6.8317
42
-0.1838
0
VERTEX
8
0
10
9.7774
20
6.9098
42
-0.0899
0
VERTEX
8
0
10
9.8081
20
6.9891
42
0.0188
0
VERTEX
8
0
10
9.8844
20
7.1638
42
0.0269
0
VERTEX
8
0
10
9.9186
20
7.2632
42
0.0504
0
VERTEX
8
0
10
9.9261
20
7.3151
42
0.1600
0
VERTEX
8
0
10
9.9100
20
7.3638
42
-0.0326
0
VERTEX
8
0
10
9.9033
20
7.3714
42
-0.3526
0
VERTEX
8
0
10
9.9038
20
7.3793
0
VERTEX
8
0
10
9.9080
20
7.3796
42
-0.0504
0
VERTEX
8
0
10
9.9261
20
7.3763
42
-0.2093
0
VERTEX
8
0
10
10.0595
20
7.2847
42
-0.1637
0
VERTEX
8
0
10
10.0865
20
7.1212
0
VERTEX
8
0
10
10.0823
20
7.0484
0
VERTEX
8
0
10
10.1372
20
7.0887
42
-0.0504
0
VERTEX
8
0
10
10.2852
20
7.1767
42
-0.0260
0
VERTEX
8
0
10
10.4424
20
7.2470
42
-0.1394
0
VERTEX
8
0
10
10.7447
20
7.2714
42
-0.0973
0
VERTEX
8
0
10
10.9253
20
7.1838
42
-0.0733
0
VERTEX
8
0
10
10.9958
20
7.1095
42
-0.1147
0
VERTEX
8
0
10
11.0321
20
7.0145
42
-0.1327
0
VERTEX
8
0
10
11.0166
20
6.9167
42
-0.0913
0
VERTEX
8
0
10
10.9617
20
6.8335
42
-0.2262
0
VERTEX
8
0
10
10.8721
20
6.8080
42
-0.2470
0
VERTEX
8
0
10
10.7984
20
6.8630
42
-0.1560
0
VERTEX
8
0
10
10.7912
20
6.9446
42
-0.4023
0
VERTEX
8
0
10
10.8621
20
6.9754
42
0.0334
0
VERTEX
8
0
10
10.8909
20
6.9728
42
0.3787
0
VERTEX
8
0
10
10.8991
20
6.9833
42
0.0469
0
VERTEX
8
0
10
10.8997
20
6.9981
42
0.2331
0
VERTEX
8
0
10
10.8733
20
7.0516
42
0.0797
0
VERTEX
8
0
10
10.8216
20
7.0848
42
0.1650
0
VERTEX
8
0
10
10.7089
20
7.1012
42
0.1133
0
VERTEX
8
0
10
10.5682
20
7.0603
42
0.0543
0
VERTEX
8
0
10
10.4496
20
6.9718
42
-0.0067
0
VERTEX
8
0
10
10.2856
20
6.8380
42
0.0462
0
VERTEX
8
0
10
10.2236
20
6.7787
42
-0.0528
0
VERTEX
8
0
10
10.3089
20
6.7653
42
-0.1031
0
VERTEX
8
0
10
10.4696
20
6.7006
42
-0.1752
0
VERTEX
8
0
10
10.5062
20
6.6594
42
-0.0447
0
VERTEX
8
0
10
10.5308
20
6.6094
42
-0.1070
0
VERTEX
8
0
10
10.5492
20
6.5011
42
-0.3276
0
VERTEX
8
0
10
10.5295
20
6.4880
42
0.2003
0
VERTEX
8
0
10
10.3654
20
6.5715
42
0.0430
0
VERTEX
8
0
10
10.1777
20
6.5870
42
-0.0036
0
VERTEX
8
0
10
10.0759
20
6.5912
42
-0.0154
0
VERTEX
8
0
10
10.0251
20
6.5956
42
-0.1411
0
VERTEX
8
0
10
9.9798
20
6.6162
42
-0.0146
0
VERTEX
8
0
10
9.9518
20
6.6627
0
VERTEX
8
0
10
9.9145
20
6.6636
42
-0.0800
0
VERTEX
8
0
10
9.8415
20
6.5363
42
-0.1329
0
VERTEX
8
0
10
9.8072
20
6.5289
42
-0.0123
0
VERTEX
8
0
10
9.7723
20
6.5244
42
0.1397
0
VERTEX
8
0
10
9.6662
20
6.4818
0
VERTEX
8
0
10
9.6203
20
6.4454
0
VERTEX
8
0
10
9.5726
20
6.4812
0
VERTEX
8
0
10
9.5249
20
6.5166
0
SEQEND
8
0
0
POLYLINE
8
Layer 1
66
1
0
VERTEX
8
0
10
8.9669
20
6.0001
42
-0.0809
0
VERTEX
8
0
10
9.0516
20
6.0352
42
0.0412
0
VERTEX
8
0
10
9.2714
20
6.1350
42
0.0296
0
VERTEX
8
0
10
9.3726
20
6.2008
42
0.0600
0
VERTEX
8
0
10
9.4593
20
6.2844
0
VERTEX
8
0
10
9.4879
20
6.3238
0
VERTEX
8
0
10
9.4874
20
6.2820
42
-0.1188
0
VERTEX
8
0
10
9.4498
20
6.1288
0
VERTEX
8
0
10
9.4313
20
6.1035
0
VERTEX
8
0
10
9.5046
20
6.1002
0
VERTEX
8
0
10
9.7330
20
6.0001
0
VERTEX
8
0
10
9.5046
20
5.8999
0
VERTEX
8
0
10
9.4313
20
5.8966
0
VERTEX
8
0
10
9.4498
20
5.8713
42
-0.1291
0
VERTEX
8
0
10
9.4785
20
5.7973
42
-0.0519
0
VERTEX
8
0
10
9.4874
20
5.7181
0
VERTEX
8
0
10
9.4879
20
5.6763
0
VERTEX
8
0
10
9.4593
20
5.7157
42
0.0882
0
VERTEX
8
0
10
9.3726
20
5.7993
42
0.0351
0
VERTEX
8
0
10
9.2714
20
5.8651
42
0.0445
0
VERTEX
8
0
10
9.0516
20
5.9649
42
-0.0256
0
VERTEX
8
0
10
8.9669
20
6.0001
0
SEQEND
8
0
0
POLYLINE
8
Layer 1
66
1
0
VERTEX
8
0
10
8.0905
20
6.0001
42
-0.0558
0
VERTEX
8
0
10
8.1776
20
6.0299
42
0.0492
0
VERTEX
8
0
10
8.3936
20
6.1190
42
0.0882
0
VERTEX
8
0
10
8.5752
20
6.2639
42
-0.0094
0
VERTEX
8
0
10
8.5816
20
6.2727
42
-0.3527
0
VERTEX
8
0
10
8.5891
20
6.2744
42
-0.0964
0
VERTEX
8
0
10
8.5900
20
6.2527
42
-0.0094
0
VERTEX
8
0
10
8.5883
20
6.2093
0
VERTEX
8
0
10
8.5847
20
6.1306
0
VERTEX
8
0
10
8.6092
20
6.1363
42
0.0182
0
VERTEX
8
0
10
8.9650
20
6.2311
42
0.0193
0
VERTEX
8
0
10
9.1382
20
6.2936
42
0.0425
0
VERTEX
8
0
10
9.3013
20
6.3783
0
VERTEX
8
0
10
9.3449
20
6.4081
0
VERTEX
8
0
10
9.3836
20
6.3798
0
VERTEX
8
0
10
9.4224
20
6.3515
0
VERTEX
8
0
10
9.3908
20
6.3280
42
-0.0441
0
VERTEX
8
0
10
9.2216
20
6.2229
42
-0.0256
0
VERTEX
8
0
10
9.0410
20
6.1390
42
-0.0457
0
VERTEX
8
0
10
8.6605
20
6.0224
42
0.0140
0
VERTEX
8
0
10
8.5603
20
6.0001
42
0.0379
0
VERTEX
8
0
10
8.6605
20
5.9777
42
-0.1017
0
VERTEX
8
0
10
9.3908
20
5.6722
0
VERTEX
8
0
10
9.4224
20
5.6486
0
VERTEX
8
0
10
9.3836
20
5.6203
0
VERTEX
8
0
10
9.3449
20
5.5920
0
VERTEX
8
0
10
9.3013
20
5.6218
42
0.0615
0
VERTEX
8
0
10
9.1382
20
5.7066
42
0.0240
0
VERTEX
8
0
10
8.9650
20
5.7690
42
0.0236
0
VERTEX
8
0
10
8.6092
20
5.8638
0
VERTEX
8
0
10
8.5847
20
5.8695
0
VERTEX
8
0
10
8.5883
20
5.7908
42
-0.0030
0
VERTEX
8
0
10
8.5900
20
5.7473
42
-0.0315
0
VERTEX
8
0
10
8.5890
20
5.7256
42
-1.0213
0
VERTEX
8
0
10
8.5815
20
5.7275
42
-0.0212
0
VERTEX
8
0
10
8.5752
20
5.7362
42
0.0931
0
VERTEX
8
0
10
8.4923
20
5.8182
42
0.0410
0
VERTEX
8
0
10
8.3936
20
5.8811
42
0.0529
0
VERTEX
8
0
10
8.1776
20
5.9702
42
-0.0184
0
VERTEX
8
0
10
8.0905
20
6.0001
0
SEQEND
8
0
0
POLYLINE
8
Layer 1
66
1
0
VERTEX
8
0
10
7.5575
20
6.8997
42
-0.1251
0
VERTEX
8
0
10
7.7558
20
7.1337
42
-0.1098
0
VERTEX
8
0
10
8.0422
20
7.2479
42
-0.0645
0
VERTEX
8
0
10
8.3004
20
7.2681
42
-0.0601
0
VERTEX
8
0
10
8.7761
20
7.2112
42
0.0676
0
VERTEX
8
0
10
8.9860
20
7.1915
42
0.0795
0
VERTEX
8
0
10
9.1887
20
7.2329
42
0.2936
0
VERTEX
8
0
10
9.2894
20
7.4017
0
VERTEX
8
0
10
9.2900
20
7.4604
0
VERTEX
8
0
10
9.3228
20
7.4225
42
-0.0531
0
VERTEX
8
0
10
9.3716
20
7.3526
42
-0.1105
0
VERTEX
8
0
10
9.3926
20
7.2705
42
-0.2056
0
VERTEX
8
0
10
9.3568
20
7.1876
0
VERTEX
8
0
10
9.2286
20
7.1051
0
VERTEX
8
0
10
9.3180
20
7.0437
42
-0.1161
0
VERTEX
8
0
10
9.2061
20
6.9922
42
-0.0698
0
VERTEX
8
0
10
9.0825
20
6.9823
42
-0.0804
0
VERTEX
8
0
10
8.7791
20
7.0547
42
0.0326
0
VERTEX
8
0
10
8.7344
20
7.0705
42
0.1049
0
VERTEX
8
0
10
8.7712
20
7.0417
42
0.0022
0
VERTEX
8
0
10
8.8088
20
7.0139
42
0.0025
0
VERTEX
8
0
10
8.8846
20
6.9590
42
-0.0076
0
VERTEX
8
0
10
9.4265
20
6.5575
42
-0.0148
0
VERTEX
8
0
10
9.9494
20
6.1318
0
VERTEX
8
0
10
10.0531
20
6.0361
0
VERTEX
8
0
10
10.1449
20
6.1056
42
-0.0285
0
VERTEX
8
0
10
10.5438
20
6.3732
42
-0.0509
0
VERTEX
8
0
10
10.9808
20
6.5706
42
-0.1387
0
VERTEX
8
0
10
11.3301
20
6.5709
42
-0.1700
0
VERTEX
8
0
10
11.4928
20
6.4032
42
-0.2059
0
VERTEX
8
0
10
11.4965
20
6.1724
42
-0.2551
0
VERTEX
8
0
10
11.3606
20
6.0719
42
-0.1248
0
VERTEX
8
0
10
11.2390
20
6.0745
42
-0.2126
0
VERTEX
8
0
10
11.1501
20
6.1527
42
-0.2379
0
VERTEX
8
0
10
11.1635
20
6.2425
42
-0.2049
0
VERTEX
8
0
10
11.2443
20
6.2877
42
-0.4797
0
VERTEX
8
0
10
11.3290
20
6.2153
42
0.1106
0
VERTEX
8
0
10
11.3373
20
6.1780
42
0.2853
0
VERTEX
8
0
10
11.3482
20
6.1892
42
0.0219
0
VERTEX
8
0
10
11.3568
20
6.2025
42
0.0227
0
VERTEX
8
0
10
11.3719
20
6.2305
42
0.1062
0
VERTEX
8
0
10
11.3891
20
6.3019
42
0.1697
0
VERTEX
8
0
10
11.3632
20
6.3700
42
0.1490
0
VERTEX
8
0
10
11.2704
20
6.4324
42
0.0605
0
VERTEX
8
0
10
11.1614
20
6.4618
42
0.1074
0
VERTEX
8
0
10
10.9785
20
6.4369
42
0.0381
0
VERTEX
8
0
10
10.8043
20
6.3734
42
0.0461
0
VERTEX
8
0
10
10.4800
20
6.1941
42
0.0223
0
VERTEX
8
0
10
10.2159
20
6.0001
42
0.0506
0
VERTEX
8
0
10
10.2801
20
5.9492
42
0.0045
0
VERTEX
8
0
10
10.3460
20
5.9004
42
0.0086
0
VERTEX
8
0
10
10.4800
20
5.8060
42
0.0418
0
VERTEX
8
0
10
10.8043
20
5.6267
42
0.0317
0
VERTEX
8
0
10
10.9785
20
5.5632
42
0.0692
0
VERTEX
8
0
10
11.1614
20
5.5383
42
0.0517
0
VERTEX
8
0
10
11.2704
20
5.5677
42
0.1050
0
VERTEX
8
0
10
11.3632
20
5.6301
42
0.3190
0
VERTEX
8
0
10
11.3719
20
5.7696
42
0.0646
0
VERTEX
8
0
10
11.3373
20
5.8221
42
0.4090
0
VERTEX
8
0
10
11.3321
20
5.8143
42
0.0422
0
VERTEX
8
0
10
11.3302
20
5.8046
42
0.0369
0
VERTEX
8
0
10
11.3290
20
5.7848
42
-0.1968
0
VERTEX
8
0
10
11.3052
20
5.7267
42
-0.2475
0
VERTEX
8
0
10
11.2443
20
5.7124
42
-0.1624
0
VERTEX
8
0
10
11.1634
20
5.7576
42
-0.2600
0
VERTEX
8
0
10
11.1501
20
5.8474
42
-0.2722
0
VERTEX
8
0
10
11.2390
20
5.9256
42
-0.1413
0
VERTEX
8
0
10
11.3606
20
5.9282
42
-0.0784
0
VERTEX
8
0
10
11.4418
20
5.8955
42
-0.1448
0
VERTEX
8
0
10
11.4965
20
5.8278
42
-0.2292
0
VERTEX
8
0
10
11.4928
20
5.5969
42
-0.1752
0
VERTEX
8
0
10
11.3301
20
5.4292
42
-0.1150
0
VERTEX
8
0
10
11.2444
20
5.4090
42
-0.0336
0
VERTEX
8
0
10
11.1559
20
5.4058
42
-0.0564
0
VERTEX
8
0
10
10.9808
20
5.4295
42
-0.0436
0
VERTEX
8
0
10
10.7565
20
5.5152
42
-0.0244
0
VERTEX
8
0
10
10.5438
20
5.6269
42
-0.0324
0
VERTEX
8
0
10
10.1449
20
5.8945
0
VERTEX
8
0
10
10.0531
20
5.9640
0
VERTEX
8
0
10
9.9494
20
5.8683
42
-0.0209
0
VERTEX
8
0
10
9.6919
20
5.6506
42
-0.0064
0
VERTEX
8
0
10
9.4265
20
5.4427
42
-0.0081
0
VERTEX
8
0
10
8.8846
20
5.0411
42
0.0083
0
VERTEX
8
0
10
8.7344
20
4.9296
42
0.2784
0
VERTEX
8
0
10
8.7570
20
4.9364
42
0.0096
0
VERTEX
8
0
10
8.7791
20
4.9454
42
-0.0528
0
VERTEX
8
0
10
8.9285
20
4.9914
42
-0.0319
0
VERTEX
8
0
10
9.0825
20
5.0179
42
-0.0518
0
VERTEX
8
0
10
9.2061
20
5.0079
42
-0.1061
0
VERTEX
8
0
10
9.3180
20
4.9564
0
VERTEX
8
0
10
9.2286
20
4.8950
0
VERTEX
8
0
10
9.3568
20
4.8125
42
-0.0461
0
VERTEX
8
0
10
9.3846
20
4.7752
42
-0.1412
0
VERTEX
8
0
10
9.3926
20
4.7296
42
-0.1261
0
VERTEX
8
0
10
9.3716
20
4.6475
42
-0.0697
0
VERTEX
8
0
10
9.3228
20
4.5776
0
VERTEX
8
0
10
9.2900
20
4.5397
0
VERTEX
8
0
10
9.2894
20
4.5984
42
0.1127
0
VERTEX
8
0
10
9.2650
20
4.6986
42
0.1597
0
VERTEX
8
0
10
9.1887
20
4.7672
42
0.0812
0
VERTEX
8
0
10
9.0895
20
4.7979
42
0.0365
0
VERTEX
8
0
10
8.9860
20
4.8086
42
0.0695
0
VERTEX
8
0
10
8.7761
20
4.7889
42
-0.0547
0
VERTEX
8
0
10
8.3004
20
4.7320
42
-0.0392
0
VERTEX
8
0
10
8.0422
20
4.7523
42
-0.0859
0
VERTEX
8
0
10
7.7558
20
4.8664
42
-0.1358
0
VERTEX
8
0
10
7.5575
20
5.1004
42
-0.0413
0
VERTEX
8
0
10
7.5085
20
5.2265
42
-0.0714
0
VERTEX
8
0
10
7.4943
20
5.3609
42
-0.1491
0
VERTEX
8
0
10
7.5885
20
5.6700
42
-0.1347
0
VERTEX
8
0
10
7.8312
20
5.8844
42
-0.0612
0
VERTEX
8
0
10
7.9518
20
5.9267
42
-0.0936
0
VERTEX
8
0
10
8.0792
20
5.9276
42
-0.0671
0
VERTEX
8
0
10
8.2956
20
5.8552
42
-0.0857
0
VERTEX
8
0
10
8.5114
20
5.6957
42
0.0134
0
VERTEX
8
0
10
8.6134
20
5.6110
42
0.1312
0
VERTEX
8
0
10
8.7397
20
5.5747
0
VERTEX
8
0
10
8.7362
20
5.6343
42
-0.0961
0
VERTEX
8
0
10
8.7456
20
5.7085
42
-0.2728
0
VERTEX
8
0
10
8.8083
20
5.7464
42
-0.2814
0
VERTEX
8
0
10
8.9347
20
5.7035
42
-0.2429
0
VERTEX
8
0
10
8.9560
20
5.6033
42
-0.1588
0
VERTEX
8
0
10
8.9031
20
5.5133
42
-0.2084
0
VERTEX
8
0
10
8.7153
20
5.4549
42
-0.0188
0
VERTEX
8
0
10
8.6438
20
5.4575
42
-0.1020
0
VERTEX
8
0
10
8.5764
20
5.4799
0
VERTEX
8
0
10
8.5281
20
5.5046
0
VERTEX
8
0
10
8.5275
20
5.4274
42
-0.1538
0
VERTEX
8
0
10
8.4559
20
5.2069
42
-0.1699
0
VERTEX
8
0
10
8.2580
20
5.0840
42
-0.1440
0
VERTEX
8
0
10
8.0255
20
5.0837
42
-0.1191
0
VERTEX
8
0
10
7.9339
20
5.1417
42
-0.0855
0
VERTEX
8
0
10
7.8687
20
5.2286
42
-0.1395
0
VERTEX
8
0
10
7.8425
20
5.3738
42
-0.0550
0
VERTEX
8
0
10
7.8546
20
5.4817
42
-0.1487
0
VERTEX
8
0
10
7.9152
20
5.5708
42
-0.1085
0
VERTEX
8
0
10
8.0171
20
5.6315
42
-0.1853
0
VERTEX
8
0
10
8.1334
20
5.6200
42
-0.3125
0
VERTEX
8
0
10
8.2145
20
5.4677
42
-0.0993
0
VERTEX
8
0
10
8.1991
20
5.3914
42
-0.3065
0
VERTEX
8
0
10
8.1310
20
5.3601
42
-0.1449
0
VERTEX
8
0
10
8.0577
20
5.3827
42
0.0353
0
VERTEX
8
0
10
8.0385
20
5.3944
42
0.2256
0
VERTEX
8
0
10
8.0174
20
5.3941
42
0.1936
0
VERTEX
8
0
10
8.0075
20
5.3742
42
0.0323
0
VERTEX
8
0
10
8.0029
20
5.3517
42
0.2591
0
VERTEX
8
0
10
8.0328
20
5.2685
42
0.1586
0
VERTEX
8
0
10
8.1155
20
5.2304
42
0.1209
0
VERTEX
8
0
10
8.2165
20
5.2365
42
0.0810
0
VERTEX
8
0
10
8.3105
20
5.2736
42
0.1653
0
VERTEX
8
0
10
8.3857
20
5.3855
42
0.1395
0
VERTEX
8
0
10
8.3856
20
5.5210
42
0.1745
0
VERTEX
8
0
10
8.2364
20
5.7385
42
0.1993
0
VERTEX
8
0
10
7.9760
20
5.7839
42
0.0877
0
VERTEX
8
0
10
7.8308
20
5.7337
42
0.1127
0
VERTEX
8
0
10
7.7189
20
5.6290
42
0.1004
0
VERTEX
8
0
10
7.6602
20
5.4870
42
0.0694
0
VERTEX
8
0
10
7.6487
20
5.3332
42
0.0274
0
VERTEX
8
0
10
7.6574
20
5.2476
42
0.0784
0
VERTEX
8
0
10
7.6893
20
5.1678
42
0.2176
0
VERTEX
8
0
10
8.0094
20
4.9073
42
0.0827
0
VERTEX
8
0
10
8.1675
20
4.8978
42
0.0341
0
VERTEX
8
0
10
8.3254
20
4.9105
42
0.1158
0
VERTEX
8
0
10
8.5133
20
4.9986
42
0.2128
0
VERTEX
8
0
10
8.5949
20
5.1854
42
-0.0463
0
VERTEX
8
0
10
8.6007
20
5.2416
42
-0.6113
0
VERTEX
8
0
10
8.6248
20
5.2423
42
-0.0436
0
VERTEX
8
0
10
8.6485
20
5.2241
42
-0.2189
0
VERTEX
8
0
10
8.7058
20
5.1022
42
0.0801
0
VERTEX
8
0
10
8.7111
20
5.0685
42
0.0691
0
VERTEX
8
0
10
8.8051
20
5.1289
42
0.0023
0
VERTEX
8
0
10
8.8975
20
5.1920
42
0.0023
0
VERTEX
8
0
10
9.0812
20
5.3197
42
0.0049
0
VERTEX
8
0
10
9.4450
20
5.5800
42
0.0199
0
VERTEX
8
0
10
9.9613
20
6.0001
42
0.0485
0
VERTEX
8
0
10
9.8997
20
6.0559
42
0.0039
0
VERTEX
8
0
10
9.8360
20
6.1095
42
0.0037
0
VERTEX
8
0
10
9.7071
20
6.2148
42
0.0071
0
VERTEX
8
0
10
9.4450
20
6.4201
42
0.0172
0
VERTEX
8
0
10
8.7111
20
6.9316
42
0.4177
0
VERTEX
8
0
10
8.7065
20
6.9153
42
0.0259
0
VERTEX
8
0
10
8.7058
20
6.8979
42
-0.2235
0
VERTEX
8
0
10
8.6485
20
6.7760
42
-0.0200
0
VERTEX
8
0
10
8.6261
20
6.7586
42
-0.2689
0
VERTEX
8
0
10
8.6014
20
6.7572
42
-0.1626
0
VERTEX
8
0
10
8.5958
20
6.7848
42
-0.0175
0
VERTEX
8
0
10
8.5949
20
6.8147
42
0.2038
0
VERTEX
8
0
10
8.5133
20
7.0015
42
0.1519
0
VERTEX
8
0
10
8.3254
20
7.0896
42
0.0636
0
VERTEX
8
0
10
8.1675
20
7.1023
42
0.0363
0
VERTEX
8
0
10
8.0094
20
7.0929
42
0.1214
0
VERTEX
8
0
10
7.8209
20
6.9978
42
0.1035
0
VERTEX
8
0
10
7.6893
20
6.8323
42
0.1097
0
VERTEX
8
0
10
7.6487
20
6.6669
42
0.0605
0
VERTEX
8
0
10
7.6602
20
6.5132
42
0.0899
0
VERTEX
8
0
10
7.7189
20
6.3712
42
0.2213
0
VERTEX
8
0
10
7.9760
20
6.2162
42
0.1674
0
VERTEX
8
0
10
8.2364
20
6.2616
42
0.2045
0
VERTEX
8
0
10
8.3856
20
6.4791
42
0.1281
0
VERTEX
8
0
10
8.3857
20
6.6146
42
0.1590
0
VERTEX
8
0
10
8.3105
20
6.7265
42
0.1385
0
VERTEX
8
0
10
8.2165
20
6.7636
42
0.0774
0
VERTEX
8
0
10
8.1155
20
6.7697
42
0.1259
0
VERTEX
8
0
10
8.0328
20
6.7316
42
0.2443
0
VERTEX
8
0
10
8.0029
20
6.6484
42
0.0822
0
VERTEX
8
0
10
8.0171
20
6.6064
42
0.3730
0
VERTEX
8
0
10
8.0381
20
6.6055
42
0.0629
0
VERTEX
8
0
10
8.0577
20
6.6174
42
-0.1600
0
VERTEX
8
0
10
8.1310
20
6.6401
42
-0.2263
0
VERTEX
8
0
10
8.1990
20
6.6087
42
-0.1742
0
VERTEX
8
0
10
8.2145
20
6.5324
42
-0.0961
0
VERTEX
8
0
10
8.1971
20
6.4435
42
-0.1704
0
VERTEX
8
0
10
8.1334
20
6.3801
42
-0.1916
0
VERTEX
8
0
10
8.0171
20
6.3687
42
-0.1352
0
VERTEX
8
0
10
7.9152
20
6.4293
42
-0.2345
0
VERTEX
8
0
10
7.8425
20
6.6263
42
-0.0198
0
VERTEX
8
0
10
7.8451
20
6.7010
42
-0.1002
0
VERTEX
8
0
10
7.8687
20
6.7715
42
-0.1858
0
VERTEX
8
0
10
8.0255
20
6.9164
42
-0.1028
0
VERTEX
8
0
10
8.1417
20
6.9308
42
-0.0591
0
VERTEX
8
0
10
8.2580
20
6.9161
42
-0.1349
0
VERTEX
8
0
10
8.4559
20
6.7933
42
-0.1843
0
VERTEX
8
0
10
8.5275
20
6.5727
0
VERTEX
8
0
10
8.5281
20
6.4955
0
VERTEX
8
0
10
8.5764
20
6.5202
42
-0.1503
0
VERTEX
8
0
10
8.7153
20
6.5453
42
-0.1751
0
VERTEX
8
0
10
8.9031
20
6.4868
42
-0.1535
0
VERTEX
8
0
10
8.9560
20
6.3968
42
-0.2155
0
VERTEX
8
0
10
8.9347
20
6.2967
42
-0.2550
0
VERTEX
8
0
10
8.8083
20
6.2537
42
-0.1627
0
VERTEX
8
0
10
8.7456
20
6.2916
42
-0.1854
0
VERTEX
8
0
10
8.7362
20
6.3658
0
VERTEX
8
0
10
8.7397
20
6.4254
42
0.1051
0
VERTEX
8
0
10
8.6134
20
6.3891
42
0.0761
0
VERTEX
8
0
10
8.5114
20
6.3044
42
-0.0159
0
VERTEX
8
0
10
8.4100
20
6.2157
42
-0.0519
0
VERTEX
8
0
10
8.2956
20
6.1449
42
-0.0711
0
VERTEX
8
0
10
8.0792
20
6.0725
42
-0.1817
0
VERTEX
8
0
10
7.8312
20
6.1157
42
-0.1336
0
VERTEX
8
0
10
7.5885
20
6.3301
42
-0.1423
0
VERTEX
8
0
10
7.4943
20
6.6392
42
-0.1205
0
VERTEX
8
0
10
7.5575
20
6.8997
0
SEQEND
8
0
0
POLYLINE
8
Layer 1
66
1
0
VERTEX
8
0
10
7.1106
20
7.2888
42
-0.0690
0
VERTEX
8
0
10
7.1665
20
7.3973
42
-0.1959
0
VERTEX
8
0
10
7.2690
20
7.4562
42
-0.5175
0
VERTEX
8
0
10
7.3173
20
7.3880
42
0.0671
0
VERTEX
8
0
10
7.3150
20
7.3751
42
0.6803
0
VERTEX
8
0
10
7.3209
20
7.3762
42
0.0276
0
VERTEX
8
0
10
7.3265
20
7.3798
42
0.0186
0
VERTEX
8
0
10
7.3477
20
7.3960
42
-0.1278
0
VERTEX
8
0
10
7.5277
20
7.4753
42
-0.0264
0
VERTEX
8
0
10
7.5897
20
7.4819
42
-0.0634
0
VERTEX
8
0
10
7.5963
20
7.4810
42
-0.2885
0
VERTEX
8
0
10
7.5993
20
7.4657
42
-0.0430
0
VERTEX
8
0
10
7.5968
20
7.4499
42
-0.0332
0
VERTEX
8
0
10
7.5879
20
7.4193
42
-0.0292
0
VERTEX
8
0
10
7.5635
20
7.3602
42
-0.0498
0
VERTEX
8
0
10
7.4979
20
7.2505
0
VERTEX
8
0
10
7.4633
20
7.2085
0
VERTEX
8
0
10
7.4907
20
7.1981
42
-0.0863
0
VERTEX
8
0
10
7.5202
20
7.1807
42
-0.2147
0
VERTEX
8
0
10
7.5324
20
7.1497
42
-0.2416
0
VERTEX
8
0
10
7.4967
20
7.0923
42
-0.0851
0
VERTEX
8
0
10
7.3779
20
7.0134
42
-0.0500
0
VERTEX
8
0
10
7.2415
20
6.9694
42
-0.0520
0
VERTEX
8
0
10
7.1169
20
6.9516
0
VERTEX
8
0
10
7.0597
20
6.9507
0
VERTEX
8
0
10
7.0663
20
7.0484
42
-0.0596
0
VERTEX
8
0
10
7.1106
20
7.2888
0
SEQEND
8
0
0
POLYLINE
8
Layer 1
66
1
0
VERTEX
8
0
10
4.4073
20
7.8148
42
0.0775
0
VERTEX
8
0
10
4.4198
20
7.8169
42
0.0408
0
VERTEX
8
0
10
4.4148
20
7.8169
42
0.0326
0
VERTEX
8
0
10
4.3668
20
7.8127
42
-0.0320
0
VERTEX
8
0
10
4.3095
20
7.8097
42
0.1171
0
VERTEX
8
0
10
4.2560
20
7.7903
42
0.0779
0
VERTEX
8
0
10
4.1682
20
7.7165
42
0.1196
0
VERTEX
8
0
10
4.0734
20
7.5612
42
-0.0063
0
VERTEX
8
0
10
4.0266
20
7.5737
42
0.0611
0
VERTEX
8
0
10
3.6999
20
7.6011
42
0.0589
0
VERTEX
8
0
10
3.1482
20
7.5355
0
VERTEX
8
0
10
3.0930
20
7.5227
42
-0.0955
0
VERTEX
8
0
10
3.0364
20
7.5239
42
0.2866
0
VERTEX
8
0
10
2.7955
20
7.7817
42
0.2866
0
VERTEX
8
0
10
2.4581
20
7.6786
0
VERTEX
8
0
10
2.4253
20
7.6407
42
0.0405
0
VERTEX
8
0
10
2.3660
20
7.5600
42
0.1220
0
VERTEX
8
0
10
2.2008
20
7.6956
42
0.0933
0
VERTEX
8
0
10
2.0742
20
7.7120
42
0.0384
0
VERTEX
8
0
10
2.0127
20
7.7039
0
VERTEX
8
0
10
2.0107
20
7.7033
42
0.1586
0
VERTEX
8
0
10
1.7185
20
7.5412
0
VERTEX
8
0
10
1.6741
20
7.5591
42
0.0659
0
VERTEX
8
0
10
1.4258
20
7.6160
42
0.0827
0
VERTEX
8
0
10
1.1724
20
7.5939
0
VERTEX
8
0
10
1.1698
20
7.5933
42
0.0993
0
VERTEX
8
0
10
0.8693
20
7.4458
42
0.0861
0
VERTEX
8
0
10
0.7123
20
7.2718
42
0.1086
0
VERTEX
8
0
10
0.6371
20
7.0505
42
0.0744
0
VERTEX
8
0
10
0.6427
20
6.9137
42
0.0570
0
VERTEX
8
0
10
0.5220
20
6.8690
42
0.1318
0
VERTEX
8
0
10
0.2500
20
6.6286
42
0.1441
0
VERTEX
8
0
10
0.1446
20
6.2823
42
0.0252
0
VERTEX
8
0
10
0.0859
20
6.2233
42
0.3847
0
VERTEX
8
0
10
0.0859
20
5.7768
42
0.0237
0
VERTEX
8
0
10
0.1446
20
5.7178
42
0.1516
0
VERTEX
8
0
10
0.2500
20
5.3715
42
0.1333
0
VERTEX
8
0
10
0.5220
20
5.1311
42
0.0536
0
VERTEX
8
0
10
0.6427
20
5.0864
42
0.0655
0
VERTEX
8
0
10
0.6371
20
4.9496
42
0.1105
0
VERTEX
8
0
10
0.7123
20
4.7283
42
0.0943
0
VERTEX
8
0
10
0.8693
20
4.5543
42
0.1105
0
VERTEX
8
0
10
1.1911
20
4.4016
42
0.1554
0
VERTEX
8
0
10
1.6741
20
4.4410
42
0.0127
0
VERTEX
8
0
10
1.7185
20
4.4589
42
0.1573
0
VERTEX
8
0
10
2.0123
20
4.2964
42
0.1958
0
VERTEX
8
0
10
2.0431
20
4.2905
42
0.0137
0
VERTEX
8
0
10
2.0742
20
4.2881
42
0.0921
0
VERTEX
8
0
10
2.2008
20
4.3045
42
0.1204
0
VERTEX
8
0
10
2.2921
20
4.3614
42
0.0550
0
VERTEX
8
0
10
2.3660
20
4.4402
42
0.0360
0
VERTEX
8
0
10
2.4259
20
4.3591
0
VERTEX
8
0
10
2.4581
20
4.3215
42
0.2867
0
VERTEX
8
0
10
2.7958
20
4.2181
42
0.2869
0
VERTEX
8
0
10
3.0367
20
4.4762
42
-0.0789
0
VERTEX
8
0
10
3.1482
20
4.4646
42
0.0557
0
VERTEX
8
0
10
3.6999
20
4.3990
42
0.0419
0
VERTEX
8
0
10
4.0266
20
4.4264
42
0.0269
0
VERTEX
8
0
10
4.0734
20
4.4390
42
0.1592
0
VERTEX
8
0
10
4.1682
20
4.2837
42
0.0433
0
VERTEX
8
0
10
4.2558
20
4.2098
42
0.0989
0
VERTEX
8
0
10
4.3093
20
4.1904
42
0.0301
0
VERTEX
8
0
10
4.3668
20
4.1874
42
0.0067
0
VERTEX
8
0
10
4.4002
20
4.1839
42
0.0149
0
VERTEX
8
0
10
4.4170
20
4.1830
0
VERTEX
8
0
10
4.4164
20
4.1847
42
0.0347
0
VERTEX
8
0
10
4.4073
20
4.1853
42
0.0507
0
VERTEX
8
0
10
4.5254
20
4.1960
42
0.0458
0
VERTEX
8
0
10
4.6327
20
4.2234
42
0.0653
0
VERTEX
8
0
10
4.7310
20
4.2109
42
0.1611
0
VERTEX
8
0
10
4.9894
20
4.2964
42
0.1246
0
VERTEX
8
0
10
5.1648
20
4.5072
42
0.0333
0
VERTEX
8
0
10
5.2074
20
4.6089
42
0.1011
0
VERTEX
8
0
10
5.5490
20
4.3486
42
0.1057
0
VERTEX
8
0
10
5.9982
20
4.2383
0
VERTEX
8
0
10
6.0024
20
4.2383
42
0.1170
0
VERTEX
8
0
10
6.4516
20
4.3486
42
0.1013
0
VERTEX
8
0
10
6.7929
20
4.6092
42
0.0299
0
VERTEX
8
0
10
6.8353
20
4.5078
42
0.1165
0
VERTEX
8
0
10
7.0106
20
4.2967
42
0.1557
0
VERTEX
8
0
10
7.2690
20
4.2109
42
0.0633
0
VERTEX
8
0
10
7.3682
20
4.2234
42
0.0359
0
VERTEX
8
0
10
7.4752
20
4.1960
42
0.0332
0
VERTEX
8
0
10
7.5933
20
4.1853
42
0.0284
0
VERTEX
8
0
10
7.6362
20
4.1880
42
-0.0269
0
VERTEX
8
0
10
7.6923
20
4.1918
42
0.0824
0
VERTEX
8
0
10
7.7443
20
4.2131
42
0.0765
0
VERTEX
8
0
10
7.8321
20
4.2837
42
0.1189
0
VERTEX
8
0
10
7.9266
20
4.4390
42
-0.0063
0
VERTEX
8
0
10
7.9734
20
4.4264
42
0.0625
0
VERTEX
8
0
10
8.3007
20
4.3990
42
0.0590
0
VERTEX
8
0
10
8.8518
20
4.4646
0
VERTEX
8
0
10
8.9069
20
4.4774
42
-0.0954
0
VERTEX
8
0
10
8.9633
20
4.4762
42
0.2869
0
VERTEX
8
0
10
9.2042
20
4.2181
42
0.2867
0
VERTEX
8
0
10
9.5419
20
4.3215
0
VERTEX
8
0
10
9.5747
20
4.3594
42
0.0349
0
VERTEX
8
0
10
9.6289
20
4.4312
42
0.1935
0
VERTEX
8
0
10
9.8385
20
4.2941
42
0.0276
0
VERTEX
8
0
10
9.9038
20
4.2849
42
0.0917
0
VERTEX
8
0
10
9.9688
20
4.2929
42
0.0079
0
VERTEX
8
0
10
9.9864
20
4.2962
0
VERTEX
8
0
10
9.9893
20
4.2968
42
0.1586
0
VERTEX
8
0
10
10.2815
20
4.4589
42
-0.0025
0
VERTEX
8
0
10
10.3259
20
4.4410
42
0.0659
0
VERTEX
8
0
10
10.5742
20
4.3841
42
0.0827
0
VERTEX
8
0
10
10.8276
20
4.4062
0
VERTEX
8
0
10
10.8303
20
4.4068
42
0.0975
0
VERTEX
8
0
10
11.1310
20
4.5543
42
0.0861
0
VERTEX
8
0
10
11.2880
20
4.7283
42
0.1087
0
VERTEX
8
0
10
11.3632
20
4.9496
42
0.0744
0
VERTEX
8
0
10
11.3576
20
5.0864
42
0.0569
0
VERTEX
8
0
10
11.4786
20
5.1311
42
0.1320
0
VERTEX
8
0
10
11.7503
20
5.3716
42
0.1441
0
VERTEX
8
0
10
11.8554
20
5.7178
42
0.0252
0
VERTEX
8
0
10
11.9141
20
5.7768
42
0.3847
0
VERTEX
8
0
10
11.9141
20
6.2233
42
0.0251
0
VERTEX
8
0
10
11.8554
20
6.2823
42
0.1511
0
VERTEX
8
0
10
11.7503
20
6.6286
42
0.1334
0
VERTEX
8
0
10
11.4786
20
6.8690
42
0.0530
0
VERTEX
8
0
10
11.3576
20
6.9137
42
0.0655
0
VERTEX
8
0
10
11.3632
20
7.0505
42
0.1106
0
VERTEX
8
0
10
11.2880
20
7.2718
42
0.0950
0
VERTEX
8
0
10
11.1310
20
7.4458
42
0.1057
0
VERTEX
8
0
10
10.8303
20
7.5933
0
VERTEX
8
0
10
10.8276
20
7.5939
42
0.1616
0
VERTEX
8
0
10
10.3259
20
7.5591
42
0.0127
0
VERTEX
8
0
10
10.2815
20
7.5412
42
0.1566
0
VERTEX
8
0
10
9.9893
20
7.7033
0
VERTEX
8
0
10
9.9867
20
7.7039
0
VERTEX
8
0
10
9.9907
20
7.7036
0
VERTEX
8
0
10
9.9874
20
7.7053
42
0.0135
0
VERTEX
8
0
10
9.9793
20
7.7069
42
0.0153
0
VERTEX
8
0
10
9.9631
20
7.7091
42
0.0126
0
VERTEX
8
0
10
9.9309
20
7.7120
42
0.0675
0
VERTEX
8
0
10
9.8385
20
7.7060
42
0.1947
0
VERTEX
8
0
10
9.6289
20
7.5689
42
0.0328
0
VERTEX
8
0
10
9.5741
20
7.6410
0
VERTEX
8
0
10
9.5419
20
7.6786
42
0.2868
0
VERTEX
8
0
10
9.2042
20
7.7820
42
0.2869
0
VERTEX
8
0
10
8.9633
20
7.5239
42
-0.0784
0
VERTEX
8
0
10
8.8518
20
7.5355
42
0.0558
0
VERTEX
8
0
10
8.3007
20
7.6011
42
0.0418
0
VERTEX
8
0
10
7.9734
20
7.5737
42
0.0271
0
VERTEX
8
0
10
7.9266
20
7.5612
42
0.1592
0
VERTEX
8
0
10
7.8318
20
7.7165
42
0.0536
0
VERTEX
8
0
10
7.7442
20
7.7869
42
0.1484
0
VERTEX
8
0
10
7.6362
20
7.8121
42
0.0321
0
VERTEX
8
0
10
7.5933
20
7.8148
42
0.0507
0
VERTEX
8
0
10
7.4752
20
7.8041
42
0.0453
0
VERTEX
8
0
10
7.3682
20
7.7767
42
0.0646
0
VERTEX
8
0
10
7.2690
20
7.7892
42
0.1616
0
VERTEX
8
0
10
7.0105
20
7.7034
42
0.1245
0
VERTEX
8
0
10
6.8353
20
7.4923
42
0.0325
0
VERTEX
8
0
10
6.7929
20
7.3909
42
0.1013
0
VERTEX
8
0
10
6.4516
20
7.6515
42
0.1057
0
VERTEX
8
0
10
6.0024
20
7.7618
0
VERTEX
8
0
10
5.9982
20
7.7618
42
0.1170
0
VERTEX
8
0
10
5.5490
20
7.6515
42
0.1014
0
VERTEX
8
0
10
5.2077
20
7.3906
42
0.0303
0
VERTEX
8
0
10
5.1648
20
7.4929
42
0.1160
0
VERTEX
8
0
10
4.9893
20
7.7037
42
0.1558
0
VERTEX
8
0
10
4.7310
20
7.7892
42
0.0639
0
VERTEX
8
0
10
4.6327
20
7.7767
42
0.0369
0
VERTEX
8
0
10
4.5254
20
7.8041
42
0.0333
0
VERTEX
8
0
10
4.4073
20
7.8148
0
SEQEND
8
0
0
POLYLINE
8
Layer 1
66
1
0
VERTEX
8
0
10
4.4061
20
7.4819
0
VERTEX
8
0
10
4.4109
20
7.4819
42
-0.0567
0
VERTEX
8
0
10
4.4729
20
7.4753
42
-0.1282
0
VERTEX
8
0
10
4.6529
20
7.3960
42
0.0077
0
VERTEX
8
0
10
4.6740
20
7.3799
42
0.1082
0
VERTEX
8
0
10
4.6855
20
7.3750
42
0.4373
0
VERTEX
8
0
10
4.6833
20
7.3880
42
-0.4946
0
VERTEX
8
0
10
4.7310
20
7.4562
42
-0.2666
0
VERTEX
8
0
10
4.8337
20
7.3973
42
-0.0935
0
VERTEX
8
0
10
4.8898
20
7.2889
42
-0.0779
0
VERTEX
8
0
10
4.9343
20
7.0484
0
VERTEX
8
0
10
4.9403
20
6.9507
0
VERTEX
8
0
10
4.8831
20
6.9516
42
-0.0635
0
VERTEX
8
0
10
4.7591
20
6.9694
42
-0.0325
0
VERTEX
8
0
10
4.6227
20
7.0134
42
-0.0878
0
VERTEX
8
0
10
4.5039
20
7.0923
42
-0.1285
0
VERTEX
8
0
10
4.4682
20
7.1496
42
-0.2341
0
VERTEX
8
0
10
4.4803
20
7.1806
42
-0.1204
0
VERTEX
8
0
10
4.5098
20
7.1981
0
VERTEX
8
0
10
4.5367
20
7.2085
0
VERTEX
8
0
10
4.5027
20
7.2505
42
-0.0724
0
VERTEX
8
0
10
4.4370
20
7.3599
42
-0.0229
0
VERTEX
8
0
10
4.4124
20
7.4190
42
-0.1000
0
VERTEX
8
0
10
4.4037
20
7.4810
0
VERTEX
8
0
10
4.4061
20
7.4819
0
SEQEND
8
0
0
POLYLINE
8
Layer 1
66
1
0
VERTEX
8
0
10
4.2445
20
7.1337
42
0.0856
0
VERTEX
8
0
10
3.9578
20
7.2479
42
0.0393
0
VERTEX
8
0
10
3.7002
20
7.2681
42
0.0566
0
VERTEX
8
0
10
3.2239
20
7.2112
42
-0.0695
0
VERTEX
8
0
10
3.0140
20
7.1915
42
-0.0368
0
VERTEX
8
0
10
2.9106
20
7.2023
42
-0.0816
0
VERTEX
8
0
10
2.8115
20
7.2329
42
-0.1599
0
VERTEX
8
0
10
2.7354
20
7.3016
42
-0.1121
0
VERTEX
8
0
10
2.7112
20
7.4017
0
VERTEX
8
0
10
2.7100
20
7.4604
0
VERTEX
8
0
10
2.6772
20
7.4225
42
0.0707
0
VERTEX
8
0
10
2.6286
20
7.3526
42
0.1236
0
VERTEX
8
0
10
2.6080
20
7.2705
42
0.1420
0
VERTEX
8
0
10
2.6160
20
7.2249
42
0.0461
0
VERTEX
8
0
10
2.6438
20
7.1876
0
VERTEX
8
0
10
2.7714
20
7.1051
0
VERTEX
8
0
10
2.6826
20
7.0437
42
0.1063
0
VERTEX
8
0
10
2.7942
20
6.9922
42
0.0519
0
VERTEX
8
0
10
2.9175
20
6.9823
42
0.0315
0
VERTEX
8
0
10
3.0715
20
7.0087
42
0.0541
0
VERTEX
8
0
10
3.2209
20
7.0547
42
-0.0103
0
VERTEX
8
0
10
3.2433
20
7.0638
42
-0.2813
0
VERTEX
8
0
10
3.2662
20
7.0705
42
-0.0083
0
VERTEX
8
0
10
3.1160
20
6.9590
42
0.0081
0
VERTEX
8
0
10
2.5741
20
6.5575
42
0.0064
0
VERTEX
8
0
10
2.3087
20
6.3495
42
0.0209
0
VERTEX
8
0
10
2.0512
20
6.1318
0
VERTEX
8
0
10
1.9469
20
6.0361
0
VERTEX
8
0
10
1.8557
20
6.1056
42
0.0323
0
VERTEX
8
0
10
1.4568
20
6.3732
42
0.0244
0
VERTEX
8
0
10
1.2441
20
6.4849
42
0.0436
0
VERTEX
8
0
10
1.0198
20
6.5706
42
0.0564
0
VERTEX
8
0
10
0.8447
20
6.5943
42
0.0336
0
VERTEX
8
0
10
0.7562
20
6.5911
42
0.1150
0
VERTEX
8
0
10
0.6704
20
6.5709
42
0.1754
0
VERTEX
8
0
10
0.5075
20
6.4033
42
0.2297
0
VERTEX
8
0
10
0.5035
20
6.1724
42
0.1455
0
VERTEX
8
0
10
0.5585
20
6.1046
42
0.0779
0
VERTEX
8
0
10
0.6400
20
6.0719
42
0.1400
0
VERTEX
8
0
10
0.7616
20
6.0745
42
0.2727
0
VERTEX
8
0
10
0.8505
20
6.1527
42
0.2600
0
VERTEX
8
0
10
0.8371
20
6.2425
42
0.1644
0
VERTEX
8
0
10
0.7563
20
6.2877
42
0.2481
0
VERTEX
8
0
10
0.6954
20
6.2734
42
0.1968
0
VERTEX
8
0
10
0.6716
20
6.2153
42
-0.0402
0
VERTEX
8
0
10
0.6703
20
6.1955
42
-0.0427
0
VERTEX
8
0
10
0.6681
20
6.1858
42
-0.3971
0
VERTEX
8
0
10
0.6627
20
6.1780
42
-0.0643
0
VERTEX
8
0
10
0.6281
20
6.2305
42
-0.3178
0
VERTEX
8
0
10
0.6371
20
6.3700
42
-0.1051
0
VERTEX
8
0
10
0.7301
20
6.4324
42
-0.0514
0
VERTEX
8
0
10
0.8392
20
6.4618
42
-0.0694
0
VERTEX
8
0
10
1.0221
20
6.4369
42
-0.0316
0
VERTEX
8
0
10
1.1963
20
6.3734
42
-0.0417
0
VERTEX
8
0
10
1.5206
20
6.1941
42
-0.0084
0
VERTEX
8
0
10
1.6546
20
6.0997
42
-0.0038
0
VERTEX
8
0
10
1.7205
20
6.0509
42
-0.0506
0
VERTEX
8
0
10
1.7847
20
6.0001
42
-0.0223
0
VERTEX
8
0
10
1.5206
20
5.8060
42
-0.0460
0
VERTEX
8
0
10
1.1963
20
5.6267
42
-0.0379
0
VERTEX
8
0
10
1.0221
20
5.5632
42
-0.1075
0
VERTEX
8
0
10
0.8392
20
5.5383
42
-0.0601
0
VERTEX
8
0
10
0.7301
20
5.5677
42
-0.1495
0
VERTEX
8
0
10
0.6371
20
5.6301
42
-0.1688
0
VERTEX
8
0
10
0.6110
20
5.6982
42
-0.1071
0
VERTEX
8
0
10
0.6281
20
5.7696
42
-0.0233
0
VERTEX
8
0
10
0.6432
20
5.7976
42
-0.0212
0
VERTEX
8
0
10
0.6518
20
5.8109
42
-0.2857
0
VERTEX
8
0
10
0.6627
20
5.8221
42
-0.1174
0
VERTEX
8
0
10
0.6716
20
5.7848
42
0.4797
0
VERTEX
8
0
10
0.7563
20
5.7124
42
0.2048
0
VERTEX
8
0
10
0.8371
20
5.7576
42
0.2379
0
VERTEX
8
0
10
0.8505
20
5.8474
42
0.2135
0
VERTEX
8
0
10
0.7616
20
5.9256
42
0.1257
0
VERTEX
8
0
10
0.6400
20
5.9282
42
0.2566
0
VERTEX
8
0
10
0.5035
20
5.8278
42
0.2066
0
VERTEX
8
0
10
0.5075
20
5.5968
42
0.1704
0
VERTEX
8
0
10
0.6704
20
5.4292
42
0.1387
0
VERTEX
8
0
10
1.0198
20
5.4295
42
0.0510
0
VERTEX
8
0
10
1.4568
20
5.6269
42
0.0285
0
VERTEX
8
0
10
1.8557
20
5.8945
0
VERTEX
8
0
10
1.9469
20
5.9640
0
VERTEX
8
0
10
2.0512
20
5.8683
42
0.0146
0
VERTEX
8
0
10
2.5741
20
5.4427
42
0.0075
0
VERTEX
8
0
10
3.1160
20
5.0411
42
-0.0035
0
VERTEX
8
0
10
3.1918
20
4.9862
42
-0.0026
0
VERTEX
8
0
10
3.2294
20
4.9584
42
-0.1035
0
VERTEX
8
0
10
3.2662
20
4.9296
42
-0.0342
0
VERTEX
8
0
10
3.2209
20
4.9454
42
0.0803
0
VERTEX
8
0
10
2.9175
20
5.0179
42
0.0701
0
VERTEX
8
0
10
2.7942
20
5.0079
42
0.1159
0
VERTEX
8
0
10
2.6826
20
4.9564
0
VERTEX
8
0
10
2.7714
20
4.8950
0
VERTEX
8
0
10
2.6438
20
4.8125
42
0.2056
0
VERTEX
8
0
10
2.6080
20
4.7296
42
0.1103
0
VERTEX
8
0
10
2.6286
20
4.6475
42
0.0557
0
VERTEX
8
0
10
2.6772
20
4.5776
0
VERTEX
8
0
10
2.7100
20
4.5397
0
VERTEX
8
0
10
2.7112
20
4.5984
42
-0.2938
0
VERTEX
8
0
10
2.8115
20
4.7672
42
-0.0796
0
VERTEX
8
0
10
3.0140
20
4.8086
42
-0.0676
0
VERTEX
8
0
10
3.2239
20
4.7889
42
0.0600
0
VERTEX
8
0
10
3.7002
20
4.7320
42
0.0646
0
VERTEX
8
0
10
3.9578
20
4.7523
42
0.1096
0
VERTEX
8
0
10
4.2445
20
4.8664
42
0.1253
0
VERTEX
8
0
10
4.4431
20
5.1004
42
0.1205
0
VERTEX
8
0
10
4.5063
20
5.3609
42
0.1428
0
VERTEX
8
0
10
4.4118
20
5.6701
42
0.1336
0
VERTEX
8
0
10
4.1688
20
5.8844
42
0.1825
0
VERTEX
8
0
10
3.9214
20
5.9276
42
0.0711
0
VERTEX
8
0
10
3.7050
20
5.8552
42
0.0523
0
VERTEX
8
0
10
3.5903
20
5.7844
42
0.0179
0
VERTEX
8
0
10
3.4886
20
5.6957
42
-0.0763
0
VERTEX
8
0
10
3.3870
20
5.6110
42
-0.1053
0
VERTEX
8
0
10
3.2609
20
5.5747
0
VERTEX
8
0
10
3.2644
20
5.6343
42
0.1860
0
VERTEX
8
0
10
3.2550
20
5.7085
42
0.1627
0
VERTEX
8
0
10
3.1923
20
5.7464
42
0.2550
0
VERTEX
8
0
10
3.0659
20
5.7035
42
0.2155
0
VERTEX
8
0
10
3.0445
20
5.6034
42
0.1557
0
VERTEX
8
0
10
3.0972
20
5.5133
42
0.1749
0
VERTEX
8
0
10
3.2853
20
5.4549
42
0.1501
0
VERTEX
8
0
10
3.4242
20
5.4799
0
VERTEX
8
0
10
3.4725
20
5.5046
0
VERTEX
8
0
10
3.4725
20
5.4274
42
0.1848
0
VERTEX
8
0
10
3.5445
20
5.2068
42
0.1330
0
VERTEX
8
0
10
3.7426
20
5.0840
42
0.0592
0
VERTEX
8
0
10
3.8586
20
5.0693
42
0.1016
0
VERTEX
8
0
10
3.9745
20
5.0837
42
0.1858
0
VERTEX
8
0
10
4.1313
20
5.2286
42
0.1002
0
VERTEX
8
0
10
4.1549
20
5.2991
42
0.0198
0
VERTEX
8
0
10
4.1575
20
5.3738
42
0.2360
0
VERTEX
8
0
10
4.0848
20
5.5708
42
0.1349
0
VERTEX
8
0
10
3.9832
20
5.6314
42
0.1904
0
VERTEX
8
0
10
3.8672
20
5.6200
42
0.1697
0
VERTEX
8
0
10
3.8035
20
5.5567
42
0.0961
0
VERTEX
8
0
10
3.7861
20
5.4677
42
0.1718
0
VERTEX
8
0
10
3.8013
20
5.3915
42
0.2278
0
VERTEX
8
0
10
3.8690
20
5.3601
42
0.1613
0
VERTEX
8
0
10
3.9423
20
5.3827
42
-0.0637
0
VERTEX
8
0
10
3.9620
20
5.3946
42
-0.3639
0
VERTEX
8
0
10
3.9832
20
5.3938
42
-0.0867
0
VERTEX
8
0
10
3.9977
20
5.3517
42
-0.2439
0
VERTEX
8
0
10
3.9675
20
5.2685
42
-0.1263
0
VERTEX
8
0
10
3.8845
20
5.2304
42
-0.0761
0
VERTEX
8
0
10
3.7835
20
5.2365
42
-0.1385
0
VERTEX
8
0
10
3.6895
20
5.2736
42
-0.1590
0
VERTEX
8
0
10
3.6143
20
5.3855
42
-0.1281
0
VERTEX
8
0
10
3.6144
20
5.5210
42
-0.2045
0
VERTEX
8
0
10
3.7636
20
5.7385
42
-0.1674
0
VERTEX
8
0
10
4.0240
20
5.7839
42
-0.2215
0
VERTEX
8
0
10
4.2811
20
5.6289
42
-0.0900
0
VERTEX
8
0
10
4.3398
20
5.4870
42
-0.0605
0
VERTEX
8
0
10
4.3513
20
5.3332
42
-0.1114
0
VERTEX
8
0
10
4.3113
20
5.1678
42
-0.1054
0
VERTEX
8
0
10
4.1797
20
5.0023
42
-0.1214
0
VERTEX
8
0
10
3.9912
20
4.9073
42
-0.0370
0
VERTEX
8
0
10
3.8331
20
4.8978
42
-0.0636
0
VERTEX
8
0
10
3.6752
20
4.9105
42
-0.1510
0
VERTEX
8
0
10
3.4871
20
4.9986
42
-0.2046
0
VERTEX
8
0
10
3.4051
20
5.1854
42
0.0175
0
VERTEX
8
0
10
3.4042
20
5.2153
42
0.1619
0
VERTEX
8
0
10
3.3986
20
5.2429
42
0.2686
0
VERTEX
8
0
10
3.3739
20
5.2415
42
0.0199
0
VERTEX
8
0
10
3.3515
20
5.2241
42
0.2215
0
VERTEX
8
0
10
3.2948
20
5.1022
42
-0.0259
0
VERTEX
8
0
10
3.2941
20
5.0848
42
-0.4176
0
VERTEX
8
0
10
3.2895
20
5.0685
42
-0.0172
0
VERTEX
8
0
10
2.5556
20
5.5800
42
-0.0070
0
VERTEX
8
0
10
2.2935
20
5.7853
42
-0.0039
0
VERTEX
8
0
10
2.1646
20
5.8907
42
-0.0042
0
VERTEX
8
0
10
2.1009
20
5.9442
42
-0.0485
0
VERTEX
8
0
10
2.0393
20
6.0001
42
-0.0199
0
VERTEX
8
0
10
2.5556
20
6.4201
42
-0.0050
0
VERTEX
8
0
10
2.9194
20
6.6804
0
VERTEX
8
0
10
3.1031
20
6.8081
42
-0.0025
0
VERTEX
8
0
10
3.1955
20
6.8712
42
-0.0691
0
VERTEX
8
0
10
3.2895
20
6.9316
42
-0.0801
0
VERTEX
8
0
10
3.2948
20
6.8979
42
0.2212
0
VERTEX
8
0
10
3.3515
20
6.7760
42
0.0434
0
VERTEX
8
0
10
3.3752
20
6.7578
42
0.6109
0
VERTEX
8
0
10
3.3993
20
6.7585
42
0.0463
0
VERTEX
8
0
10
3.4051
20
6.8147
42
-0.2127
0
VERTEX
8
0
10
3.4871
20
7.0015
42
-0.1146
0
VERTEX
8
0
10
3.6752
20
7.0896
42
-0.0341
0
VERTEX
8
0
10
3.8331
20
7.1023
42
-0.0827
0
VERTEX
8
0
10
3.9912
20
7.0929
42
-0.2185
0
VERTEX
8
0
10
4.3113
20
6.8323
42
-0.0805
0
VERTEX
8
0
10
4.3428
20
6.7525
42
-0.0258
0
VERTEX
8
0
10
4.3513
20
6.6669
42
-0.0694
0
VERTEX
8
0
10
4.3398
20
6.5131
42
-0.1006
0
VERTEX
8
0
10
4.2811
20
6.3712
42
-0.1127
0
VERTEX
8
0
10
4.1692
20
6.2664
42
-0.0877
0
VERTEX
8
0
10
4.0240
20
6.2162
42
-0.1992
0
VERTEX
8
0
10
3.7636
20
6.2616
42
-0.1745
0
VERTEX
8
0
10
3.6144
20
6.4791
42
-0.1395
0
VERTEX
8
0
10
3.6143
20
6.6146
42
-0.1653
0
VERTEX
8
0
10
3.6895
20
6.7265
42
-0.0816
0
VERTEX
8
0
10
3.7835
20
6.7636
42
-0.1212
0
VERTEX
8
0
10
3.8845
20
6.7697
42
-0.1581
0
VERTEX
8
0
10
3.9674
20
6.7317
42
-0.2609
0
VERTEX
8
0
10
3.9977
20
6.6484
42
-0.0340
0
VERTEX
8
0
10
3.9930
20
6.6258
42
-0.1970
0
VERTEX
8
0
10
3.9829
20
6.6060
42
-0.2224
0
VERTEX
8
0
10
3.9616
20
6.6057
42
-0.0362
0
VERTEX
8
0
10
3.9423
20
6.6174
42
0.1456
0
VERTEX
8
0
10
3.8690
20
6.6401
42
0.3088
0
VERTEX
8
0
10
3.8012
20
6.6086
42
0.0995
0
VERTEX
8
0
10
3.7861
20
6.5324
42
0.3126
0
VERTEX
8
0
10
3.8672
20
6.3801
42
0.1862
0
VERTEX
8
0
10
3.9832
20
6.3687
42
0.1092
0
VERTEX
8
0
10
4.0848
20
6.4293
42
0.1490
0
VERTEX
8
0
10
4.1454
20
6.5184
42
0.0550
0
VERTEX
8
0
10
4.1575
20
6.6263
42
0.1405
0
VERTEX
8
0
10
4.1313
20
6.7715
42
0.0855
0
VERTEX
8
0
10
4.0661
20
6.8584
42
0.1191
0
VERTEX
8
0
10
3.9745
20
6.9164
42
0.1447
0
VERTEX
8
0
10
3.7426
20
6.9161
42
0.1690
0
VERTEX
8
0
10
3.5445
20
6.7933
42
0.1545
0
VERTEX
8
0
10
3.4725
20
6.5727
0
VERTEX
8
0
10
3.4725
20
6.4955
0
VERTEX
8
0
10
3.4242
20
6.5202
42
0.1023
0
VERTEX
8
0
10
3.3568
20
6.5426
42
0.0188
0
VERTEX
8
0
10
3.2853
20
6.5453
42
0.2071
0
VERTEX
8
0
10
3.0972
20
6.4868
42
0.1590
0
VERTEX
8
0
10
3.0445
20
6.3968
42
0.2420
0
VERTEX
8
0
10
3.0659
20
6.2967
42
0.2814
0
VERTEX
8
0
10
3.1923
20
6.2537
42
0.2741
0
VERTEX
8
0
10
3.2550
20
6.2917
42
0.0961
0
VERTEX
8
0
10
3.2644
20
6.3658
0
VERTEX
8
0
10
3.2609
20
6.4254
42
-0.1313
0
VERTEX
8
0
10
3.3870
20
6.3891
42
-0.0128
0
VERTEX
8
0
10
3.4886
20
6.3044
42
0.0839
0
VERTEX
8
0
10
3.7050
20
6.1449
42
0.0671
0
VERTEX
8
0
10
3.9214
20
6.0725
42
0.0930
0
VERTEX
8
0
10
4.0485
20
6.0735
42
0.0598
0
VERTEX
8
0
10
4.1688
20
6.1157
42
0.1346
0
VERTEX
8
0
10
4.4118
20
6.3300
42
0.1496
0
VERTEX
8
0
10
4.5063
20
6.6392
42
0.0712
0
VERTEX
8
0
10
4.4921
20
6.7736
42
0.0413
0
VERTEX
8
0
10
4.4431
20
6.8997
42
0.1357
0
VERTEX
8
0
10
4.2445
20
7.1337
0
SEQEND
8
0
0
POLYLINE
8
Layer 1
66
1
0
VERTEX
8
0
10
4.9928
20
6.9030
0
VERTEX
8
0
10
4.9865
20
6.6225
42
0.0768
0
VERTEX
8
0
10
4.7474
20
6.4950
42
0.1250
0
VERTEX
8
0
10
4.5659
20
6.2952
42
0.1156
0
VERTEX
8
0
10
4.4955
20
6.0001
42
0.1272
0
VERTEX
8
0
10
4.5659
20
5.7049
42
0.0958
0
VERTEX
8
0
10
4.7474
20
5.5051
42
0.0800
0
VERTEX
8
0
10
4.9865
20
5.3776
0
VERTEX
8
0
10
4.9928
20
5.0971
0
VERTEX
8
0
10
5.3153
20
5.0971
0
VERTEX
8
0
10
5.3320
20
5.0471
42
0.1113
0
VERTEX
8
0
10
5.4702
20
4.8094
42
0.0876
0
VERTEX
8
0
10
5.6939
20
4.6485
42
0.1205
0
VERTEX
8
0
10
6.0003
20
4.5713
42
0.1011
0
VERTEX
8
0
10
6.3067
20
4.6485
42
0.2147
0
VERTEX
8
0
10
6.6686
20
5.0471
0
VERTEX
8
0
10
6.6847
20
5.0971
0
VERTEX
8
0
10
7.0078
20
5.0971
0
VERTEX
8
0
10
7.0138
20
5.3776
42
0.0767
0
VERTEX
8
0
10
7.2531
20
5.5051
42
0.1254
0
VERTEX
8
0
10
7.4347
20
5.7049
42
0.1156
0
VERTEX
8
0
10
7.5051
20
6.0001
42
0.1272
0
VERTEX
8
0
10
7.4347
20
6.2952
42
0.0957
0
VERTEX
8
0
10
7.2531
20
6.4950
42
0.0795
0
VERTEX
8
0
10
7.0138
20
6.6225
0
VERTEX
8
0
10
7.0078
20
6.9030
0
VERTEX
8
0
10
6.6847
20
6.9030
0
VERTEX
8
0
10
6.6686
20
6.9531
42
0.1110
0
VERTEX
8
0
10
6.5304
20
7.1907
42
0.0876
0
VERTEX
8
0
10
6.3067
20
7.3516
42
0.1206
0
VERTEX
8
0
10
6.0003
20
7.4288
42
0.1011
0
VERTEX
8
0
10
5.6939
20
7.3516
42
0.2147
0
VERTEX
8
0
10
5.3320
20
6.9531
0
VERTEX
8
0
10
5.3153
20
6.9030
0
VERTEX
8
0
10
4.9928
20
6.9030
0
SEQEND
8
0
0
POLYLINE
8
Layer 1
66
1
0
VERTEX
8
0
10
5.2026
20
6.7408
0
VERTEX
8
0
10
5.4852
20
6.7408
0
VERTEX
8
0
10
5.4965
20
6.8147
42
-0.1834
0
VERTEX
8
0
10
5.6277
20
7.0735
42
-0.1750
0
VERTEX
8
0
10
6.0003
20
7.2109
42
-0.1959
0
VERTEX
8
0
10
6.3729
20
7.0735
42
-0.1594
0
VERTEX
8
0
10
6.5035
20
6.8147
0
VERTEX
8
0
10
6.5148
20
6.7408
0
VERTEX
8
0
10
6.7980
20
6.7408
0
VERTEX
8
0
10
6.7980
20
6.4779
0
VERTEX
8
0
10
6.8615
20
6.4660
42
-0.1610
0
VERTEX
8
0
10
7.1682
20
6.3126
42
-0.2021
0
VERTEX
8
0
10
7.2994
20
6.0001
42
-0.1978
0
VERTEX
8
0
10
7.1682
20
5.6875
42
-0.1390
0
VERTEX
8
0
10
6.8615
20
5.5341
0
VERTEX
8
0
10
6.7980
20
5.5222
0
VERTEX
8
0
10
6.7980
20
5.2593
0
VERTEX
8
0
10
6.5148
20
5.2593
0
VERTEX
8
0
10
6.5035
20
5.1854
42
-0.1847
0
VERTEX
8
0
10
6.3729
20
4.9266
42
-0.1750
0
VERTEX
8
0
10
6.0003
20
4.7892
42
-0.1959
0
VERTEX
8
0
10
5.6277
20
4.9266
42
-0.1603
0
VERTEX
8
0
10
5.4965
20
5.1854
0
VERTEX
8
0
10
5.4852
20
5.2593
0
VERTEX
8
0
10
5.2026
20
5.2593
0
VERTEX
8
0
10
5.2026
20
5.5222
0
VERTEX
8
0
10
5.1388
20
5.5341
42
-0.1612
0
VERTEX
8
0
10
4.8322
20
5.6875
42
-0.2019
0
VERTEX
8
0
10
4.7012
20
6.0001
42
-0.1976
0
VERTEX
8
0
10
4.8322
20
6.3126
42
-0.1391
0
VERTEX
8
0
10
5.1388
20
6.4660
0
VERTEX
8
0
10
5.2026
20
6.4779
0
VERTEX
8
0
10
5.2026
20
6.7408
0
SEQEND
8
0
0
POLYLINE
8
Layer 1
66
1
0
VERTEX
8
0
10
5.4387
20
6.5977
0
VERTEX
8
0
10
5.4661
20
6.5974
42
-0.0940
0
VERTEX
8
0
10
5.5221
20
6.5863
42
-0.0248
0
VERTEX
8
0
10
5.5760
20
6.5671
42
-0.0449
0
VERTEX
8
0
10
5.6778
20
6.5149
42
-0.0964
0
VERTEX
8
0
10
5.7937
20
6.3968
42
-0.0970
0
VERTEX
8
0
10
5.9192
20
6.1023
42
-0.0972
0
VERTEX
8
0
10
5.6357
20
6.2454
42
-0.0734
0
VERTEX
8
0
10
5.5124
20
6.3764
42
-0.0997
0
VERTEX
8
0
10
5.4435
20
6.5420
0
VERTEX
8
0
10
5.4387
20
6.5977
0
SEQEND
8
0
0
POLYLINE
8
Layer 1
66
1
0
VERTEX
8
0
10
5.7711
20
6.6167
42
0.0337
0
VERTEX
8
0
10
5.8217
20
6.4961
42
0.0532
0
VERTEX
8
0
10
5.9639
20
6.2758
42
0.0912
0
VERTEX
8
0
10
6.0003
20
6.2373
42
0.0381
0
VERTEX
8
0
10
6.0367
20
6.2758
42
0.0533
0
VERTEX
8
0
10
6.1786
20
6.4961
42
0.0384
0
VERTEX
8
0
10
6.2293
20
6.6167
42
0.0970
0
VERTEX
8
0
10
6.2543
20
6.7447
42
0.1896
0
VERTEX
8
0
10
6.2315
20
6.8020
42
0.2629
0
VERTEX
8
0
10
6.1750
20
6.8243
42
-0.0192
0
VERTEX
8
0
10
6.1397
20
6.8136
42
-0.6053
0
VERTEX
8
0
10
6.1112
20
6.8258
42
0.0997
0
VERTEX
8
0
10
6.0731
20
6.9195
42
0.0458
0
VERTEX
8
0
10
6.0416
20
6.9597
42
0.2220
0
VERTEX
8
0
10
6.0003
20
6.9885
42
0.1132
0
VERTEX
8
0
10
5.9275
20
6.9194
42
0.0438
0
VERTEX
8
0
10
5.9026
20
6.8748
42
0.1320
0
VERTEX
8
0
10
5.8894
20
6.8258
42
-0.3618
0
VERTEX
8
0
10
5.8793
20
6.8121
42
-0.0861
0
VERTEX
8
0
10
5.8610
20
6.8136
42
0.0627
0
VERTEX
8
0
10
5.8256
20
6.8243
42
0.4137
0
VERTEX
8
0
10
5.7463
20
6.7447
42
0.0652
0
VERTEX
8
0
10
5.7711
20
6.6167
0
SEQEND
8
0
0
POLYLINE
8
Layer 1
66
1
0
VERTEX
8
0
10
6.2066
20
6.3968
42
0.0712
0
VERTEX
8
0
10
6.0811
20
6.1023
42
0.1016
0
VERTEX
8
0
10
6.3646
20
6.2454
42
0.0814
0
VERTEX
8
0
10
6.4880
20
6.3764
42
0.1057
0
VERTEX
8
0
10
6.5571
20
6.5420
0
VERTEX
8
0
10
6.5619
20
6.5977
0
VERTEX
8
0
10
6.5345
20
6.5974
42
0.1159
0
VERTEX
8
0
10
6.3228
20
6.5149
42
0.0813
0
VERTEX
8
0
10
6.2066
20
6.3968
0
SEQEND
8
0
0
POLYLINE
8
Layer 1
66
1
0
VERTEX
8
0
10
6.3240
20
6.0510
42
0.0548
0
VERTEX
8
0
10
6.2573
20
6.0001
42
0.0159
0
VERTEX
8
0
10
6.3240
20
5.9491
42
0.0437
0
VERTEX
8
0
10
6.5384
20
5.8249
42
0.0905
0
VERTEX
8
0
10
6.7729
20
5.7467
42
0.0347
0
VERTEX
8
0
10
6.8287
20
5.7428
42
0.1112
0
VERTEX
8
0
10
6.9190
20
5.7592
42
0.1029
0
VERTEX
8
0
10
6.9007
20
5.8136
42
0.0495
0
VERTEX
8
0
10
6.8666
20
5.8614
0
VERTEX
8
0
10
6.8379
20
5.8936
0
VERTEX
8
0
10
6.9071
20
5.8936
42
0.1615
0
VERTEX
8
0
10
7.0041
20
5.9138
42
0.0265
0
VERTEX
8
0
10
7.0836
20
5.9750
0
VERTEX
8
0
10
7.1128
20
6.0001
0
VERTEX
8
0
10
7.0836
20
6.0251
42
0.0651
0
VERTEX
8
0
10
7.0040
20
6.0863
42
0.1019
0
VERTEX
8
0
10
6.9071
20
6.1065
0
VERTEX
8
0
10
6.8379
20
6.1065
0
VERTEX
8
0
10
6.8666
20
6.1387
42
0.0456
0
VERTEX
8
0
10
6.9008
20
6.1867
42
0.0342
0
VERTEX
8
0
10
6.9142
20
6.2129
42
0.0409
0
VERTEX
8
0
10
6.9192
20
6.2267
42
0.3631
0
VERTEX
8
0
10
6.9190
20
6.2409
42
0.0905
0
VERTEX
8
0
10
6.8287
20
6.2573
42
0.0254
0
VERTEX
8
0
10
6.7729
20
6.2534
42
0.0998
0
VERTEX
8
0
10
6.3240
20
6.0510
0
SEQEND
8
0
0
POLYLINE
8
Layer 1
66
1
0
VERTEX
8
0
10
6.0811
20
5.8978
42
-0.0972
0
VERTEX
8
0
10
6.3646
20
5.7547
42
-0.0712
0
VERTEX
8
0
10
6.4880
20
5.6237
42
-0.0993
0
VERTEX
8
0
10
6.5571
20
5.4581
0
VERTEX
8
0
10
6.5619
20
5.4024
0
VERTEX
8
0
10
6.5345
20
5.4027
42
-0.0940
0
VERTEX
8
0
10
6.4785
20
5.4138
42
-0.0244
0
VERTEX
8
0
10
6.4246
20
5.4331
42
-0.0447
0
VERTEX
8
0
10
6.3228
20
5.4853
42
-0.0959
0
VERTEX
8
0
10
6.2066
20
5.6033
42
-0.0973
0
VERTEX
8
0
10
6.0811
20
5.8978
0
SEQEND
8
0
0
POLYLINE
8
Layer 1
66
1
0
VERTEX
8
0
10
6.0003
20
5.7628
42
-0.0915
0
VERTEX
8
0
10
6.0367
20
5.7243
42
-0.0533
0
VERTEX
8
0
10
6.1786
20
5.5040
42
-0.0333
0
VERTEX
8
0
10
6.2293
20
5.3834
42
-0.0652
0
VERTEX
8
0
10
6.2543
20
5.2554
42
-0.4137
0
VERTEX
8
0
10
6.1750
20
5.1758
42
-0.0627
0
VERTEX
8
0
10
6.1396
20
5.1865
42
0.0861
0
VERTEX
8
0
10
6.1213
20
5.1880
42
0.3626
0
VERTEX
8
0
10
6.1112
20
5.1743
42
-0.1320
0
VERTEX
8
0
10
6.0980
20
5.1253
42
-0.0428
0
VERTEX
8
0
10
6.0731
20
5.0807
42
-0.1138
0
VERTEX
8
0
10
6.0003
20
5.0116
42
-0.2219
0
VERTEX
8
0
10
5.9590
20
5.0404
42
-0.0458
0
VERTEX
8
0
10
5.9275
20
5.0806
42
-0.0996
0
VERTEX
8
0
10
5.8894
20
5.1743
42
0.6053
0
VERTEX
8
0
10
5.8609
20
5.1865
42
0.0192
0
VERTEX
8
0
10
5.8256
20
5.1758
42
-0.2629
0
VERTEX
8
0
10
5.7691
20
5.1981
42
-0.1895
0
VERTEX
8
0
10
5.7463
20
5.2554
42
-0.0964
0
VERTEX
8
0
10
5.7711
20
5.3834
42
-0.0389
0
VERTEX
8
0
10
5.8217
20
5.5040
42
-0.0532
0
VERTEX
8
0
10
5.9639
20
5.7243
42
-0.0381
0
VERTEX
8
0
10
6.0003
20
5.7628
0
SEQEND
8
0
0
POLYLINE
8
Layer 1
66
1
0
VERTEX
8
0
10
5.9192
20
5.8978
42
-0.0712
0
VERTEX
8
0
10
5.7937
20
5.6033
42
-0.0806
0
VERTEX
8
0
10
5.6778
20
5.4853
42
-0.1159
0
VERTEX
8
0
10
5.4661
20
5.4027
0
VERTEX
8
0
10
5.4387
20
5.4024
0
VERTEX
8
0
10
5.4435
20
5.4581
42
-0.1050
0
VERTEX
8
0
10
5.5124
20
5.6237
42
-0.0821
0
VERTEX
8
0
10
5.6357
20
5.7547
42
-0.1016
0
VERTEX
8
0
10
5.9192
20
5.8978
0
SEQEND
8
0
0
POLYLINE
8
Layer 1
66
1
0
VERTEX
8
0
10
5.7433
20
6.0001
42
0.0162
0
VERTEX
8
0
10
5.6766
20
6.0510
42
0.0440
0
VERTEX
8
0
10
5.4622
20
6.1753
42
0.0905
0
VERTEX
8
0
10
5.2276
20
6.2534
42
0.0346
0
VERTEX
8
0
10
5.1716
20
6.2573
42
0.1128
0
VERTEX
8
0
10
5.0810
20
6.2409
42
0.1019
0
VERTEX
8
0
10
5.0997
20
6.1866
42
0.0480
0
VERTEX
8
0
10
5.1341
20
6.1387
0
VERTEX
8
0
10
5.1621
20
6.1065
0
VERTEX
8
0
10
5.0935
20
6.1065
42
0.1623
0
VERTEX
8
0
10
4.9965
20
6.0863
42
0.0264
0
VERTEX
8
0
10
4.9170
20
6.0251
0
VERTEX
8
0
10
4.8878
20
6.0001
0
VERTEX
8
0
10
4.9170
20
5.9750
42
0.0650
0
VERTEX
8
0
10
4.9966
20
5.9138
42
0.1019
0
VERTEX
8
0
10
5.0935
20
5.8936
0
VERTEX
8
0
10
5.1621
20
5.8936
0
VERTEX
8
0
10
5.1341
20
5.8614
42
0.0449
0
VERTEX
8
0
10
5.0996
20
5.8134
42
0.0341
0
VERTEX
8
0
10
5.0860
20
5.7873
42
0.0408
0
VERTEX
8
0
10
5.0809
20
5.7734
42
0.3677
0
VERTEX
8
0
10
5.0810
20
5.7592
42
0.0902
0
VERTEX
8
0
10
5.1716
20
5.7428
42
0.0255
0
VERTEX
8
0
10
5.2276
20
5.7467
42
0.0998
0
VERTEX
8
0
10
5.6766
20
5.9491
42
0.0541
0
VERTEX
8
0
10
5.7433
20
6.0001
0
SEQEND
8
0
0
POLYLINE
8
Layer 1
66
1
0
VERTEX
8
0
10
4.9403
20
5.0494
0
VERTEX
8
0
10
4.9343
20
4.9517
42
-0.0600
0
VERTEX
8
0
10
4.8898
20
4.7112
42
-0.0698
0
VERTEX
8
0
10
4.8336
20
4.6028
42
-0.1950
0
VERTEX
8
0
10
4.7310
20
4.5439
42
-0.5212
0
VERTEX
8
0
10
4.6833
20
4.6121
42
0.0665
0
VERTEX
8
0
10
4.6856
20
4.6250
42
0.6786
0
VERTEX
8
0
10
4.6797
20
4.6239
42
0.0276
0
VERTEX
8
0
10
4.6741
20
4.6203
42
0.0186
0
VERTEX
8
0
10
4.6529
20
4.6041
42
-0.1278
0
VERTEX
8
0
10
4.4729
20
4.5248
42
-0.0264
0
VERTEX
8
0
10
4.4109
20
4.5182
0
VERTEX
8
0
10
4.4061
20
4.5182
0
VERTEX
8
0
10
4.4037
20
4.5191
42
-0.2890
0
VERTEX
8
0
10
4.4007
20
4.5344
42
-0.0442
0
VERTEX
8
0
10
4.4033
20
4.5502
42
-0.0331
0
VERTEX
8
0
10
4.4123
20
4.5808
42
-0.0287
0
VERTEX
8
0
10
4.4369
20
4.6399
42
-0.0499
0
VERTEX
8
0
10
4.5027
20
4.7496
0
VERTEX
8
0
10
4.5367
20
4.7916
0
VERTEX
8
0
10
4.5098
20
4.8020
42
-0.0864
0
VERTEX
8
0
10
4.4804
20
4.8195
42
-0.2147
0
VERTEX
8
0
10
4.4682
20
4.8504
42
-0.2406
0
VERTEX
8
0
10
4.5039
20
4.9079
42
-0.0851
0
VERTEX
8
0
10
4.6227
20
4.9867
42
-0.0495
0
VERTEX
8
0
10
4.7591
20
5.0307
42
-0.0524
0
VERTEX
8
0
10
4.8831
20
5.0486
0
VERTEX
8
0
10
4.9403
20
5.0494
0
SEQEND
8
0
0
POLYLINE
8
Layer 1
66
1
0
VERTEX
8
0
10
3.9095
20
6.0001
42
0.0200
0
VERTEX
8
0
10
3.8231
20
6.0299
42
-0.0527
0
VERTEX
8
0
10
3.6070
20
6.1190
42
-0.0402
0
VERTEX
8
0
10
3.5083
20
6.1819
42
-0.0931
0
VERTEX
8
0
10
3.4254
20
6.2639
42
0.0220
0
VERTEX
8
0
10
3.4191
20
6.2726
42
1.0211
0
VERTEX
8
0
10
3.4116
20
6.2745
42
0.0314
0
VERTEX
8
0
10
3.4106
20
6.2528
42
0.0029
0
VERTEX
8
0
10
3.4123
20
6.2093
0
VERTEX
8
0
10
3.4159
20
6.1306
0
VERTEX
8
0
10
3.3908
20
6.1363
42
-0.0236
0
VERTEX
8
0
10
3.0350
20
6.2311
42
-0.0240
0
VERTEX
8
0
10
2.8618
20
6.2936
42
-0.0615
0
VERTEX
8
0
10
2.6987
20
6.3783
0
VERTEX
8
0
10
2.6551
20
6.4081
0
VERTEX
8
0
10
2.6170
20
6.3798
0
VERTEX
8
0
10
2.5782
20
6.3515
0
VERTEX
8
0
10
2.6098
20
6.3280
42
0.1017
0
VERTEX
8
0
10
3.3401
20
6.0224
42
-0.0381
0
VERTEX
8
0
10
3.4397
20
6.0001
42
-0.0135
0
VERTEX
8
0
10
3.3401
20
5.9777
42
0.0455
0
VERTEX
8
0
10
2.9596
20
5.8612
42
0.0255
0
VERTEX
8
0
10
2.7790
20
5.7772
42
0.0441
0
VERTEX
8
0
10
2.6098
20
5.6722
0
VERTEX
8
0
10
2.5782
20
5.6486
0
VERTEX
8
0
10
2.6170
20
5.6203
0
VERTEX
8
0
10
2.6551
20
5.5920
0
VERTEX
8
0
10
2.6987
20
5.6218
42
-0.0427
0
VERTEX
8
0
10
2.8618
20
5.7066
42
-0.0195
0
VERTEX
8
0
10
3.0350
20
5.7690
42
-0.0182
0
VERTEX
8
0
10
3.3908
20
5.8638
0
VERTEX
8
0
10
3.4159
20
5.8695
0
VERTEX
8
0
10
3.4123
20
5.7908
42
0.0097
0
VERTEX
8
0
10
3.4106
20
5.7474
42
0.0960
0
VERTEX
8
0
10
3.4115
20
5.7257
42
0.3529
0
VERTEX
8
0
10
3.4190
20
5.7274
42
0.0094
0
VERTEX
8
0
10
3.4254
20
5.7362
42
-0.0878
0
VERTEX
8
0
10
3.6070
20
5.8811
42
-0.0492
0
VERTEX
8
0
10
3.8231
20
5.9702
42
0.0545
0
VERTEX
8
0
10
3.9095
20
6.0001
0
SEQEND
8
0
0
POLYLINE
8
Layer 1
66
1
0
VERTEX
8
0
10
3.0331
20
6.0001
42
0.0277
0
VERTEX
8
0
10
2.9491
20
6.0352
42
-0.0451
0
VERTEX
8
0
10
2.7292
20
6.1350
42
-0.0353
0
VERTEX
8
0
10
2.6280
20
6.2009
42
-0.0882
0
VERTEX
8
0
10
2.5413
20
6.2844
0
VERTEX
8
0
10
2.5126
20
6.3238
0
VERTEX
8
0
10
2.5126
20
6.2820
42
0.0533
0
VERTEX
8
0
10
2.5218
20
6.2028
42
0.1270
0
VERTEX
8
0
10
2.5508
20
6.1288
0
VERTEX
8
0
10
2.5687
20
6.1035
0
VERTEX
8
0
10
2.4954
20
6.1002
0
VERTEX
8
0
10
2.2676
20
6.0001
0
VERTEX
8
0
10
2.4954
20
5.8999
0
VERTEX
8
0
10
2.5687
20
5.8966
0
VERTEX
8
0
10
2.5508
20
5.8713
42
0.1206
0
VERTEX
8
0
10
2.5126
20
5.7181
0
VERTEX
8
0
10
2.5126
20
5.6763
0
VERTEX
8
0
10
2.5413
20
5.7157
42
-0.0604
0
VERTEX
8
0
10
2.6280
20
5.7993
42
-0.0295
0
VERTEX
8
0
10
2.7292
20
5.8651
42
-0.0412
0
VERTEX
8
0
10
2.9491
20
5.9649
42
0.0801
0
VERTEX
8
0
10
3.0331
20
6.0001
0
SEQEND
8
0
0
POLYLINE
8
Layer 1
66
1
0
VERTEX
8
0
10
2.4757
20
6.5166
0
VERTEX
8
0
10
2.4131
20
6.5766
42
-0.0269
0
VERTEX
8
0
10
2.3759
20
6.6147
42
-0.2588
0
VERTEX
8
0
10
2.3505
20
6.6603
42
0.0994
0
VERTEX
8
0
10
2.3366
20
6.7104
42
0.1917
0
VERTEX
8
0
10
2.3034
20
6.7501
42
0.0375
0
VERTEX
8
0
10
2.2520
20
6.7739
42
0.1105
0
VERTEX
8
0
10
2.1970
20
6.7861
0
VERTEX
8
0
10
2.1979
20
6.8317
42
0.2533
0
VERTEX
8
0
10
2.2226
20
6.9099
42
0.0394
0
VERTEX
8
0
10
2.1919
20
6.9891
42
-0.0134
0
VERTEX
8
0
10
2.1156
20
7.1638
42
-0.0434
0
VERTEX
8
0
10
2.0816
20
7.2632
42
-0.0742
0
VERTEX
8
0
10
2.0743
20
7.3151
42
-0.2020
0
VERTEX
8
0
10
2.0906
20
7.3638
42
0.0971
0
VERTEX
8
0
10
2.0983
20
7.3732
42
0.4472
0
VERTEX
8
0
10
2.0920
20
7.3793
42
0.0099
0
VERTEX
8
0
10
2.0739
20
7.3763
42
0.2449
0
VERTEX
8
0
10
1.9405
20
7.2847
42
0.1118
0
VERTEX
8
0
10
1.9135
20
7.1212
0
VERTEX
8
0
10
1.9177
20
7.0484
0
VERTEX
8
0
10
1.8634
20
7.0887
42
0.0602
0
VERTEX
8
0
10
1.5576
20
7.2470
42
0.0660
0
VERTEX
8
0
10
1.4081
20
7.2814
42
0.0927
0
VERTEX
8
0
10
1.2553
20
7.2714
42
0.1076
0
VERTEX
8
0
10
1.0750
20
7.1838
42
0.0842
0
VERTEX
8
0
10
1.0045
20
7.1096
42
0.1288
0
VERTEX
8
0
10
0.9682
20
7.0145
42
0.1231
0
VERTEX
8
0
10
0.9837
20
6.9167
42
0.0751
0
VERTEX
8
0
10
1.0386
20
6.8335
42
0.2211
0
VERTEX
8
0
10
1.1280
20
6.8080
42
0.2726
0
VERTEX
8
0
10
1.2016
20
6.8630
42
0.2466
0
VERTEX
8
0
10
1.2087
20
6.9446
42
0.2085
0
VERTEX
8
0
10
1.1793
20
6.9728
42
0.1112
0
VERTEX
8
0
10
1.1379
20
6.9754
42
-0.1497
0
VERTEX
8
0
10
1.1089
20
6.9729
42
-0.1574
0
VERTEX
8
0
10
1.1009
20
6.9981
42
-0.1946
0
VERTEX
8
0
10
1.1269
20
7.0516
42
-0.0505
0
VERTEX
8
0
10
1.1784
20
7.0848
42
-0.1072
0
VERTEX
8
0
10
1.2333
20
7.1018
42
-0.0252
0
VERTEX
8
0
10
1.2911
20
7.1012
42
-0.1251
0
VERTEX
8
0
10
1.4318
20
7.0603
42
-0.0298
0
VERTEX
8
0
10
1.5504
20
6.9718
42
0.0063
0
VERTEX
8
0
10
1.7144
20
6.8380
42
-0.0135
0
VERTEX
8
0
10
1.7483
20
6.8098
42
-0.0142
0
VERTEX
8
0
10
1.7645
20
6.7951
42
-0.0192
0
VERTEX
8
0
10
1.7721
20
6.7873
0
VERTEX
8
0
10
1.7756
20
6.7832
0
VERTEX
8
0
10
1.7764
20
6.7787
42
0.0094
0
VERTEX
8
0
10
1.6917
20
6.7653
42
0.1482
0
VERTEX
8
0
10
1.5307
20
6.7006
42
0.1064
0
VERTEX
8
0
10
1.4694
20
6.6093
42
0.0439
0
VERTEX
8
0
10
1.4528
20
6.5562
42
0.1914
0
VERTEX
8
0
10
1.4511
20
6.5011
42
0.3575
0
VERTEX
8
0
10
1.4705
20
6.4880
42
-0.1125
0
VERTEX
8
0
10
1.5445
20
6.5454
42
-0.0557
0
VERTEX
8
0
10
1.6349
20
6.5715
42
-0.0243
0
VERTEX
8
0
10
1.8229
20
6.5870
42
0.0063
0
VERTEX
8
0
10
1.9246
20
6.5912
42
0.0308
0
VERTEX
8
0
10
1.9754
20
6.5955
42
0.1662
0
VERTEX
8
0
10
2.0208
20
6.6162
42
0.0159
0
VERTEX
8
0
10
2.0485
20
6.6627
0
VERTEX
8
0
10
2.0858
20
6.6636
42
0.1055
0
VERTEX
8
0
10
2.1585
20
6.5363
42
0.0330
0
VERTEX
8
0
10
2.2277
20
6.5244
42
-0.1454
0
VERTEX
8
0
10
2.3344
20
6.4818
0
VERTEX
8
0
10
2.3803
20
6.4454
0
VERTEX
8
0
10
2.4280
20
6.4812
0
VERTEX
8
0
10
2.4757
20
6.5166
0
SEQEND
8
0
0
POLYLINE
8
Layer 1
66
1
0
VERTEX
8
0
10
2.3803
20
5.5547
0
VERTEX
8
0
10
2.4280
20
5.5189
0
VERTEX
8
0
10
2.4757
20
5.4835
0
VERTEX
8
0
10
2.4131
20
5.4236
42
0.0170
0
VERTEX
8
0
10
2.3759
20
5.3854
42
0.1056
0
VERTEX
8
0
10
2.3505
20
5.3398
42
-0.2460
0
VERTEX
8
0
10
2.3034
20
5.2501
42
-0.0827
0
VERTEX
8
0
10
2.1970
20
5.2140
0
VERTEX
8
0
10
2.1979
20
5.1684
42
-0.1838
0
VERTEX
8
0
10
2.2226
20
5.0903
42
-0.0892
0
VERTEX
8
0
10
2.1919
20
5.0110
42
0.0188
0
VERTEX
8
0
10
2.1156
20
4.8363
42
0.0277
0
VERTEX
8
0
10
2.0816
20
4.7369
42
0.0516
0
VERTEX
8
0
10
2.0743
20
4.6850
42
0.1588
0
VERTEX
8
0
10
2.0906
20
4.6363
42
-0.0476
0
VERTEX
8
0
10
2.0983
20
4.6270
42
-0.7538
0
VERTEX
8
0
10
2.0920
20
4.6208
42
-0.0514
0
VERTEX
8
0
10
2.0739
20
4.6238
42
-0.2093
0
VERTEX
8
0
10
1.9405
20
4.7154
42
-0.1643
0
VERTEX
8
0
10
1.9135
20
4.8789
0
VERTEX
8
0
10
1.9177
20
4.9517
0
VERTEX
8
0
10
1.8634
20
4.9114
42
-0.0507
0
VERTEX
8
0
10
1.7151
20
4.8234
42
-0.0261
0
VERTEX
8
0
10
1.5576
20
4.7531
42
-0.1394
0
VERTEX
8
0
10
1.2553
20
4.7287
42
-0.0976
0
VERTEX
8
0
10
1.0750
20
4.8163
42
-0.0733
0
VERTEX
8
0
10
1.0045
20
4.8906
42
-0.1143
0
VERTEX
8
0
10
0.9682
20
4.9857
42
-0.1327
0
VERTEX
8
0
10
0.9837
20
5.0834
42
-0.0911
0
VERTEX
8
0
10
1.0386
20
5.1666
42
-0.2256
0
VERTEX
8
0
10
1.1280
20
5.1921
42
-0.2471
0
VERTEX
8
0
10
1.2016
20
5.1371
42
-0.1560
0
VERTEX
8
0
10
1.2088
20
5.0555
42
-0.4023
0
VERTEX
8
0
10
1.1379
20
5.0247
42
0.0339
0
VERTEX
8
0
10
1.1093
20
5.0273
42
0.3892
0
VERTEX
8
0
10
1.1014
20
5.0168
42
0.0428
0
VERTEX
8
0
10
1.1009
20
5.0021
42
0.2295
0
VERTEX
8
0
10
1.1269
20
4.9485
42
0.0800
0
VERTEX
8
0
10
1.1784
20
4.9153
42
0.1650
0
VERTEX
8
0
10
1.2911
20
4.8989
42
0.1113
0
VERTEX
8
0
10
1.4318
20
4.9398
42
0.0538
0
VERTEX
8
0
10
1.5504
20
5.0283
42
-0.0067
0
VERTEX
8
0
10
1.7144
20
5.1621
42
0.0462
0
VERTEX
8
0
10
1.7764
20
5.2214
42
-0.0534
0
VERTEX
8
0
10
1.6917
20
5.2349
42
-0.1030
0
VERTEX
8
0
10
1.5307
20
5.2995
42
-0.1749
0
VERTEX
8
0
10
1.4941
20
5.3407
42
-0.0441
0
VERTEX
8
0
10
1.4695
20
5.3907
42
-0.1069
0
VERTEX
8
0
10
1.4511
20
5.4990
42
-0.3240
0
VERTEX
8
0
10
1.4705
20
5.5121
42
0.2018
0
VERTEX
8
0
10
1.6349
20
5.4286
42
0.0427
0
VERTEX
8
0
10
1.8229
20
5.4131
42
-0.0036
0
VERTEX
8
0
10
1.9247
20
5.4090
42
-0.0153
0
VERTEX
8
0
10
1.9755
20
5.4046
42
-0.1411
0
VERTEX
8
0
10
2.0208
20
5.3839
42
-0.0166
0
VERTEX
8
0
10
2.0485
20
5.3374
0
VERTEX
8
0
10
2.0858
20
5.3365
42
-0.0803
0
VERTEX
8
0
10
2.1585
20
5.4638
42
-0.1325
0
VERTEX
8
0
10
2.1928
20
5.4713
42
-0.0120
0
VERTEX
8
0
10
2.2277
20
5.4757
42
0.1396
0
VERTEX
8
0
10
2.3344
20
5.5183
0
VERTEX
8
0
10
2.3803
20
5.5547
0
SEQEND
8
0
0
POLYLINE
8
Layer 1
66
1
0
VERTEX
8
0
10
1.5289
20
6.0001
42
0.0956
0
VERTEX
8
0
10
1.4348
20
6.0550
42
-0.0191
0
VERTEX
8
0
10
1.3298
20
6.0877
42
0.0690
0
VERTEX
8
0
10
1.3475
20
6.1351
42
0.1472
0
VERTEX
8
0
10
1.3441
20
6.1849
42
0.2888
0
VERTEX
8
0
10
1.2809
20
6.2251
42
0.0868
0
VERTEX
8
0
10
1.1611
20
6.1858
0
VERTEX
8
0
10
0.9089
20
6.0001
0
VERTEX
8
0
10
1.1611
20
5.8144
42
0.0387
0
VERTEX
8
0
10
1.2189
20
5.7879
42
0.1060
0
VERTEX
8
0
10
1.2809
20
5.7750
42
0.3122
0
VERTEX
8
0
10
1.3441
20
5.8152
42
0.1436
0
VERTEX
8
0
10
1.3475
20
5.8650
42
0.0284
0
VERTEX
8
0
10
1.3298
20
5.9124
42
0.0184
0
VERTEX
8
0
10
1.4348
20
5.9451
42
0.1292
0
VERTEX
8
0
10
1.5289
20
6.0001
0
SEQEND
8
0
0
POLYLINE
8
Layer 1
66
1
0
VERTEX
8
0
10
0.5661
20
6.0001
0
VERTEX
8
0
10
0.4725
20
6.1139
42
-0.0022
0
VERTEX
8
0
10
0.4007
20
6.0594
42
0.0578
0
VERTEX
8
0
10
0.3330
20
6.0001
42
0.0378
0
VERTEX
8
0
10
0.4007
20
5.9407
42
-0.0224
0
VERTEX
8
0
10
0.4725
20
5.8862
0
VERTEX
8
0
10
0.5661
20
6.0001
0
SEQEND
8
0
0
ENDSEC
0
EOF
