999
"DXF R12 Output" (www.mydxf.blogspot.com)
 0 
SECTION
 2 
HEADER
 9 
$ACADVER
 1 
AC1009
 9 
$EXTMIN
 10 
 0 
 20 
 0 
 9 
$EXTMAX
 10 
 8.5 
 20 
 11 
 0 
ENDSEC
 0 
SECTION
 2 
ENTITIES
0
LINE
8
Layer 1
10
54.301334
20
224.066918
11
55.015709
21
223.105598
0
LINE
8
Layer 1
10
55.015709
20
223.105598
11
55.605500
21
222.132067
0
LINE
8
Layer 1
10
55.605500
20
222.132067
11
55.893108
21
220.956170
0
LINE
8
Layer 1
10
55.893108
20
220.956170
11
55.922815
21
219.157243
0
LINE
8
Layer 1
10
55.922815
20
219.157243
11
55.738903
21
216.314626
0
LINE
8
Layer 1
10
55.738903
20
216.314626
11
55.627727
21
212.140961
0
LINE
8
Layer 1
10
55.627727
20
212.140961
11
55.782430
21
210.431909
0
LINE
8
Layer 1
10
55.782430
20
210.431909
11
56.089355
21
208.930489
0
LINE
8
Layer 1
10
56.089355
20
208.930489
11
56.557526
21
207.603537
0
LINE
8
Layer 1
10
56.557526
20
207.603537
11
57.195965
21
206.417885
0
LINE
8
Layer 1
10
57.195965
20
206.417885
11
58.013694
21
205.340368
0
LINE
8
Layer 1
10
58.013694
20
205.340368
11
59.019736
21
204.337821
0
LINE
8
Layer 1
10
59.019736
20
204.337821
11
60.745468
21
203.133840
0
LINE
8
Layer 1
10
60.745468
20
203.133840
11
63.345664
21
201.660619
0
LINE
8
Layer 1
10
63.345664
20
201.660619
11
66.223678
21
200.233950
0
LINE
8
Layer 1
10
66.223678
20
200.233950
11
68.782861
21
199.169626
0
LINE
8
Layer 1
10
68.782861
20
199.169626
11
70.018745
21
198.780263
0
LINE
8
Layer 1
10
70.018745
20
198.780263
11
70.745111
21
198.704745
0
LINE
8
Layer 1
10
70.745111
20
198.704745
11
71.070231
21
198.963091
0
LINE
8
Layer 1
10
71.070231
20
198.963091
11
71.102375
21
199.575321
0
LINE
8
Layer 1
10
71.102375
20
199.575321
11
70.748229
21
201.503502
0
LINE
8
Layer 1
10
70.748229
20
201.503502
11
70.107054
21
203.927807
0
LINE
8
Layer 1
10
70.107054
20
203.927807
11
69.383660
21
206.151424
0
LINE
8
Layer 1
10
69.383660
20
206.151424
11
68.782861
21
207.477543
0
LINE
8
Layer 1
10
68.782861
20
207.477543
11
68.398251
21
208.975632
0
LINE
8
Layer 1
10
68.398251
20
208.975632
11
68.336835
21
209.799389
0
LINE
8
Layer 1
10
68.336835
20
209.799389
11
68.430084
21
210.158654
0
LINE
8
Layer 1
10
68.430084
20
210.158654
11
69.268571
21
209.179137
0
LINE
8
Layer 1
10
69.268571
20
209.179137
11
69.942201
21
208.092461
0
LINE
8
Layer 1
10
69.942201
20
208.092461
11
70.954147
21
205.706434
0
LINE
8
Layer 1
10
70.954147
20
205.706434
11
71.784443
21
203.218184
0
LINE
8
Layer 1
10
71.784443
20
203.218184
11
72.751611
21
200.845321
0
LINE
8
Layer 1
10
72.751611
20
200.845321
11
72.945079
21
201.057678
0
LINE
8
Layer 1
10
72.945079
20
201.057678
11
73.144933
21
201.638133
0
LINE
8
Layer 1
10
73.144933
20
201.638133
11
73.514811
21
203.563618
0
LINE
8
Layer 1
10
73.514811
20
203.563618
11
73.763263
21
205.942350
0
LINE
8
Layer 1
10
73.763263
20
205.942350
11
73.792306
21
208.094904
0
LINE
8
Layer 1
10
73.792306
20
208.094904
11
73.434867
21
210.871651
0
LINE
8
Layer 1
10
73.434867
20
210.871651
11
72.712899
21
213.343648
0
LINE
8
Layer 1
10
72.712899
20
213.343648
11
71.597978
21
215.585752
0
LINE
8
Layer 1
10
71.597978
20
215.585752
11
70.061681
21
217.672821
0
LINE
8
Layer 1
10
70.061681
20
217.672821
11
68.585031
21
219.006666
0
LINE
8
Layer 1
10
68.585031
20
219.006666
11
67.029505
21
220.181316
0
LINE
8
Layer 1
10
67.029505
20
220.181316
11
65.396815
21
221.196693
0
LINE
8
Layer 1
10
65.396815
20
221.196693
11
63.688670
21
222.052717
0
LINE
8
Layer 1
10
63.688670
20
222.052717
11
61.906783
21
222.749309
0
LINE
8
Layer 1
10
61.906783
20
222.749309
11
60.052864
21
223.286391
0
LINE
8
Layer 1
10
60.052864
20
223.286391
11
58.128625
21
223.663884
0
LINE
8
Layer 1
10
58.128625
20
223.663884
11
56.135778
21
223.881709
0
LINE
8
Layer 1
10
56.135778
20
223.881709
11
54.301334
21
224.066918
0
LINE
8
Layer 1
10
54.301334
20
224.066918
11
54.301334
21
224.066918
0
LINE
8
Layer 1
10
148.448903
20
222.858654
11
147.708070
21
222.011987
0
LINE
8
Layer 1
10
147.708070
20
222.011987
11
147.050636
21
221.153872
0
LINE
8
Layer 1
10
147.050636
20
221.153872
11
146.086899
21
220.363554
0
LINE
8
Layer 1
10
146.086899
20
220.363554
11
144.703435
21
219.564016
0
LINE
8
Layer 1
10
144.703435
20
219.564016
11
142.786820
21
218.678237
0
LINE
8
Layer 1
10
142.786820
20
218.678237
11
140.387785
21
217.459543
0
LINE
8
Layer 1
10
140.387785
20
217.459543
11
138.115167
21
215.993262
0
LINE
8
Layer 1
10
138.115167
20
215.993262
11
136.147698
21
214.184955
0
LINE
8
Layer 1
10
136.147698
20
214.184955
11
135.334248
21
213.123029
0
LINE
8
Layer 1
10
135.334248
20
213.123029
11
134.664111
21
211.940182
0
LINE
8
Layer 1
10
134.664111
20
211.940182
11
134.169862
21
210.407684
0
LINE
8
Layer 1
10
134.169862
20
210.407684
11
133.916322
21
208.776023
0
LINE
8
Layer 1
10
133.916322
20
208.776023
11
133.859886
21
207.078735
0
LINE
8
Layer 1
10
133.859886
20
207.078735
11
133.956948
21
205.349353
0
LINE
8
Layer 1
10
133.956948
20
205.349353
11
134.437145
21
201.928445
0
LINE
8
Layer 1
10
134.437145
20
201.928445
11
135.008070
21
198.781571
0
LINE
8
Layer 1
10
135.008070
20
198.781571
11
135.105648
21
198.509868
0
LINE
8
Layer 1
10
135.105648
20
198.509868
11
135.250567
21
198.422389
0
LINE
8
Layer 1
10
135.250567
20
198.422389
11
135.995847
21
198.808029
0
LINE
8
Layer 1
10
135.995847
20
198.808029
11
138.295913
21
200.750700
0
LINE
8
Layer 1
10
138.295913
20
200.750700
11
140.890639
21
203.491154
0
LINE
8
Layer 1
10
140.890639
20
203.491154
11
142.378700
21
205.191214
0
LINE
8
Layer 1
10
142.378700
20
205.191214
11
142.965704
21
205.591791
0
LINE
8
Layer 1
10
142.965704
20
205.591791
11
143.026143
21
205.400087
0
LINE
8
Layer 1
10
143.026143
20
205.400087
11
142.857375
21
204.840529
0
LINE
8
Layer 1
10
142.857375
20
204.840529
11
139.930014
21
200.820636
0
LINE
8
Layer 1
10
139.930014
20
200.820636
11
138.441495
21
198.598701
0
LINE
8
Layer 1
10
138.441495
20
198.598701
11
138.247672
21
198.113916
0
LINE
8
Layer 1
10
138.247672
20
198.113916
11
138.632861
21
198.305321
0
LINE
8
Layer 1
10
138.632861
20
198.305321
11
139.507859
21
198.686796
0
LINE
8
Layer 1
10
139.507859
20
198.686796
11
140.539257
21
198.941290
0
LINE
8
Layer 1
10
140.539257
20
198.941290
11
141.569957
21
199.254831
0
LINE
8
Layer 1
10
141.569957
20
199.254831
11
142.442861
21
199.813446
0
LINE
8
Layer 1
10
142.442861
20
199.813446
11
144.512116
21
200.938034
0
LINE
8
Layer 1
10
144.512116
20
200.938034
11
146.293227
21
202.227952
0
LINE
8
Layer 1
10
146.293227
20
202.227952
11
147.811620
21
203.704090
0
LINE
8
Layer 1
10
147.811620
20
203.704090
11
149.092722
21
205.387335
0
LINE
8
Layer 1
10
149.092722
20
205.387335
11
150.372128
21
207.826147
0
LINE
8
Layer 1
10
150.372128
20
207.826147
11
151.095598
21
210.413414
0
LINE
8
Layer 1
10
151.095598
20
210.413414
11
151.276241
21
213.232693
0
LINE
8
Layer 1
10
151.276241
20
213.232693
11
150.927167
21
216.367543
0
LINE
8
Layer 1
10
150.927167
20
216.367543
11
150.412956
21
218.461204
0
LINE
8
Layer 1
10
150.412956
20
218.461204
11
149.701692
21
220.572587
0
LINE
8
Layer 1
10
149.701692
20
220.572587
11
148.983599
21
222.204226
0
LINE
8
Layer 1
10
148.983599
20
222.204226
11
148.448903
21
222.858654
0
LINE
8
Layer 1
10
148.448903
20
222.858654
11
148.448903
21
222.858654
0
LINE
8
Layer 1
10
102.279111
20
218.263723
11
100.971451
21
218.157199
0
LINE
8
Layer 1
10
100.971451
20
218.157199
11
99.711335
21
217.896770
0
LINE
8
Layer 1
10
99.711335
20
217.896770
11
97.190292
21
216.905529
0
LINE
8
Layer 1
10
97.190292
20
216.905529
11
95.826882
21
216.157140
0
LINE
8
Layer 1
10
95.826882
20
216.157140
11
94.822088
21
215.420167
0
LINE
8
Layer 1
10
94.822088
20
215.420167
11
93.984955
21
214.524087
0
LINE
8
Layer 1
10
93.984955
20
214.524087
11
93.124528
21
213.298376
0
LINE
8
Layer 1
10
93.124528
20
213.298376
11
92.315568
21
211.726430
0
LINE
8
Layer 1
10
92.315568
20
211.726430
11
92.110292
21
209.946987
0
LINE
8
Layer 1
10
92.110292
20
209.946987
11
92.177401
21
208.560585
0
LINE
8
Layer 1
10
92.177401
20
208.560585
11
92.483877
21
207.804666
0
LINE
8
Layer 1
10
92.483877
20
207.804666
11
92.739774
21
207.649266
0
LINE
8
Layer 1
10
92.739774
20
207.649266
11
93.070991
21
207.634839
0
LINE
8
Layer 1
10
93.070991
20
207.634839
11
93.980014
21
208.006710
0
LINE
8
Layer 1
10
93.980014
20
208.006710
11
96.894478
21
209.355144
0
LINE
8
Layer 1
10
96.894478
20
209.355144
11
100.092348
21
210.241757
0
LINE
8
Layer 1
10
100.092348
20
210.241757
11
103.362750
21
210.626002
0
LINE
8
Layer 1
10
103.362750
20
210.626002
11
106.494806
21
210.467335
0
LINE
8
Layer 1
10
106.494806
20
210.467335
11
108.817665
21
209.996085
0
LINE
8
Layer 1
10
108.817665
20
209.996085
11
111.381812
21
209.264878
0
LINE
8
Layer 1
10
111.381812
20
209.264878
11
113.927802
21
208.356584
0
LINE
8
Layer 1
10
113.927802
20
208.356584
11
116.196195
21
207.354071
0
LINE
8
Layer 1
10
116.196195
20
207.354071
11
118.356959
21
206.251640
0
LINE
8
Layer 1
10
118.356959
20
206.251640
11
118.030639
21
207.618654
0
LINE
8
Layer 1
10
118.030639
20
207.618654
11
117.189205
21
209.736868
0
LINE
8
Layer 1
10
117.189205
20
209.736868
11
115.834368
21
211.840813
0
LINE
8
Layer 1
10
115.834368
20
211.840813
11
114.076156
21
213.787185
0
LINE
8
Layer 1
10
114.076156
20
213.787185
11
112.024597
21
215.432682
0
LINE
8
Layer 1
10
112.024597
20
215.432682
11
109.618570
21
216.861121
0
LINE
8
Layer 1
10
109.618570
20
216.861121
11
107.050431
21
217.646362
0
LINE
8
Layer 1
10
107.050431
20
217.646362
11
104.494805
21
218.132265
0
LINE
8
Layer 1
10
104.494805
20
218.132265
11
102.279111
21
218.263723
0
LINE
8
Layer 1
10
102.279111
20
218.263723
11
102.279111
21
218.263723
0
LINE
8
Layer 1
10
106.327236
20
208.174279
11
105.116336
21
208.126099
0
LINE
8
Layer 1
10
105.116336
20
208.126099
11
104.528070
21
207.989071
0
LINE
8
Layer 1
10
104.528070
20
207.989071
11
105.156530
21
207.593144
0
LINE
8
Layer 1
10
105.156530
20
207.593144
11
106.944597
21
206.913098
0
LINE
8
Layer 1
10
106.944597
20
206.913098
11
109.021988
21
206.172564
0
LINE
8
Layer 1
10
109.021988
20
206.172564
11
110.387186
21
205.560142
0
LINE
8
Layer 1
10
110.387186
20
205.560142
11
111.285655
21
204.942896
0
LINE
8
Layer 1
10
111.285655
20
204.942896
11
111.962861
21
204.187890
0
LINE
8
Layer 1
10
111.962861
20
204.187890
11
112.494516
21
203.041732
0
LINE
8
Layer 1
10
112.494516
20
203.041732
11
112.683121
21
201.613672
0
LINE
8
Layer 1
10
112.683121
20
201.613672
11
112.527030
21
200.096887
0
LINE
8
Layer 1
10
112.527030
20
200.096887
11
112.024597
21
198.684557
0
LINE
8
Layer 1
10
112.024597
20
198.684557
11
111.333813
21
197.689573
0
LINE
8
Layer 1
10
111.333813
20
197.689573
11
110.365892
21
196.644045
0
LINE
8
Layer 1
10
110.365892
20
196.644045
11
109.400500
21
195.818408
0
LINE
8
Layer 1
10
109.400500
20
195.818408
11
108.717306
21
195.483099
0
LINE
8
Layer 1
10
108.717306
20
195.483099
11
107.288556
21
194.953932
0
LINE
8
Layer 1
10
107.288556
20
194.953932
11
106.234499
21
194.585392
0
LINE
8
Layer 1
10
106.234499
20
194.585392
11
104.830765
21
194.315318
0
LINE
8
Layer 1
10
104.830765
20
194.315318
11
101.035570
21
194.080807
0
LINE
8
Layer 1
10
101.035570
20
194.080807
11
99.663420
21
193.989987
0
LINE
8
Layer 1
10
99.663420
20
193.989987
11
99.433256
21
193.864329
0
LINE
8
Layer 1
10
99.433256
20
193.864329
11
99.430431
21
193.666293
0
LINE
8
Layer 1
10
99.430431
20
193.666293
11
99.843556
21
193.300167
0
LINE
8
Layer 1
10
99.843556
20
193.300167
11
100.621056
21
192.978377
0
LINE
8
Layer 1
10
100.621056
20
192.978377
11
101.884373
21
192.827509
0
LINE
8
Layer 1
10
101.884373
20
192.827509
11
103.768401
21
192.828907
0
LINE
8
Layer 1
10
103.768401
20
192.828907
11
105.873513
21
192.968980
0
LINE
8
Layer 1
10
105.873513
20
192.968980
11
107.800084
21
193.234141
0
LINE
8
Layer 1
10
107.800084
20
193.234141
11
109.457084
21
193.767969
0
LINE
8
Layer 1
10
109.457084
20
193.767969
11
111.548347
21
194.689349
0
LINE
8
Layer 1
10
111.548347
20
194.689349
11
114.086907
21
196.211345
0
LINE
8
Layer 1
10
114.086907
20
196.211345
11
115.077364
21
197.028817
0
LINE
8
Layer 1
10
115.077364
20
197.028817
11
115.884434
21
197.886953
0
LINE
8
Layer 1
10
115.884434
20
197.886953
11
116.509989
21
198.788015
0
LINE
8
Layer 1
10
116.509989
20
198.788015
11
116.955898
21
199.734263
0
LINE
8
Layer 1
10
116.955898
20
199.734263
11
117.224033
21
200.727959
0
LINE
8
Layer 1
10
117.224033
20
200.727959
11
117.316264
21
201.771362
0
LINE
8
Layer 1
10
117.316264
20
201.771362
11
117.222108
21
202.873402
0
LINE
8
Layer 1
10
117.222108
20
202.873402
11
116.931455
21
203.882818
0
LINE
8
Layer 1
10
116.931455
20
203.882818
11
116.447808
21
204.796054
0
LINE
8
Layer 1
10
116.447808
20
204.796054
11
115.774672
21
205.609553
0
LINE
8
Layer 1
10
115.774672
20
205.609553
11
114.915551
21
206.319758
0
LINE
8
Layer 1
10
114.915551
20
206.319758
11
113.873947
21
206.923112
0
LINE
8
Layer 1
10
113.873947
20
206.923112
11
112.653364
21
207.416059
0
LINE
8
Layer 1
10
112.653364
20
207.416059
11
111.257306
21
207.795043
0
LINE
8
Layer 1
10
111.257306
20
207.795043
11
108.967450
21
208.078427
0
LINE
8
Layer 1
10
108.967450
20
208.078427
11
106.327236
21
208.174279
0
LINE
8
Layer 1
10
106.327236
20
208.174279
11
106.327236
21
208.174279
0
LINE
8
Layer 1
10
101.705847
20
206.913098
11
98.312479
21
206.518167
0
LINE
8
Layer 1
10
98.312479
20
206.518167
11
96.508622
21
206.110506
0
LINE
8
Layer 1
10
96.508622
20
206.110506
11
95.108903
21
205.643098
0
LINE
8
Layer 1
10
95.108903
20
205.643098
11
94.006281
21
205.075457
0
LINE
8
Layer 1
10
94.006281
20
205.075457
11
93.144182
21
204.445834
0
LINE
8
Layer 1
10
93.144182
20
204.445834
11
92.494947
21
203.729132
0
LINE
8
Layer 1
10
92.494947
20
203.729132
11
92.030917
21
202.900251
0
LINE
8
Layer 1
10
92.030917
20
202.900251
11
91.709180
21
201.869444
0
LINE
8
Layer 1
10
91.709180
20
201.869444
11
91.644964
21
200.901676
0
LINE
8
Layer 1
10
91.644964
20
200.901676
11
91.834216
21
200.002599
0
LINE
8
Layer 1
10
91.834216
20
200.002599
11
92.272883
21
199.177868
0
LINE
8
Layer 1
10
92.272883
20
199.177868
11
92.956912
21
198.433135
0
LINE
8
Layer 1
10
92.956912
20
198.433135
11
93.882249
21
197.774053
0
LINE
8
Layer 1
10
93.882249
20
197.774053
11
95.044843
21
197.206277
0
LINE
8
Layer 1
10
95.044843
20
197.206277
11
96.440639
21
196.735460
0
LINE
8
Layer 1
10
96.440639
20
196.735460
11
98.096709
21
196.472682
0
LINE
8
Layer 1
10
98.096709
20
196.472682
11
100.301433
21
196.366371
0
LINE
8
Layer 1
10
100.301433
20
196.366371
11
102.564545
21
196.422556
0
LINE
8
Layer 1
10
102.564545
20
196.422556
11
104.395778
21
196.647266
0
LINE
8
Layer 1
10
104.395778
20
196.647266
11
105.805157
21
197.136947
0
LINE
8
Layer 1
10
105.805157
20
197.136947
11
106.988695
21
198.058377
0
LINE
8
Layer 1
10
106.988695
20
198.058377
11
107.610156
21
198.713295
0
LINE
8
Layer 1
10
107.610156
20
198.713295
11
107.922250
21
199.236787
0
LINE
8
Layer 1
10
107.922250
20
199.236787
11
108.010101
21
199.878834
0
LINE
8
Layer 1
10
108.010101
20
199.878834
11
107.958834
21
200.889418
0
LINE
8
Layer 1
10
107.958834
20
200.889418
11
107.712083
21
202.426272
0
LINE
8
Layer 1
10
107.712083
20
202.426272
11
107.457854
21
202.883543
0
LINE
8
Layer 1
10
107.457854
20
202.883543
11
107.059250
21
203.288307
0
LINE
8
Layer 1
10
107.059250
20
203.288307
11
106.127432
21
203.794113
0
LINE
8
Layer 1
10
106.127432
20
203.794113
11
104.997284
21
203.967076
0
LINE
8
Layer 1
10
104.997284
20
203.967076
11
103.822147
21
203.807269
0
LINE
8
Layer 1
10
103.822147
20
203.807269
11
102.755361
21
203.314765
0
LINE
8
Layer 1
10
102.755361
20
203.314765
11
101.845678
21
202.486117
0
LINE
8
Layer 1
10
101.845678
20
202.486117
11
101.353906
21
201.500840
0
LINE
8
Layer 1
10
101.353906
20
201.500840
11
101.265205
21
200.300251
0
LINE
8
Layer 1
10
101.265205
20
200.300251
11
101.564736
21
198.825668
0
LINE
8
Layer 1
10
101.564736
20
198.825668
11
101.740880
21
197.998905
0
LINE
8
Layer 1
10
101.740880
20
197.998905
11
101.705847
21
197.546849
0
LINE
8
Layer 1
10
101.705847
20
197.546849
11
101.164559
21
197.484188
0
LINE
8
Layer 1
10
101.164559
20
197.484188
11
100.264694
21
197.767886
0
LINE
8
Layer 1
10
100.264694
20
197.767886
11
99.271811
21
198.285024
0
LINE
8
Layer 1
10
99.271811
20
198.285024
11
98.451472
21
198.922682
0
LINE
8
Layer 1
10
98.451472
20
198.922682
11
97.738699
21
199.898062
0
LINE
8
Layer 1
10
97.738699
20
199.898062
11
97.569528
21
201.118723
0
LINE
8
Layer 1
10
97.569528
20
201.118723
11
97.780142
21
202.483869
0
LINE
8
Layer 1
10
97.780142
20
202.483869
11
98.416328
21
203.617219
0
LINE
8
Layer 1
10
98.416328
20
203.617219
11
99.484599
21
204.526582
0
LINE
8
Layer 1
10
99.484599
20
204.526582
11
100.991472
21
205.219765
0
LINE
8
Layer 1
10
100.991472
20
205.219765
11
102.055020
21
205.685086
0
LINE
8
Layer 1
10
102.055020
20
205.685086
11
102.773000
21
206.181085
0
LINE
8
Layer 1
10
102.773000
20
206.181085
11
103.041830
21
206.649291
0
LINE
8
Layer 1
10
103.041830
20
206.649291
11
102.314389
21
206.869001
0
LINE
8
Layer 1
10
102.314389
20
206.869001
11
101.705847
21
206.913098
0
LINE
8
Layer 1
10
101.705847
20
206.913098
11
101.705847
21
206.913098
0
LINE
8
Layer 1
10
90.302306
20
206.489765
11
88.256195
21
206.189904
0
LINE
8
Layer 1
10
88.256195
20
206.189904
11
85.433972
21
205.369696
0
LINE
8
Layer 1
10
85.433972
20
205.369696
11
81.561388
21
204.152873
0
LINE
8
Layer 1
10
81.561388
20
204.152873
11
78.876425
21
203.014462
0
LINE
8
Layer 1
10
78.876425
20
203.014462
11
77.205844
21
201.863042
0
LINE
8
Layer 1
10
77.205844
20
201.863042
11
76.696808
21
201.253886
0
LINE
8
Layer 1
10
76.696808
20
201.253886
11
76.376403
21
200.607196
0
LINE
8
Layer 1
10
76.376403
20
200.607196
11
76.260012
21
199.723475
0
LINE
8
Layer 1
10
76.260012
20
199.723475
11
76.352998
21
198.605058
0
LINE
8
Layer 1
10
76.352998
20
198.605058
11
76.612026
21
197.524185
0
LINE
8
Layer 1
10
76.612026
20
197.524185
11
76.993764
21
196.753099
0
LINE
8
Layer 1
10
76.993764
20
196.753099
11
78.171935
21
195.451094
0
LINE
8
Layer 1
10
78.171935
20
195.451094
11
79.452757
21
194.311280
0
LINE
8
Layer 1
10
79.452757
20
194.311280
11
80.843694
21
193.329894
0
LINE
8
Layer 1
10
80.843694
20
193.329894
11
82.352213
21
192.503172
0
LINE
8
Layer 1
10
82.352213
20
192.503172
11
83.985778
21
191.827353
0
LINE
8
Layer 1
10
83.985778
20
191.827353
11
85.751855
21
191.298673
0
LINE
8
Layer 1
10
85.751855
20
191.298673
11
87.657908
21
190.913371
0
LINE
8
Layer 1
10
87.657908
20
190.913371
11
89.711403
21
190.667682
0
LINE
8
Layer 1
10
89.711403
20
190.667682
11
93.961338
21
190.100755
0
LINE
8
Layer 1
10
93.961338
20
190.100755
11
97.787708
21
189.167445
0
LINE
8
Layer 1
10
97.787708
20
189.167445
11
101.026533
21
187.919306
0
LINE
8
Layer 1
10
101.026533
20
187.919306
11
102.374372
21
187.193286
0
LINE
8
Layer 1
10
102.374372
20
187.193286
11
103.513834
21
186.407891
0
LINE
8
Layer 1
10
103.513834
20
186.407891
11
104.907306
21
185.058516
0
LINE
8
Layer 1
10
104.907306
20
185.058516
11
104.264810
21
184.343223
0
LINE
8
Layer 1
10
104.264810
20
184.343223
11
102.720084
21
182.977127
0
LINE
8
Layer 1
10
102.720084
20
182.977127
11
99.802542
21
180.302112
0
LINE
8
Layer 1
10
99.802542
20
180.302112
11
97.380362
21
177.581900
0
LINE
8
Layer 1
10
97.380362
20
177.581900
11
95.491532
21
174.864962
0
LINE
8
Layer 1
10
95.491532
20
174.864962
11
94.174042
21
172.199766
0
LINE
8
Layer 1
10
94.174042
20
172.199766
11
93.829903
21
171.184617
0
LINE
8
Layer 1
10
93.829903
20
171.184617
11
93.630150
21
170.138111
0
LINE
8
Layer 1
10
93.630150
20
170.138111
11
93.512584
21
166.696432
0
LINE
8
Layer 1
10
93.512584
20
166.696432
11
93.625211
21
163.219843
0
LINE
8
Layer 1
10
93.625211
20
163.219843
11
94.156403
21
160.910877
0
LINE
8
Layer 1
10
94.156403
20
160.910877
11
96.062626
21
156.653105
0
LINE
8
Layer 1
10
96.062626
20
156.653105
11
98.336820
21
152.611780
0
LINE
8
Layer 1
10
98.336820
20
152.611780
11
98.664334
21
152.059094
0
LINE
8
Layer 1
10
98.664334
20
152.059094
11
98.160431
21
152.153168
0
LINE
8
Layer 1
10
98.160431
20
152.153168
11
97.068865
21
152.734147
0
LINE
8
Layer 1
10
97.068865
20
152.734147
11
94.897236
21
154.578516
0
LINE
8
Layer 1
10
94.897236
20
154.578516
11
91.942607
21
156.881578
0
LINE
8
Layer 1
10
91.942607
20
156.881578
11
90.541348
21
157.719745
0
LINE
8
Layer 1
10
90.541348
20
157.719745
11
89.155778
21
158.370877
0
LINE
8
Layer 1
10
89.155778
20
158.370877
11
87.876060
21
159.027045
0
LINE
8
Layer 1
10
87.876060
20
159.027045
11
87.047931
21
159.693793
0
LINE
8
Layer 1
10
87.047931
20
159.693793
11
86.586978
21
160.694489
0
LINE
8
Layer 1
10
86.586978
20
160.694489
11
86.156978
21
162.253531
0
LINE
8
Layer 1
10
86.156978
20
162.253531
11
85.841726
21
164.001142
0
LINE
8
Layer 1
10
85.841726
20
164.001142
11
85.725014
21
165.567543
0
LINE
8
Layer 1
10
85.725014
20
165.567543
11
85.888902
21
167.746875
0
LINE
8
Layer 1
10
85.888902
20
167.746875
11
86.325763
21
169.982193
0
LINE
8
Layer 1
10
86.325763
20
169.982193
11
87.002440
21
172.146696
0
LINE
8
Layer 1
10
87.002440
20
172.146696
11
87.885778
21
174.113585
0
LINE
8
Layer 1
10
87.885778
20
174.113585
11
88.510743
21
175.588892
0
LINE
8
Layer 1
10
88.510743
20
175.588892
11
89.111681
21
177.676641
0
LINE
8
Layer 1
10
89.111681
20
177.676641
11
89.209469
21
178.848232
0
LINE
8
Layer 1
10
89.209469
20
178.848232
11
89.038012
21
180.279765
0
LINE
8
Layer 1
10
89.038012
20
180.279765
11
88.632191
21
181.792183
0
LINE
8
Layer 1
10
88.632191
20
181.792183
11
88.026889
21
183.206432
0
LINE
8
Layer 1
10
88.026889
20
183.206432
11
87.100847
21
184.758655
0
LINE
8
Layer 1
10
87.100847
20
184.758655
11
86.448209
21
185.746432
0
LINE
8
Layer 1
10
86.448209
20
185.746432
11
83.898325
21
189.366339
0
LINE
8
Layer 1
10
83.898325
20
189.366339
11
82.506408
21
191.085877
0
LINE
8
Layer 1
10
82.506408
20
191.085877
11
81.756264
21
191.814210
0
LINE
8
Layer 1
10
81.756264
20
191.814210
11
81.804679
21
191.326923
0
LINE
8
Layer 1
10
81.804679
20
191.326923
11
82.214875
21
190.156155
0
LINE
8
Layer 1
10
82.214875
20
190.156155
11
82.971143
21
188.055583
0
LINE
8
Layer 1
10
82.971143
20
188.055583
11
83.463314
21
186.068328
0
LINE
8
Layer 1
10
83.463314
20
186.068328
11
83.732551
21
183.966427
0
LINE
8
Layer 1
10
83.732551
20
183.966427
11
83.820014
21
181.521918
0
LINE
8
Layer 1
10
83.820014
20
181.521918
11
83.797598
21
179.374564
0
LINE
8
Layer 1
10
83.797598
20
179.374564
11
83.580055
21
177.926566
0
LINE
8
Layer 1
10
83.580055
20
177.926566
11
82.973168
21
176.503537
0
LINE
8
Layer 1
10
82.973168
20
176.503537
11
81.782722
21
174.431085
0
LINE
8
Layer 1
10
81.782722
20
174.431085
11
80.256959
21
170.850391
0
LINE
8
Layer 1
10
80.256959
20
170.850391
11
78.541164
21
171.439699
0
LINE
8
Layer 1
10
78.541164
20
171.439699
11
76.957852
21
172.188056
0
LINE
8
Layer 1
10
76.957852
20
172.188056
11
75.504944
21
173.085584
0
LINE
8
Layer 1
10
75.504944
20
173.085584
11
74.180361
21
174.122405
0
LINE
8
Layer 1
10
74.180361
20
174.122405
11
72.996346
21
175.273274
0
LINE
8
Layer 1
10
72.996346
20
175.273274
11
71.934053
21
176.540144
0
LINE
8
Layer 1
10
71.934053
20
176.540144
11
70.991682
21
177.912901
0
LINE
8
Layer 1
10
70.991682
20
177.912901
11
70.167429
21
179.381432
0
LINE
8
Layer 1
10
70.167429
20
179.381432
11
68.866073
21
182.565359
0
LINE
8
Layer 1
10
68.866073
20
182.565359
11
68.015570
21
186.011016
0
LINE
8
Layer 1
10
68.015570
20
186.011016
11
67.829048
21
187.055586
0
LINE
8
Layer 1
10
67.829048
20
187.055586
11
67.727076
21
187.037090
0
LINE
8
Layer 1
10
67.727076
20
187.037090
11
67.583417
21
186.716571
0
LINE
8
Layer 1
10
67.583417
20
186.716571
11
67.150248
21
185.168565
0
LINE
8
Layer 1
10
67.150248
20
185.168565
11
66.849430
21
183.173414
0
LINE
8
Layer 1
10
66.849430
20
183.173414
11
66.684095
21
180.767029
0
LINE
8
Layer 1
10
66.684095
20
180.767029
11
66.657375
21
177.985321
0
LINE
8
Layer 1
10
66.657375
20
177.985321
11
66.812058
21
175.337778
0
LINE
8
Layer 1
10
66.812058
20
175.337778
11
67.014590
21
174.512984
0
LINE
8
Layer 1
10
67.014590
20
174.512984
11
67.345292
21
173.751988
0
LINE
8
Layer 1
10
67.345292
20
173.751988
11
68.286873
21
172.424961
0
LINE
8
Layer 1
10
68.286873
20
172.424961
11
69.726821
21
170.839877
0
LINE
8
Layer 1
10
69.726821
20
170.839877
11
71.157810
21
169.511404
0
LINE
8
Layer 1
10
71.157810
20
169.511404
11
72.072514
21
168.954210
0
LINE
8
Layer 1
10
72.072514
20
168.954210
11
74.209057
21
167.300389
0
LINE
8
Layer 1
10
74.209057
20
167.300389
11
76.250643
21
165.278778
0
LINE
8
Layer 1
10
76.250643
20
165.278778
11
77.920751
21
162.960578
0
LINE
8
Layer 1
10
77.920751
20
162.960578
11
78.530088
21
161.712506
0
LINE
8
Layer 1
10
78.530088
20
161.712506
11
78.942861
21
160.416988
0
LINE
8
Layer 1
10
78.942861
20
160.416988
11
78.913793
21
159.990080
0
LINE
8
Layer 1
10
78.913793
20
159.990080
11
78.770537
21
159.757251
0
LINE
8
Layer 1
10
78.770537
20
159.757251
11
77.805153
21
159.640877
0
LINE
8
Layer 1
10
77.805153
20
159.640877
11
76.673718
21
159.806681
0
LINE
8
Layer 1
10
76.673718
20
159.806681
11
75.556195
21
160.205321
0
LINE
8
Layer 1
10
75.556195
20
160.205321
11
74.295014
21
160.769766
0
LINE
8
Layer 1
10
74.295014
20
160.769766
11
74.261273
21
160.560152
0
LINE
8
Layer 1
10
74.261273
20
160.560152
11
74.488034
21
159.999355
0
LINE
8
Layer 1
10
74.488034
20
159.999355
11
75.473953
21
158.232473
0
LINE
8
Layer 1
10
75.473953
20
158.232473
11
76.754552
21
156.285643
0
LINE
8
Layer 1
10
76.754552
20
156.285643
11
77.831611
21
154.975391
0
LINE
8
Layer 1
10
77.831611
20
154.975391
11
78.607036
21
154.170051
0
LINE
8
Layer 1
10
78.607036
20
154.170051
11
79.080792
21
153.389283
0
LINE
8
Layer 1
10
79.080792
20
153.389283
11
79.265096
21
152.603409
0
LINE
8
Layer 1
10
79.265096
20
152.603409
11
79.172167
21
151.782752
0
LINE
8
Layer 1
10
79.172167
20
151.782752
11
78.460180
21
150.184494
0
LINE
8
Layer 1
10
78.460180
20
150.184494
11
77.528856
21
148.598352
0
LINE
8
Layer 1
10
77.528856
20
148.598352
11
76.451253
21
147.224168
0
LINE
8
Layer 1
10
76.451253
20
147.224168
11
75.300431
21
146.261780
0
LINE
8
Layer 1
10
75.300431
20
146.261780
11
74.987496
21
147.223545
0
LINE
8
Layer 1
10
74.987496
20
147.223545
11
74.718347
21
149.092821
0
LINE
8
Layer 1
10
74.718347
20
149.092821
11
74.153903
21
152.849905
0
LINE
8
Layer 1
10
74.153903
20
152.849905
11
73.268778
21
155.036648
0
LINE
8
Layer 1
10
73.268778
20
155.036648
11
71.828565
21
157.141408
0
LINE
8
Layer 1
10
71.828565
20
157.141408
11
69.866508
21
159.126683
0
LINE
8
Layer 1
10
69.866508
20
159.126683
11
67.415847
21
160.954974
0
LINE
8
Layer 1
10
67.415847
20
160.954974
11
66.276578
21
161.998803
0
LINE
8
Layer 1
10
66.276578
20
161.998803
11
64.825848
21
163.521476
0
LINE
8
Layer 1
10
64.825848
20
163.521476
11
63.625013
21
164.739856
0
LINE
8
Layer 1
10
63.625013
20
164.739856
11
63.293730
21
164.990206
0
LINE
8
Layer 1
10
63.293730
20
164.990206
11
63.235431
21
164.870807
0
LINE
8
Layer 1
10
63.235431
20
164.870807
11
62.530235
21
161.652398
0
LINE
8
Layer 1
10
62.530235
20
161.652398
11
61.877322
21
158.615391
0
LINE
8
Layer 1
10
61.877322
20
158.615391
11
61.695368
21
157.088623
0
LINE
8
Layer 1
10
61.695368
20
157.088623
11
61.676362
21
155.515658
0
LINE
8
Layer 1
10
61.676362
20
155.515658
11
61.870262
21
153.865980
0
LINE
8
Layer 1
10
61.870262
20
153.865980
11
62.327028
21
152.109071
0
LINE
8
Layer 1
10
62.327028
20
152.109071
11
63.017009
21
150.236525
0
LINE
8
Layer 1
10
63.017009
20
150.236525
11
63.921102
21
148.321572
0
LINE
8
Layer 1
10
63.921102
20
148.321572
11
64.934356
21
146.565142
0
LINE
8
Layer 1
10
64.934356
20
146.565142
11
65.951820
21
145.168168
0
LINE
8
Layer 1
10
65.951820
20
145.168168
11
66.664211
21
144.237164
0
LINE
8
Layer 1
10
66.664211
20
144.237164
11
66.606869
21
144.129915
0
LINE
8
Layer 1
10
66.606869
20
144.129915
11
66.304597
21
144.180391
0
LINE
8
Layer 1
10
66.304597
20
144.180391
11
65.542517
21
144.238195
0
LINE
8
Layer 1
10
65.542517
20
144.238195
11
64.812893
21
144.435417
0
LINE
8
Layer 1
10
64.812893
20
144.435417
11
63.444227
21
145.143503
0
LINE
8
Layer 1
10
63.444227
20
145.143503
11
61.021750
21
147.081988
0
LINE
8
Layer 1
10
61.021750
20
147.081988
11
59.779393
21
148.370648
0
LINE
8
Layer 1
10
59.779393
20
148.370648
11
58.710097
21
149.734260
0
LINE
8
Layer 1
10
58.710097
20
149.734260
11
57.811577
21
151.178512
0
LINE
8
Layer 1
10
57.811577
20
151.178512
11
57.081547
21
152.709092
0
LINE
8
Layer 1
10
57.081547
20
152.709092
11
56.517723
21
154.331688
0
LINE
8
Layer 1
10
56.517723
20
154.331688
11
56.117821
21
156.051987
0
LINE
8
Layer 1
10
56.117821
20
156.051987
11
55.879554
21
157.875677
0
LINE
8
Layer 1
10
55.879554
20
157.875677
11
55.800639
21
159.808446
0
LINE
8
Layer 1
10
55.800639
20
159.808446
11
55.907189
21
162.107129
0
LINE
8
Layer 1
10
55.907189
20
162.107129
11
56.221863
21
164.505603
0
LINE
8
Layer 1
10
56.221863
20
164.505603
11
56.737196
21
166.979943
0
LINE
8
Layer 1
10
56.737196
20
166.979943
11
57.445721
21
169.506221
0
LINE
8
Layer 1
10
57.445721
20
169.506221
11
58.339974
21
172.060512
0
LINE
8
Layer 1
10
58.339974
20
172.060512
11
59.412489
21
174.618889
0
LINE
8
Layer 1
10
59.412489
20
174.618889
11
60.655801
21
177.157426
0
LINE
8
Layer 1
10
60.655801
20
177.157426
11
62.062445
21
179.652196
0
LINE
8
Layer 1
10
62.062445
20
179.652196
11
64.170148
21
183.475873
0
LINE
8
Layer 1
10
64.170148
20
183.475873
11
65.045136
21
185.474975
0
LINE
8
Layer 1
10
65.045136
20
185.474975
11
65.701386
21
187.516520
0
LINE
8
Layer 1
10
65.701386
20
187.516520
11
66.064273
21
189.588709
0
LINE
8
Layer 1
10
66.064273
20
189.588709
11
66.059177
21
191.679744
0
LINE
8
Layer 1
10
66.059177
20
191.679744
11
65.611474
21
193.777826
0
LINE
8
Layer 1
10
65.611474
20
193.777826
11
64.646542
21
195.871155
0
LINE
8
Layer 1
10
64.646542
20
195.871155
11
63.334486
21
196.869142
0
LINE
8
Layer 1
10
63.334486
20
196.869142
11
61.830535
21
197.378404
0
LINE
8
Layer 1
10
61.830535
20
197.378404
11
60.192388
21
197.490024
0
LINE
8
Layer 1
10
60.192388
20
197.490024
11
58.477747
21
197.295087
0
LINE
8
Layer 1
10
58.477747
20
197.295087
11
56.744315
21
196.884676
0
LINE
8
Layer 1
10
56.744315
20
196.884676
11
55.049791
21
196.349874
0
LINE
8
Layer 1
10
55.049791
20
196.349874
11
52.008278
21
195.271432
0
LINE
8
Layer 1
10
52.008278
20
195.271432
11
51.361209
21
195.007489
0
LINE
8
Layer 1
10
51.361209
20
195.007489
11
51.128061
21
194.728162
0
LINE
8
Layer 1
10
51.128061
20
194.728162
11
51.308563
21
194.425019
0
LINE
8
Layer 1
10
51.308563
20
194.425019
11
51.902445
21
194.089627
0
LINE
8
Layer 1
10
51.902445
20
194.089627
11
53.014443
21
193.414820
0
LINE
8
Layer 1
10
53.014443
20
193.414820
11
54.054853
21
192.437753
0
LINE
8
Layer 1
10
54.054853
20
192.437753
11
54.993688
21
191.218545
0
LINE
8
Layer 1
10
54.993688
20
191.218545
11
55.800963
21
189.817311
0
LINE
8
Layer 1
10
55.800963
20
189.817311
11
56.446691
21
188.294172
0
LINE
8
Layer 1
10
56.446691
20
188.294172
11
56.900886
21
186.709242
0
LINE
8
Layer 1
10
56.900886
20
186.709242
11
57.133564
21
185.122642
0
LINE
8
Layer 1
10
57.133564
20
185.122642
11
57.114736
21
183.594488
0
LINE
8
Layer 1
10
57.114736
20
183.594488
11
56.636551
21
181.267501
0
LINE
8
Layer 1
10
56.636551
20
181.267501
11
55.042167
21
176.715321
0
LINE
8
Layer 1
10
55.042167
20
176.715321
11
53.870828
21
173.557384
0
LINE
8
Layer 1
10
53.870828
20
173.557384
11
53.137895
21
172.090323
0
LINE
8
Layer 1
10
53.137895
20
172.090323
11
52.804917
21
171.833729
0
LINE
8
Layer 1
10
52.804917
20
171.833729
11
52.424442
21
171.811283
0
LINE
8
Layer 1
10
52.424442
20
171.811283
11
51.311542
21
172.217405
0
LINE
8
Layer 1
10
51.311542
20
172.217405
11
49.726102
21
172.566461
0
LINE
8
Layer 1
10
49.726102
20
172.566461
11
47.670631
21
172.540813
0
LINE
8
Layer 1
10
47.670631
20
172.540813
11
45.171224
21
172.141795
0
LINE
8
Layer 1
10
45.171224
20
172.141795
11
42.253972
21
171.370738
0
LINE
8
Layer 1
10
42.253972
20
171.370738
11
38.797373
21
170.461817
0
LINE
8
Layer 1
10
38.797373
20
170.461817
11
35.621750
21
170.250668
0
LINE
8
Layer 1
10
35.621750
20
170.250668
11
32.787550
21
170.337688
0
LINE
8
Layer 1
10
32.787550
20
170.337688
11
32.119358
21
170.587871
0
LINE
8
Layer 1
10
32.119358
20
170.587871
11
31.458972
21
171.070877
0
LINE
8
Layer 1
10
31.458972
20
171.070877
11
30.685860
21
171.874819
0
LINE
8
Layer 1
10
30.685860
20
171.874819
11
30.110024
21
172.929643
0
LINE
8
Layer 1
10
30.110024
20
172.929643
11
29.697135
21
174.318470
0
LINE
8
Layer 1
10
29.697135
20
174.318470
11
29.412861
21
176.124418
0
LINE
8
Layer 1
10
29.412861
20
176.124418
11
29.078763
21
178.095680
0
LINE
8
Layer 1
10
29.078763
20
178.095680
11
28.860863
21
178.455275
0
LINE
8
Layer 1
10
28.860863
20
178.455275
11
28.557375
21
178.549766
0
LINE
8
Layer 1
10
28.557375
20
178.549766
11
27.831430
21
178.114340
0
LINE
8
Layer 1
10
27.831430
20
178.114340
11
26.658191
21
176.788907
0
LINE
8
Layer 1
10
26.658191
20
176.788907
11
22.877653
21
171.353099
0
LINE
8
Layer 1
10
22.877653
20
171.353099
11
21.426329
21
168.873473
0
LINE
8
Layer 1
10
21.426329
20
168.873473
11
20.673405
21
166.913108
0
LINE
8
Layer 1
10
20.673405
20
166.913108
11
20.548581
21
166.085865
0
LINE
8
Layer 1
10
20.548581
20
166.085865
11
20.586043
21
165.338295
0
LINE
8
Layer 1
10
20.586043
20
165.338295
11
20.781685
21
164.653685
0
LINE
8
Layer 1
10
20.781685
20
164.653685
11
21.131403
21
164.015321
0
LINE
8
Layer 1
10
21.131403
20
164.015321
11
21.950454
21
163.054539
0
LINE
8
Layer 1
10
21.950454
20
163.054539
11
22.965284
21
162.449920
0
LINE
8
Layer 1
10
22.965284
20
162.449920
11
24.414753
21
162.112065
0
LINE
8
Layer 1
10
24.414753
20
162.112065
11
26.537722
21
161.951571
0
LINE
8
Layer 1
10
26.537722
20
161.951571
11
29.383061
21
161.963504
0
LINE
8
Layer 1
10
29.383061
20
161.963504
11
31.476611
21
162.463099
0
LINE
8
Layer 1
10
31.476611
20
162.463099
11
34.610860
21
163.756242
0
LINE
8
Layer 1
10
34.610860
20
163.756242
11
37.456195
21
165.426432
0
LINE
8
Layer 1
10
37.456195
20
165.426432
11
40.664537
21
167.444487
0
LINE
8
Layer 1
10
40.664537
20
167.444487
11
43.729486
21
168.985175
0
LINE
8
Layer 1
10
43.729486
20
168.985175
11
46.674038
21
170.058384
0
LINE
8
Layer 1
10
46.674038
20
170.058384
11
49.521195
21
170.674002
0
LINE
8
Layer 1
10
49.521195
20
170.674002
11
51.384061
21
170.881530
0
LINE
8
Layer 1
10
51.384061
20
170.881530
11
52.346440
21
170.759681
0
LINE
8
Layer 1
10
52.346440
20
170.759681
11
52.558659
21
170.537314
0
LINE
8
Layer 1
10
52.558659
20
170.537314
11
52.628211
21
170.187093
0
LINE
8
Layer 1
10
52.628211
20
170.187093
11
52.449250
21
169.042405
0
LINE
8
Layer 1
10
52.449250
20
169.042405
11
51.748143
21
165.073913
0
LINE
8
Layer 1
10
51.748143
20
165.073913
11
51.426742
21
161.150445
0
LINE
8
Layer 1
10
51.426742
20
161.150445
11
51.495327
21
157.587852
0
LINE
8
Layer 1
10
51.495327
20
157.587852
11
51.964181
21
154.701988
0
LINE
8
Layer 1
10
51.964181
20
154.701988
11
52.723384
21
152.558379
0
LINE
8
Layer 1
10
52.723384
20
152.558379
11
53.778617
21
150.541992
0
LINE
8
Layer 1
10
53.778617
20
150.541992
11
55.115783
21
148.666140
0
LINE
8
Layer 1
10
55.115783
20
148.666140
11
56.720789
21
146.944136
0
LINE
8
Layer 1
10
56.720789
20
146.944136
11
58.579539
21
145.389295
0
LINE
8
Layer 1
10
58.579539
20
145.389295
11
60.677939
21
144.014929
0
LINE
8
Layer 1
10
60.677939
20
144.014929
11
63.001892
21
142.834352
0
LINE
8
Layer 1
10
63.001892
20
142.834352
11
65.537306
21
141.860877
0
LINE
8
Layer 1
10
65.537306
20
141.860877
11
68.256287
21
140.889390
0
LINE
8
Layer 1
10
68.256287
20
140.889390
11
68.321014
21
140.781278
0
LINE
8
Layer 1
10
68.321014
20
140.781278
11
68.193436
21
140.689053
0
LINE
8
Layer 1
10
68.193436
20
140.689053
11
67.468764
21
140.476224
0
LINE
8
Layer 1
10
67.468764
20
140.476224
11
66.050106
21
140.326368
0
LINE
8
Layer 1
10
66.050106
20
140.326368
11
63.799875
21
140.749627
0
LINE
8
Layer 1
10
63.799875
20
140.749627
11
61.087141
21
141.205884
0
LINE
8
Layer 1
10
61.087141
20
141.205884
11
57.635084
21
141.199418
0
LINE
8
Layer 1
10
57.635084
20
141.199418
11
53.163625
21
140.855460
0
LINE
8
Layer 1
10
53.163625
20
140.855460
11
52.680763
21
140.801607
0
LINE
8
Layer 1
10
52.680763
20
140.801607
11
52.208000
21
140.981275
0
LINE
8
Layer 1
10
52.208000
20
140.981275
11
50.623625
21
142.469418
0
LINE
8
Layer 1
10
50.623625
20
142.469418
11
49.135621
21
144.310022
0
LINE
8
Layer 1
10
49.135621
20
144.310022
11
47.830451
21
146.463403
0
LINE
8
Layer 1
10
47.830451
20
146.463403
11
46.815028
21
148.725434
0
LINE
8
Layer 1
10
46.815028
20
148.725434
11
46.196264
21
150.891988
0
LINE
8
Layer 1
10
46.196264
20
150.891988
11
45.483547
21
153.361149
0
LINE
8
Layer 1
10
45.483547
20
153.361149
11
44.359014
21
155.454597
0
LINE
8
Layer 1
10
44.359014
20
155.454597
11
42.856648
21
157.123233
0
LINE
8
Layer 1
10
42.856648
20
157.123233
11
41.010431
21
158.317960
0
LINE
8
Layer 1
10
41.010431
20
158.317960
11
38.476504
21
159.263829
0
LINE
8
Layer 1
10
38.476504
20
159.263829
11
35.077540
21
160.280154
0
LINE
8
Layer 1
10
35.077540
20
160.280154
11
31.970526
21
161.049600
0
LINE
8
Layer 1
10
31.970526
20
161.049600
11
30.312445
21
161.254835
0
LINE
8
Layer 1
10
30.312445
20
161.254835
11
30.621388
21
160.894492
0
LINE
8
Layer 1
10
30.621388
20
160.894492
11
31.811750
21
160.178863
0
LINE
8
Layer 1
10
31.811750
20
160.178863
11
33.904034
21
158.705237
0
LINE
8
Layer 1
10
33.904034
20
158.705237
11
36.377509
21
156.482082
0
LINE
8
Layer 1
10
36.377509
20
156.482082
11
38.634059
21
154.092074
0
LINE
8
Layer 1
10
38.634059
20
154.092074
11
40.075570
21
152.117891
0
LINE
8
Layer 1
10
40.075570
20
152.117891
11
40.720730
21
150.479969
0
LINE
8
Layer 1
10
40.720730
20
150.479969
11
41.125084
21
148.510738
0
LINE
8
Layer 1
10
41.125084
20
148.510738
11
41.617966
21
146.299051
0
LINE
8
Layer 1
10
41.617966
20
146.299051
11
42.508131
21
144.042814
0
LINE
8
Layer 1
10
42.508131
20
144.042814
11
43.727623
21
141.884029
0
LINE
8
Layer 1
10
43.727623
20
141.884029
11
45.208486
21
139.964696
0
LINE
8
Layer 1
10
45.208486
20
139.964696
11
46.481487
21
138.402307
0
LINE
8
Layer 1
10
46.481487
20
138.402307
11
46.577529
21
137.996754
0
LINE
8
Layer 1
10
46.577529
20
137.996754
11
46.425570
21
137.627543
0
LINE
8
Layer 1
10
46.425570
20
137.627543
11
45.647973
21
136.849770
0
LINE
8
Layer 1
10
45.647973
20
136.849770
11
44.401021
21
136.091789
0
LINE
8
Layer 1
10
44.401021
20
136.091789
11
42.947055
21
135.486529
0
LINE
8
Layer 1
10
42.947055
20
135.486529
11
41.548417
21
135.166918
0
LINE
8
Layer 1
10
41.548417
20
135.166918
11
39.996195
21
134.831780
0
LINE
8
Layer 1
10
39.996195
20
134.831780
11
40.868109
21
134.089148
0
LINE
8
Layer 1
10
40.868109
20
134.089148
11
42.818417
21
132.900321
0
LINE
8
Layer 1
10
42.818417
20
132.900321
11
44.344235
21
132.220363
0
LINE
8
Layer 1
10
44.344235
20
132.220363
11
46.489344
21
131.450591
0
LINE
8
Layer 1
10
46.489344
20
131.450591
11
50.720639
21
130.280946
0
LINE
8
Layer 1
10
50.720639
20
130.280946
11
54.102289
21
129.992718
0
LINE
8
Layer 1
10
54.102289
20
129.992718
11
58.053691
21
130.130397
0
LINE
8
Layer 1
10
58.053691
20
130.130397
11
61.720823
21
130.623368
0
LINE
8
Layer 1
10
61.720823
20
130.623368
11
63.180907
21
130.981020
0
LINE
8
Layer 1
10
63.180907
20
130.981020
11
64.249667
21
131.401016
0
LINE
8
Layer 1
10
64.249667
20
131.401016
11
65.098364
21
131.732906
0
LINE
8
Layer 1
10
65.098364
20
131.732906
11
65.308196
21
131.707709
0
LINE
8
Layer 1
10
65.308196
20
131.707709
11
65.375385
21
131.568972
0
LINE
8
Layer 1
10
65.375385
20
131.568972
11
65.082933
21
130.992535
0
LINE
8
Layer 1
10
65.082933
20
130.992535
11
64.223209
21
130.086918
0
LINE
8
Layer 1
10
64.223209
20
130.086918
11
60.765986
21
126.664974
0
LINE
8
Layer 1
10
60.765986
20
126.664974
11
57.534651
21
123.687441
0
LINE
8
Layer 1
10
57.534651
20
123.687441
11
56.232725
21
122.045244
0
LINE
8
Layer 1
10
56.232725
20
122.045244
11
55.729395
21
121.068909
0
LINE
8
Layer 1
10
55.729395
20
121.068909
11
55.350847
21
119.944557
0
LINE
8
Layer 1
10
55.350847
20
119.944557
11
54.389528
21
118.207127
0
LINE
8
Layer 1
10
54.389528
20
118.207127
11
56.003486
21
118.630460
0
LINE
8
Layer 1
10
56.003486
20
118.630460
11
57.633998
21
118.906965
0
LINE
8
Layer 1
10
57.633998
20
118.906965
11
59.319597
21
118.692196
0
LINE
8
Layer 1
10
59.319597
20
118.692196
11
60.687001
21
118.285106
0
LINE
8
Layer 1
10
60.687001
20
118.285106
11
62.197167
21
117.532624
0
LINE
8
Layer 1
10
62.197167
20
117.532624
11
64.147089
21
116.259703
0
LINE
8
Layer 1
10
64.147089
20
116.259703
11
66.833764
21
114.291293
0
LINE
8
Layer 1
10
66.833764
20
114.291293
11
69.999107
21
112.109139
0
LINE
8
Layer 1
10
69.999107
20
112.109139
11
72.956513
21
110.513328
0
LINE
8
Layer 1
10
72.956513
20
110.513328
11
75.844541
21
109.441691
0
LINE
8
Layer 1
10
75.844541
20
109.441691
11
78.801750
21
108.832057
0
LINE
8
Layer 1
10
78.801750
20
108.832057
11
84.010407
21
108.507897
0
LINE
8
Layer 1
10
84.010407
20
108.507897
11
86.598939
21
108.567046
0
LINE
8
Layer 1
10
86.598939
20
108.567046
11
89.111681
21
108.893793
0
LINE
8
Layer 1
10
89.111681
20
108.893793
11
91.090561
21
109.428427
0
LINE
8
Layer 1
10
91.090561
20
109.428427
11
92.958073
21
110.257718
0
LINE
8
Layer 1
10
92.958073
20
110.257718
11
94.688326
21
111.432512
0
LINE
8
Layer 1
10
94.688326
20
111.432512
11
96.255431
21
113.003655
0
LINE
8
Layer 1
10
96.255431
20
113.003655
11
97.331403
21
113.920877
0
LINE
8
Layer 1
10
97.331403
20
113.920877
11
97.455822
21
113.529774
0
LINE
8
Layer 1
10
97.455822
20
113.529774
11
97.428417
21
112.589141
0
LINE
8
Layer 1
10
97.428417
20
112.589141
11
96.874122
21
110.515813
0
LINE
8
Layer 1
10
96.874122
20
110.515813
11
95.687797
21
108.101086
0
LINE
8
Layer 1
10
95.687797
20
108.101086
11
94.035636
21
105.630716
0
LINE
8
Layer 1
10
94.035636
20
105.630716
11
92.083834
21
103.390460
0
LINE
8
Layer 1
10
92.083834
20
103.390460
11
88.782892
21
100.557027
0
LINE
8
Layer 1
10
88.782892
20
100.557027
11
85.375924
21
97.870602
0
LINE
8
Layer 1
10
85.375924
20
97.870602
11
78.519528
21
92.560182
0
LINE
8
Layer 1
10
78.519528
20
92.560182
11
75.857191
21
89.674319
0
LINE
8
Layer 1
10
75.857191
20
89.674319
11
73.458099
21
86.570905
0
LINE
8
Layer 1
10
73.458099
20
86.570905
11
71.349217
21
83.271109
0
LINE
8
Layer 1
10
71.349217
20
83.271109
11
69.557510
21
79.796099
0
LINE
8
Layer 1
10
69.557510
20
79.796099
11
68.109944
21
76.167042
0
LINE
8
Layer 1
10
68.109944
20
76.167042
11
67.033485
21
72.405106
0
LINE
8
Layer 1
10
67.033485
20
72.405106
11
66.355099
21
68.531458
0
LINE
8
Layer 1
10
66.355099
20
68.531458
11
66.101750
21
64.567266
0
LINE
8
Layer 1
10
66.101750
20
64.567266
11
66.462616
21
61.136543
0
LINE
8
Layer 1
10
66.462616
20
61.136543
11
67.323247
21
57.880411
0
LINE
8
Layer 1
10
67.323247
20
57.880411
11
68.697608
21
54.832393
0
LINE
8
Layer 1
10
68.697608
20
54.832393
11
70.599667
21
52.026016
0
LINE
8
Layer 1
10
70.599667
20
52.026016
11
72.425916
21
50.171794
0
LINE
8
Layer 1
10
72.425916
20
50.171794
11
74.399806
21
48.416729
0
LINE
8
Layer 1
10
74.399806
20
48.416729
11
76.507902
21
46.852816
0
LINE
8
Layer 1
10
76.507902
20
46.852816
11
78.736773
21
45.572051
0
LINE
8
Layer 1
10
78.736773
20
45.572051
11
81.072984
21
44.666431
0
LINE
8
Layer 1
10
81.072984
20
44.666431
11
83.503103
21
44.227950
0
LINE
8
Layer 1
10
83.503103
20
44.227950
11
84.749181
21
44.212635
0
LINE
8
Layer 1
10
84.749181
20
44.212635
11
86.013698
21
44.348604
0
LINE
8
Layer 1
10
86.013698
20
44.348604
11
87.294975
21
44.647356
0
LINE
8
Layer 1
10
87.294975
20
44.647356
11
88.591334
21
45.120391
0
LINE
8
Layer 1
10
88.591334
20
45.120391
11
91.294675
21
46.421445
0
LINE
8
Layer 1
10
91.294675
20
46.421445
11
93.725232
21
48.054229
0
LINE
8
Layer 1
10
93.725232
20
48.054229
11
95.882669
21
49.972070
0
LINE
8
Layer 1
10
95.882669
20
49.972070
11
97.766652
21
52.128299
0
LINE
8
Layer 1
10
97.766652
20
52.128299
11
99.376844
21
54.476242
0
LINE
8
Layer 1
10
99.376844
20
54.476242
11
100.712912
21
56.969230
0
LINE
8
Layer 1
10
100.712912
20
56.969230
11
101.774520
21
59.560591
0
LINE
8
Layer 1
10
101.774520
20
59.560591
11
102.561334
21
62.203655
0
LINE
8
Layer 1
10
102.561334
20
62.203655
11
103.016449
21
64.509605
0
LINE
8
Layer 1
10
103.016449
20
64.509605
11
103.270118
21
66.874102
0
LINE
8
Layer 1
10
103.270118
20
66.874102
11
103.322138
21
69.280520
0
LINE
8
Layer 1
10
103.322138
20
69.280520
11
103.172310
21
71.712231
0
LINE
8
Layer 1
10
103.172310
20
71.712231
11
102.820433
21
74.152610
0
LINE
8
Layer 1
10
102.820433
20
74.152610
11
102.266307
21
76.585031
0
LINE
8
Layer 1
10
102.266307
20
76.585031
11
101.509729
21
78.992865
0
LINE
8
Layer 1
10
101.509729
20
78.992865
11
100.550500
21
81.359488
0
LINE
8
Layer 1
10
100.550500
20
81.359488
11
100.521108
21
72.443952
0
LINE
8
Layer 1
10
100.521108
20
72.443952
11
100.375083
21
68.435615
0
LINE
8
Layer 1
10
100.375083
20
68.435615
11
99.897861
21
64.611363
0
LINE
8
Layer 1
10
99.897861
20
64.611363
11
99.107286
21
61.476806
0
LINE
8
Layer 1
10
99.107286
20
61.476806
11
97.845722
21
58.357790
0
LINE
8
Layer 1
10
97.845722
20
58.357790
11
96.005088
21
55.203789
0
LINE
8
Layer 1
10
96.005088
20
55.203789
11
93.477306
21
51.964280
0
LINE
8
Layer 1
10
93.477306
20
51.964280
11
91.356060
21
50.152519
0
LINE
8
Layer 1
10
91.356060
20
50.152519
11
88.991523
21
48.777349
0
LINE
8
Layer 1
10
88.991523
20
48.777349
11
86.526111
21
47.904238
0
LINE
8
Layer 1
10
86.526111
20
47.904238
11
84.102236
21
47.598655
0
LINE
8
Layer 1
10
84.102236
20
47.598655
11
82.892732
21
47.729554
0
LINE
8
Layer 1
10
82.892732
20
47.729554
11
81.624820
21
48.101628
0
LINE
8
Layer 1
10
81.624820
20
48.101628
11
80.343316
21
48.683943
0
LINE
8
Layer 1
10
80.343316
20
48.683943
11
79.093033
21
49.445564
0
LINE
8
Layer 1
10
79.093033
20
49.445564
11
77.918788
21
50.355558
0
LINE
8
Layer 1
10
77.918788
20
50.355558
11
76.865396
21
51.382991
0
LINE
8
Layer 1
10
76.865396
20
51.382991
11
75.977672
21
52.496927
0
LINE
8
Layer 1
10
75.977672
20
52.496927
11
75.300431
21
53.666432
0
LINE
8
Layer 1
10
75.300431
20
53.666432
11
74.969318
21
54.599055
0
LINE
8
Layer 1
10
74.969318
20
54.599055
11
74.761283
21
55.694782
0
LINE
8
Layer 1
10
74.761283
20
55.694782
11
74.704746
21
58.223229
0
LINE
8
Layer 1
10
74.704746
20
58.223229
11
75.111415
21
60.947132
0
LINE
8
Layer 1
10
75.111415
20
60.947132
11
75.961889
21
63.561849
0
LINE
8
Layer 1
10
75.961889
20
63.561849
11
78.162310
21
68.169226
0
LINE
8
Layer 1
10
78.162310
20
68.169226
11
79.257875
21
69.966837
0
LINE
8
Layer 1
10
79.257875
20
69.966837
11
80.464537
21
71.562137
0
LINE
8
Layer 1
10
80.464537
20
71.562137
11
81.867943
21
73.056434
0
LINE
8
Layer 1
10
81.867943
20
73.056434
11
83.553739
21
74.551033
0
LINE
8
Layer 1
10
83.553739
20
74.551033
11
88.115084
21
77.946363
0
LINE
8
Layer 1
10
88.115084
20
77.946363
11
90.912057
21
80.213069
0
LINE
8
Layer 1
10
90.912057
20
80.213069
11
93.550892
21
82.970339
0
LINE
8
Layer 1
10
93.550892
20
82.970339
11
95.980955
21
86.159110
0
LINE
8
Layer 1
10
95.980955
20
86.159110
11
98.151611
21
89.720321
0
LINE
8
Layer 1
10
98.151611
20
89.720321
11
99.580213
21
92.691923
0
LINE
8
Layer 1
10
99.580213
20
92.691923
11
100.875200
21
95.704695
0
LINE
8
Layer 1
10
100.875200
20
95.704695
11
103.496195
21
101.644210
0
LINE
8
Layer 1
10
103.496195
20
101.644210
11
105.524951
21
97.144531
0
LINE
8
Layer 1
10
105.524951
20
97.144531
11
107.585377
21
92.859873
0
LINE
8
Layer 1
10
107.585377
20
92.859873
11
109.788434
21
88.782557
0
LINE
8
Layer 1
10
109.788434
20
88.782557
11
112.245084
21
84.904905
0
LINE
8
Layer 1
10
112.245084
20
84.904905
11
114.862411
21
81.461132
0
LINE
8
Layer 1
10
114.862411
20
81.461132
11
117.886130
21
78.177079
0
LINE
8
Layer 1
10
117.886130
20
78.177079
11
121.405437
21
75.046661
0
LINE
8
Layer 1
10
121.405437
20
75.046661
11
125.509528
21
72.063793
0
LINE
8
Layer 1
10
125.509528
20
72.063793
11
135.085418
21
65.364666
0
LINE
8
Layer 1
10
135.085418
20
65.364666
11
139.836458
21
61.966949
0
LINE
8
Layer 1
10
139.836458
20
61.966949
11
144.453695
21
58.393655
0
LINE
8
Layer 1
10
144.453695
20
58.393655
11
147.427673
21
55.767257
0
LINE
8
Layer 1
10
147.427673
20
55.767257
11
150.093923
21
53.167939
0
LINE
8
Layer 1
10
150.093923
20
53.167939
11
152.474544
21
50.568045
0
LINE
8
Layer 1
10
152.474544
20
50.568045
11
154.591635
21
47.939918
0
LINE
8
Layer 1
10
154.591635
20
47.939918
11
156.467296
21
45.255905
0
LINE
8
Layer 1
10
156.467296
20
45.255905
11
158.123624
21
42.488349
0
LINE
8
Layer 1
10
158.123624
20
42.488349
11
159.582719
21
39.609595
0
LINE
8
Layer 1
10
159.582719
20
39.609595
11
160.866681
21
36.591988
0
LINE
8
Layer 1
10
160.866681
20
36.591988
11
161.963731
21
32.725715
0
LINE
8
Layer 1
10
161.963731
20
32.725715
11
162.517668
21
28.808698
0
LINE
8
Layer 1
10
162.517668
20
28.808698
11
162.512900
21
24.911590
0
LINE
8
Layer 1
10
162.512900
20
24.911590
11
161.933834
21
21.105043
0
LINE
8
Layer 1
10
161.933834
20
21.105043
11
161.418651
21
19.241165
0
LINE
8
Layer 1
10
161.418651
20
19.241165
11
160.751001
21
17.427206
0
LINE
8
Layer 1
10
160.751001
20
17.427206
11
159.928738
21
15.672179
0
LINE
8
Layer 1
10
159.928738
20
15.672179
11
158.949714
21
13.985093
0
LINE
8
Layer 1
10
158.949714
20
13.985093
11
157.811783
21
12.374958
0
LINE
8
Layer 1
10
157.811783
20
12.374958
11
156.512796
21
10.850784
0
LINE
8
Layer 1
10
156.512796
20
10.850784
11
155.050607
21
9.421583
0
LINE
8
Layer 1
10
155.050607
20
9.421583
11
153.423070
21
8.096363
0
LINE
8
Layer 1
10
153.423070
20
8.096363
11
150.961102
21
6.810952
0
LINE
8
Layer 1
10
150.961102
20
6.810952
11
148.448066
21
5.762093
0
LINE
8
Layer 1
10
148.448066
20
5.762093
11
145.831819
21
5.119693
0
LINE
8
Layer 1
10
145.831819
20
5.119693
11
144.468699
21
5.004009
0
LINE
8
Layer 1
10
144.468699
20
5.004009
11
143.060222
21
5.053655
0
LINE
8
Layer 1
10
143.060222
20
5.053655
11
140.173857
21
5.396714
0
LINE
8
Layer 1
10
140.173857
20
5.396714
11
137.515093
21
6.256630
0
LINE
8
Layer 1
10
137.515093
20
6.256630
11
135.102858
21
7.594404
0
LINE
8
Layer 1
10
135.102858
20
7.594404
11
132.956083
21
9.371039
0
LINE
8
Layer 1
10
132.956083
20
9.371039
11
131.729249
21
10.664882
0
LINE
8
Layer 1
10
131.729249
20
10.664882
11
130.735625
21
12.044842
0
LINE
8
Layer 1
10
130.735625
20
12.044842
11
129.954598
21
13.504216
0
LINE
8
Layer 1
10
129.954598
20
13.504216
11
129.365555
21
15.036300
0
LINE
8
Layer 1
10
129.365555
20
15.036300
11
128.947882
21
16.634392
0
LINE
8
Layer 1
10
128.947882
20
16.634392
11
128.680967
21
18.291789
0
LINE
8
Layer 1
10
128.680967
20
18.291789
11
128.516959
21
21.757682
0
LINE
8
Layer 1
10
128.516959
20
21.757682
11
128.833454
21
24.237930
0
LINE
8
Layer 1
10
128.833454
20
24.237930
11
129.538851
21
26.396867
0
LINE
8
Layer 1
10
129.538851
20
26.396867
11
130.053842
21
27.287420
0
LINE
8
Layer 1
10
130.053842
20
27.287420
11
130.685803
21
28.015535
0
LINE
8
Layer 1
10
130.685803
20
28.015535
11
131.441314
21
28.553843
0
LINE
8
Layer 1
10
131.441314
20
28.553843
11
132.326959
21
28.874974
0
LINE
8
Layer 1
10
132.326959
20
28.874974
11
132.773652
21
27.478772
0
LINE
8
Layer 1
10
132.773652
20
27.478772
11
133.455224
21
26.195195
0
LINE
8
Layer 1
10
133.455224
20
26.195195
11
134.347598
21
25.046909
0
LINE
8
Layer 1
10
134.347598
20
25.046909
11
135.426696
21
24.056578
0
LINE
8
Layer 1
10
135.426696
20
24.056578
11
136.668439
21
23.246867
0
LINE
8
Layer 1
10
136.668439
20
23.246867
11
138.048750
21
22.640440
0
LINE
8
Layer 1
10
138.048750
20
22.640440
11
139.543551
21
22.259963
0
LINE
8
Layer 1
10
139.543551
20
22.259963
11
141.128764
21
22.128099
0
LINE
8
Layer 1
10
141.128764
20
22.128099
11
142.939892
21
22.300827
0
LINE
8
Layer 1
10
142.939892
20
22.300827
11
144.626815
21
22.796219
0
LINE
8
Layer 1
10
144.626815
20
22.796219
11
146.153384
21
23.580088
0
LINE
8
Layer 1
10
146.153384
20
23.580088
11
147.483453
21
24.618247
0
LINE
8
Layer 1
10
147.483453
20
24.618247
11
148.580874
21
25.876509
0
LINE
8
Layer 1
10
148.580874
20
25.876509
11
149.409500
21
27.320687
0
LINE
8
Layer 1
10
149.409500
20
27.320687
11
149.933184
21
28.916594
0
LINE
8
Layer 1
10
149.933184
20
28.916594
11
150.115778
21
30.630043
0
LINE
8
Layer 1
10
150.115778
20
30.630043
11
149.933184
21
32.343872
0
LINE
8
Layer 1
10
149.933184
20
32.343872
11
149.409500
21
33.940778
0
LINE
8
Layer 1
10
149.409500
20
33.940778
11
148.580874
21
35.386370
0
LINE
8
Layer 1
10
148.580874
20
35.386370
11
147.483453
21
36.646252
0
LINE
8
Layer 1
10
147.483453
20
36.646252
11
146.153384
21
37.686031
0
LINE
8
Layer 1
10
146.153384
20
37.686031
11
144.626815
21
38.471312
0
LINE
8
Layer 1
10
144.626815
20
38.471312
11
142.939892
21
38.967702
0
LINE
8
Layer 1
10
142.939892
20
38.967702
11
141.128764
21
39.140807
0
LINE
8
Layer 1
10
141.128764
20
39.140807
11
139.403005
21
38.943266
0
LINE
8
Layer 1
10
139.403005
20
38.943266
11
137.683845
21
38.579325
0
LINE
8
Layer 1
10
137.683845
20
38.579325
11
135.995685
21
38.051371
0
LINE
8
Layer 1
10
135.995685
20
38.051371
11
134.362923
21
37.361790
0
LINE
8
Layer 1
10
134.362923
20
37.361790
11
132.809961
21
36.512970
0
LINE
8
Layer 1
10
132.809961
20
36.512970
11
131.361197
21
35.507297
0
LINE
8
Layer 1
10
131.361197
20
35.507297
11
130.041031
21
34.347158
0
LINE
8
Layer 1
10
130.041031
20
34.347158
11
128.873862
21
33.034941
0
LINE
8
Layer 1
10
128.873862
20
33.034941
11
127.426334
21
30.689566
0
LINE
8
Layer 1
10
127.426334
20
30.689566
11
126.398850
21
28.018074
0
LINE
8
Layer 1
10
126.398850
20
28.018074
11
125.789836
21
25.033496
0
LINE
8
Layer 1
10
125.789836
20
25.033496
11
125.597722
21
21.748863
0
LINE
8
Layer 1
10
125.597722
20
21.748863
11
125.814909
21
19.441800
0
LINE
8
Layer 1
10
125.814909
20
19.441800
11
126.175317
21
17.269476
0
LINE
8
Layer 1
10
126.175317
20
17.269476
11
126.681828
21
15.235189
0
LINE
8
Layer 1
10
126.681828
20
15.235189
11
127.337323
21
13.342235
0
LINE
8
Layer 1
10
127.337323
20
13.342235
11
128.144681
21
11.593912
0
LINE
8
Layer 1
10
128.144681
20
11.593912
11
129.106785
21
9.993517
0
LINE
8
Layer 1
10
129.106785
20
9.993517
11
130.226514
21
8.544346
0
LINE
8
Layer 1
10
130.226514
20
8.544346
11
131.506750
21
7.249696
0
LINE
8
Layer 1
10
131.506750
20
7.249696
11
133.851351
21
5.533694
0
LINE
8
Layer 1
10
133.851351
20
5.533694
11
136.611669
21
4.219026
0
LINE
8
Layer 1
10
136.611669
20
4.219026
11
139.798296
21
3.319467
0
LINE
8
Layer 1
10
139.798296
20
3.319467
11
143.421820
21
2.848793
0
LINE
8
Layer 1
10
143.421820
20
2.848793
11
146.965935
21
3.044516
0
LINE
8
Layer 1
10
146.965935
20
3.044516
11
150.494688
21
3.825410
0
LINE
8
Layer 1
10
150.494688
20
3.825410
11
153.968483
21
5.167509
0
LINE
8
Layer 1
10
153.968483
20
5.167509
11
157.347722
21
7.046849
0
LINE
8
Layer 1
10
157.347722
20
7.046849
11
160.163576
21
9.553104
0
LINE
8
Layer 1
10
160.163576
20
9.553104
11
162.640003
21
12.314122
0
LINE
8
Layer 1
10
162.640003
20
12.314122
11
164.789804
21
15.321052
0
LINE
8
Layer 1
10
164.789804
20
15.321052
11
166.625778
21
18.565043
0
LINE
8
Layer 1
10
166.625778
20
18.565043
11
167.849758
21
21.337369
0
LINE
8
Layer 1
10
167.849758
20
21.337369
11
168.848720
21
24.180650
0
LINE
8
Layer 1
10
168.848720
20
24.180650
11
169.624576
21
27.083547
0
LINE
8
Layer 1
10
169.624576
20
27.083547
11
170.179236
21
30.034717
0
LINE
8
Layer 1
10
170.179236
20
30.034717
11
170.514609
21
33.022820
0
LINE
8
Layer 1
10
170.514609
20
33.022820
11
170.632606
21
36.036516
0
LINE
8
Layer 1
10
170.632606
20
36.036516
11
170.535137
21
39.064463
0
LINE
8
Layer 1
10
170.535137
20
39.064463
11
170.224111
21
42.095321
0
LINE
8
Layer 1
10
170.224111
20
42.095321
11
169.570504
21
44.998761
0
LINE
8
Layer 1
10
169.570504
20
44.998761
11
168.725240
21
47.837151
0
LINE
8
Layer 1
10
168.725240
20
47.837151
11
167.696878
21
50.606374
0
LINE
8
Layer 1
10
167.696878
20
50.606374
11
166.493979
21
53.302310
0
LINE
8
Layer 1
10
166.493979
20
53.302310
11
165.125102
21
55.920840
0
LINE
8
Layer 1
10
165.125102
20
55.920840
11
163.598809
21
58.457846
0
LINE
8
Layer 1
10
163.598809
20
58.457846
11
161.923657
21
60.909208
0
LINE
8
Layer 1
10
161.923657
20
60.909208
11
160.108209
21
63.270807
0
LINE
8
Layer 1
10
160.108209
20
63.270807
11
157.591987
21
65.956750
0
LINE
8
Layer 1
10
157.591987
20
65.956750
11
154.921965
21
68.459063
0
LINE
8
Layer 1
10
154.921965
20
68.459063
11
152.124556
21
70.809182
0
LINE
8
Layer 1
10
152.124556
20
70.809182
11
149.226174
21
73.038543
0
LINE
8
Layer 1
10
149.226174
20
73.038543
11
143.232147
21
77.260735
0
LINE
8
Layer 1
10
143.232147
20
77.260735
11
137.151195
21
81.377127
0
LINE
8
Layer 1
10
137.151195
20
81.377127
11
132.221950
21
85.005887
0
LINE
8
Layer 1
10
132.221950
20
85.005887
11
127.539988
21
88.850169
0
LINE
8
Layer 1
10
127.539988
20
88.850169
11
123.141459
21
92.970777
0
LINE
8
Layer 1
10
123.141459
20
92.970777
11
119.062514
21
97.428516
0
LINE
8
Layer 1
10
119.062514
20
97.428516
11
115.800066
21
101.276036
0
LINE
8
Layer 1
10
115.800066
20
101.276036
11
112.635779
21
105.380792
0
LINE
8
Layer 1
10
112.635779
20
105.380792
11
111.261929
21
107.554425
0
LINE
8
Layer 1
10
111.261929
20
107.554425
11
110.118401
21
109.822118
0
LINE
8
Layer 1
10
110.118401
20
109.822118
11
109.273787
21
112.193787
0
LINE
8
Layer 1
10
109.273787
20
112.193787
11
108.796681
21
114.679349
0
LINE
8
Layer 1
10
108.796681
20
114.679349
11
109.000538
21
115.148318
0
LINE
8
Layer 1
10
109.000538
20
115.148318
11
109.652167
21
114.979210
0
LINE
8
Layer 1
10
109.652167
20
114.979210
11
114.504101
21
112.239037
0
LINE
8
Layer 1
10
114.504101
20
112.239037
11
116.909294
21
110.872150
0
LINE
8
Layer 1
10
116.909294
20
110.872150
11
119.362375
21
109.678724
0
LINE
8
Layer 1
10
119.362375
20
109.678724
11
121.441271
21
108.919953
0
LINE
8
Layer 1
10
121.441271
20
108.919953
11
123.607892
21
108.435675
0
LINE
8
Layer 1
10
123.607892
20
108.435675
11
125.887484
21
108.297314
0
LINE
8
Layer 1
10
125.887484
20
108.297314
11
128.305292
21
108.576293
0
LINE
8
Layer 1
10
128.305292
20
108.576293
11
130.120850
21
108.994937
0
LINE
8
Layer 1
10
130.120850
20
108.994937
11
131.884975
21
109.558747
0
LINE
8
Layer 1
10
131.884975
20
109.558747
11
135.245328
21
111.086831
0
LINE
8
Layer 1
10
135.245328
20
111.086831
11
138.359171
21
113.090462
0
LINE
8
Layer 1
10
138.359171
20
113.090462
11
141.199320
21
115.499557
0
LINE
8
Layer 1
10
141.199320
20
115.499557
11
143.742286
21
117.438277
0
LINE
8
Layer 1
10
143.742286
20
117.438277
11
146.341920
21
118.873702
0
LINE
8
Layer 1
10
146.341920
20
118.873702
11
147.710600
21
119.369679
0
LINE
8
Layer 1
10
147.710600
20
119.369679
11
149.150583
21
119.700232
0
LINE
8
Layer 1
10
149.150583
20
119.700232
11
150.680914
21
119.852161
0
LINE
8
Layer 1
10
150.680914
20
119.852161
11
152.320639
21
119.812266
0
LINE
8
Layer 1
10
152.320639
20
119.812266
11
151.755627
21
121.015839
0
LINE
8
Layer 1
10
151.755627
20
121.015839
11
150.539111
21
122.616849
0
LINE
8
Layer 1
10
150.539111
20
122.616849
11
147.115408
21
126.333237
0
LINE
8
Layer 1
10
147.115408
20
126.333237
11
143.862792
21
129.425460
0
LINE
8
Layer 1
10
143.862792
20
129.425460
11
142.122500
21
130.761677
0
LINE
8
Layer 1
10
142.122500
20
130.761677
11
140.221632
21
131.958830
0
LINE
8
Layer 1
10
140.221632
20
131.958830
11
138.090823
21
133.022597
0
LINE
8
Layer 1
10
138.090823
20
133.022597
11
135.660709
21
133.958655
0
LINE
8
Layer 1
10
135.660709
20
133.958655
11
133.632236
21
134.540738
0
LINE
8
Layer 1
10
133.632236
20
134.540738
11
131.673203
21
135.003328
0
LINE
8
Layer 1
10
131.673203
20
135.003328
11
129.407722
21
135.290391
0
LINE
8
Layer 1
10
129.407722
20
135.290391
11
127.846954
21
135.403858
0
LINE
8
Layer 1
10
127.846954
20
135.403858
11
127.093139
21
135.661583
0
LINE
8
Layer 1
10
127.093139
20
135.661583
11
126.857206
21
136.340049
0
LINE
8
Layer 1
10
126.857206
20
136.340049
11
126.850084
21
137.715738
0
LINE
8
Layer 1
10
126.850084
20
137.715738
11
126.982781
21
138.814162
0
LINE
8
Layer 1
10
126.982781
20
138.814162
11
127.322106
21
139.974535
0
LINE
8
Layer 1
10
127.322106
20
139.974535
11
127.798041
21
141.008721
0
LINE
8
Layer 1
10
127.798041
20
141.008721
11
128.340570
21
141.728585
0
LINE
8
Layer 1
10
128.340570
20
141.728585
11
128.733434
21
142.005146
0
LINE
8
Layer 1
10
128.733434
20
142.005146
11
128.869377
21
141.857183
0
LINE
8
Layer 1
10
128.869377
20
141.857183
11
128.375847
21
140.088168
0
LINE
8
Layer 1
10
128.375847
20
140.088168
11
127.991371
21
138.621229
0
LINE
8
Layer 1
10
127.991371
20
138.621229
11
128.003866
21
138.190492
0
LINE
8
Layer 1
10
128.003866
20
138.190492
11
128.153132
21
137.961316
0
LINE
8
Layer 1
10
128.153132
20
137.961316
11
128.439377
21
137.933505
0
LINE
8
Layer 1
10
128.439377
20
137.933505
11
128.862813
21
138.106861
0
LINE
8
Layer 1
10
128.862813
20
138.106861
11
130.122097
21
139.056293
0
LINE
8
Layer 1
10
130.122097
20
139.056293
11
131.427375
21
140.202821
0
LINE
8
Layer 1
10
131.427375
20
140.202821
11
132.080014
21
139.550182
0
LINE
8
Layer 1
10
132.080014
20
139.550182
11
134.386467
21
137.506884
0
LINE
8
Layer 1
10
134.386467
20
137.506884
11
136.881112
21
135.776048
0
LINE
8
Layer 1
10
136.881112
20
135.776048
11
139.539755
21
134.365462
0
LINE
8
Layer 1
10
139.539755
20
134.365462
11
142.338202
21
133.282912
0
LINE
8
Layer 1
10
142.338202
20
133.282912
11
145.252257
21
132.536184
0
LINE
8
Layer 1
10
145.252257
20
132.536184
11
148.257725
21
132.133064
0
LINE
8
Layer 1
10
148.257725
20
132.133064
11
151.330413
21
132.081338
0
LINE
8
Layer 1
10
151.330413
20
132.081338
11
154.446125
21
132.388793
0
LINE
8
Layer 1
10
154.446125
20
132.388793
11
156.867246
21
132.863878
0
LINE
8
Layer 1
10
156.867246
20
132.863878
11
159.164559
21
133.475337
0
LINE
8
Layer 1
10
159.164559
20
133.475337
11
160.967969
21
134.110174
0
LINE
8
Layer 1
10
160.967969
20
134.110174
11
161.907375
21
134.655391
0
LINE
8
Layer 1
10
161.907375
20
134.655391
11
162.038987
21
134.917125
0
LINE
8
Layer 1
10
162.038987
20
134.917125
11
161.845639
21
135.016988
0
LINE
8
Layer 1
10
161.845639
20
135.016988
11
160.368853
21
135.303385
0
LINE
8
Layer 1
10
160.368853
20
135.303385
11
159.138070
21
135.828377
0
LINE
8
Layer 1
10
159.138070
20
135.828377
11
157.313067
21
137.323310
0
LINE
8
Layer 1
10
157.313067
20
137.323310
11
156.271750
21
138.535946
0
LINE
8
Layer 1
10
156.271750
20
138.535946
11
156.964352
21
139.406322
0
LINE
8
Layer 1
10
156.964352
20
139.406322
11
158.626542
21
141.111224
0
LINE
8
Layer 1
10
158.626542
20
141.111224
11
160.232177
21
142.821466
0
LINE
8
Layer 1
10
160.232177
20
142.821466
11
161.477503
21
144.469082
0
LINE
8
Layer 1
10
161.477503
20
144.469082
11
162.397574
21
146.106850
0
LINE
8
Layer 1
10
162.397574
20
146.106850
11
163.027445
21
147.787543
0
LINE
8
Layer 1
10
163.027445
20
147.787543
11
163.889723
21
149.966543
0
LINE
8
Layer 1
10
163.889723
20
149.966543
11
165.219043
21
151.883646
0
LINE
8
Layer 1
10
165.219043
20
151.883646
11
167.185585
21
153.732662
0
LINE
8
Layer 1
10
167.185585
20
153.732662
11
169.959528
21
155.707405
0
LINE
8
Layer 1
10
169.959528
20
155.707405
11
173.120473
21
157.471767
0
LINE
8
Layer 1
10
173.120473
20
157.471767
11
174.455057
21
158.027409
0
LINE
8
Layer 1
10
174.455057
20
158.027409
11
175.374667
21
158.247405
0
LINE
8
Layer 1
10
175.374667
20
158.247405
11
175.707995
21
158.300520
0
LINE
8
Layer 1
10
175.707995
20
158.300520
11
175.321750
21
158.494349
0
LINE
8
Layer 1
10
175.321750
20
158.494349
11
174.026242
21
158.584179
0
LINE
8
Layer 1
10
174.026242
20
158.584179
11
171.660612
21
158.458414
0
LINE
8
Layer 1
10
171.660612
20
158.458414
11
168.905256
21
158.172023
0
LINE
8
Layer 1
10
168.905256
20
158.172023
11
166.440570
21
157.779974
0
LINE
8
Layer 1
10
166.440570
20
157.779974
11
163.643374
21
157.013463
0
LINE
8
Layer 1
10
163.643374
20
157.013463
11
162.554876
21
156.514575
0
LINE
8
Layer 1
10
162.554876
20
156.514575
11
161.625508
21
155.900799
0
LINE
8
Layer 1
10
161.625508
20
155.900799
11
160.819567
21
155.143786
0
LINE
8
Layer 1
10
160.819567
20
155.143786
11
160.101353
21
154.215188
0
LINE
8
Layer 1
10
160.101353
20
154.215188
11
158.785292
21
151.729835
0
LINE
8
Layer 1
10
158.785292
20
151.729835
11
157.679001
21
149.417371
0
LINE
8
Layer 1
10
157.679001
20
149.417371
11
156.556313
21
147.515963
0
LINE
8
Layer 1
10
156.556313
20
147.515963
11
155.295754
21
145.842950
0
LINE
8
Layer 1
10
155.295754
20
145.842950
11
153.775847
21
144.215668
0
LINE
8
Layer 1
10
153.775847
20
144.215668
11
152.502328
21
143.052876
0
LINE
8
Layer 1
10
152.502328
20
143.052876
11
151.533503
21
142.517442
0
LINE
8
Layer 1
10
151.533503
20
142.517442
11
150.570191
21
142.529055
0
LINE
8
Layer 1
10
150.570191
20
142.529055
11
149.313209
21
143.007405
0
LINE
8
Layer 1
10
149.313209
20
143.007405
11
147.801455
21
143.564115
0
LINE
8
Layer 1
10
147.801455
20
143.564115
11
146.026473
21
144.002707
0
LINE
8
Layer 1
10
146.026473
20
144.002707
11
144.141994
21
144.292016
0
LINE
8
Layer 1
10
144.141994
20
144.292016
11
142.301750
21
144.400877
0
LINE
8
Layer 1
10
142.301750
20
144.400877
11
141.366889
21
145.494488
0
LINE
8
Layer 1
10
141.366889
20
145.494488
11
144.581181
21
146.907946
0
LINE
8
Layer 1
10
144.581181
20
146.907946
11
146.958417
21
148.184418
0
LINE
8
Layer 1
10
146.958417
20
148.184418
11
148.442256
21
149.366190
0
LINE
8
Layer 1
10
148.442256
20
149.366190
11
150.023375
21
150.880340
0
LINE
8
Layer 1
10
150.023375
20
150.880340
11
151.421389
21
152.437797
0
LINE
8
Layer 1
10
151.421389
20
152.437797
11
152.355917
21
153.749488
0
LINE
8
Layer 1
10
152.355917
20
153.749488
11
152.986976
21
155.053835
0
LINE
8
Layer 1
10
152.986976
20
155.053835
11
153.530791
21
156.537090
0
LINE
8
Layer 1
10
153.530791
20
156.537090
11
154.341293
21
159.949512
0
LINE
8
Layer 1
10
154.341293
20
159.949512
11
154.756624
21
163.805134
0
LINE
8
Layer 1
10
154.756624
20
163.805134
11
154.745986
21
167.922335
0
LINE
8
Layer 1
10
154.745986
20
167.922335
11
154.751236
21
169.684660
0
LINE
8
Layer 1
10
154.751236
20
169.684660
11
154.968880
21
170.840461
0
LINE
8
Layer 1
10
154.968880
20
170.840461
11
155.390373
21
171.476470
0
LINE
8
Layer 1
10
155.390373
20
171.476470
11
156.007167
21
171.679418
0
LINE
8
Layer 1
10
156.007167
20
171.679418
11
157.133009
21
171.421117
0
LINE
8
Layer 1
10
157.133009
20
171.421117
11
158.577911
21
170.747260
0
LINE
8
Layer 1
10
158.577911
20
170.747260
11
160.320531
21
169.871409
0
LINE
8
Layer 1
10
160.320531
20
169.871409
11
162.339528
21
169.007127
0
LINE
8
Layer 1
10
162.339528
20
169.007127
11
165.341246
21
167.025781
0
LINE
8
Layer 1
10
165.341246
20
167.025781
11
170.329945
21
162.904071
0
LINE
8
Layer 1
10
170.329945
20
162.904071
11
172.938890
21
161.008778
0
LINE
8
Layer 1
10
172.938890
20
161.008778
11
175.613733
21
159.637717
0
LINE
8
Layer 1
10
175.613733
20
159.637717
11
178.226947
21
158.793543
0
LINE
8
Layer 1
10
178.226947
20
158.793543
11
180.651002
21
158.478913
0
LINE
8
Layer 1
10
180.651002
20
158.478913
11
182.758372
21
158.696480
0
LINE
8
Layer 1
10
182.758372
20
158.696480
11
183.653446
21
159.005669
0
LINE
8
Layer 1
10
183.653446
20
159.005669
11
184.421527
21
159.448902
0
LINE
8
Layer 1
10
184.421527
20
159.448902
11
185.046672
21
160.026514
0
LINE
8
Layer 1
10
185.046672
20
160.026514
11
185.512940
21
160.738835
0
LINE
8
Layer 1
10
185.512940
20
160.738835
11
185.804391
21
161.586197
0
LINE
8
Layer 1
10
185.804391
20
161.586197
11
185.905084
21
162.568932
0
LINE
8
Layer 1
10
185.905084
20
162.568932
11
185.782719
21
163.789759
0
LINE
8
Layer 1
10
185.782719
20
163.789759
11
185.316398
21
165.315551
0
LINE
8
Layer 1
10
185.316398
20
165.315551
11
182.756542
21
170.859210
0
LINE
8
Layer 1
10
182.756542
20
170.859210
11
181.553113
21
173.184171
0
LINE
8
Layer 1
10
181.553113
20
173.184171
11
180.648999
21
174.634807
0
LINE
8
Layer 1
10
180.648999
20
174.634807
11
179.967423
21
175.311098
0
LINE
8
Layer 1
10
179.967423
20
175.311098
11
179.686095
21
175.390110
0
LINE
8
Layer 1
10
179.686095
20
175.390110
11
179.431611
21
175.313030
0
LINE
8
Layer 1
10
179.431611
20
175.313030
11
179.146178
21
174.723183
0
LINE
8
Layer 1
10
179.146178
20
174.723183
11
178.823070
21
173.531502
0
LINE
8
Layer 1
10
178.823070
20
173.531502
11
178.429654
21
172.121289
0
LINE
8
Layer 1
10
178.429654
20
172.121289
11
177.896874
21
170.779262
0
LINE
8
Layer 1
10
177.896874
20
170.779262
11
177.295820
21
169.660212
0
LINE
8
Layer 1
10
177.295820
20
169.660212
11
176.697584
21
168.918932
0
LINE
8
Layer 1
10
176.697584
20
168.918932
11
175.906721
21
168.419047
0
LINE
8
Layer 1
10
175.906721
20
168.419047
11
174.907443
21
168.075935
0
LINE
8
Layer 1
10
174.907443
20
168.075935
11
173.802228
21
167.913992
0
LINE
8
Layer 1
10
173.802228
20
167.913992
11
172.693556
21
167.957613
0
LINE
8
Layer 1
10
172.693556
20
167.957613
11
170.502452
21
168.461673
0
LINE
8
Layer 1
10
170.502452
20
168.461673
11
167.822700
21
169.314847
0
LINE
8
Layer 1
10
167.822700
20
169.314847
11
165.377925
21
170.263311
0
LINE
8
Layer 1
10
165.377925
20
170.263311
11
163.891750
21
171.053238
0
LINE
8
Layer 1
10
163.891750
20
171.053238
11
162.915525
21
171.587016
0
LINE
8
Layer 1
10
162.915525
20
171.587016
11
161.446313
21
172.118127
0
LINE
8
Layer 1
10
161.446313
20
172.118127
11
159.848239
21
172.533512
0
LINE
8
Layer 1
10
159.848239
20
172.533512
11
158.485431
21
172.720113
0
LINE
8
Layer 1
10
158.485431
20
172.720113
11
156.451032
21
172.628532
0
LINE
8
Layer 1
10
156.451032
20
172.628532
11
154.437306
21
172.323238
0
LINE
8
Layer 1
10
154.437306
20
172.323238
11
153.475986
21
176.777057
0
LINE
8
Layer 1
10
153.475986
20
176.777057
11
152.762412
21
180.671162
0
LINE
8
Layer 1
10
152.762412
20
180.671162
11
152.391195
21
183.779696
0
LINE
8
Layer 1
10
152.391195
20
183.779696
11
152.397950
21
186.169645
0
LINE
8
Layer 1
10
152.397950
20
186.169645
11
152.946820
21
187.960113
0
LINE
8
Layer 1
10
152.946820
20
187.960113
11
153.753470
21
189.556860
0
LINE
8
Layer 1
10
153.753470
20
189.556860
11
154.719528
21
191.091016
0
LINE
8
Layer 1
10
154.719528
20
191.091016
11
155.806650
21
192.253196
0
LINE
8
Layer 1
10
155.806650
20
192.253196
11
156.977247
21
193.241739
0
LINE
8
Layer 1
10
156.977247
20
193.241739
11
158.249297
21
194.069938
0
LINE
8
Layer 1
10
158.249297
20
194.069938
11
159.640778
21
194.751085
0
LINE
8
Layer 1
10
159.640778
20
194.751085
11
159.150226
21
195.546962
0
LINE
8
Layer 1
10
159.150226
20
195.546962
11
158.137612
21
196.317704
0
LINE
8
Layer 1
10
158.137612
20
196.317704
11
156.753405
21
197.038564
0
LINE
8
Layer 1
10
156.753405
20
197.038564
11
155.148073
21
197.684796
0
LINE
8
Layer 1
10
155.148073
20
197.684796
11
151.875910
21
198.654390
0
LINE
8
Layer 1
10
151.875910
20
198.654390
11
149.524875
21
199.028515
0
LINE
8
Layer 1
10
149.524875
20
199.028515
11
148.211871
21
198.807515
0
LINE
8
Layer 1
10
148.211871
20
198.807515
11
147.028939
21
198.239234
0
LINE
8
Layer 1
10
147.028939
20
198.239234
11
146.020208
21
197.263024
0
LINE
8
Layer 1
10
146.020208
20
197.263024
11
145.229806
21
195.818238
0
LINE
8
Layer 1
10
145.229806
20
195.818238
11
144.850554
21
194.133855
0
LINE
8
Layer 1
10
144.850554
20
194.133855
11
144.636699
21
192.490050
0
LINE
8
Layer 1
10
144.636699
20
192.490050
11
144.662916
21
189.300273
0
LINE
8
Layer 1
10
144.662916
20
189.300273
11
145.223932
21
186.201093
0
LINE
8
Layer 1
10
145.223932
20
186.201093
11
146.235222
21
183.144696
0
LINE
8
Layer 1
10
146.235222
20
183.144696
11
148.078973
21
178.220039
0
LINE
8
Layer 1
10
148.078973
20
178.220039
11
149.507800
21
173.194385
0
LINE
8
Layer 1
10
149.507800
20
173.194385
11
150.006712
21
170.636969
0
LINE
8
Layer 1
10
150.006712
20
170.636969
11
150.330008
21
168.046247
0
LINE
8
Layer 1
10
150.330008
20
168.046247
11
150.453726
21
165.419533
0
LINE
8
Layer 1
10
150.453726
20
165.419533
11
150.353903
21
162.754141
0
LINE
8
Layer 1
10
150.353903
20
162.754141
11
149.984876
21
160.109145
0
LINE
8
Layer 1
10
149.984876
20
160.109145
11
149.332712
21
157.686112
0
LINE
8
Layer 1
10
149.332712
20
157.686112
11
148.397394
21
155.486399
0
LINE
8
Layer 1
10
148.397394
20
155.486399
11
147.178903
21
153.511363
0
LINE
8
Layer 1
10
147.178903
20
153.511363
11
145.001233
21
150.987504
0
LINE
8
Layer 1
10
145.001233
20
150.987504
11
144.068255
21
150.151133
0
LINE
8
Layer 1
10
144.068255
20
150.151133
11
143.554111
21
149.913030
0
LINE
8
Layer 1
10
143.554111
20
149.913030
11
143.369460
21
149.910467
0
LINE
8
Layer 1
10
143.369460
20
149.910467
11
143.227792
21
149.719002
0
LINE
8
Layer 1
10
143.227792
20
149.719002
11
143.056998
21
149.522583
0
LINE
8
Layer 1
10
143.056998
20
149.522583
11
142.795639
21
149.507335
0
LINE
8
Layer 1
10
142.795639
20
149.507335
11
142.873276
21
149.947505
0
LINE
8
Layer 1
10
142.873276
20
149.947505
11
143.580570
21
150.891988
0
LINE
8
Layer 1
10
143.580570
20
150.891988
11
144.656989
21
152.341600
0
LINE
8
Layer 1
10
144.656989
20
152.341600
11
145.630403
21
154.085117
0
LINE
8
Layer 1
10
145.630403
20
154.085117
11
146.475710
21
156.035447
0
LINE
8
Layer 1
10
146.475710
20
156.035447
11
147.167808
21
158.105493
0
LINE
8
Layer 1
10
147.167808
20
158.105493
11
147.681597
21
160.208160
0
LINE
8
Layer 1
10
147.681597
20
160.208160
11
147.991976
21
162.256355
0
LINE
8
Layer 1
10
147.991976
20
162.256355
11
148.073843
21
164.162982
0
LINE
8
Layer 1
10
148.073843
20
164.162982
11
147.902097
21
165.840946
0
LINE
8
Layer 1
10
147.902097
20
165.840946
11
147.725709
21
166.749349
0
LINE
8
Layer 1
10
147.725709
20
166.749349
11
146.702653
21
165.638099
0
LINE
8
Layer 1
10
146.702653
20
165.638099
11
145.803396
21
164.834610
0
LINE
8
Layer 1
10
145.803396
20
164.834610
11
144.688980
21
164.125286
0
LINE
8
Layer 1
10
144.688980
20
164.125286
11
143.437078
21
163.552803
0
LINE
8
Layer 1
10
143.437078
20
163.552803
11
142.125361
21
163.159835
0
LINE
8
Layer 1
10
142.125361
20
163.159835
11
140.591314
21
162.654781
0
LINE
8
Layer 1
10
140.591314
20
162.654781
11
138.922519
21
161.828123
0
LINE
8
Layer 1
10
138.922519
20
161.828123
11
137.307332
21
160.787581
0
LINE
8
Layer 1
10
137.307332
20
160.787581
11
135.934111
21
159.640877
0
LINE
8
Layer 1
10
135.934111
20
159.640877
11
134.646312
21
158.199174
0
LINE
8
Layer 1
10
134.646312
20
158.199174
11
133.616468
21
156.574312
0
LINE
8
Layer 1
10
133.616468
20
156.574312
11
132.726801
21
154.542454
0
LINE
8
Layer 1
10
132.726801
20
154.542454
11
131.859528
21
151.879766
0
LINE
8
Layer 1
10
131.859528
20
151.879766
11
131.058371
21
149.507507
0
LINE
8
Layer 1
10
131.058371
20
149.507507
11
130.749534
21
148.912378
0
LINE
8
Layer 1
10
130.749534
20
148.912378
11
130.492514
21
148.687127
0
LINE
8
Layer 1
10
130.492514
20
148.687127
11
130.223836
21
148.761813
0
LINE
8
Layer 1
10
130.223836
20
148.761813
11
129.865432
21
149.069202
0
LINE
8
Layer 1
10
129.865432
20
149.069202
11
128.905014
21
150.354002
0
LINE
8
Layer 1
10
128.905014
20
150.354002
11
127.767306
21
152.294280
0
LINE
8
Layer 1
10
127.767306
20
152.294280
11
129.081403
21
154.014071
0
LINE
8
Layer 1
10
129.081403
20
154.014071
11
131.017569
21
156.558027
0
LINE
8
Layer 1
10
131.017569
20
156.558027
11
131.521810
21
157.444050
0
LINE
8
Layer 1
10
131.521810
20
157.444050
11
131.594945
21
157.885807
0
LINE
8
Layer 1
10
131.594945
20
157.885807
11
131.200808
21
157.906166
0
LINE
8
Layer 1
10
131.200808
20
157.906166
11
130.492514
21
157.718238
0
LINE
8
Layer 1
10
130.492514
20
157.718238
11
129.420340
21
157.481190
0
LINE
8
Layer 1
10
129.420340
20
157.481190
11
128.122079
21
157.392830
0
LINE
8
Layer 1
10
128.122079
20
157.392830
11
126.899990
21
157.456149
0
LINE
8
Layer 1
10
126.899990
20
157.456149
11
126.056334
21
157.674141
0
LINE
8
Layer 1
10
126.056334
20
157.674141
11
125.656327
21
158.184180
0
LINE
8
Layer 1
10
125.656327
20
158.184180
11
125.520517
21
159.136667
0
LINE
8
Layer 1
10
125.520517
20
159.136667
11
125.648206
21
160.519852
0
LINE
8
Layer 1
10
125.648206
20
160.519852
11
126.038695
21
162.321988
0
LINE
8
Layer 1
10
126.038695
20
162.321988
11
126.603107
21
164.052383
0
LINE
8
Layer 1
10
126.603107
20
164.052383
11
127.402986
21
165.588665
0
LINE
8
Layer 1
10
127.402986
20
165.588665
11
128.579053
21
167.147458
0
LINE
8
Layer 1
10
128.579053
20
167.147458
11
130.272028
21
168.945391
0
LINE
8
Layer 1
10
130.272028
20
168.945391
11
132.445536
21
170.859564
0
LINE
8
Layer 1
10
132.445536
20
170.859564
11
134.681750
21
172.164488
0
LINE
8
Layer 1
10
134.681750
20
172.164488
11
137.618625
21
173.566780
0
LINE
8
Layer 1
10
137.618625
20
173.566780
11
139.629459
21
175.083724
0
LINE
8
Layer 1
10
139.629459
20
175.083724
11
140.954559
21
176.543971
0
LINE
8
Layer 1
10
140.954559
20
176.543971
11
141.420322
21
177.382490
0
LINE
8
Layer 1
10
141.420322
20
177.382490
11
141.782826
21
178.391483
0
LINE
8
Layer 1
10
141.782826
20
178.391483
11
142.281858
21
181.215514
0
LINE
8
Layer 1
10
142.281858
20
181.215514
11
142.619250
21
185.605321
0
LINE
8
Layer 1
10
142.619250
20
185.605321
11
142.650845
21
187.732351
0
LINE
8
Layer 1
10
142.650845
20
187.732351
11
142.486959
21
188.991988
0
LINE
8
Layer 1
10
142.486959
20
188.991988
11
142.250095
21
189.450917
0
LINE
8
Layer 1
10
142.250095
20
189.450917
11
142.178278
21
189.150738
0
LINE
8
Layer 1
10
142.178278
20
189.150738
11
141.788533
21
187.654026
0
LINE
8
Layer 1
10
141.788533
20
187.654026
11
140.848941
21
185.482012
0
LINE
8
Layer 1
10
140.848941
20
185.482012
11
139.606083
21
183.144552
0
LINE
8
Layer 1
10
139.606083
20
183.144552
11
138.306542
21
181.151502
0
LINE
8
Layer 1
10
138.306542
20
181.151502
11
137.311855
21
180.093814
0
LINE
8
Layer 1
10
137.311855
20
180.093814
11
135.974112
21
179.017267
0
LINE
8
Layer 1
10
135.974112
20
179.017267
11
134.503921
21
178.072976
0
LINE
8
Layer 1
10
134.503921
20
178.072976
11
133.111889
21
177.412057
0
LINE
8
Layer 1
10
133.111889
20
177.412057
11
131.529177
21
176.726719
0
LINE
8
Layer 1
10
131.529177
20
176.726719
11
129.946794
21
175.835604
0
LINE
8
Layer 1
10
129.946794
20
175.835604
11
128.410171
21
174.766987
0
LINE
8
Layer 1
10
128.410171
20
174.766987
11
126.964736
21
173.549141
0
LINE
8
Layer 1
10
126.964736
20
173.549141
11
125.377236
21
172.076293
0
LINE
8
Layer 1
10
125.377236
20
172.076293
11
124.654042
21
172.773030
0
LINE
8
Layer 1
10
124.654042
20
172.773030
11
124.013953
21
173.624403
0
LINE
8
Layer 1
10
124.013953
20
173.624403
11
123.474689
21
174.779006
0
LINE
8
Layer 1
10
123.474689
20
174.779006
11
123.103973
21
176.057304
0
LINE
8
Layer 1
10
123.103973
20
176.057304
11
122.969528
21
177.279766
0
LINE
8
Layer 1
10
122.969528
20
177.279766
11
123.221519
21
179.331387
0
LINE
8
Layer 1
10
123.221519
20
179.331387
11
123.910151
21
181.763149
0
LINE
8
Layer 1
10
123.910151
20
181.763149
11
124.964114
21
184.369747
0
LINE
8
Layer 1
10
124.964114
20
184.369747
11
126.312097
21
186.945877
0
LINE
8
Layer 1
10
126.312097
20
186.945877
11
126.838355
21
187.992303
0
LINE
8
Layer 1
10
126.838355
20
187.992303
11
126.876542
21
188.427543
0
LINE
8
Layer 1
10
126.876542
20
188.427543
11
126.314007
21
188.130789
0
LINE
8
Layer 1
10
126.314007
20
188.130789
11
125.377062
21
187.327337
0
LINE
8
Layer 1
10
125.377062
20
187.327337
11
122.851117
21
184.721224
0
LINE
8
Layer 1
10
122.851117
20
184.721224
11
120.241061
21
181.650962
0
LINE
8
Layer 1
10
120.241061
20
181.650962
11
118.489250
21
179.158307
0
LINE
8
Layer 1
10
118.489250
20
179.158307
11
117.912529
21
177.568974
0
LINE
8
Layer 1
10
117.912529
20
177.568974
11
117.756203
21
175.772348
0
LINE
8
Layer 1
10
117.756203
20
175.772348
11
118.017113
21
173.873945
0
LINE
8
Layer 1
10
118.017113
20
173.873945
11
118.692097
21
171.979280
0
LINE
8
Layer 1
10
118.692097
20
171.979280
11
119.325953
21
170.415909
0
LINE
8
Layer 1
10
119.325953
20
170.415909
11
119.778261
21
168.796511
0
LINE
8
Layer 1
10
119.778261
20
168.796511
11
120.049087
21
167.143134
0
LINE
8
Layer 1
10
120.049087
20
167.143134
11
120.138497
21
165.477823
0
LINE
8
Layer 1
10
120.138497
20
165.477823
11
120.046555
21
163.822624
0
LINE
8
Layer 1
10
120.046555
20
163.822624
11
119.773327
21
162.199585
0
LINE
8
Layer 1
10
119.773327
20
162.199585
11
119.318880
21
160.630751
0
LINE
8
Layer 1
10
119.318880
20
160.630751
11
118.683278
21
159.138168
0
LINE
8
Layer 1
10
118.683278
20
159.138168
11
117.916161
21
158.000327
0
LINE
8
Layer 1
10
117.916161
20
158.000327
11
116.760639
21
157.436016
0
LINE
8
Layer 1
10
116.760639
20
157.436016
11
113.854272
21
156.247387
0
LINE
8
Layer 1
10
113.854272
20
156.247387
11
111.680639
21
155.134141
0
LINE
8
Layer 1
10
111.680639
20
155.134141
11
110.258662
21
154.124622
0
LINE
8
Layer 1
10
110.258662
20
154.124622
11
108.911334
21
153.431988
0
LINE
8
Layer 1
10
108.911334
20
153.431988
11
108.658874
21
153.468509
0
LINE
8
Layer 1
10
108.658874
20
153.468509
11
108.642620
21
153.686656
0
LINE
8
Layer 1
10
108.642620
20
153.686656
11
109.528695
21
155.319349
0
LINE
8
Layer 1
10
109.528695
20
155.319349
11
110.256973
21
156.721984
0
LINE
8
Layer 1
10
110.256973
20
156.721984
11
110.811289
21
158.137010
0
LINE
8
Layer 1
10
110.811289
20
158.137010
11
111.193011
21
159.581332
0
LINE
8
Layer 1
10
111.193011
20
159.581332
11
111.403506
21
161.071858
0
LINE
8
Layer 1
10
111.403506
20
161.071858
11
111.444141
21
162.625496
0
LINE
8
Layer 1
10
111.444141
20
162.625496
11
111.316285
21
164.259150
0
LINE
8
Layer 1
10
111.316285
20
164.259150
11
110.560570
21
167.834141
0
LINE
8
Layer 1
10
110.560570
20
167.834141
11
109.864116
21
170.694783
0
LINE
8
Layer 1
10
109.864116
20
170.694783
11
109.837375
21
172.526085
0
LINE
8
Layer 1
10
109.837375
20
172.526085
11
109.918857
21
173.590234
0
LINE
8
Layer 1
10
109.918857
20
173.590234
11
109.846195
21
174.034210
0
LINE
8
Layer 1
10
109.846195
20
174.034210
11
109.189412
21
173.707350
0
LINE
8
Layer 1
10
109.189412
20
173.707350
11
108.022143
21
172.868602
0
LINE
8
Layer 1
10
108.022143
20
172.868602
11
105.260084
21
170.506432
0
LINE
8
Layer 1
10
105.260084
20
170.506432
11
104.005621
21
169.204665
0
LINE
8
Layer 1
10
104.005621
20
169.204665
11
102.912289
21
167.858248
0
LINE
8
Layer 1
10
102.912289
20
167.858248
11
101.977465
21
166.461601
0
LINE
8
Layer 1
10
101.977465
20
166.461601
11
101.198527
21
165.009144
0
LINE
8
Layer 1
10
101.198527
20
165.009144
11
100.572852
21
163.495298
0
LINE
8
Layer 1
10
100.572852
20
163.495298
11
100.097817
21
161.914483
0
LINE
8
Layer 1
10
100.097817
20
161.914483
11
99.770801
21
160.261119
0
LINE
8
Layer 1
10
99.770801
20
160.261119
11
99.589181
21
158.529627
0
LINE
8
Layer 1
10
99.589181
20
158.529627
11
99.362883
21
156.296477
0
LINE
8
Layer 1
10
99.362883
20
156.296477
11
99.051195
21
155.478099
0
LINE
8
Layer 1
10
99.051195
20
155.478099
11
98.682116
21
155.711909
0
LINE
8
Layer 1
10
98.682116
20
155.711909
11
98.453039
21
156.064944
0
LINE
8
Layer 1
10
98.453039
20
156.064944
11
98.089875
21
156.924488
0
LINE
8
Layer 1
10
98.089875
20
156.924488
11
97.649426
21
157.992904
0
LINE
8
Layer 1
10
97.649426
20
157.992904
11
97.299976
21
159.350307
0
LINE
8
Layer 1
10
97.299976
20
159.350307
11
96.894623
21
162.582685
0
LINE
8
Layer 1
10
96.894623
20
162.582685
11
96.914917
21
165.922840
0
LINE
8
Layer 1
10
96.914917
20
165.922840
11
97.097526
21
167.414963
0
LINE
8
Layer 1
10
97.097526
20
167.414963
11
97.401959
21
168.671988
0
LINE
8
Layer 1
10
97.401959
20
168.671988
11
98.872019
21
171.986083
0
LINE
8
Layer 1
10
98.872019
20
171.986083
11
99.688559
21
173.398844
0
LINE
8
Layer 1
10
99.688559
20
173.398844
11
100.277097
21
174.113585
0
LINE
8
Layer 1
10
100.277097
20
174.113585
11
100.673972
21
174.563377
0
LINE
8
Layer 1
10
100.673972
20
174.563377
11
101.423938
21
175.608419
0
LINE
8
Layer 1
10
101.423938
20
175.608419
11
103.273603
21
177.381722
0
LINE
8
Layer 1
10
103.273603
20
177.381722
11
105.622620
21
179.348787
0
LINE
8
Layer 1
10
105.622620
20
179.348787
11
107.870639
21
180.975113
0
LINE
8
Layer 1
10
107.870639
20
180.975113
11
111.201518
21
182.936875
0
LINE
8
Layer 1
10
111.201518
20
182.936875
11
114.798939
21
184.765446
0
LINE
8
Layer 1
10
114.798939
20
184.765446
11
118.354153
21
186.315013
0
LINE
8
Layer 1
10
118.354153
20
186.315013
11
121.558417
21
187.439766
0
LINE
8
Layer 1
10
121.558417
20
187.439766
11
123.604522
21
188.356152
0
LINE
8
Layer 1
10
123.604522
20
188.356152
11
125.707192
21
189.832268
0
LINE
8
Layer 1
10
125.707192
20
189.832268
11
127.636065
21
191.677585
0
LINE
8
Layer 1
10
127.636065
20
191.677585
11
129.160778
21
193.701571
0
LINE
8
Layer 1
10
129.160778
20
193.701571
11
129.842090
21
195.201826
0
LINE
8
Layer 1
10
129.842090
20
195.201826
11
130.116567
21
196.729939
0
LINE
8
Layer 1
10
130.116567
20
196.729939
11
129.979295
21
198.185847
0
LINE
8
Layer 1
10
129.979295
20
198.185847
11
129.425361
21
199.469487
0
LINE
8
Layer 1
10
129.425361
20
199.469487
11
128.168967
21
200.746664
0
LINE
8
Layer 1
10
128.168967
20
200.746664
11
126.205716
21
202.069380
0
LINE
8
Layer 1
10
126.205716
20
202.069380
11
123.923034
21
203.212219
0
LINE
8
Layer 1
10
123.923034
20
203.212219
11
121.708347
21
203.949765
0
LINE
8
Layer 1
10
121.708347
20
203.949765
11
119.723972
21
204.514210
0
LINE
8
Layer 1
10
119.723972
20
204.514210
11
119.088201
21
204.664257
0
LINE
8
Layer 1
10
119.088201
20
204.664257
11
119.097792
21
204.161432
0
LINE
8
Layer 1
10
119.097792
20
204.161432
11
119.821427
21
200.596003
0
LINE
8
Layer 1
10
119.821427
20
200.596003
11
119.812683
21
199.620548
0
LINE
8
Layer 1
10
119.812683
20
199.620548
11
119.618139
21
198.516988
0
LINE
8
Layer 1
10
119.618139
20
198.516988
11
119.091954
21
196.541369
0
LINE
8
Layer 1
10
119.091954
20
196.541369
11
118.367736
21
194.793453
0
LINE
8
Layer 1
10
118.367736
20
194.793453
11
117.450716
21
193.284527
0
LINE
8
Layer 1
10
117.450716
20
193.284527
11
116.346125
21
192.025877
0
LINE
8
Layer 1
10
116.346125
20
192.025877
11
114.027505
21
190.236481
0
LINE
8
Layer 1
10
114.027505
20
190.236481
11
111.491758
21
188.695320
0
LINE
8
Layer 1
10
111.491758
20
188.695320
11
106.318417
21
185.746432
0
LINE
8
Layer 1
10
106.318417
20
185.746432
11
106.031073
21
185.727848
0
LINE
8
Layer 1
10
106.031073
20
185.727848
11
105.747246
21
185.884247
0
LINE
8
Layer 1
10
105.747246
20
185.884247
11
105.048417
21
186.848863
0
LINE
8
Layer 1
10
105.048417
20
186.848863
11
103.974228
21
188.314423
0
LINE
8
Layer 1
10
103.974228
20
188.314423
11
102.539864
21
189.573631
0
LINE
8
Layer 1
10
102.539864
20
189.573631
11
100.615731
21
190.718406
0
LINE
8
Layer 1
10
100.615731
20
190.718406
11
98.072236
21
191.840668
0
LINE
8
Layer 1
10
98.072236
20
191.840668
11
94.108780
21
193.687101
0
LINE
8
Layer 1
10
94.108780
20
193.687101
11
92.478805
21
194.673717
0
LINE
8
Layer 1
10
92.478805
20
194.673717
11
91.106397
21
195.683652
0
LINE
8
Layer 1
10
91.106397
20
195.683652
11
90.008855
21
196.702693
0
LINE
8
Layer 1
10
90.008855
20
196.702693
11
89.203478
21
197.716629
0
LINE
8
Layer 1
10
89.203478
20
197.716629
11
88.707566
21
198.711246
0
LINE
8
Layer 1
10
88.707566
20
198.711246
11
88.538417
21
199.672335
0
LINE
8
Layer 1
10
88.538417
20
199.672335
11
88.667818
21
200.592317
0
LINE
8
Layer 1
10
88.667818
20
200.592317
11
88.980500
21
201.627070
0
LINE
8
Layer 1
10
88.980500
20
201.627070
11
89.363182
21
202.471590
0
LINE
8
Layer 1
10
89.363182
20
202.471590
11
89.702584
21
202.820876
0
LINE
8
Layer 1
10
89.702584
20
202.820876
11
89.877945
21
202.897544
0
LINE
8
Layer 1
10
89.877945
20
202.897544
11
89.949528
21
203.085460
0
LINE
8
Layer 1
10
89.949528
20
203.085460
11
90.655084
21
204.399557
0
LINE
8
Layer 1
10
90.655084
20
204.399557
11
91.222815
21
205.374019
0
LINE
8
Layer 1
10
91.222815
20
205.374019
11
91.358029
21
206.020542
0
LINE
8
Layer 1
10
91.358029
20
206.020542
11
91.053576
21
206.379125
0
LINE
8
Layer 1
10
91.053576
20
206.379125
11
90.302306
21
206.489765
0
LINE
8
Layer 1
10
90.302306
20
206.489765
11
90.302306
21
206.489765
0
LINE
8
Layer 1
10
40.745847
20
198.843307
11
38.516860
21
198.701910
0
LINE
8
Layer 1
10
38.516860
20
198.701910
11
36.325509
21
198.252960
0
LINE
8
Layer 1
10
36.325509
20
198.252960
11
34.215167
21
197.516564
0
LINE
8
Layer 1
10
34.215167
20
197.516564
11
32.229206
21
196.512832
0
LINE
8
Layer 1
10
32.229206
20
196.512832
11
30.410997
21
195.261872
0
LINE
8
Layer 1
10
30.410997
20
195.261872
11
28.803914
21
193.783792
0
LINE
8
Layer 1
10
28.803914
20
193.783792
11
27.451328
21
192.098702
0
LINE
8
Layer 1
10
27.451328
20
192.098702
11
26.396611
21
190.226710
0
LINE
8
Layer 1
10
26.396611
20
190.226710
11
25.899749
21
188.623339
0
LINE
8
Layer 1
10
25.899749
20
188.623339
11
25.761611
21
186.390252
0
LINE
8
Layer 1
10
25.761611
20
186.390252
11
25.839292
21
184.472597
0
LINE
8
Layer 1
10
25.839292
20
184.472597
11
26.096750
21
183.585668
0
LINE
8
Layer 1
10
26.096750
20
183.585668
11
26.345899
21
183.202287
0
LINE
8
Layer 1
10
26.345899
20
183.202287
11
26.449528
21
182.774280
0
LINE
8
Layer 1
10
26.449528
20
182.774280
11
26.754828
21
182.140190
0
LINE
8
Layer 1
10
26.754828
20
182.140190
11
27.490222
21
181.266155
0
LINE
8
Layer 1
10
27.490222
20
181.266155
11
28.454892
21
180.443209
0
LINE
8
Layer 1
10
28.454892
20
180.443209
11
28.726586
21
180.469523
0
LINE
8
Layer 1
10
28.726586
20
180.469523
11
29.024806
21
180.728168
0
LINE
8
Layer 1
10
29.024806
20
180.728168
11
30.665222
21
183.444557
0
LINE
8
Layer 1
10
30.665222
20
183.444557
11
31.785764
21
185.400314
0
LINE
8
Layer 1
10
31.785764
20
185.400314
11
32.870084
21
186.998793
0
LINE
8
Layer 1
10
32.870084
20
186.998793
11
34.094076
21
188.313207
0
LINE
8
Layer 1
10
34.094076
20
188.313207
11
35.731247
21
189.753121
0
LINE
8
Layer 1
10
35.731247
20
189.753121
11
37.494468
21
191.083666
0
LINE
8
Layer 1
10
37.494468
20
191.083666
11
39.096611
21
192.069974
0
LINE
8
Layer 1
10
39.096611
20
192.069974
11
41.320696
21
193.085993
0
LINE
8
Layer 1
10
41.320696
20
193.085993
11
43.927821
21
194.088061
0
LINE
8
Layer 1
10
43.927821
20
194.088061
11
46.432240
21
194.903498
0
LINE
8
Layer 1
10
46.432240
20
194.903498
11
48.348209
21
195.359627
0
LINE
8
Layer 1
10
48.348209
20
195.359627
11
49.385009
21
195.598060
0
LINE
8
Layer 1
10
49.385009
20
195.598060
11
49.380402
21
195.786217
0
LINE
8
Layer 1
10
49.380402
20
195.786217
11
49.115500
21
196.109280
0
LINE
8
Layer 1
10
49.115500
20
196.109280
11
48.317802
21
196.754338
0
LINE
8
Layer 1
10
48.317802
20
196.754338
11
47.138343
21
197.388824
0
LINE
8
Layer 1
10
47.138343
20
197.388824
11
45.675259
21
197.967827
0
LINE
8
Layer 1
10
45.675259
20
197.967827
11
44.026681
21
198.446432
0
LINE
8
Layer 1
10
44.026681
20
198.446432
11
42.396495
21
198.738935
0
LINE
8
Layer 1
10
42.396495
20
198.738935
11
40.745847
21
198.843307
0
LINE
8
Layer 1
10
40.745847
20
198.843307
11
40.745847
21
198.843307
0
LINE
8
Layer 1
10
167.975153
20
197.485113
11
166.113729
21
197.369405
0
LINE
8
Layer 1
10
166.113729
20
197.369405
11
165.117653
21
197.079418
0
LINE
8
Layer 1
10
165.117653
20
197.079418
11
163.262931
21
196.545543
0
LINE
8
Layer 1
10
163.262931
20
196.545543
11
162.382842
21
196.180724
0
LINE
8
Layer 1
10
162.382842
20
196.180724
11
161.554597
21
195.659488
0
LINE
8
Layer 1
10
161.554597
20
195.659488
11
164.711959
21
194.354210
0
LINE
8
Layer 1
10
164.711959
20
194.354210
11
166.947425
21
193.273923
0
LINE
8
Layer 1
10
166.947425
20
193.273923
11
170.532792
21
191.126293
0
LINE
8
Layer 1
10
170.532792
20
191.126293
11
172.224288
21
189.859550
0
LINE
8
Layer 1
10
172.224288
20
189.859550
11
173.942241
21
188.303234
0
LINE
8
Layer 1
10
173.942241
20
188.303234
11
175.434930
21
186.705445
0
LINE
8
Layer 1
10
175.434930
20
186.705445
11
176.450639
21
185.314280
0
LINE
8
Layer 1
10
176.450639
20
185.314280
11
177.755531
21
182.723027
0
LINE
8
Layer 1
10
177.755531
20
182.723027
11
178.567306
21
180.789905
0
LINE
8
Layer 1
10
178.567306
20
180.789905
11
179.158209
21
178.964280
0
LINE
8
Layer 1
10
179.158209
20
178.964280
11
179.773755
21
177.658110
0
LINE
8
Layer 1
10
179.773755
20
177.658110
11
180.076045
21
177.474423
0
LINE
8
Layer 1
10
180.076045
20
177.474423
11
180.489945
21
177.473793
0
LINE
8
Layer 1
10
180.489945
20
177.473793
11
181.348349
21
177.936981
0
LINE
8
Layer 1
10
181.348349
20
177.936981
11
182.294090
21
178.977477
0
LINE
8
Layer 1
10
182.294090
20
178.977477
11
183.133714
21
180.335489
0
LINE
8
Layer 1
10
183.133714
20
180.335489
11
183.673764
21
181.751224
0
LINE
8
Layer 1
10
183.673764
20
181.751224
11
183.870953
21
183.327414
0
LINE
8
Layer 1
10
183.870953
20
183.327414
11
183.840890
21
185.172831
0
LINE
8
Layer 1
10
183.840890
20
185.172831
11
183.608201
21
186.952270
0
LINE
8
Layer 1
10
183.608201
20
186.952270
11
183.197514
21
188.330530
0
LINE
8
Layer 1
10
183.197514
20
188.330530
11
182.318959
21
189.976993
0
LINE
8
Layer 1
10
182.318959
20
189.976993
11
181.263270
21
191.480985
0
LINE
8
Layer 1
10
181.263270
20
191.480985
11
180.017152
21
192.858342
0
LINE
8
Layer 1
10
180.017152
20
192.858342
11
178.567306
21
194.124905
0
LINE
8
Layer 1
10
178.567306
20
194.124905
11
176.737011
21
195.390616
0
LINE
8
Layer 1
10
176.737011
20
195.390616
11
174.880572
21
196.311767
0
LINE
8
Layer 1
10
174.880572
20
196.311767
11
172.856667
21
196.946466
0
LINE
8
Layer 1
10
172.856667
20
196.946466
11
170.523972
21
197.352821
0
LINE
8
Layer 1
10
170.523972
20
197.352821
11
167.975153
21
197.485113
0
LINE
8
Layer 1
10
167.975153
20
197.485113
11
167.975153
21
197.485113
0
LINE
8
Layer 1
10
47.228139
20
193.445807
11
45.393451
21
193.196822
0
LINE
8
Layer 1
10
45.393451
20
193.196822
11
43.568070
21
192.555043
0
LINE
8
Layer 1
10
43.568070
20
192.555043
11
42.020862
21
191.647479
0
LINE
8
Layer 1
10
42.020862
20
191.647479
11
40.189536
21
190.361695
0
LINE
8
Layer 1
10
40.189536
20
190.361695
11
38.660619
21
189.136300
0
LINE
8
Layer 1
10
38.660619
20
189.136300
11
38.020639
21
188.409905
0
LINE
8
Layer 1
10
38.020639
20
188.409905
11
38.033907
21
188.218041
0
LINE
8
Layer 1
10
38.033907
20
188.218041
11
38.311784
21
188.218617
0
LINE
8
Layer 1
10
38.311784
20
188.218617
11
41.089806
21
189.133099
0
LINE
8
Layer 1
10
41.089806
20
189.133099
11
43.443556
21
189.841749
0
LINE
8
Layer 1
10
43.443556
20
189.841749
11
45.144785
21
190.102344
0
LINE
8
Layer 1
10
45.144785
20
190.102344
11
46.397205
21
189.920208
0
LINE
8
Layer 1
10
46.397205
20
189.920208
11
47.404528
21
189.300668
0
LINE
8
Layer 1
10
47.404528
20
189.300668
11
48.341962
21
188.273200
0
LINE
8
Layer 1
10
48.341962
20
188.273200
11
49.027634
21
187.071631
0
LINE
8
Layer 1
10
49.027634
20
187.071631
11
49.448558
21
185.727810
0
LINE
8
Layer 1
10
49.448558
20
185.727810
11
49.591750
21
184.273585
0
LINE
8
Layer 1
10
49.591750
20
184.273585
11
49.358852
21
182.404033
0
LINE
8
Layer 1
10
49.358852
20
182.404033
11
48.613500
21
180.572070
0
LINE
8
Layer 1
10
48.613500
20
180.572070
11
47.285711
21
178.648382
0
LINE
8
Layer 1
10
47.285711
20
178.648382
11
45.305500
21
176.503655
0
LINE
8
Layer 1
10
45.305500
20
176.503655
11
43.342089
21
174.443300
0
LINE
8
Layer 1
10
43.342089
20
174.443300
11
43.228251
21
174.110448
0
LINE
8
Layer 1
10
43.228251
20
174.110448
11
43.541611
21
174.034210
0
LINE
8
Layer 1
10
43.541611
20
174.034210
11
44.284589
21
174.226315
0
LINE
8
Layer 1
10
44.284589
20
174.226315
11
45.232815
21
174.758137
0
LINE
8
Layer 1
10
45.232815
20
174.758137
11
47.462431
21
176.573958
0
LINE
8
Layer 1
10
47.462431
20
176.573958
11
49.665301
21
178.947735
0
LINE
8
Layer 1
10
49.665301
20
178.947735
11
50.580093
21
180.177001
0
LINE
8
Layer 1
10
50.580093
20
180.177001
11
51.276264
21
181.345530
0
LINE
8
Layer 1
10
51.276264
20
181.345530
11
52.073763
21
183.240359
0
LINE
8
Layer 1
10
52.073763
20
183.240359
11
52.711062
21
185.321775
0
LINE
8
Layer 1
10
52.711062
20
185.321775
11
53.089573
21
187.205416
0
LINE
8
Layer 1
10
53.089573
20
187.205416
11
53.110709
21
188.506918
0
LINE
8
Layer 1
10
53.110709
20
188.506918
11
52.783486
21
189.567104
0
LINE
8
Layer 1
10
52.783486
20
189.567104
11
52.285493
21
190.641244
0
LINE
8
Layer 1
10
52.285493
20
190.641244
11
51.688579
21
191.598516
0
LINE
8
Layer 1
10
51.688579
20
191.598516
11
51.064597
21
192.308099
0
LINE
8
Layer 1
10
51.064597
20
192.308099
11
50.300039
21
192.829169
0
LINE
8
Layer 1
10
50.300039
20
192.829169
11
49.383773
21
193.193626
0
LINE
8
Layer 1
10
49.383773
20
193.193626
11
48.348804
21
193.399746
0
LINE
8
Layer 1
10
48.348804
20
193.399746
11
47.228139
21
193.445807
0
LINE
8
Layer 1
10
47.228139
20
193.445807
11
47.228139
21
193.445807
0
LINE
8
Layer 1
10
162.392445
20
193.225321
11
160.655321
21
193.074240
0
LINE
8
Layer 1
10
160.655321
20
193.074240
11
160.048485
21
192.797386
0
LINE
8
Layer 1
10
160.048485
20
192.797386
11
159.358556
21
192.308099
0
LINE
8
Layer 1
10
159.358556
20
192.308099
11
158.471973
21
191.491243
0
LINE
8
Layer 1
10
158.471973
20
191.491243
11
157.773490
21
190.556986
0
LINE
8
Layer 1
10
157.773490
20
190.556986
11
157.263268
21
189.506382
0
LINE
8
Layer 1
10
157.263268
20
189.506382
11
156.941470
21
188.340481
0
LINE
8
Layer 1
10
156.941470
20
188.340481
11
156.808258
21
187.060338
0
LINE
8
Layer 1
10
156.808258
20
187.060338
11
156.863792
21
185.667004
0
LINE
8
Layer 1
10
156.863792
20
185.667004
11
157.108236
21
184.161532
0
LINE
8
Layer 1
10
157.108236
20
184.161532
11
157.541750
21
182.544974
0
LINE
8
Layer 1
10
157.541750
20
182.544974
11
158.654417
21
179.909522
0
LINE
8
Layer 1
10
158.654417
20
179.909522
11
160.074061
21
177.441136
0
LINE
8
Layer 1
10
160.074061
20
177.441136
11
161.845917
21
175.224998
0
LINE
8
Layer 1
10
161.845917
20
175.224998
11
164.015222
21
173.346293
0
LINE
8
Layer 1
10
164.015222
20
173.346293
11
164.818945
21
173.042469
0
LINE
8
Layer 1
10
164.818945
20
173.042469
11
164.992777
21
173.075568
0
LINE
8
Layer 1
10
164.992777
20
173.075568
11
165.014637
21
173.232641
0
LINE
8
Layer 1
10
165.014637
20
173.232641
11
164.602583
21
173.920612
0
LINE
8
Layer 1
10
164.602583
20
173.920612
11
163.583070
21
175.110182
0
LINE
8
Layer 1
10
163.583070
20
175.110182
11
162.237351
21
176.748086
0
LINE
8
Layer 1
10
162.237351
20
176.748086
11
161.172733
21
178.409211
0
LINE
8
Layer 1
10
161.172733
20
178.409211
11
160.394767
21
180.066714
0
LINE
8
Layer 1
10
160.394767
20
180.066714
11
159.909002
21
181.693752
0
LINE
8
Layer 1
10
159.909002
20
181.693752
11
159.720989
21
183.263482
0
LINE
8
Layer 1
10
159.720989
20
183.263482
11
159.836280
21
184.749061
0
LINE
8
Layer 1
10
159.836280
20
184.749061
11
160.260424
21
186.123645
0
LINE
8
Layer 1
10
160.260424
20
186.123645
11
160.998972
21
187.360391
0
LINE
8
Layer 1
10
160.998972
20
187.360391
11
161.823149
21
188.301349
0
LINE
8
Layer 1
10
161.823149
20
188.301349
11
162.657556
21
188.974301
0
LINE
8
Layer 1
10
162.657556
20
188.974301
11
163.542970
21
189.379459
0
LINE
8
Layer 1
10
163.542970
20
189.379459
11
164.520170
21
189.517031
0
LINE
8
Layer 1
10
164.520170
20
189.517031
11
165.629932
21
189.387228
0
LINE
8
Layer 1
10
165.629932
20
189.387228
11
166.913036
21
188.990260
0
LINE
8
Layer 1
10
166.913036
20
188.990260
11
170.162375
21
187.395668
0
LINE
8
Layer 1
10
170.162375
20
187.395668
11
171.345820
21
186.819422
0
LINE
8
Layer 1
10
171.345820
20
186.819422
11
171.917445
21
186.707752
0
LINE
8
Layer 1
10
171.917445
20
186.707752
11
171.810134
21
187.037796
0
LINE
8
Layer 1
10
171.810134
20
187.037796
11
171.342600
21
187.640659
0
LINE
8
Layer 1
10
171.342600
20
187.640659
11
169.682775
21
189.330631
0
LINE
8
Layer 1
10
169.682775
20
189.330631
11
167.649799
21
191.109250
0
LINE
8
Layer 1
10
167.649799
20
191.109250
11
165.955500
21
192.308099
0
LINE
8
Layer 1
10
165.955500
20
192.308099
11
164.212236
21
193.053785
0
LINE
8
Layer 1
10
164.212236
20
193.053785
11
162.392445
21
193.225321
0
LINE
8
Layer 1
10
162.392445
20
193.225321
11
162.392445
21
193.225321
0
LINE
8
Layer 1
10
37.835431
20
186.319696
11
37.262167
21
186.116849
0
LINE
8
Layer 1
10
37.262167
20
186.116849
11
36.184258
21
185.321206
0
LINE
8
Layer 1
10
36.184258
20
185.321206
11
34.641560
21
183.892700
0
LINE
8
Layer 1
10
34.641560
20
183.892700
11
33.258228
21
182.445175
0
LINE
8
Layer 1
10
33.258228
20
182.445175
11
32.658417
21
181.592474
0
LINE
8
Layer 1
10
32.658417
20
181.592474
11
32.138070
21
180.569418
0
LINE
8
Layer 1
10
32.138070
20
180.569418
11
31.727045
21
179.728788
0
LINE
8
Layer 1
10
31.727045
20
179.728788
11
31.448621
21
178.653409
0
LINE
8
Layer 1
10
31.448621
20
178.653409
11
31.331918
21
177.506365
0
LINE
8
Layer 1
10
31.331918
20
177.506365
11
31.406056
21
176.450738
0
LINE
8
Layer 1
10
31.406056
20
176.450738
11
31.688350
21
175.633580
0
LINE
8
Layer 1
10
31.688350
20
175.633580
11
32.184698
21
174.855281
0
LINE
8
Layer 1
10
32.184698
20
174.855281
11
32.823096
21
174.206638
0
LINE
8
Layer 1
10
32.823096
20
174.206638
11
33.531542
21
173.778446
0
LINE
8
Layer 1
10
33.531542
20
173.778446
11
34.333657
21
173.559453
0
LINE
8
Layer 1
10
34.333657
20
173.559453
11
35.239531
21
173.509351
0
LINE
8
Layer 1
10
35.239531
20
173.509351
11
37.456195
21
173.919557
0
LINE
8
Layer 1
10
37.456195
20
173.919557
11
39.123998
21
174.589550
0
LINE
8
Layer 1
10
39.123998
20
174.589550
11
40.838107
21
175.625543
0
LINE
8
Layer 1
10
40.838107
20
175.625543
11
42.607511
21
177.034445
0
LINE
8
Layer 1
10
42.607511
20
177.034445
11
44.441195
21
178.823168
0
LINE
8
Layer 1
10
44.441195
20
178.823168
11
45.147028
21
179.679919
0
LINE
8
Layer 1
10
45.147028
20
179.679919
11
45.659326
21
180.542500
0
LINE
8
Layer 1
10
45.659326
20
180.542500
11
45.977644
21
181.401203
0
LINE
8
Layer 1
10
45.977644
20
181.401203
11
46.101540
21
182.246315
0
LINE
8
Layer 1
10
46.101540
20
182.246315
11
46.030571
21
183.068126
0
LINE
8
Layer 1
10
46.030571
20
183.068126
11
45.764294
21
183.856925
0
LINE
8
Layer 1
10
45.764294
20
183.856925
11
45.302265
21
184.603000
0
LINE
8
Layer 1
10
45.302265
20
184.603000
11
44.644042
21
185.296641
0
LINE
8
Layer 1
10
44.644042
20
185.296641
11
43.743679
21
185.904202
0
LINE
8
Layer 1
10
43.743679
20
185.904202
11
42.835921
21
186.148502
0
LINE
8
Layer 1
10
42.835921
20
186.148502
11
41.912796
21
186.030812
0
LINE
8
Layer 1
10
41.912796
20
186.030812
11
40.966334
21
185.552405
0
LINE
8
Layer 1
10
40.966334
20
185.552405
11
40.264310
21
184.918900
0
LINE
8
Layer 1
10
40.264310
20
184.918900
11
39.777485
21
184.159528
0
LINE
8
Layer 1
10
39.777485
20
184.159528
11
39.503589
21
183.320157
0
LINE
8
Layer 1
10
39.503589
20
183.320157
11
39.440350
21
182.446655
0
LINE
8
Layer 1
10
39.440350
20
182.446655
11
39.585497
21
181.584892
0
LINE
8
Layer 1
10
39.585497
20
181.584892
11
39.936761
21
180.780737
0
LINE
8
Layer 1
10
39.936761
20
180.780737
11
40.491871
21
180.080058
0
LINE
8
Layer 1
10
40.491871
20
180.080058
11
41.248556
21
179.528724
0
LINE
8
Layer 1
10
41.248556
20
179.528724
11
41.959492
21
179.005585
0
LINE
8
Layer 1
10
41.959492
20
179.005585
11
42.253972
21
178.514488
0
LINE
8
Layer 1
10
42.253972
20
178.514488
11
42.014188
21
178.073981
0
LINE
8
Layer 1
10
42.014188
20
178.073981
11
41.375688
21
177.703798
0
LINE
8
Layer 1
10
41.375688
20
177.703798
11
40.459751
21
177.452327
0
LINE
8
Layer 1
10
40.459751
20
177.452327
11
39.387653
21
177.367960
0
LINE
8
Layer 1
10
39.387653
20
177.367960
11
38.337567
21
177.517633
0
LINE
8
Layer 1
10
38.337567
20
177.517633
11
37.471019
21
177.913722
0
LINE
8
Layer 1
10
37.471019
20
177.913722
11
36.801054
21
178.523926
0
LINE
8
Layer 1
10
36.801054
20
178.523926
11
36.340713
21
179.315948
0
LINE
8
Layer 1
10
36.340713
20
179.315948
11
36.103041
21
180.257487
0
LINE
8
Layer 1
10
36.103041
20
180.257487
11
36.101082
21
181.316246
0
LINE
8
Layer 1
10
36.101082
20
181.316246
11
36.347877
21
182.459925
0
LINE
8
Layer 1
10
36.347877
20
182.459925
11
36.856472
21
183.656224
0
LINE
8
Layer 1
10
36.856472
20
183.656224
11
37.861889
21
185.816988
0
LINE
8
Layer 1
10
37.861889
20
185.816988
11
37.959422
21
186.218948
0
LINE
8
Layer 1
10
37.959422
20
186.218948
11
37.835431
21
186.319696
0
LINE
8
Layer 1
10
37.835431
20
186.319696
11
37.835431
21
186.319696
0
LINE
8
Layer 1
10
166.634597
20
185.173168
11
165.792900
21
185.036613
0
LINE
8
Layer 1
10
165.792900
20
185.036613
11
164.954153
21
184.638186
0
LINE
8
Layer 1
10
164.954153
20
184.638186
11
164.146444
21
183.980288
0
LINE
8
Layer 1
10
164.146444
20
183.980288
11
163.397861
21
183.065321
0
LINE
8
Layer 1
10
163.397861
20
183.065321
11
162.939216
21
182.204447
0
LINE
8
Layer 1
10
162.939216
20
182.204447
11
162.800204
21
181.356238
0
LINE
8
Layer 1
10
162.800204
20
181.356238
11
162.984274
21
180.401251
0
LINE
8
Layer 1
10
162.984274
20
180.401251
11
163.494875
21
179.220043
0
LINE
8
Layer 1
10
163.494875
20
179.220043
11
164.747917
21
177.381521
0
LINE
8
Layer 1
10
164.747917
20
177.381521
11
166.621490
21
175.296517
0
LINE
8
Layer 1
10
166.621490
20
175.296517
11
168.655956
21
173.429231
0
LINE
8
Layer 1
10
168.655956
20
173.429231
11
170.391681
21
172.243863
0
LINE
8
Layer 1
10
170.391681
20
172.243863
11
171.492774
21
171.795695
0
LINE
8
Layer 1
10
171.492774
20
171.795695
11
172.525449
21
171.539240
0
LINE
8
Layer 1
10
172.525449
20
171.539240
11
173.480165
21
171.472115
0
LINE
8
Layer 1
10
173.480165
20
171.472115
11
174.347383
21
171.591939
0
LINE
8
Layer 1
10
174.347383
20
171.591939
11
175.117565
21
171.896331
0
LINE
8
Layer 1
10
175.117565
20
171.896331
11
175.781171
21
172.382909
0
LINE
8
Layer 1
10
175.781171
20
172.382909
11
176.328663
21
173.049292
0
LINE
8
Layer 1
10
176.328663
20
173.049292
11
176.750500
21
173.893099
0
LINE
8
Layer 1
10
176.750500
20
173.893099
11
177.060390
21
175.139100
0
LINE
8
Layer 1
10
177.060390
20
175.139100
11
177.041340
21
176.451285
0
LINE
8
Layer 1
10
177.041340
20
176.451285
11
176.685046
21
177.895489
0
LINE
8
Layer 1
10
176.685046
20
177.895489
11
175.983209
21
179.537543
0
LINE
8
Layer 1
10
175.983209
20
179.537543
11
174.833723
21
181.572190
0
LINE
8
Layer 1
10
174.833723
20
181.572190
11
173.160986
21
183.691502
0
LINE
8
Layer 1
10
173.160986
20
183.691502
11
172.544898
21
184.293622
0
LINE
8
Layer 1
10
172.544898
20
184.293622
11
172.111612
21
184.470026
0
LINE
8
Layer 1
10
172.111612
20
184.470026
11
171.898742
21
184.224094
0
LINE
8
Layer 1
10
171.898742
20
184.224094
11
171.943903
21
183.559210
0
LINE
8
Layer 1
10
171.943903
20
183.559210
11
172.384875
21
182.342127
0
LINE
8
Layer 1
10
172.384875
20
182.342127
11
172.666177
21
181.557643
0
LINE
8
Layer 1
10
172.666177
20
181.557643
11
172.818666
21
180.300556
0
LINE
8
Layer 1
10
172.818666
20
180.300556
11
172.820405
21
178.948595
0
LINE
8
Layer 1
10
172.820405
20
178.948595
11
172.649459
21
177.879488
0
LINE
8
Layer 1
10
172.649459
20
177.879488
11
172.367444
21
177.297145
0
LINE
8
Layer 1
10
172.367444
20
177.297145
11
171.949334
21
176.814024
0
LINE
8
Layer 1
10
171.949334
20
176.814024
11
170.777201
21
176.168266
0
LINE
8
Layer 1
10
170.777201
20
176.168266
11
169.277812
21
175.987858
0
LINE
8
Layer 1
10
169.277812
20
175.987858
11
167.595917
21
176.318446
0
LINE
8
Layer 1
10
167.595917
20
176.318446
11
167.016085
21
176.632867
0
LINE
8
Layer 1
10
167.016085
20
176.632867
11
166.496042
21
177.084776
0
LINE
8
Layer 1
10
166.496042
20
177.084776
11
166.175363
21
177.526141
0
LINE
8
Layer 1
10
166.175363
20
177.526141
11
166.193625
21
177.808932
0
LINE
8
Layer 1
10
166.193625
20
177.808932
11
167.498903
21
178.399835
0
LINE
8
Layer 1
10
167.498903
20
178.399835
11
168.244015
21
178.811520
0
LINE
8
Layer 1
10
168.244015
20
178.811520
11
168.850785
21
179.327254
0
LINE
8
Layer 1
10
168.850785
20
179.327254
11
169.312809
21
179.927861
0
LINE
8
Layer 1
10
169.312809
20
179.927861
11
169.623679
21
180.594161
0
LINE
8
Layer 1
10
169.623679
20
180.594161
11
169.776991
21
181.306978
0
LINE
8
Layer 1
10
169.776991
20
181.306978
11
169.766338
21
182.047134
0
LINE
8
Layer 1
10
169.766338
20
182.047134
11
169.585314
21
182.795451
0
LINE
8
Layer 1
10
169.585314
20
182.795451
11
169.227514
21
183.532752
0
LINE
8
Layer 1
10
169.227514
20
183.532752
11
168.672023
21
184.256333
0
LINE
8
Layer 1
10
168.672023
20
184.256333
11
168.042652
21
184.769725
0
LINE
8
Layer 1
10
168.042652
20
184.769725
11
167.357482
21
185.074735
0
LINE
8
Layer 1
10
167.357482
20
185.074735
11
166.634597
21
185.173168
0
LINE
8
Layer 1
10
166.634597
20
185.173168
11
166.634597
21
185.173168
0
LINE
8
Layer 1
10
183.029945
20
151.967960
11
181.874597
21
151.932682
0
LINE
8
Layer 1
10
181.874597
20
151.932682
11
179.737571
21
151.651118
0
LINE
8
Layer 1
10
179.737571
20
151.651118
11
177.852931
21
151.209488
0
LINE
8
Layer 1
10
177.852931
20
151.209488
11
175.844270
21
150.434178
0
LINE
8
Layer 1
10
175.844270
20
150.434178
11
173.169806
21
149.022266
0
LINE
8
Layer 1
10
173.169806
20
149.022266
11
171.090410
21
147.415476
0
LINE
8
Layer 1
10
171.090410
20
147.415476
11
168.768903
21
145.247543
0
LINE
8
Layer 1
10
168.768903
20
145.247543
11
167.366611
21
143.765877
0
LINE
8
Layer 1
10
167.366611
20
143.765877
11
167.103346
21
143.396866
0
LINE
8
Layer 1
10
167.103346
20
143.396866
11
167.316845
21
143.303557
0
LINE
8
Layer 1
10
167.316845
20
143.303557
11
169.403903
21
143.968724
0
LINE
8
Layer 1
10
169.403903
20
143.968724
11
171.843066
21
144.777794
0
LINE
8
Layer 1
10
171.843066
20
144.777794
11
174.227012
21
145.349165
0
LINE
8
Layer 1
10
174.227012
20
145.349165
11
176.549786
21
145.682312
0
LINE
8
Layer 1
10
176.549786
20
145.682312
11
178.805431
21
145.776710
0
LINE
8
Layer 1
10
178.805431
20
145.776710
11
180.841991
21
145.710206
0
LINE
8
Layer 1
10
180.841991
20
145.710206
11
180.915402
21
145.676820
0
LINE
8
Layer 1
10
180.915402
20
145.676820
11
180.835865
21
145.632588
0
LINE
8
Layer 1
10
180.835865
20
145.632588
11
180.260639
21
145.503307
0
LINE
8
Layer 1
10
180.260639
20
145.503307
11
178.426195
21
144.991780
0
LINE
8
Layer 1
10
178.426195
20
144.991780
11
176.309528
21
144.383238
0
LINE
8
Layer 1
10
176.309528
20
144.383238
11
173.458838
21
143.573253
0
LINE
8
Layer 1
10
173.458838
20
143.573253
11
170.310521
21
142.434361
0
LINE
8
Layer 1
10
170.310521
20
142.434361
11
167.762818
21
141.321816
0
LINE
8
Layer 1
10
167.762818
20
141.321816
11
166.994898
21
140.886442
0
LINE
8
Layer 1
10
166.994898
20
140.886442
11
166.713972
21
140.590877
0
LINE
8
Layer 1
10
166.713972
20
140.590877
11
166.931948
21
140.174425
0
LINE
8
Layer 1
10
166.931948
20
140.174425
11
167.459871
21
139.590460
0
LINE
8
Layer 1
10
167.459871
20
139.590460
11
168.689528
21
138.659418
0
LINE
8
Layer 1
10
168.689528
20
138.659418
11
170.241750
21
137.777474
0
LINE
8
Layer 1
10
170.241750
20
137.777474
11
172.453548
21
136.531076
0
LINE
8
Layer 1
10
172.453548
20
136.531076
11
174.944480
21
135.343368
0
LINE
8
Layer 1
10
174.944480
20
135.343368
11
177.306547
21
134.393754
0
LINE
8
Layer 1
10
177.306547
20
134.393754
11
179.131750
21
133.861641
0
LINE
8
Layer 1
10
179.131750
20
133.861641
11
180.458127
21
133.782934
0
LINE
8
Layer 1
10
180.458127
20
133.782934
11
182.085045
21
133.926596
0
LINE
8
Layer 1
10
182.085045
20
133.926596
11
183.752259
21
134.256061
0
LINE
8
Layer 1
10
183.752259
20
134.256061
11
185.199528
21
134.734766
0
LINE
8
Layer 1
10
185.199528
20
134.734766
11
186.903886
21
135.622375
0
LINE
8
Layer 1
10
186.903886
20
135.622375
11
188.714334
21
136.830154
0
LINE
8
Layer 1
10
188.714334
20
136.830154
11
190.504809
21
138.264649
0
LINE
8
Layer 1
10
190.504809
20
138.264649
11
192.149250
21
139.832405
0
LINE
8
Layer 1
10
192.149250
20
139.832405
11
193.484258
21
141.068704
0
LINE
8
Layer 1
10
193.484258
20
141.068704
11
194.802229
21
141.969583
0
LINE
8
Layer 1
10
194.802229
20
141.969583
11
196.076940
21
142.520657
0
LINE
8
Layer 1
10
196.076940
20
142.520657
11
197.282167
21
142.707543
0
LINE
8
Layer 1
10
197.282167
20
142.707543
11
198.042981
21
142.802181
0
LINE
8
Layer 1
10
198.042981
20
142.802181
11
198.322861
21
143.060321
0
LINE
8
Layer 1
10
198.322861
20
143.060321
11
197.556293
21
144.069399
0
LINE
8
Layer 1
10
197.556293
20
144.069399
11
195.768569
21
145.853712
0
LINE
8
Layer 1
10
195.768569
20
145.853712
11
193.734432
21
147.681104
0
LINE
8
Layer 1
10
193.734432
20
147.681104
11
192.228625
21
148.819418
0
LINE
8
Layer 1
10
192.228625
20
148.819418
11
189.518144
21
150.227135
0
LINE
8
Layer 1
10
189.518144
20
150.227135
11
187.166548
21
151.196459
0
LINE
8
Layer 1
10
187.166548
20
151.196459
11
185.046320
21
151.764399
0
LINE
8
Layer 1
10
185.046320
20
151.764399
11
183.029945
21
151.967960
0
LINE
8
Layer 1
10
183.029945
20
151.967960
11
183.029945
21
151.967960
0
LINE
8
Layer 1
10
82.109042
20
150.856710
11
83.564250
21
150.045321
0
LINE
8
Layer 1
10
83.564250
20
150.045321
11
86.755708
21
148.531296
0
LINE
8
Layer 1
10
86.755708
20
148.531296
11
90.128675
21
147.434882
0
LINE
8
Layer 1
10
90.128675
20
147.434882
11
93.420888
21
146.823478
0
LINE
8
Layer 1
10
93.420888
20
146.823478
11
96.370084
21
146.764488
0
LINE
8
Layer 1
10
96.370084
20
146.764488
11
98.133972
21
146.914418
0
LINE
8
Layer 1
10
98.133972
20
146.914418
11
98.133972
21
144.965321
0
LINE
8
Layer 1
10
98.133972
20
144.965321
11
98.208900
21
143.546702
0
LINE
8
Layer 1
10
98.208900
20
143.546702
11
98.389736
21
142.866293
0
LINE
8
Layer 1
10
98.389736
20
142.866293
11
98.781759
21
142.780293
0
LINE
8
Layer 1
10
98.781759
20
142.780293
11
99.182419
21
143.017616
0
LINE
8
Layer 1
10
99.182419
20
143.017616
11
100.065431
21
144.524349
0
LINE
8
Layer 1
10
100.065431
20
144.524349
11
100.664744
21
145.654194
0
LINE
8
Layer 1
10
100.664744
20
145.654194
11
101.176681
21
146.226502
0
LINE
8
Layer 1
10
101.176681
20
146.226502
11
101.683612
21
146.206954
0
LINE
8
Layer 1
10
101.683612
20
146.206954
11
102.188611
21
145.769841
0
LINE
8
Layer 1
10
102.188611
20
145.769841
11
102.681534
21
144.928264
0
LINE
8
Layer 1
10
102.681534
20
144.928264
11
103.152236
21
143.695321
0
LINE
8
Layer 1
10
103.152236
20
143.695321
11
103.643102
21
142.478992
0
LINE
8
Layer 1
10
103.643102
20
142.478992
11
104.107336
21
141.933228
0
LINE
8
Layer 1
10
104.107336
20
141.933228
11
104.321535
21
141.915571
0
LINE
8
Layer 1
10
104.321535
20
141.915571
11
104.519559
21
142.070073
0
LINE
8
Layer 1
10
104.519559
20
142.070073
11
104.854389
21
142.901571
0
LINE
8
Layer 1
10
104.854389
20
142.901571
11
105.163070
21
145.097613
0
LINE
8
Layer 1
10
105.163070
20
145.097613
11
105.304181
21
146.297057
0
LINE
8
Layer 1
10
105.304181
20
146.297057
11
107.614875
21
146.067752
0
LINE
8
Layer 1
10
107.614875
20
146.067752
11
111.346610
21
145.841752
0
LINE
8
Layer 1
10
111.346610
20
145.841752
11
115.106101
21
146.177689
0
LINE
8
Layer 1
10
115.106101
20
146.177689
11
118.672011
21
147.040742
0
LINE
8
Layer 1
10
118.672011
20
147.040742
11
120.313204
21
147.659053
0
LINE
8
Layer 1
10
120.313204
20
147.659053
11
121.823000
21
148.396085
0
LINE
8
Layer 1
10
121.823000
20
148.396085
11
124.654042
21
149.948307
0
LINE
8
Layer 1
10
124.654042
20
149.948307
11
125.915222
21
150.627405
0
LINE
8
Layer 1
10
125.915222
20
150.627405
11
126.409111
21
149.983585
0
LINE
8
Layer 1
10
126.409111
20
149.983585
11
127.586837
21
147.903596
0
LINE
8
Layer 1
10
127.586837
20
147.903596
11
128.331750
21
146.067752
0
LINE
8
Layer 1
10
128.331750
20
146.067752
11
127.968588
21
145.701381
0
LINE
8
Layer 1
10
127.968588
20
145.701381
11
127.097028
21
145.229905
0
LINE
8
Layer 1
10
127.097028
20
145.229905
11
125.961729
21
144.561026
0
LINE
8
Layer 1
10
125.961729
20
144.561026
11
124.801215
21
143.633694
0
LINE
8
Layer 1
10
124.801215
20
143.633694
11
123.897844
21
142.701897
0
LINE
8
Layer 1
10
123.897844
20
142.701897
11
123.533972
21
142.019627
0
LINE
8
Layer 1
10
123.533972
20
142.019627
11
123.637493
21
141.605967
0
LINE
8
Layer 1
10
123.637493
20
141.605967
11
123.965837
21
141.439900
0
LINE
8
Layer 1
10
123.965837
20
141.439900
11
124.545680
21
141.519599
0
LINE
8
Layer 1
10
124.545680
20
141.519599
11
125.403695
21
141.843238
0
LINE
8
Layer 1
10
125.403695
20
141.843238
11
126.470252
21
142.272563
0
LINE
8
Layer 1
10
126.470252
20
142.272563
11
127.108130
21
142.408347
0
LINE
8
Layer 1
10
127.108130
20
142.408347
11
127.376655
21
142.248347
0
LINE
8
Layer 1
10
127.376655
20
142.248347
11
127.335153
21
141.790321
0
LINE
8
Layer 1
10
127.335153
20
141.790321
11
127.005543
21
141.119381
0
LINE
8
Layer 1
10
127.005543
20
141.119381
11
126.473526
21
140.607927
0
LINE
8
Layer 1
10
126.473526
20
140.607927
11
125.777010
21
140.281976
0
LINE
8
Layer 1
10
125.777010
20
140.281976
11
124.953903
21
140.167543
0
LINE
8
Layer 1
10
124.953903
20
140.167543
11
124.344430
21
140.095432
0
LINE
8
Layer 1
10
124.344430
20
140.095432
11
123.659999
21
139.855448
0
LINE
8
Layer 1
10
123.659999
20
139.855448
11
121.743625
21
138.729974
0
LINE
8
Layer 1
10
121.743625
20
138.729974
11
120.394670
21
137.740900
0
LINE
8
Layer 1
10
120.394670
20
137.740900
11
119.134613
21
136.586332
0
LINE
8
Layer 1
10
119.134613
20
136.586332
11
116.134459
21
133.023793
0
LINE
8
Layer 1
10
116.134459
20
133.023793
11
115.142917
21
132.103444
0
LINE
8
Layer 1
10
115.142917
20
132.103444
11
113.841403
21
131.286363
0
LINE
8
Layer 1
10
113.841403
20
131.286363
11
112.356844
21
130.370333
0
LINE
8
Layer 1
10
112.356844
20
130.370333
11
110.922167
21
129.213793
0
LINE
8
Layer 1
10
110.922167
20
129.213793
11
107.323834
21
125.915321
0
LINE
8
Layer 1
10
107.323834
20
125.915321
11
105.825501
21
124.636623
0
LINE
8
Layer 1
10
105.825501
20
124.636623
11
104.837958
21
123.984564
0
LINE
8
Layer 1
10
104.837958
20
123.984564
11
104.244481
21
123.905418
0
LINE
8
Layer 1
10
104.244481
20
123.905418
11
103.928347
21
124.345460
0
LINE
8
Layer 1
10
103.928347
20
124.345460
11
103.526368
21
126.257778
0
LINE
8
Layer 1
10
103.526368
20
126.257778
11
103.432426
21
128.506308
0
LINE
8
Layer 1
10
103.432426
20
128.506308
11
103.648181
21
131.108581
0
LINE
8
Layer 1
10
103.648181
20
131.108581
11
104.175292
21
134.082127
0
LINE
8
Layer 1
10
104.175292
20
134.082127
11
104.853446
21
137.994956
0
LINE
8
Layer 1
10
104.853446
20
137.994956
11
104.815857
21
139.034707
0
LINE
8
Layer 1
10
104.815857
20
139.034707
11
104.545709
21
139.770668
0
LINE
8
Layer 1
10
104.545709
20
139.770668
11
103.361372
21
141.323177
0
LINE
8
Layer 1
10
103.361372
20
141.323177
11
101.776403
21
142.778099
0
LINE
8
Layer 1
10
101.776403
20
142.778099
11
100.770986
21
143.545391
0
LINE
8
Layer 1
10
100.770986
20
143.545391
11
100.144806
21
142.883932
0
LINE
8
Layer 1
10
100.144806
20
142.883932
11
99.480062
21
141.888081
0
LINE
8
Layer 1
10
99.480062
20
141.888081
11
98.913894
21
140.477133
0
LINE
8
Layer 1
10
98.913894
20
140.477133
11
98.486932
21
138.779099
0
LINE
8
Layer 1
10
98.486932
20
138.779099
11
98.239806
21
136.921988
0
LINE
8
Layer 1
10
98.239806
20
136.921988
11
98.331675
21
132.795825
0
LINE
8
Layer 1
10
98.331675
20
132.795825
11
98.565053
21
130.608562
0
LINE
8
Layer 1
10
98.565053
20
130.608562
11
98.874806
21
128.949210
0
LINE
8
Layer 1
10
98.874806
20
128.949210
11
98.880503
21
128.431640
0
LINE
8
Layer 1
10
98.880503
20
128.431640
11
98.481999
21
128.357937
0
LINE
8
Layer 1
10
98.481999
20
128.357937
11
97.653717
21
128.734210
0
LINE
8
Layer 1
10
97.653717
20
128.734210
11
96.370084
21
129.566571
0
LINE
8
Layer 1
10
96.370084
20
129.566571
11
93.969111
21
131.108810
0
LINE
8
Layer 1
10
93.969111
20
131.108810
11
91.492960
21
132.440293
0
LINE
8
Layer 1
10
91.492960
20
132.440293
11
88.975580
21
133.550810
0
LINE
8
Layer 1
10
88.975580
20
133.550810
11
86.450922
21
134.430150
0
LINE
8
Layer 1
10
86.450922
20
134.430150
11
83.952934
21
135.068100
0
LINE
8
Layer 1
10
83.952934
20
135.068100
11
81.515565
21
135.454450
0
LINE
8
Layer 1
10
81.515565
20
135.454450
11
79.172767
21
135.578988
0
LINE
8
Layer 1
10
79.172767
20
135.578988
11
76.958486
21
135.431502
0
LINE
8
Layer 1
10
76.958486
20
135.431502
11
75.529222
21
135.292738
0
LINE
8
Layer 1
10
75.529222
20
135.292738
11
74.691746
21
135.401007
0
LINE
8
Layer 1
10
74.691746
20
135.401007
11
74.279879
21
135.826590
0
LINE
8
Layer 1
10
74.279879
20
135.826590
11
74.127445
21
136.639766
0
LINE
8
Layer 1
10
74.127445
20
136.639766
11
74.141315
21
137.902602
0
LINE
8
Layer 1
10
74.141315
20
137.902602
11
74.269757
21
138.263191
0
LINE
8
Layer 1
10
74.269757
20
138.263191
11
74.495453
21
138.448983
0
LINE
8
Layer 1
10
74.495453
20
138.448983
11
75.287357
21
138.313446
0
LINE
8
Layer 1
10
75.287357
20
138.313446
11
76.614528
21
137.530530
0
LINE
8
Layer 1
10
76.614528
20
137.530530
11
78.385095
21
136.471639
0
LINE
8
Layer 1
10
78.385095
20
136.471639
11
78.852579
21
136.371682
0
LINE
8
Layer 1
10
78.852579
20
136.371682
11
79.207445
21
136.489835
0
LINE
8
Layer 1
10
79.207445
20
136.489835
11
79.402838
21
136.830041
0
LINE
8
Layer 1
10
79.402838
20
136.830041
11
79.136889
21
137.521710
0
LINE
8
Layer 1
10
79.136889
20
137.521710
11
78.483203
21
138.470386
0
LINE
8
Layer 1
10
78.483203
20
138.470386
11
77.547451
21
139.515030
0
LINE
8
Layer 1
10
77.547451
20
139.515030
11
76.584005
21
140.398657
0
LINE
8
Layer 1
10
76.584005
20
140.398657
11
75.847236
21
140.864280
0
LINE
8
Layer 1
10
75.847236
20
140.864280
11
75.441875
21
141.118781
0
LINE
8
Layer 1
10
75.441875
20
141.118781
11
75.273972
21
141.472821
0
LINE
8
Layer 1
10
75.273972
20
141.472821
11
75.910833
21
142.747363
0
LINE
8
Layer 1
10
75.910833
20
142.747363
11
77.462483
21
145.071545
0
LINE
8
Layer 1
10
77.462483
20
145.071545
11
79.390519
21
147.682163
0
LINE
8
Layer 1
10
79.390519
20
147.682163
11
81.156542
21
149.816016
0
LINE
8
Layer 1
10
81.156542
20
149.816016
11
82.109042
21
150.856710
0
LINE
8
Layer 1
10
82.109042
20
150.856710
11
82.109042
21
150.856710
0
LINE
8
Layer 1
10
23.530292
20
147.858099
11
22.023134
21
147.739304
0
LINE
8
Layer 1
10
22.023134
20
147.739304
11
20.532021
21
147.460006
0
LINE
8
Layer 1
10
20.532021
20
147.460006
11
19.059344
21
147.020569
0
LINE
8
Layer 1
10
19.059344
20
147.020569
11
17.607493
21
146.421362
0
LINE
8
Layer 1
10
17.607493
20
146.421362
11
16.178862
21
145.662749
0
LINE
8
Layer 1
10
16.178862
20
145.662749
11
14.775840
21
144.745097
0
LINE
8
Layer 1
10
14.775840
20
144.745097
11
12.056194
21
142.434141
0
LINE
8
Layer 1
10
12.056194
20
142.434141
11
9.593479
21
139.814626
0
LINE
8
Layer 1
10
9.593479
20
139.814626
11
8.193278
21
137.680460
0
LINE
8
Layer 1
10
8.193278
20
137.680460
11
7.989961
21
137.157050
0
LINE
8
Layer 1
10
7.989961
20
137.157050
11
8.457861
21
137.221849
0
LINE
8
Layer 1
10
8.457861
20
137.221849
11
9.340657
21
137.393090
0
LINE
8
Layer 1
10
9.340657
20
137.393090
11
10.288949
21
137.389385
0
LINE
8
Layer 1
10
10.288949
20
137.389385
11
11.221280
21
137.218128
0
LINE
8
Layer 1
10
11.221280
20
137.218128
11
12.056194
21
136.886710
0
LINE
8
Layer 1
10
12.056194
20
136.886710
11
14.195097
21
135.448815
0
LINE
8
Layer 1
10
14.195097
20
135.448815
11
16.284292
21
133.928197
0
LINE
8
Layer 1
10
16.284292
20
133.928197
11
18.457684
21
132.563919
0
LINE
8
Layer 1
10
18.457684
20
132.563919
11
19.617800
21
132.015115
0
LINE
8
Layer 1
10
19.617800
20
132.015115
11
20.849180
21
131.595043
0
LINE
8
Layer 1
10
20.849180
20
131.595043
11
22.415163
21
131.292139
0
LINE
8
Layer 1
10
22.415163
20
131.292139
11
24.083295
21
131.176758
0
LINE
8
Layer 1
10
24.083295
20
131.176758
11
25.686593
21
131.250677
0
LINE
8
Layer 1
10
25.686593
20
131.250677
11
27.058069
21
131.515668
0
LINE
8
Layer 1
10
27.058069
20
131.515668
11
29.988608
21
132.891308
0
LINE
8
Layer 1
10
29.988608
20
132.891308
11
32.799528
21
134.576016
0
LINE
8
Layer 1
10
32.799528
20
134.576016
11
35.198417
21
136.401641
0
LINE
8
Layer 1
10
35.198417
20
136.401641
11
37.340384
21
138.147693
0
LINE
8
Layer 1
10
37.340384
20
138.147693
11
37.841968
21
138.693438
0
LINE
8
Layer 1
10
37.841968
20
138.693438
11
38.011820
21
139.065113
0
LINE
8
Layer 1
10
38.011820
20
139.065113
11
37.749078
21
139.297148
0
LINE
8
Layer 1
10
37.749078
20
139.297148
11
37.025619
21
139.613250
0
LINE
8
Layer 1
10
37.025619
20
139.613250
11
34.700529
21
140.356311
0
LINE
8
Layer 1
10
34.700529
20
140.356311
11
32.044504
21
141.011603
0
LINE
8
Layer 1
10
32.044504
20
141.011603
11
30.065500
21
141.296432
0
LINE
8
Layer 1
10
30.065500
20
141.296432
11
29.083705
21
141.460469
0
LINE
8
Layer 1
10
29.083705
20
141.460469
11
28.290228
21
141.748170
0
LINE
8
Layer 1
10
28.290228
20
141.748170
11
27.515672
21
142.015054
0
LINE
8
Layer 1
10
27.515672
20
142.015054
11
26.590639
21
142.116641
0
LINE
8
Layer 1
10
26.590639
20
142.116641
11
26.173197
21
142.193296
0
LINE
8
Layer 1
10
26.173197
20
142.193296
11
26.564180
21
142.469418
0
LINE
8
Layer 1
10
26.564180
20
142.469418
11
27.819620
21
142.650457
0
LINE
8
Layer 1
10
27.819620
20
142.650457
11
30.067654
21
142.601622
0
LINE
8
Layer 1
10
30.067654
20
142.601622
11
32.629906
21
142.363213
0
LINE
8
Layer 1
10
32.629906
20
142.363213
11
34.828000
21
141.975530
0
LINE
8
Layer 1
10
34.828000
20
141.975530
11
36.953486
21
141.640391
0
LINE
8
Layer 1
10
36.953486
20
141.640391
11
36.945856
21
141.845081
0
LINE
8
Layer 1
10
36.945856
20
141.845081
11
36.558644
21
142.277745
0
LINE
8
Layer 1
10
36.558644
20
142.277745
11
34.977474
21
143.577882
0
LINE
8
Layer 1
10
34.977474
20
143.577882
11
32.873980
21
145.042572
0
LINE
8
Layer 1
10
32.873980
20
145.042572
11
30.912167
21
146.173585
0
LINE
8
Layer 1
10
30.912167
20
146.173585
11
29.052360
21
146.945968
0
LINE
8
Layer 1
10
29.052360
20
146.945968
11
27.199081
21
147.483813
0
LINE
8
Layer 1
10
27.199081
20
147.483813
11
25.356876
21
147.787672
0
LINE
8
Layer 1
10
25.356876
20
147.787672
11
23.530292
21
147.858099
0
LINE
8
Layer 1
10
23.530292
20
147.858099
11
23.530292
21
147.858099
0
LINE
8
Layer 1
10
86.404111
20
127.176502
11
88.840639
21
127.127353
0
LINE
8
Layer 1
10
88.840639
20
127.127353
11
91.329997
21
126.922532
0
LINE
8
Layer 1
10
91.329997
20
126.922532
11
93.781759
21
126.562474
0
LINE
8
Layer 1
10
93.781759
20
126.562474
11
96.105500
21
126.047613
0
LINE
8
Layer 1
10
96.105500
20
126.047613
11
99.067079
21
125.149155
0
LINE
8
Layer 1
10
99.067079
20
125.149155
11
99.660086
21
124.786313
0
LINE
8
Layer 1
10
99.660086
20
124.786313
11
99.986056
21
124.336641
0
LINE
8
Layer 1
10
99.986056
20
124.336641
11
100.391750
21
123.243030
0
LINE
8
Layer 1
10
100.391750
20
123.243030
11
100.291973
21
123.086337
0
LINE
8
Layer 1
10
100.291973
20
123.086337
11
100.003120
21
122.993797
0
LINE
8
Layer 1
10
100.003120
20
122.993797
11
98.921046
21
122.995169
0
LINE
8
Layer 1
10
98.921046
20
122.995169
11
95.179459
21
123.701641
0
LINE
8
Layer 1
10
95.179459
20
123.701641
11
90.685825
21
124.576006
0
LINE
8
Layer 1
10
90.685825
20
124.576006
11
85.857306
21
125.086293
0
LINE
8
Layer 1
10
85.857306
20
125.086293
11
78.237306
21
125.527266
0
LINE
8
Layer 1
10
78.237306
20
125.527266
11
85.072375
21
127.132405
0
LINE
8
Layer 1
10
85.072375
20
127.132405
11
86.404111
21
127.176502
0
LINE
8
Layer 1
10
86.404111
20
127.176502
11
86.404111
21
127.176502
0
LINE
8
Layer 1
10
121.373209
20
126.788446
11
123.391866
21
126.713479
0
LINE
8
Layer 1
10
123.391866
20
126.713479
11
125.227306
21
126.453307
0
LINE
8
Layer 1
10
125.227306
20
126.453307
11
127.105954
21
125.991257
0
LINE
8
Layer 1
10
127.105954
20
125.991257
11
127.846799
21
125.608567
0
LINE
8
Layer 1
10
127.846799
20
125.608567
11
127.791245
21
125.445997
0
LINE
8
Layer 1
10
127.791245
20
125.445997
11
127.452081
21
125.302084
0
LINE
8
Layer 1
10
127.452081
20
125.302084
11
125.924042
21
125.068655
0
LINE
8
Layer 1
10
125.924042
20
125.068655
11
120.987573
21
124.450385
0
LINE
8
Layer 1
10
120.987573
20
124.450385
11
116.079373
21
123.655410
0
LINE
8
Layer 1
10
116.079373
20
123.655410
11
111.240608
21
122.548411
0
LINE
8
Layer 1
10
111.240608
20
122.548411
11
106.512445
21
120.994071
0
LINE
8
Layer 1
10
106.512445
20
120.994071
11
105.458193
21
120.711757
0
LINE
8
Layer 1
10
105.458193
20
120.711757
11
104.759938
21
120.806406
0
LINE
8
Layer 1
10
104.759938
20
120.806406
11
104.408769
21
121.281520
0
LINE
8
Layer 1
10
104.408769
20
121.281520
11
104.395778
21
122.140599
0
LINE
8
Layer 1
10
104.395778
20
122.140599
11
104.530663
21
122.486353
0
LINE
8
Layer 1
10
104.530663
20
122.486353
11
104.872699
21
122.802496
0
LINE
8
Layer 1
10
104.872699
20
122.802496
11
106.459528
21
123.534071
0
LINE
8
Layer 1
10
106.459528
20
123.534071
11
110.525056
21
124.929533
0
LINE
8
Layer 1
10
110.525056
20
124.929533
11
114.407288
21
125.942786
0
LINE
8
Layer 1
10
114.407288
20
125.942786
11
118.044060
21
126.565276
0
LINE
8
Layer 1
10
118.044060
20
126.565276
11
121.373209
21
126.788446
0
LINE
8
Layer 1
10
121.373209
20
126.788446
11
121.373209
21
126.788446
 0 
ENDSEC
 0 
EOF
