999
"DXF R12 Output" (www.mydxf.blogspot.com)
 0 
SECTION
 2 
HEADER
 9 
$ACADVER
 1 
AC1009
 9 
$EXTMIN
 10 
 0 
 20 
 0 
 9 
$EXTMAX
 10 
 8.5 
 20 
 11 
 0 
ENDSEC
 0 
SECTION
 2 
ENTITIES
0
LINE
8
Layer 1
10
70.555812
20
130.871736
11
69.779701
21
129.972152
0
LINE
8
Layer 1
10
69.779701
20
129.972152
11
68.688026
21
128.491058
0
LINE
8
Layer 1
10
68.688026
20
128.491058
11
67.482740
21
126.538726
0
LINE
8
Layer 1
10
67.482740
20
126.538726
11
66.349962
21
124.437796
0
LINE
8
Layer 1
10
66.349962
20
124.437796
11
65.475812
21
122.510903
0
LINE
8
Layer 1
10
65.475812
20
122.510903
11
64.177544
21
119.571508
0
LINE
8
Layer 1
10
64.177544
20
119.571508
11
62.822102
21
116.431597
0
LINE
8
Layer 1
10
62.822102
20
116.431597
11
62.257793
21
114.770295
0
LINE
8
Layer 1
10
62.257793
20
114.770295
11
61.841015
21
113.039481
0
LINE
8
Layer 1
10
61.841015
20
113.039481
11
61.625707
21
111.232694
0
LINE
8
Layer 1
10
61.625707
20
111.232694
11
61.665812
21
109.343472
0
LINE
8
Layer 1
10
61.665812
20
109.343472
11
61.912757
21
106.944583
0
LINE
8
Layer 1
10
61.912757
20
106.944583
11
59.972479
21
106.406597
0
LINE
8
Layer 1
10
59.972479
20
106.406597
11
57.851392
21
105.669873
0
LINE
8
Layer 1
10
57.851392
20
105.669873
11
55.383336
21
104.600268
0
LINE
8
Layer 1
10
55.383336
20
104.600268
11
52.903567
21
103.355650
0
LINE
8
Layer 1
10
52.903567
20
103.355650
11
50.747340
21
102.093889
0
LINE
8
Layer 1
10
50.747340
20
102.093889
11
48.445244
21
100.492109
0
LINE
8
Layer 1
10
48.445244
20
100.492109
11
46.288349
21
98.759401
0
LINE
8
Layer 1
10
46.288349
20
98.759401
11
44.279366
21
96.898700
0
LINE
8
Layer 1
10
44.279366
20
96.898700
11
42.421007
21
94.912936
0
LINE
8
Layer 1
10
42.421007
20
94.912936
11
40.715983
21
92.805043
0
LINE
8
Layer 1
10
40.715983
20
92.805043
11
39.167005
21
90.577954
0
LINE
8
Layer 1
10
39.167005
20
90.577954
11
37.776786
21
88.234601
0
LINE
8
Layer 1
10
37.776786
20
88.234601
11
36.548035
21
85.777917
0
LINE
8
Layer 1
10
36.548035
20
85.777917
11
35.057105
21
82.202824
0
LINE
8
Layer 1
10
35.057105
20
82.202824
11
34.484285
21
80.142292
0
LINE
8
Layer 1
10
34.484285
20
80.142292
11
34.385874
21
79.763770
0
LINE
8
Layer 1
10
34.385874
20
79.763770
11
33.941839
21
79.587963
0
LINE
8
Layer 1
10
33.941839
20
79.587963
11
31.124076
21
79.736597
0
LINE
8
Layer 1
10
31.124076
20
79.736597
11
28.899701
21
79.861301
0
LINE
8
Layer 1
10
28.899701
20
79.861301
11
26.676630
21
79.818791
0
LINE
8
Layer 1
10
26.676630
20
79.818791
11
24.465190
21
79.611232
0
LINE
8
Layer 1
10
24.465190
20
79.611232
11
22.275704
21
79.240791
0
LINE
8
Layer 1
10
22.275704
20
79.240791
11
20.118497
21
78.709635
0
LINE
8
Layer 1
10
20.118497
20
78.709635
11
18.003894
21
78.019931
0
LINE
8
Layer 1
10
18.003894
20
78.019931
11
15.942220
21
77.173844
0
LINE
8
Layer 1
10
15.942220
20
77.173844
11
13.943799
21
76.173542
0
LINE
8
Layer 1
10
13.943799
20
76.173542
11
10.306780
21
73.804489
0
LINE
8
Layer 1
10
10.306780
20
73.804489
11
8.601896
21
72.493475
0
LINE
8
Layer 1
10
8.601896
20
72.493475
11
7.426230
21
71.428681
0
LINE
8
Layer 1
10
7.426230
20
71.428681
11
6.621647
21
70.555556
0
LINE
8
Layer 1
10
6.621647
20
70.555556
11
7.426230
21
69.682431
0
LINE
8
Layer 1
10
7.426230
20
69.682431
11
8.601896
21
68.617637
0
LINE
8
Layer 1
10
8.601896
20
68.617637
11
10.306780
21
67.306622
0
LINE
8
Layer 1
10
10.306780
20
67.306622
11
13.943799
21
64.937569
0
LINE
8
Layer 1
10
13.943799
20
64.937569
11
15.942220
21
63.937267
0
LINE
8
Layer 1
10
15.942220
20
63.937267
11
18.003894
21
63.091180
0
LINE
8
Layer 1
10
18.003894
20
63.091180
11
20.118497
21
62.401476
0
LINE
8
Layer 1
10
20.118497
20
62.401476
11
22.275704
21
61.870320
0
LINE
8
Layer 1
10
22.275704
20
61.870320
11
24.465190
21
61.499880
0
LINE
8
Layer 1
10
24.465190
20
61.499880
11
26.676630
21
61.292321
0
LINE
8
Layer 1
10
26.676630
20
61.292321
11
28.899701
21
61.249810
0
LINE
8
Layer 1
10
28.899701
20
61.249810
11
31.124076
21
61.374514
0
LINE
8
Layer 1
10
31.124076
20
61.374514
11
33.941839
21
61.523148
0
LINE
8
Layer 1
10
33.941839
20
61.523148
11
34.385874
21
61.347341
0
LINE
8
Layer 1
10
34.385874
20
61.347341
11
34.484285
21
60.968819
0
LINE
8
Layer 1
10
34.484285
20
60.968819
11
35.057105
21
58.908287
0
LINE
8
Layer 1
10
35.057105
20
58.908287
11
36.548035
21
55.333194
0
LINE
8
Layer 1
10
36.548035
20
55.333194
11
37.776786
21
52.876510
0
LINE
8
Layer 1
10
37.776786
20
52.876510
11
39.167005
21
50.533157
0
LINE
8
Layer 1
10
39.167005
20
50.533157
11
40.715983
21
48.306068
0
LINE
8
Layer 1
10
40.715983
20
48.306068
11
42.421007
21
46.198175
0
LINE
8
Layer 1
10
42.421007
20
46.198175
11
44.279366
21
44.212411
0
LINE
8
Layer 1
10
44.279366
20
44.212411
11
46.288349
21
42.351710
0
LINE
8
Layer 1
10
46.288349
20
42.351710
11
48.445244
21
40.619002
0
LINE
8
Layer 1
10
48.445244
20
40.619002
11
50.747340
21
39.017222
0
LINE
8
Layer 1
10
50.747340
20
39.017222
11
52.903567
21
37.755461
0
LINE
8
Layer 1
10
52.903567
20
37.755461
11
55.383336
21
36.510843
0
LINE
8
Layer 1
10
55.383336
20
36.510843
11
57.851392
21
35.441238
0
LINE
8
Layer 1
10
57.851392
20
35.441238
11
59.972479
21
34.704514
0
LINE
8
Layer 1
10
59.972479
20
34.704514
11
61.912757
21
34.166528
0
LINE
8
Layer 1
10
61.912757
20
34.166528
11
61.665812
21
31.767639
0
LINE
8
Layer 1
10
61.665812
20
31.767639
11
61.625707
21
29.878418
0
LINE
8
Layer 1
10
61.625707
20
29.878418
11
61.841015
21
28.071631
0
LINE
8
Layer 1
10
61.841015
20
28.071631
11
62.257793
21
26.340817
0
LINE
8
Layer 1
10
62.257793
20
26.340817
11
62.822102
21
24.679515
0
LINE
8
Layer 1
10
62.822102
20
24.679515
11
64.177544
21
21.539603
0
LINE
8
Layer 1
10
64.177544
20
21.539603
11
65.475812
21
18.600208
0
LINE
8
Layer 1
10
65.475812
20
18.600208
11
66.349962
21
16.673315
0
LINE
8
Layer 1
10
66.349962
20
16.673315
11
67.482740
21
14.572384
0
LINE
8
Layer 1
10
67.482740
20
14.572384
11
68.688026
21
12.620053
0
LINE
8
Layer 1
10
68.688026
20
12.620053
11
69.779701
21
11.138958
0
LINE
8
Layer 1
10
69.779701
20
11.138958
11
70.555812
21
10.239375
0
LINE
8
Layer 1
10
70.555812
20
10.239375
11
71.331923
21
11.138958
0
LINE
8
Layer 1
10
71.331923
20
11.138958
11
72.423599
21
12.620053
0
LINE
8
Layer 1
10
72.423599
20
12.620053
11
73.628885
21
14.572384
0
LINE
8
Layer 1
10
73.628885
20
14.572384
11
74.761662
21
16.673315
0
LINE
8
Layer 1
10
74.761662
20
16.673315
11
75.635812
21
18.600208
0
LINE
8
Layer 1
10
75.635812
20
18.600208
11
76.934081
21
21.539603
0
LINE
8
Layer 1
10
76.934081
20
21.539603
11
78.289523
21
24.679515
0
LINE
8
Layer 1
10
78.289523
20
24.679515
11
78.853831
21
26.340817
0
LINE
8
Layer 1
10
78.853831
20
26.340817
11
79.270610
21
28.071631
0
LINE
8
Layer 1
10
79.270610
20
28.071631
11
79.485917
21
29.878418
0
LINE
8
Layer 1
10
79.485917
20
29.878418
11
79.445812
21
31.767639
0
LINE
8
Layer 1
10
79.445812
20
31.767639
11
79.198868
21
34.166528
0
LINE
8
Layer 1
10
79.198868
20
34.166528
11
81.139146
21
34.704514
0
LINE
8
Layer 1
10
81.139146
20
34.704514
11
83.260233
21
35.441238
0
LINE
8
Layer 1
10
83.260233
20
35.441238
11
85.728289
21
36.510843
0
LINE
8
Layer 1
10
85.728289
20
36.510843
11
88.208058
21
37.755461
0
LINE
8
Layer 1
10
88.208058
20
37.755461
11
90.364285
21
39.017222
0
LINE
8
Layer 1
10
90.364285
20
39.017222
11
92.666381
21
40.619002
0
LINE
8
Layer 1
10
92.666381
20
40.619002
11
94.823276
21
42.351710
0
LINE
8
Layer 1
10
94.823276
20
42.351710
11
96.832259
21
44.212411
0
LINE
8
Layer 1
10
96.832259
20
44.212411
11
98.690618
21
46.198175
0
LINE
8
Layer 1
10
98.690618
20
46.198175
11
100.395642
21
48.306068
0
LINE
8
Layer 1
10
100.395642
20
48.306068
11
101.944619
21
50.533157
0
LINE
8
Layer 1
10
101.944619
20
50.533157
11
103.334839
21
52.876510
0
LINE
8
Layer 1
10
103.334839
20
52.876510
11
104.563590
21
55.333194
0
LINE
8
Layer 1
10
104.563590
20
55.333194
11
106.054519
21
58.908287
0
LINE
8
Layer 1
10
106.054519
20
58.908287
11
106.627340
21
60.968819
0
LINE
8
Layer 1
10
106.627340
20
60.968819
11
106.725751
21
61.347341
0
LINE
8
Layer 1
10
106.725751
20
61.347341
11
107.169786
21
61.523148
0
LINE
8
Layer 1
10
107.169786
20
61.523148
11
109.987548
21
61.374514
0
LINE
8
Layer 1
10
109.987548
20
61.374514
11
112.211924
21
61.249810
0
LINE
8
Layer 1
10
112.211924
20
61.249810
11
114.434995
21
61.292321
0
LINE
8
Layer 1
10
114.434995
20
61.292321
11
116.646436
21
61.499880
0
LINE
8
Layer 1
10
116.646436
20
61.499880
11
118.835922
21
61.870320
0
LINE
8
Layer 1
10
118.835922
20
61.870320
11
120.993129
21
62.401476
0
LINE
8
Layer 1
10
120.993129
20
62.401476
11
123.107732
21
63.091180
0
LINE
8
Layer 1
10
123.107732
20
63.091180
11
125.169406
21
63.937267
0
LINE
8
Layer 1
10
125.169406
20
63.937267
11
127.167826
21
64.937569
0
LINE
8
Layer 1
10
127.167826
20
64.937569
11
130.804846
21
67.306622
0
LINE
8
Layer 1
10
130.804846
20
67.306622
11
132.509729
21
68.617637
0
LINE
8
Layer 1
10
132.509729
20
68.617637
11
133.685396
21
69.682431
0
LINE
8
Layer 1
10
133.685396
20
69.682431
11
134.489464
21
70.555556
0
LINE
8
Layer 1
10
134.489464
20
70.555556
11
133.685396
21
71.428681
0
LINE
8
Layer 1
10
133.685396
20
71.428681
11
132.509729
21
72.493475
0
LINE
8
Layer 1
10
132.509729
20
72.493475
11
130.804846
21
73.804489
0
LINE
8
Layer 1
10
130.804846
20
73.804489
11
127.167826
21
76.173542
0
LINE
8
Layer 1
10
127.167826
20
76.173542
11
125.169406
21
77.173844
0
LINE
8
Layer 1
10
125.169406
20
77.173844
11
123.107732
21
78.019931
0
LINE
8
Layer 1
10
123.107732
20
78.019931
11
120.993129
21
78.709635
0
LINE
8
Layer 1
10
120.993129
20
78.709635
11
118.835922
21
79.240791
0
LINE
8
Layer 1
10
118.835922
20
79.240791
11
116.646436
21
79.611232
0
LINE
8
Layer 1
10
116.646436
20
79.611232
11
114.434995
21
79.818791
0
LINE
8
Layer 1
10
114.434995
20
79.818791
11
112.211924
21
79.861301
0
LINE
8
Layer 1
10
112.211924
20
79.861301
11
109.987548
21
79.736597
0
LINE
8
Layer 1
10
109.987548
20
79.736597
11
107.169786
21
79.587963
0
LINE
8
Layer 1
10
107.169786
20
79.587963
11
106.725751
21
79.763770
0
LINE
8
Layer 1
10
106.725751
20
79.763770
11
106.627340
21
80.142292
0
LINE
8
Layer 1
10
106.627340
20
80.142292
11
106.054519
21
82.202824
0
LINE
8
Layer 1
10
106.054519
20
82.202824
11
104.563590
21
85.777917
0
LINE
8
Layer 1
10
104.563590
20
85.777917
11
103.334839
21
88.234601
0
LINE
8
Layer 1
10
103.334839
20
88.234601
11
101.944619
21
90.577954
0
LINE
8
Layer 1
10
101.944619
20
90.577954
11
100.395642
21
92.805043
0
LINE
8
Layer 1
10
100.395642
20
92.805043
11
98.690618
21
94.912936
0
LINE
8
Layer 1
10
98.690618
20
94.912936
11
96.832259
21
96.898700
0
LINE
8
Layer 1
10
96.832259
20
96.898700
11
94.823276
21
98.759401
0
LINE
8
Layer 1
10
94.823276
20
98.759401
11
92.666381
21
100.492109
0
LINE
8
Layer 1
10
92.666381
20
100.492109
11
90.364285
21
102.093889
0
LINE
8
Layer 1
10
90.364285
20
102.093889
11
88.208058
21
103.355650
0
LINE
8
Layer 1
10
88.208058
20
103.355650
11
85.728289
21
104.600268
0
LINE
8
Layer 1
10
85.728289
20
104.600268
11
83.260233
21
105.669873
0
LINE
8
Layer 1
10
83.260233
20
105.669873
11
81.139146
21
106.406597
0
LINE
8
Layer 1
10
81.139146
20
106.406597
11
79.198868
21
106.944583
0
LINE
8
Layer 1
10
79.198868
20
106.944583
11
79.445812
21
109.343472
0
LINE
8
Layer 1
10
79.445812
20
109.343472
11
79.485917
21
111.232694
0
LINE
8
Layer 1
10
79.485917
20
111.232694
11
79.270610
21
113.039481
0
LINE
8
Layer 1
10
79.270610
20
113.039481
11
78.853831
21
114.770295
0
LINE
8
Layer 1
10
78.853831
20
114.770295
11
78.289523
21
116.431597
0
LINE
8
Layer 1
10
78.289523
20
116.431597
11
76.934081
21
119.571508
0
LINE
8
Layer 1
10
76.934081
20
119.571508
11
75.635812
21
122.510903
0
LINE
8
Layer 1
10
75.635812
20
122.510903
11
74.761662
21
124.437796
0
LINE
8
Layer 1
10
74.761662
20
124.437796
11
73.628885
21
126.538726
0
LINE
8
Layer 1
10
73.628885
20
126.538726
11
72.423599
21
128.491058
0
LINE
8
Layer 1
10
72.423599
20
128.491058
11
71.331923
21
129.972152
0
LINE
8
Layer 1
10
71.331923
20
129.972152
11
70.555812
21
130.871736
0
LINE
8
Layer 1
10
70.555812
20
130.871736
11
70.555812
21
130.871736
0
LINE
8
Layer 1
10
70.555812
20
120.103194
11
71.999672
21
116.948063
0
LINE
8
Layer 1
10
71.999672
20
116.948063
11
73.224921
21
113.615846
0
LINE
8
Layer 1
10
73.224921
20
113.615846
11
73.647991
21
111.935326
0
LINE
8
Layer 1
10
73.647991
20
111.935326
11
73.887317
21
110.272929
0
LINE
8
Layer 1
10
73.887317
20
110.272929
11
73.899870
21
108.649452
0
LINE
8
Layer 1
10
73.899870
20
108.649452
11
73.642618
21
107.085694
0
LINE
8
Layer 1
10
73.642618
20
107.085694
11
72.287912
21
103.215049
0
LINE
8
Layer 1
10
72.287912
20
103.215049
11
71.516098
21
101.576300
0
LINE
8
Layer 1
10
71.516098
20
101.576300
11
70.846854
21
100.524028
0
LINE
8
Layer 1
10
70.846854
20
100.524028
11
70.555812
21
100.241806
0
LINE
8
Layer 1
10
70.555812
20
100.241806
11
70.264771
21
100.524028
0
LINE
8
Layer 1
10
70.264771
20
100.524028
11
69.595527
21
101.576300
0
LINE
8
Layer 1
10
69.595527
20
101.576300
11
68.823713
21
103.215049
0
LINE
8
Layer 1
10
68.823713
20
103.215049
11
67.469007
21
107.085694
0
LINE
8
Layer 1
10
67.469007
20
107.085694
11
67.211755
21
108.649452
0
LINE
8
Layer 1
10
67.211755
20
108.649452
11
67.224307
21
110.272929
0
LINE
8
Layer 1
10
67.224307
20
110.272929
11
67.463634
21
111.935326
0
LINE
8
Layer 1
10
67.463634
20
111.935326
11
67.886704
21
113.615846
0
LINE
8
Layer 1
10
67.886704
20
113.615846
11
69.111953
21
116.948063
0
LINE
8
Layer 1
10
69.111953
20
116.948063
11
70.555812
21
120.103194
0
LINE
8
Layer 1
10
70.555812
20
120.103194
11
70.555812
21
120.103194
0
LINE
8
Layer 1
10
63.226854
20
102.252639
11
63.447340
21
102.252639
0
LINE
8
Layer 1
10
63.447340
20
102.252639
11
63.960742
21
102.075728
0
LINE
8
Layer 1
10
63.960742
20
102.075728
11
64.276368
21
101.652917
0
LINE
8
Layer 1
10
64.276368
20
101.652917
11
66.163729
21
98.036944
0
LINE
8
Layer 1
10
66.163729
20
98.036944
11
67.768868
21
95.055972
0
LINE
8
Layer 1
10
67.768868
20
95.055972
11
66.763451
21
93.565486
0
LINE
8
Layer 1
10
66.763451
20
93.565486
11
65.246507
21
91.466458
0
LINE
8
Layer 1
10
65.246507
20
91.466458
11
63.129840
21
88.882361
0
LINE
8
Layer 1
10
63.129840
20
88.882361
11
58.776837
21
83.941269
0
LINE
8
Layer 1
10
58.776837
20
83.941269
11
53.957749
21
79.058781
0
LINE
8
Layer 1
10
53.957749
20
79.058781
11
49.800054
21
75.317770
0
LINE
8
Layer 1
10
49.800054
20
75.317770
11
48.321566
21
74.213717
0
LINE
8
Layer 1
10
48.321566
20
74.213717
11
47.431229
21
73.801111
0
LINE
8
Layer 1
10
47.431229
20
73.801111
11
46.703296
21
74.017351
0
LINE
8
Layer 1
10
46.703296
20
74.017351
11
45.596785
21
74.559583
0
LINE
8
Layer 1
10
45.596785
20
74.559583
11
41.680951
21
76.535139
0
LINE
8
Layer 1
10
41.680951
20
76.535139
11
40.014403
21
77.372413
0
LINE
8
Layer 1
10
40.014403
20
77.372413
11
39.548304
21
77.729900
0
LINE
8
Layer 1
10
39.548304
20
77.729900
11
39.298982
21
78.129876
0
LINE
8
Layer 1
10
39.298982
20
78.129876
11
39.245432
21
78.634780
0
LINE
8
Layer 1
10
39.245432
20
78.634780
11
39.366647
21
79.307054
0
LINE
8
Layer 1
10
39.366647
20
79.307054
11
40.049354
21
81.403472
0
LINE
8
Layer 1
10
40.049354
20
81.403472
11
41.454125
21
84.811365
0
LINE
8
Layer 1
10
41.454125
20
84.811365
11
43.249820
21
88.026285
0
LINE
8
Layer 1
10
43.249820
20
88.026285
11
45.405514
21
91.017743
0
LINE
8
Layer 1
10
45.405514
20
91.017743
11
47.890283
21
93.755247
0
LINE
8
Layer 1
10
47.890283
20
93.755247
11
50.673205
21
96.208306
0
LINE
8
Layer 1
10
50.673205
20
96.208306
11
53.723355
21
98.346429
0
LINE
8
Layer 1
10
53.723355
20
98.346429
11
57.009810
21
100.139125
0
LINE
8
Layer 1
10
57.009810
20
100.139125
11
60.501646
21
101.555903
0
LINE
8
Layer 1
10
60.501646
20
101.555903
11
62.146461
21
102.063929
0
LINE
8
Layer 1
10
62.146461
20
102.063929
11
63.226854
21
102.252639
0
LINE
8
Layer 1
10
63.226854
20
102.252639
11
63.226854
21
102.252639
0
LINE
8
Layer 1
10
77.664285
20
102.252639
11
78.781694
21
102.112530
0
LINE
8
Layer 1
10
78.781694
20
102.112530
11
80.609979
21
101.555903
0
LINE
8
Layer 1
10
80.609979
20
101.555903
11
84.101815
21
100.139125
0
LINE
8
Layer 1
10
84.101815
20
100.139125
11
87.388270
21
98.346429
0
LINE
8
Layer 1
10
87.388270
20
98.346429
11
90.438420
21
96.208306
0
LINE
8
Layer 1
10
90.438420
20
96.208306
11
93.221342
21
93.755247
0
LINE
8
Layer 1
10
93.221342
20
93.755247
11
95.706111
21
91.017743
0
LINE
8
Layer 1
10
95.706111
20
91.017743
11
97.861805
21
88.026285
0
LINE
8
Layer 1
10
97.861805
20
88.026285
11
99.657500
21
84.811365
0
LINE
8
Layer 1
10
99.657500
20
84.811365
11
101.062271
21
81.403472
0
LINE
8
Layer 1
10
101.062271
20
81.403472
11
101.744978
21
79.307054
0
LINE
8
Layer 1
10
101.744978
20
79.307054
11
101.866193
21
78.634780
0
LINE
8
Layer 1
10
101.866193
20
78.634780
11
101.812642
21
78.129876
0
LINE
8
Layer 1
10
101.812642
20
78.129876
11
101.563320
21
77.729900
0
LINE
8
Layer 1
10
101.563320
20
77.729900
11
101.097222
21
77.372413
0
LINE
8
Layer 1
10
101.097222
20
77.372413
11
99.430673
21
76.535139
0
LINE
8
Layer 1
10
99.430673
20
76.535139
11
95.514840
21
74.559583
0
LINE
8
Layer 1
10
95.514840
20
74.559583
11
94.408329
21
74.017351
0
LINE
8
Layer 1
10
94.408329
20
74.017351
11
93.680396
21
73.801111
0
LINE
8
Layer 1
10
93.680396
20
73.801111
11
92.790059
21
74.213717
0
LINE
8
Layer 1
10
92.790059
20
74.213717
11
91.311570
21
75.317770
0
LINE
8
Layer 1
10
91.311570
20
75.317770
11
87.153876
21
79.058781
0
LINE
8
Layer 1
10
87.153876
20
79.058781
11
82.334788
21
83.941269
0
LINE
8
Layer 1
10
82.334788
20
83.941269
11
77.981785
21
88.882361
0
LINE
8
Layer 1
10
77.981785
20
88.882361
11
75.865118
21
91.466458
0
LINE
8
Layer 1
10
75.865118
20
91.466458
11
74.348173
21
93.565486
0
LINE
8
Layer 1
10
74.348173
20
93.565486
11
73.342757
21
95.055972
0
LINE
8
Layer 1
10
73.342757
20
95.055972
11
74.947896
21
98.036944
0
LINE
8
Layer 1
10
74.947896
20
98.036944
11
76.835257
21
101.652917
0
LINE
8
Layer 1
10
76.835257
20
101.652917
11
77.150883
21
102.075728
0
LINE
8
Layer 1
10
77.150883
20
102.075728
11
77.664285
21
102.252639
0
LINE
8
Layer 1
10
77.664285
20
102.252639
11
77.664285
21
102.252639
0
LINE
8
Layer 1
10
70.555812
20
89.614375
11
73.413312
21
86.360000
0
LINE
8
Layer 1
10
73.413312
20
86.360000
11
76.233739
21
82.980439
0
LINE
8
Layer 1
10
76.233739
20
82.980439
11
79.339783
21
79.587662
0
LINE
8
Layer 1
10
79.339783
20
79.587662
11
82.520890
21
76.401645
0
LINE
8
Layer 1
10
82.520890
20
76.401645
11
85.566507
21
73.642361
0
LINE
8
Layer 1
10
85.566507
20
73.642361
11
87.579933
21
71.801070
0
LINE
8
Layer 1
10
87.579933
20
71.801070
11
88.538660
21
70.670208
0
LINE
8
Layer 1
10
88.538660
20
70.670208
11
88.538660
21
70.661389
0
LINE
8
Layer 1
10
88.538660
20
70.661389
11
88.538660
21
70.449722
0
LINE
8
Layer 1
10
88.538660
20
70.449722
11
88.538660
21
70.440903
0
LINE
8
Layer 1
10
88.538660
20
70.440903
11
87.579933
21
69.310041
0
LINE
8
Layer 1
10
87.579933
20
69.310041
11
85.566507
21
67.468750
0
LINE
8
Layer 1
10
85.566507
20
67.468750
11
82.520890
21
64.709466
0
LINE
8
Layer 1
10
82.520890
20
64.709466
11
79.339783
21
61.523449
0
LINE
8
Layer 1
10
79.339783
20
61.523449
11
76.233739
21
58.130673
0
LINE
8
Layer 1
10
76.233739
20
58.130673
11
73.413312
21
54.751111
0
LINE
8
Layer 1
10
73.413312
20
54.751111
11
70.555812
21
51.496736
0
LINE
8
Layer 1
10
70.555812
20
51.496736
11
67.698312
21
54.751111
0
LINE
8
Layer 1
10
67.698312
20
54.751111
11
64.877886
21
58.130673
0
LINE
8
Layer 1
10
64.877886
20
58.130673
11
61.771842
21
61.523449
0
LINE
8
Layer 1
10
61.771842
20
61.523449
11
58.590734
21
64.709466
0
LINE
8
Layer 1
10
58.590734
20
64.709466
11
55.545118
21
67.468750
0
LINE
8
Layer 1
10
55.545118
20
67.468750
11
53.531692
21
69.310041
0
LINE
8
Layer 1
10
53.531692
20
69.310041
11
52.572965
21
70.440903
0
LINE
8
Layer 1
10
52.572965
20
70.440903
11
52.572965
21
70.449722
0
LINE
8
Layer 1
10
52.572965
20
70.449722
11
52.564146
21
70.555556
0
LINE
8
Layer 1
10
52.564146
20
70.555556
11
52.572965
21
70.661389
0
LINE
8
Layer 1
10
52.572965
20
70.661389
11
52.572965
21
70.670208
0
LINE
8
Layer 1
10
52.572965
20
70.670208
11
53.531692
21
71.801070
0
LINE
8
Layer 1
10
53.531692
20
71.801070
11
55.545118
21
73.642361
0
LINE
8
Layer 1
10
55.545118
20
73.642361
11
58.590734
21
76.401645
0
LINE
8
Layer 1
10
58.590734
20
76.401645
11
61.771842
21
79.587662
0
LINE
8
Layer 1
10
61.771842
20
79.587662
11
64.877886
21
82.980439
0
LINE
8
Layer 1
10
64.877886
20
82.980439
11
67.698312
21
86.360000
0
LINE
8
Layer 1
10
67.698312
20
86.360000
11
70.555812
21
89.614375
0
LINE
8
Layer 1
10
70.555812
20
89.614375
11
70.555812
21
89.614375
0
LINE
8
Layer 1
10
26.908383
20
74.638958
11
29.119540
21
74.577684
0
LINE
8
Layer 1
10
29.119540
20
74.577684
11
31.331836
21
74.308446
0
LINE
8
Layer 1
10
31.331836
20
74.308446
11
33.543881
21
73.831843
0
LINE
8
Layer 1
10
33.543881
20
73.831843
11
35.754285
21
73.148472
0
LINE
8
Layer 1
10
35.754285
20
73.148472
11
38.384208
21
71.956768
0
LINE
8
Layer 1
10
38.384208
20
71.956768
11
40.710812
21
70.555556
0
LINE
8
Layer 1
10
40.710812
20
70.555556
11
38.384208
21
69.154343
0
LINE
8
Layer 1
10
38.384208
20
69.154343
11
35.754285
21
67.962639
0
LINE
8
Layer 1
10
35.754285
20
67.962639
11
33.228277
21
67.199210
0
LINE
8
Layer 1
10
33.228277
20
67.199210
11
30.700742
21
66.706697
0
LINE
8
Layer 1
10
30.700742
20
66.706697
11
28.173279
21
66.485006
0
LINE
8
Layer 1
10
28.173279
20
66.485006
11
25.647487
21
66.534038
0
LINE
8
Layer 1
10
25.647487
20
66.534038
11
23.124968
21
66.853699
0
LINE
8
Layer 1
10
23.124968
20
66.853699
11
20.607319
21
67.443892
0
LINE
8
Layer 1
10
20.607319
20
67.443892
11
18.096142
21
68.304519
0
LINE
8
Layer 1
10
18.096142
20
68.304519
11
15.593035
21
69.435486
0
LINE
8
Layer 1
10
15.593035
20
69.435486
11
14.485981
21
70.052063
0
LINE
8
Layer 1
10
14.485981
20
70.052063
11
14.049633
21
70.555556
0
LINE
8
Layer 1
10
14.049633
20
70.555556
11
14.485981
21
71.059048
0
LINE
8
Layer 1
10
14.485981
20
71.059048
11
15.593035
21
71.675625
0
LINE
8
Layer 1
10
15.593035
20
71.675625
11
18.409366
21
72.929508
0
LINE
8
Layer 1
10
18.409366
20
72.929508
11
21.235341
21
73.841892
0
LINE
8
Layer 1
10
21.235341
20
73.841892
11
24.069000
21
74.411975
0
LINE
8
Layer 1
10
24.069000
20
74.411975
11
26.908383
21
74.638958
0
LINE
8
Layer 1
10
26.908383
20
74.638958
11
26.908383
21
74.638958
0
LINE
8
Layer 1
10
113.568243
20
74.638958
11
116.566744
21
74.470291
0
LINE
8
Layer 1
10
116.566744
20
74.470291
11
119.559975
21
73.920106
0
LINE
8
Layer 1
10
119.559975
20
73.920106
11
122.544928
21
72.988513
0
LINE
8
Layer 1
10
122.544928
20
72.988513
11
125.518590
21
71.675625
0
LINE
8
Layer 1
10
125.518590
20
71.675625
11
126.625644
21
71.059048
0
LINE
8
Layer 1
10
126.625644
20
71.059048
11
127.061993
21
70.555556
0
LINE
8
Layer 1
10
127.061993
20
70.555556
11
126.625644
21
70.052063
0
LINE
8
Layer 1
10
126.625644
20
70.052063
11
125.518590
21
69.435486
0
LINE
8
Layer 1
10
125.518590
20
69.435486
11
123.015484
21
68.304519
0
LINE
8
Layer 1
10
123.015484
20
68.304519
11
120.504306
21
67.443892
0
LINE
8
Layer 1
10
120.504306
20
67.443892
11
117.986658
21
66.853699
0
LINE
8
Layer 1
10
117.986658
20
66.853699
11
115.464138
21
66.534038
0
LINE
8
Layer 1
10
115.464138
20
66.534038
11
112.938346
21
66.485006
0
LINE
8
Layer 1
10
112.938346
20
66.485006
11
110.410883
21
66.706697
0
LINE
8
Layer 1
10
110.410883
20
66.706697
11
107.883348
21
67.199210
0
LINE
8
Layer 1
10
107.883348
20
67.199210
11
105.357340
21
67.962639
0
LINE
8
Layer 1
10
105.357340
20
67.962639
11
102.727417
21
69.154343
0
LINE
8
Layer 1
10
102.727417
20
69.154343
11
100.400812
21
70.555556
0
LINE
8
Layer 1
10
100.400812
20
70.555556
11
102.727417
21
71.956768
0
LINE
8
Layer 1
10
102.727417
20
71.956768
11
105.357340
21
73.148472
0
LINE
8
Layer 1
10
105.357340
20
73.148472
11
107.409280
21
73.789357
0
LINE
8
Layer 1
10
107.409280
20
73.789357
11
109.462094
21
74.251331
0
LINE
8
Layer 1
10
109.462094
20
74.251331
11
111.515257
21
74.534498
0
LINE
8
Layer 1
10
111.515257
20
74.534498
11
113.568243
21
74.638958
0
LINE
8
Layer 1
10
113.568243
20
74.638958
11
113.568243
21
74.638958
0
LINE
8
Layer 1
10
47.431229
20
67.310000
11
48.321566
21
66.897394
0
LINE
8
Layer 1
10
48.321566
20
66.897394
11
49.800054
21
65.793341
0
LINE
8
Layer 1
10
49.800054
20
65.793341
11
53.957749
21
62.052330
0
LINE
8
Layer 1
10
53.957749
20
62.052330
11
58.776837
21
57.169842
0
LINE
8
Layer 1
10
58.776837
20
57.169842
11
63.129840
21
52.228750
0
LINE
8
Layer 1
10
63.129840
20
52.228750
11
65.246507
21
49.644653
0
LINE
8
Layer 1
10
65.246507
20
49.644653
11
66.763451
21
47.545625
0
LINE
8
Layer 1
10
66.763451
20
47.545625
11
67.768868
21
46.055139
0
LINE
8
Layer 1
10
67.768868
20
46.055139
11
66.163729
21
43.074167
0
LINE
8
Layer 1
10
66.163729
20
43.074167
11
64.276368
21
39.458194
0
LINE
8
Layer 1
10
64.276368
20
39.458194
11
63.960742
21
39.035384
0
LINE
8
Layer 1
10
63.960742
20
39.035384
11
63.447340
21
38.858472
0
LINE
8
Layer 1
10
63.447340
20
38.858472
11
63.226854
21
38.858472
0
LINE
8
Layer 1
10
63.226854
20
38.858472
11
62.146461
21
39.047182
0
LINE
8
Layer 1
10
62.146461
20
39.047182
11
60.501646
21
39.555208
0
LINE
8
Layer 1
10
60.501646
20
39.555208
11
57.009810
21
40.971986
0
LINE
8
Layer 1
10
57.009810
20
40.971986
11
53.723355
21
42.764682
0
LINE
8
Layer 1
10
53.723355
20
42.764682
11
50.673205
21
44.902805
0
LINE
8
Layer 1
10
50.673205
20
44.902805
11
47.890283
21
47.355864
0
LINE
8
Layer 1
10
47.890283
20
47.355864
11
45.405514
21
50.093368
0
LINE
8
Layer 1
10
45.405514
20
50.093368
11
43.249820
21
53.084826
0
LINE
8
Layer 1
10
43.249820
20
53.084826
11
41.454125
21
56.299747
0
LINE
8
Layer 1
10
41.454125
20
56.299747
11
40.049354
21
59.707639
0
LINE
8
Layer 1
10
40.049354
20
59.707639
11
39.366647
21
61.804058
0
LINE
8
Layer 1
10
39.366647
20
61.804058
11
39.245432
21
62.476331
0
LINE
8
Layer 1
10
39.245432
20
62.476331
11
39.298982
21
62.981235
0
LINE
8
Layer 1
10
39.298982
20
62.981235
11
39.548304
21
63.381211
0
LINE
8
Layer 1
10
39.548304
20
63.381211
11
40.014403
21
63.738698
0
LINE
8
Layer 1
10
40.014403
20
63.738698
11
41.680951
21
64.575972
0
LINE
8
Layer 1
10
41.680951
20
64.575972
11
45.596785
21
66.551528
0
LINE
8
Layer 1
10
45.596785
20
66.551528
11
46.703296
21
67.093760
0
LINE
8
Layer 1
10
46.703296
20
67.093760
11
47.431229
21
67.310000
0
LINE
8
Layer 1
10
47.431229
20
67.310000
11
47.431229
21
67.310000
0
LINE
8
Layer 1
10
93.680396
20
67.310000
11
94.408329
21
67.093760
0
LINE
8
Layer 1
10
94.408329
20
67.093760
11
95.514840
21
66.551528
0
LINE
8
Layer 1
10
95.514840
20
66.551528
11
99.430673
21
64.575972
0
LINE
8
Layer 1
10
99.430673
20
64.575972
11
101.097222
21
63.738698
0
LINE
8
Layer 1
10
101.097222
20
63.738698
11
101.563320
21
63.381211
0
LINE
8
Layer 1
10
101.563320
20
63.381211
11
101.812642
21
62.981235
0
LINE
8
Layer 1
10
101.812642
20
62.981235
11
101.866193
21
62.476331
0
LINE
8
Layer 1
10
101.866193
20
62.476331
11
101.744978
21
61.804058
0
LINE
8
Layer 1
10
101.744978
20
61.804058
11
101.062271
21
59.707639
0
LINE
8
Layer 1
10
101.062271
20
59.707639
11
99.657500
21
56.299747
0
LINE
8
Layer 1
10
99.657500
20
56.299747
11
97.861805
21
53.084826
0
LINE
8
Layer 1
10
97.861805
20
53.084826
11
95.706111
21
50.093368
0
LINE
8
Layer 1
10
95.706111
20
50.093368
11
93.221342
21
47.355864
0
LINE
8
Layer 1
10
93.221342
20
47.355864
11
90.438420
21
44.902805
0
LINE
8
Layer 1
10
90.438420
20
44.902805
11
87.388270
21
42.764682
0
LINE
8
Layer 1
10
87.388270
20
42.764682
11
84.101815
21
40.971986
0
LINE
8
Layer 1
10
84.101815
20
40.971986
11
80.609979
21
39.555208
0
LINE
8
Layer 1
10
80.609979
20
39.555208
11
78.781694
21
38.998581
0
LINE
8
Layer 1
10
78.781694
20
38.998581
11
77.664285
21
38.858472
0
LINE
8
Layer 1
10
77.664285
20
38.858472
11
77.150883
21
39.035384
0
LINE
8
Layer 1
10
77.150883
20
39.035384
11
76.835257
21
39.458194
0
LINE
8
Layer 1
10
76.835257
20
39.458194
11
74.947896
21
43.074167
0
LINE
8
Layer 1
10
74.947896
20
43.074167
11
73.342757
21
46.055139
0
LINE
8
Layer 1
10
73.342757
20
46.055139
11
74.348173
21
47.545625
0
LINE
8
Layer 1
10
74.348173
20
47.545625
11
75.865118
21
49.644653
0
LINE
8
Layer 1
10
75.865118
20
49.644653
11
77.981785
21
52.228750
0
LINE
8
Layer 1
10
77.981785
20
52.228750
11
82.334788
21
57.169842
0
LINE
8
Layer 1
10
82.334788
20
57.169842
11
87.153876
21
62.052330
0
LINE
8
Layer 1
10
87.153876
20
62.052330
11
91.311570
21
65.793341
0
LINE
8
Layer 1
10
91.311570
20
65.793341
11
92.790059
21
66.897394
0
LINE
8
Layer 1
10
92.790059
20
66.897394
11
93.680396
21
67.310000
0
LINE
8
Layer 1
10
93.680396
20
67.310000
11
93.680396
21
67.310000
0
LINE
8
Layer 1
10
70.555812
20
40.869306
11
70.846854
21
40.587083
0
LINE
8
Layer 1
10
70.846854
20
40.587083
11
71.516098
21
39.534811
0
LINE
8
Layer 1
10
71.516098
20
39.534811
11
72.287912
21
37.896062
0
LINE
8
Layer 1
10
72.287912
20
37.896062
11
73.642618
21
34.025417
0
LINE
8
Layer 1
10
73.642618
20
34.025417
11
73.899870
21
32.461659
0
LINE
8
Layer 1
10
73.899870
20
32.461659
11
73.887317
21
30.838183
0
LINE
8
Layer 1
10
73.887317
20
30.838183
11
73.647991
21
29.175785
0
LINE
8
Layer 1
10
73.647991
20
29.175785
11
73.224921
21
27.495265
0
LINE
8
Layer 1
10
73.224921
20
27.495265
11
71.999672
21
24.163048
0
LINE
8
Layer 1
10
71.999672
20
24.163048
11
70.555812
21
21.007917
0
LINE
8
Layer 1
10
70.555812
20
21.007917
11
69.111953
21
24.163048
0
LINE
8
Layer 1
10
69.111953
20
24.163048
11
67.886704
21
27.495265
0
LINE
8
Layer 1
10
67.886704
20
27.495265
11
67.463634
21
29.175785
0
LINE
8
Layer 1
10
67.463634
20
29.175785
11
67.224307
21
30.838183
0
LINE
8
Layer 1
10
67.224307
20
30.838183
11
67.211755
21
32.461659
0
LINE
8
Layer 1
10
67.211755
20
32.461659
11
67.469007
21
34.025417
0
LINE
8
Layer 1
10
67.469007
20
34.025417
11
68.823713
21
37.896062
0
LINE
8
Layer 1
10
68.823713
20
37.896062
11
69.595527
21
39.534811
0
LINE
8
Layer 1
10
69.595527
20
39.534811
11
70.264771
21
40.587083
0
LINE
8
Layer 1
10
70.264771
20
40.587083
11
70.555812
21
40.869306
0
LINE
8
Layer 1
10
70.555812
20
40.869306
11
70.555812
21
40.869306
 0 
ENDSEC
 0 
EOF
