999
"DXF R12 Output" (www.mydxf.blogspot.com)
 0 
SECTION
 2 
HEADER
 9 
$ACADVER
 1 
AC1009
 9 
$EXTMIN
 10 
 0 
 20 
 0 
 9 
$EXTMAX
 10 
 8.5 
 20 
 11 
 0 
ENDSEC
 0 
SECTION
 2 
ENTITIES
0
LINE
8
Layer 1
10
85.281166
20
200.750312
11
83.468099
21
200.675309
0
LINE
8
Layer 1
10
83.468099
20
200.675309
11
81.597096
21
200.387945
0
LINE
8
Layer 1
10
81.597096
20
200.387945
11
79.249271
21
199.194568
0
LINE
8
Layer 1
10
79.249271
20
199.194568
11
77.320382
21
197.697504
0
LINE
8
Layer 1
10
77.320382
20
197.697504
11
75.803714
21
195.965639
0
LINE
8
Layer 1
10
75.803714
20
195.965639
11
74.692548
21
194.067855
0
LINE
8
Layer 1
10
74.692548
20
194.067855
11
73.980167
21
192.073036
0
LINE
8
Layer 1
10
73.980167
20
192.073036
11
73.659853
21
190.050067
0
LINE
8
Layer 1
10
73.659853
20
190.050067
11
73.724888
21
188.067830
0
LINE
8
Layer 1
10
73.724888
20
188.067830
11
74.168556
21
186.195209
0
LINE
8
Layer 1
10
74.168556
20
186.195209
11
74.790032
21
184.826443
0
LINE
8
Layer 1
10
74.790032
20
184.826443
11
75.645688
21
183.609726
0
LINE
8
Layer 1
10
75.645688
20
183.609726
11
76.733484
21
182.579372
0
LINE
8
Layer 1
10
76.733484
20
182.579372
11
78.051378
21
181.769695
0
LINE
8
Layer 1
10
78.051378
20
181.769695
11
79.597331
21
181.215008
0
LINE
8
Layer 1
10
79.597331
20
181.215008
11
81.369303
21
180.949627
0
LINE
8
Layer 1
10
81.369303
20
180.949627
11
83.365253
21
181.007864
0
LINE
8
Layer 1
10
83.365253
20
181.007864
11
85.583141
21
181.424034
0
LINE
8
Layer 1
10
85.583141
20
181.424034
11
87.086024
21
182.432766
0
LINE
8
Layer 1
10
87.086024
20
182.432766
11
88.316502
21
183.745294
0
LINE
8
Layer 1
10
88.316502
20
183.745294
11
89.206865
21
185.315820
0
LINE
8
Layer 1
10
89.206865
20
185.315820
11
89.689403
21
187.098550
0
LINE
8
Layer 1
10
89.689403
20
187.098550
11
89.696404
21
189.047687
0
LINE
8
Layer 1
10
89.696404
20
189.047687
11
89.160159
21
191.117436
0
LINE
8
Layer 1
10
89.160159
20
191.117436
11
88.012957
21
193.262001
0
LINE
8
Layer 1
10
88.012957
20
193.262001
11
86.187088
21
195.435585
0
LINE
8
Layer 1
10
86.187088
20
195.435585
11
85.031706
21
196.208969
0
LINE
8
Layer 1
10
85.031706
20
196.208969
11
84.385429
21
196.856471
0
LINE
8
Layer 1
10
84.385429
20
196.856471
11
84.292712
21
197.306884
0
LINE
8
Layer 1
10
84.292712
20
197.306884
11
84.798010
21
197.489003
0
LINE
8
Layer 1
10
84.798010
20
197.489003
11
86.487317
21
197.225088
0
LINE
8
Layer 1
10
86.487317
20
197.225088
11
88.363402
21
196.387100
0
LINE
8
Layer 1
10
88.363402
20
196.387100
11
90.354695
21
195.045258
0
LINE
8
Layer 1
10
90.354695
20
195.045258
11
92.389626
21
193.269779
0
LINE
8
Layer 1
10
92.389626
20
193.269779
11
94.396622
21
191.130883
0
LINE
8
Layer 1
10
94.396622
20
191.130883
11
96.304114
21
188.698787
0
LINE
8
Layer 1
10
96.304114
20
188.698787
11
98.040529
21
186.043711
0
LINE
8
Layer 1
10
98.040529
20
186.043711
11
99.534297
21
183.235872
0
LINE
8
Layer 1
10
99.534297
20
183.235872
11
103.278765
21
175.324179
0
LINE
8
Layer 1
10
103.278765
20
175.324179
11
102.010478
21
182.088376
0
LINE
8
Layer 1
10
102.010478
20
182.088376
11
101.004015
21
186.284370
0
LINE
8
Layer 1
10
101.004015
20
186.284370
11
99.640904
21
189.988346
0
LINE
8
Layer 1
10
99.640904
20
189.988346
11
97.944511
21
193.180133
0
LINE
8
Layer 1
10
97.944511
20
193.180133
11
95.938204
21
195.839564
0
LINE
8
Layer 1
10
95.938204
20
195.839564
11
94.826134
21
196.963342
0
LINE
8
Layer 1
10
94.826134
20
196.963342
11
93.645349
21
197.946466
0
LINE
8
Layer 1
10
93.645349
20
197.946466
11
92.398768
21
198.786417
0
LINE
8
Layer 1
10
92.398768
20
198.786417
11
91.089313
21
199.480672
0
LINE
8
Layer 1
10
91.089313
20
199.480672
11
89.719905
21
200.026710
0
LINE
8
Layer 1
10
89.719905
20
200.026710
11
88.293463
21
200.422011
0
LINE
8
Layer 1
10
88.293463
20
200.422011
11
86.812910
21
200.664052
0
LINE
8
Layer 1
10
86.812910
20
200.664052
11
85.281166
21
200.750312
0
LINE
8
Layer 1
10
85.281166
20
200.750312
11
85.281166
21
200.750312
0
LINE
8
Layer 1
10
124.718854
20
200.750312
11
123.187110
21
200.664052
0
LINE
8
Layer 1
10
123.187110
20
200.664052
11
121.706557
21
200.422011
0
LINE
8
Layer 1
10
121.706557
20
200.422011
11
120.280116
21
200.026710
0
LINE
8
Layer 1
10
120.280116
20
200.026710
11
118.910707
21
199.480672
0
LINE
8
Layer 1
10
118.910707
20
199.480672
11
117.601252
21
198.786417
0
LINE
8
Layer 1
10
117.601252
20
198.786417
11
116.354671
21
197.946466
0
LINE
8
Layer 1
10
116.354671
20
197.946466
11
115.173886
21
196.963342
0
LINE
8
Layer 1
10
115.173886
20
196.963342
11
114.061817
21
195.839564
0
LINE
8
Layer 1
10
114.061817
20
195.839564
11
112.055510
21
193.180133
0
LINE
8
Layer 1
10
112.055510
20
193.180133
11
110.359118
21
189.988346
0
LINE
8
Layer 1
10
110.359118
20
189.988346
11
108.996007
21
186.284370
0
LINE
8
Layer 1
10
108.996007
20
186.284370
11
107.989545
21
182.088376
0
LINE
8
Layer 1
10
107.989545
20
182.088376
11
106.721258
21
175.324179
0
LINE
8
Layer 1
10
106.721258
20
175.324179
11
110.465723
21
183.235872
0
LINE
8
Layer 1
10
110.465723
20
183.235872
11
111.959492
21
186.043711
0
LINE
8
Layer 1
10
111.959492
20
186.043711
11
113.695909
21
188.698787
0
LINE
8
Layer 1
10
113.695909
20
188.698787
11
115.603403
21
191.130883
0
LINE
8
Layer 1
10
115.603403
20
191.130883
11
117.610402
21
193.269779
0
LINE
8
Layer 1
10
117.610402
20
193.269779
11
119.645333
21
195.045258
0
LINE
8
Layer 1
10
119.645333
20
195.045258
11
121.636627
21
196.387100
0
LINE
8
Layer 1
10
121.636627
20
196.387100
11
123.512709
21
197.225088
0
LINE
8
Layer 1
10
123.512709
20
197.225088
11
125.202010
21
197.489003
0
LINE
8
Layer 1
10
125.202010
20
197.489003
11
125.707309
21
197.306884
0
LINE
8
Layer 1
10
125.707309
20
197.306884
11
125.614592
21
196.856471
0
LINE
8
Layer 1
10
125.614592
20
196.856471
11
124.968316
21
196.208969
0
LINE
8
Layer 1
10
124.968316
20
196.208969
11
123.812935
21
195.435585
0
LINE
8
Layer 1
10
123.812935
20
195.435585
11
121.987065
21
193.262001
0
LINE
8
Layer 1
10
121.987065
20
193.262001
11
120.839862
21
191.117436
0
LINE
8
Layer 1
10
120.839862
20
191.117436
11
120.303617
21
189.047687
0
LINE
8
Layer 1
10
120.303617
20
189.047687
11
120.310618
21
187.098550
0
LINE
8
Layer 1
10
120.310618
20
187.098550
11
120.793155
21
185.315820
0
LINE
8
Layer 1
10
120.793155
20
185.315820
11
121.683518
21
183.745294
0
LINE
8
Layer 1
10
121.683518
20
183.745294
11
122.913996
21
182.432766
0
LINE
8
Layer 1
10
122.913996
20
182.432766
11
124.416879
21
181.424034
0
LINE
8
Layer 1
10
124.416879
20
181.424034
11
126.637362
21
181.007864
0
LINE
8
Layer 1
10
126.637362
20
181.007864
11
128.640154
21
180.949627
0
LINE
8
Layer 1
10
128.640154
20
180.949627
11
130.421798
21
181.215008
0
LINE
8
Layer 1
10
130.421798
20
181.215008
11
131.978840
21
181.769695
0
LINE
8
Layer 1
10
131.978840
20
181.769695
11
133.307822
21
182.579372
0
LINE
8
Layer 1
10
133.307822
20
182.579372
11
134.405290
21
183.609726
0
LINE
8
Layer 1
10
134.405290
20
183.609726
11
135.267787
21
184.826443
0
LINE
8
Layer 1
10
135.267787
20
184.826443
11
135.891857
21
186.195209
0
LINE
8
Layer 1
10
135.891857
20
186.195209
11
136.332930
21
188.067830
0
LINE
8
Layer 1
10
136.332930
20
188.067830
11
136.391125
21
190.050067
0
LINE
8
Layer 1
10
136.391125
20
190.050067
11
136.061139
21
192.073036
0
LINE
8
Layer 1
10
136.061139
20
192.073036
11
135.337670
21
194.067855
0
LINE
8
Layer 1
10
135.337670
20
194.067855
11
134.215416
21
195.965639
0
LINE
8
Layer 1
10
134.215416
20
195.965639
11
132.689075
21
197.697504
0
LINE
8
Layer 1
10
132.689075
20
197.697504
11
130.753345
21
199.194568
0
LINE
8
Layer 1
10
130.753345
20
199.194568
11
128.402924
21
200.387945
0
LINE
8
Layer 1
10
128.402924
20
200.387945
11
126.531929
21
200.675309
0
LINE
8
Layer 1
10
126.531929
20
200.675309
11
124.718854
21
200.750312
0
LINE
8
Layer 1
10
124.718854
20
200.750312
11
124.718854
21
200.750312
0
LINE
8
Layer 1
10
-17.812444
20
198.032555
11
-17.997819
21
197.881340
0
LINE
8
Layer 1
10
-17.997819
20
197.881340
11
-18.112779
21
197.416037
0
LINE
8
Layer 1
10
-18.112779
20
197.416037
11
-18.149101
21
195.463992
0
LINE
8
Layer 1
10
-18.149101
20
195.463992
11
-17.570867
21
186.919945
0
LINE
8
Layer 1
10
-17.570867
20
186.919945
11
-16.465245
21
175.597809
0
LINE
8
Layer 1
10
-16.465245
20
175.597809
11
-14.992456
21
165.098630
0
LINE
8
Layer 1
10
-14.992456
20
165.098630
11
-13.143525
21
155.391365
0
LINE
8
Layer 1
10
-13.143525
20
155.391365
11
-10.909478
21
146.444975
0
LINE
8
Layer 1
10
-10.909478
20
146.444975
11
-8.281338
21
138.228416
0
LINE
8
Layer 1
10
-8.281338
20
138.228416
11
-6.816679
21
134.384123
0
LINE
8
Layer 1
10
-6.816679
20
134.384123
11
-5.250132
21
130.710648
0
LINE
8
Layer 1
10
-5.250132
20
130.710648
11
-3.580574
21
127.204110
0
LINE
8
Layer 1
10
-3.580574
20
127.204110
11
-1.806883
21
123.860629
0
LINE
8
Layer 1
10
-1.806883
20
123.860629
11
0.072062
21
120.676325
0
LINE
8
Layer 1
10
0.072062
20
120.676325
11
2.057383
21
117.647318
0
LINE
8
Layer 1
10
2.057383
20
117.647318
11
3.822813
21
114.949750
0
LINE
8
Layer 1
10
3.822813
20
114.949750
11
4.981432
21
112.759543
0
LINE
8
Layer 1
10
4.981432
20
112.759543
11
5.499241
21
110.991611
0
LINE
8
Layer 1
10
5.499241
20
110.991611
11
5.507218
21
110.239408
0
LINE
8
Layer 1
10
5.507218
20
110.239408
11
5.342243
21
109.560866
0
LINE
8
Layer 1
10
5.342243
20
109.560866
11
5.000066
21
108.945349
0
LINE
8
Layer 1
10
5.000066
20
108.945349
11
4.476439
21
108.382220
0
LINE
8
Layer 1
10
4.476439
20
108.382220
11
2.867830
21
107.370585
0
LINE
8
Layer 1
10
2.867830
20
107.370585
11
0.482419
21
106.440875
0
LINE
8
Layer 1
10
0.482419
20
106.440875
11
-2.713792
21
105.508000
0
LINE
8
Layer 1
10
-2.713792
20
105.508000
11
-4.959848
21
105.054941
0
LINE
8
Layer 1
10
-4.959848
20
105.054941
11
-6.958886
21
104.948472
0
LINE
8
Layer 1
10
-6.958886
20
104.948472
11
-8.692575
21
105.178161
0
LINE
8
Layer 1
10
-8.692575
20
105.178161
11
-10.142588
21
105.733579
0
LINE
8
Layer 1
10
-10.142588
20
105.733579
11
-11.290595
21
106.604294
0
LINE
8
Layer 1
10
-11.290595
20
106.604294
11
-12.118268
21
107.779875
0
LINE
8
Layer 1
10
-12.118268
20
107.779875
11
-12.607278
21
109.249891
0
LINE
8
Layer 1
10
-12.607278
20
109.249891
11
-12.739296
21
111.003911
0
LINE
8
Layer 1
10
-12.739296
20
111.003911
11
-12.618508
21
115.412716
0
LINE
8
Layer 1
10
-12.618508
20
115.412716
11
-10.806670
21
110.883120
0
LINE
8
Layer 1
10
-10.806670
20
110.883120
11
-9.813076
21
109.097087
0
LINE
8
Layer 1
10
-9.813076
20
109.097087
11
-8.564599
21
107.875389
0
LINE
8
Layer 1
10
-8.564599
20
107.875389
11
-7.167773
21
107.207185
0
LINE
8
Layer 1
10
-7.167773
20
107.207185
11
-5.729132
21
107.081629
0
LINE
8
Layer 1
10
-5.729132
20
107.081629
11
-4.355208
21
107.487880
0
LINE
8
Layer 1
10
-4.355208
20
107.487880
11
-3.152536
21
108.415094
0
LINE
8
Layer 1
10
-3.152536
20
108.415094
11
-2.227650
21
109.852428
0
LINE
8
Layer 1
10
-2.227650
20
109.852428
11
-1.687082
21
111.789039
0
LINE
8
Layer 1
10
-1.687082
20
111.789039
11
-1.639028
21
112.720387
0
LINE
8
Layer 1
10
-1.639028
20
112.720387
11
-1.750026
21
113.666544
0
LINE
8
Layer 1
10
-1.750026
20
113.666544
11
-2.397288
21
115.557484
0
LINE
8
Layer 1
10
-2.397288
20
115.557484
11
-3.525078
21
117.370269
0
LINE
8
Layer 1
10
-3.525078
20
117.370269
11
-5.029605
21
119.013306
0
LINE
8
Layer 1
10
-5.029605
20
119.013306
11
-6.807080
21
120.395002
0
LINE
8
Layer 1
10
-6.807080
20
120.395002
11
-8.753714
21
121.423766
0
LINE
8
Layer 1
10
-8.753714
20
121.423766
11
-10.765716
21
122.008004
0
LINE
8
Layer 1
10
-10.765716
20
122.008004
11
-12.739296
21
122.056126
0
LINE
8
Layer 1
10
-12.739296
20
122.056126
11
-14.547494
21
121.722823
0
LINE
8
Layer 1
10
-14.547494
20
121.722823
11
-16.260859
21
121.163089
0
LINE
8
Layer 1
10
-16.260859
20
121.163089
11
-17.843206
21
120.315590
0
LINE
8
Layer 1
10
-17.843206
20
120.315590
11
-19.258351
21
119.118987
0
LINE
8
Layer 1
10
-19.258351
20
119.118987
11
-20.470109
21
117.511946
0
LINE
8
Layer 1
10
-20.470109
20
117.511946
11
-21.442298
21
115.433131
0
LINE
8
Layer 1
10
-21.442298
20
115.433131
11
-22.138732
21
112.821205
0
LINE
8
Layer 1
10
-22.138732
20
112.821205
11
-22.523227
21
109.614833
0
LINE
8
Layer 1
10
-22.523227
20
109.614833
11
-22.513933
21
108.413416
0
LINE
8
Layer 1
10
-22.513933
20
108.413416
11
-22.345947
21
107.227709
0
LINE
8
Layer 1
10
-22.345947
20
107.227709
11
-21.576507
21
104.937539
0
LINE
8
Layer 1
10
-21.576507
20
104.937539
11
-20.300125
21
102.812541
0
LINE
8
Layer 1
10
-20.300125
20
102.812541
11
-18.602022
21
100.920933
0
LINE
8
Layer 1
10
-18.602022
20
100.920933
11
-16.567419
21
99.330932
0
LINE
8
Layer 1
10
-16.567419
20
99.330932
11
-14.281534
21
98.110757
0
LINE
8
Layer 1
10
-14.281534
20
98.110757
11
-11.829589
21
97.328625
0
LINE
8
Layer 1
10
-11.829589
20
97.328625
11
-9.296803
21
97.052755
0
LINE
8
Layer 1
10
-9.296803
20
97.052755
11
-6.499382
21
97.403523
0
LINE
8
Layer 1
10
-6.499382
20
97.403523
11
-2.940650
21
98.360586
0
LINE
8
Layer 1
10
-2.940650
20
98.360586
11
0.927795
21
99.781033
0
LINE
8
Layer 1
10
0.927795
20
99.781033
11
4.654353
21
101.521956
0
LINE
8
Layer 1
10
4.654353
20
101.521956
11
13.169993
21
105.991156
0
LINE
8
Layer 1
10
13.169993
20
105.991156
11
19.813400
21
102.125903
0
LINE
8
Layer 1
10
19.813400
20
102.125903
11
21.707523
21
101.125012
0
LINE
8
Layer 1
10
21.707523
20
101.125012
11
23.784650
21
100.263555
0
LINE
8
Layer 1
10
23.784650
20
100.263555
11
26.098982
21
99.530677
0
LINE
8
Layer 1
10
26.098982
20
99.530677
11
28.704719
21
98.915526
0
LINE
8
Layer 1
10
28.704719
20
98.915526
11
31.656061
21
98.407249
0
LINE
8
Layer 1
10
31.656061
20
98.407249
11
35.007208
21
97.994992
0
LINE
8
Layer 1
10
35.007208
20
97.994992
11
43.125723
21
97.415123
0
LINE
8
Layer 1
10
43.125723
20
97.415123
11
52.216709
21
97.158534
0
LINE
8
Layer 1
10
52.216709
20
97.158534
11
55.779952
21
97.266369
0
LINE
8
Layer 1
10
55.779952
20
97.266369
11
58.946280
21
97.568742
0
LINE
8
Layer 1
10
58.946280
20
97.568742
11
61.909130
21
98.093491
0
LINE
8
Layer 1
10
61.909130
20
98.093491
11
64.861940
21
98.868454
0
LINE
8
Layer 1
10
64.861940
20
98.868454
11
67.998149
21
99.921469
0
LINE
8
Layer 1
10
67.998149
20
99.921469
11
71.511194
21
101.280376
0
LINE
8
Layer 1
10
71.511194
20
101.280376
11
83.167355
21
105.991156
0
LINE
8
Layer 1
10
83.167355
20
105.991156
11
89.267213
21
101.038800
0
LINE
8
Layer 1
10
89.267213
20
101.038800
11
92.000234
21
99.443830
0
LINE
8
Layer 1
10
92.000234
20
99.443830
11
95.482387
21
98.055348
0
LINE
8
Layer 1
10
95.482387
20
98.055348
11
99.439267
21
96.967276
0
LINE
8
Layer 1
10
99.439267
20
96.967276
11
103.596468
21
96.273537
0
LINE
8
Layer 1
10
103.596468
20
96.273537
11
106.182439
21
96.249438
0
LINE
8
Layer 1
10
106.182439
20
96.249438
11
110.409566
21
96.931375
0
LINE
8
Layer 1
10
110.409566
20
96.931375
11
114.450263
21
98.022063
0
LINE
8
Layer 1
10
114.450263
20
98.022063
11
118.009739
21
99.423779
0
LINE
8
Layer 1
10
118.009739
20
99.423779
11
119.516897
21
100.210734
0
LINE
8
Layer 1
10
119.516897
20
100.210734
11
120.793202
21
101.038800
0
LINE
8
Layer 1
10
120.793202
20
101.038800
11
126.832665
21
105.991156
0
LINE
8
Layer 1
10
126.832665
20
105.991156
11
138.488826
21
101.280376
0
LINE
8
Layer 1
10
138.488826
20
101.280376
11
142.001871
21
99.921469
0
LINE
8
Layer 1
10
142.001871
20
99.921469
11
145.138079
21
98.868454
0
LINE
8
Layer 1
10
145.138079
20
98.868454
11
148.090889
21
98.093491
0
LINE
8
Layer 1
10
148.090889
20
98.093491
11
151.053739
21
97.568742
0
LINE
8
Layer 1
10
151.053739
20
97.568742
11
154.220067
21
97.266369
0
LINE
8
Layer 1
10
154.220067
20
97.266369
11
157.783310
21
97.158534
0
LINE
8
Layer 1
10
157.783310
20
97.158534
11
166.874294
21
97.415123
0
LINE
8
Layer 1
10
166.874294
20
97.415123
11
174.992814
21
97.994992
0
LINE
8
Layer 1
10
174.992814
20
97.994992
11
178.343959
21
98.407249
0
LINE
8
Layer 1
10
178.343959
20
98.407249
11
181.295296
21
98.915526
0
LINE
8
Layer 1
10
181.295296
20
98.915526
11
183.901027
21
99.530677
0
LINE
8
Layer 1
10
183.901027
20
99.530677
11
186.215353
21
100.263555
0
LINE
8
Layer 1
10
186.215353
20
100.263555
11
188.292476
21
101.125012
0
LINE
8
Layer 1
10
188.292476
20
101.125012
11
190.186598
21
102.125903
0
LINE
8
Layer 1
10
190.186598
20
102.125903
11
196.830005
21
105.991156
0
LINE
8
Layer 1
10
196.830005
20
105.991156
11
205.345645
21
101.521956
0
LINE
8
Layer 1
10
205.345645
20
101.521956
11
209.072203
21
99.781033
0
LINE
8
Layer 1
10
209.072203
20
99.781033
11
212.940648
21
98.360586
0
LINE
8
Layer 1
10
212.940648
20
98.360586
11
216.499381
21
97.403523
0
LINE
8
Layer 1
10
216.499381
20
97.403523
11
219.296804
21
97.052755
0
LINE
8
Layer 1
10
219.296804
20
97.052755
11
221.829590
21
97.328625
0
LINE
8
Layer 1
10
221.829590
20
97.328625
11
224.281535
21
98.110757
0
LINE
8
Layer 1
10
224.281535
20
98.110757
11
226.567419
21
99.330932
0
LINE
8
Layer 1
10
226.567419
20
99.330932
11
228.602022
21
100.920933
0
LINE
8
Layer 1
10
228.602022
20
100.920933
11
230.300124
21
102.812541
0
LINE
8
Layer 1
10
230.300124
20
102.812541
11
231.576505
21
104.937539
0
LINE
8
Layer 1
10
231.576505
20
104.937539
11
232.345945
21
107.227709
0
LINE
8
Layer 1
10
232.345945
20
107.227709
11
232.513931
21
108.413416
0
LINE
8
Layer 1
10
232.513931
20
108.413416
11
232.523225
21
109.614833
0
LINE
8
Layer 1
10
232.523225
20
109.614833
11
232.138724
21
112.821205
0
LINE
8
Layer 1
10
232.138724
20
112.821205
11
231.442288
21
115.433131
0
LINE
8
Layer 1
10
231.442288
20
115.433131
11
230.470100
21
117.511946
0
LINE
8
Layer 1
10
230.470100
20
117.511946
11
229.258343
21
119.118987
0
LINE
8
Layer 1
10
229.258343
20
119.118987
11
227.843200
21
120.315590
0
LINE
8
Layer 1
10
227.843200
20
120.315590
11
226.260856
21
121.163089
0
LINE
8
Layer 1
10
226.260856
20
121.163089
11
224.547494
21
121.722823
0
LINE
8
Layer 1
10
224.547494
20
121.722823
11
222.739297
21
122.056126
0
LINE
8
Layer 1
10
222.739297
20
122.056126
11
220.765716
21
122.008004
0
LINE
8
Layer 1
10
220.765716
20
122.008004
11
218.753714
21
121.423766
0
LINE
8
Layer 1
10
218.753714
20
121.423766
11
216.807080
21
120.395002
0
LINE
8
Layer 1
10
216.807080
20
120.395002
11
215.029605
21
119.013306
0
LINE
8
Layer 1
10
215.029605
20
119.013306
11
213.525077
21
117.370269
0
LINE
8
Layer 1
10
213.525077
20
117.370269
11
212.397288
21
115.557484
0
LINE
8
Layer 1
10
212.397288
20
115.557484
11
211.750026
21
113.666544
0
LINE
8
Layer 1
10
211.750026
20
113.666544
11
211.639028
21
112.720387
0
LINE
8
Layer 1
10
211.639028
20
112.720387
11
211.687083
21
111.789039
0
LINE
8
Layer 1
10
211.687083
20
111.789039
11
212.227651
21
109.852428
0
LINE
8
Layer 1
10
212.227651
20
109.852428
11
213.152537
21
108.415094
0
LINE
8
Layer 1
10
213.152537
20
108.415094
11
214.355209
21
107.487880
0
LINE
8
Layer 1
10
214.355209
20
107.487880
11
215.729132
21
107.081629
0
LINE
8
Layer 1
10
215.729132
20
107.081629
11
217.167773
21
107.207185
0
LINE
8
Layer 1
10
217.167773
20
107.207185
11
218.564599
21
107.875389
0
LINE
8
Layer 1
10
218.564599
20
107.875389
11
219.813075
21
109.097087
0
LINE
8
Layer 1
10
219.813075
20
109.097087
11
220.806668
21
110.883120
0
LINE
8
Layer 1
10
220.806668
20
110.883120
11
222.618506
21
115.412716
0
LINE
8
Layer 1
10
222.618506
20
115.412716
11
222.739297
21
111.003911
0
LINE
8
Layer 1
10
222.739297
20
111.003911
11
222.607278
21
109.249891
0
LINE
8
Layer 1
10
222.607278
20
109.249891
11
222.118268
21
107.779875
0
LINE
8
Layer 1
10
222.118268
20
107.779875
11
221.290594
21
106.604294
0
LINE
8
Layer 1
10
221.290594
20
106.604294
11
220.142586
21
105.733579
0
LINE
8
Layer 1
10
220.142586
20
105.733579
11
218.692573
21
105.178161
0
LINE
8
Layer 1
10
218.692573
20
105.178161
11
216.958884
21
104.948472
0
LINE
8
Layer 1
10
216.958884
20
104.948472
11
214.959846
21
105.054941
0
LINE
8
Layer 1
10
214.959846
20
105.054941
11
212.713790
21
105.508000
0
LINE
8
Layer 1
10
212.713790
20
105.508000
11
209.517579
21
106.440875
0
LINE
8
Layer 1
10
209.517579
20
106.440875
11
207.132169
21
107.370585
0
LINE
8
Layer 1
10
207.132169
20
107.370585
11
205.523561
21
108.382220
0
LINE
8
Layer 1
10
205.523561
20
108.382220
11
204.999934
21
108.945349
0
LINE
8
Layer 1
10
204.999934
20
108.945349
11
204.657757
21
109.560866
0
LINE
8
Layer 1
10
204.657757
20
109.560866
11
204.492782
21
110.239408
0
LINE
8
Layer 1
10
204.492782
20
110.239408
11
204.500759
21
110.991611
0
LINE
8
Layer 1
10
204.500759
20
110.991611
11
205.018568
21
112.759543
0
LINE
8
Layer 1
10
205.018568
20
112.759543
11
206.177186
21
114.949750
0
LINE
8
Layer 1
10
206.177186
20
114.949750
11
207.942615
21
117.647318
0
LINE
8
Layer 1
10
207.942615
20
117.647318
11
209.927936
21
120.676325
0
LINE
8
Layer 1
10
209.927936
20
120.676325
11
211.806882
21
123.860629
0
LINE
8
Layer 1
10
211.806882
20
123.860629
11
213.580573
21
127.204110
0
LINE
8
Layer 1
10
213.580573
20
127.204110
11
215.250131
21
130.710648
0
LINE
8
Layer 1
10
215.250131
20
130.710648
11
216.816679
21
134.384123
0
LINE
8
Layer 1
10
216.816679
20
134.384123
11
218.281338
21
138.228416
0
LINE
8
Layer 1
10
218.281338
20
138.228416
11
220.909478
21
146.444975
0
LINE
8
Layer 1
10
220.909478
20
146.444975
11
223.143525
21
155.391365
0
LINE
8
Layer 1
10
223.143525
20
155.391365
11
224.992456
21
165.098630
0
LINE
8
Layer 1
10
224.992456
20
165.098630
11
226.465244
21
175.597809
0
LINE
8
Layer 1
10
226.465244
20
175.597809
11
227.570865
21
186.919945
0
LINE
8
Layer 1
10
227.570865
20
186.919945
11
228.149093
21
195.463992
0
LINE
8
Layer 1
10
228.149093
20
195.463992
11
228.112776
21
197.416037
0
LINE
8
Layer 1
10
228.112776
20
197.416037
11
227.997818
21
197.881340
0
LINE
8
Layer 1
10
227.997818
20
197.881340
11
227.812445
21
198.032555
0
LINE
8
Layer 1
10
227.812445
20
198.032555
11
227.491715
21
197.822753
0
LINE
8
Layer 1
10
227.491715
20
197.822753
11
227.057552
21
197.215480
0
LINE
8
Layer 1
10
227.057552
20
197.215480
11
225.819422
21
194.952429
0
LINE
8
Layer 1
10
225.819422
20
194.952429
11
224.097640
21
192.138145
0
LINE
8
Layer 1
10
224.097640
20
192.138145
11
221.503688
21
188.503284
0
LINE
8
Layer 1
10
221.503688
20
188.503284
11
218.395141
21
184.514613
0
LINE
8
Layer 1
10
218.395141
20
184.514613
11
215.129576
21
180.638903
0
LINE
8
Layer 1
10
215.129576
20
180.638903
11
212.006491
21
176.831939
0
LINE
8
Layer 1
10
212.006491
20
176.831939
11
209.281367
21
173.033350
0
LINE
8
Layer 1
10
209.281367
20
173.033350
11
207.245747
21
169.685636
0
LINE
8
Layer 1
10
207.245747
20
169.685636
11
206.577608
21
168.319139
0
LINE
8
Layer 1
10
206.577608
20
168.319139
11
206.191172
21
167.231298
0
LINE
8
Layer 1
10
206.191172
20
167.231298
11
205.744409
21
164.714811
0
LINE
8
Layer 1
10
205.744409
20
164.714811
11
205.653935
21
162.253822
0
LINE
8
Layer 1
10
205.653935
20
162.253822
11
205.896021
21
159.916933
0
LINE
8
Layer 1
10
205.896021
20
159.916933
11
206.446938
21
157.772743
0
LINE
8
Layer 1
10
206.446938
20
157.772743
11
207.282955
21
155.889855
0
LINE
8
Layer 1
10
207.282955
20
155.889855
11
208.380345
21
154.336870
0
LINE
8
Layer 1
10
208.380345
20
154.336870
11
209.715376
21
153.182388
0
LINE
8
Layer 1
10
209.715376
20
153.182388
11
211.264319
21
152.495011
0
LINE
8
Layer 1
10
211.264319
20
152.495011
11
212.116182
21
152.174042
0
LINE
8
Layer 1
10
212.116182
20
152.174042
11
212.864683
21
151.689201
0
LINE
8
Layer 1
10
212.864683
20
151.689201
11
213.509357
21
151.048859
0
LINE
8
Layer 1
10
213.509357
20
151.048859
11
214.049739
21
150.261390
0
LINE
8
Layer 1
10
214.049739
20
150.261390
11
214.815774
21
148.278564
0
LINE
8
Layer 1
10
214.815774
20
148.278564
11
215.159074
21
145.807705
0
LINE
8
Layer 1
10
215.159074
20
145.807705
11
215.075923
21
142.915796
0
LINE
8
Layer 1
10
215.075923
20
142.915796
11
214.562609
21
139.669821
0
LINE
8
Layer 1
10
214.562609
20
139.669821
11
213.615418
21
136.136763
0
LINE
8
Layer 1
10
213.615418
20
136.136763
11
212.230634
21
132.383605
0
LINE
8
Layer 1
10
212.230634
20
132.383605
11
210.642260
21
129.164689
0
LINE
8
Layer 1
10
210.642260
20
129.164689
11
209.893919
21
128.084880
0
LINE
8
Layer 1
10
209.893919
20
128.084880
11
209.180078
21
127.352457
0
LINE
8
Layer 1
10
209.180078
20
127.352457
11
208.503688
21
126.963138
0
LINE
8
Layer 1
10
208.503688
20
126.963138
11
207.867701
21
126.912637
0
LINE
8
Layer 1
10
207.867701
20
126.912637
11
207.275068
21
127.196671
0
LINE
8
Layer 1
10
207.275068
20
127.196671
11
206.728741
21
127.810955
0
LINE
8
Layer 1
10
206.728741
20
127.810955
11
206.231672
21
128.751206
0
LINE
8
Layer 1
10
206.231672
20
128.751206
11
205.786812
21
130.013140
0
LINE
8
Layer 1
10
205.786812
20
130.013140
11
205.065526
21
133.484917
0
LINE
8
Layer 1
10
205.065526
20
133.484917
11
204.588495
21
138.192016
0
LINE
8
Layer 1
10
204.588495
20
138.192016
11
204.379333
21
144.100162
0
LINE
8
Layer 1
10
204.379333
20
144.100162
11
204.209881
21
149.737046
0
LINE
8
Layer 1
10
204.209881
20
149.737046
11
203.856644
21
154.705537
0
LINE
8
Layer 1
10
203.856644
20
154.705537
11
203.372185
21
158.463076
0
LINE
8
Layer 1
10
203.372185
20
158.463076
11
203.097175
21
159.718189
0
LINE
8
Layer 1
10
203.097175
20
159.718189
11
202.809071
21
160.467103
0
LINE
8
Layer 1
10
202.809071
20
160.467103
11
202.387435
21
160.928021
0
LINE
8
Layer 1
10
202.387435
20
160.928021
11
201.729890
21
161.358061
0
LINE
8
Layer 1
10
201.729890
20
161.358061
11
199.841764
21
162.087809
0
LINE
8
Layer 1
10
199.841764
20
162.087809
11
197.414073
21
162.580953
0
LINE
8
Layer 1
10
197.414073
20
162.580953
11
194.716194
21
162.762098
0
LINE
8
Layer 1
10
194.716194
20
162.762098
11
191.612728
21
162.501495
0
LINE
8
Layer 1
10
191.612728
20
162.501495
11
188.817613
21
161.741342
0
LINE
8
Layer 1
10
188.817613
20
161.741342
11
186.363349
21
160.514123
0
LINE
8
Layer 1
10
186.363349
20
160.514123
11
184.282436
21
158.852322
0
LINE
8
Layer 1
10
184.282436
20
158.852322
11
182.607374
21
156.788422
0
LINE
8
Layer 1
10
182.607374
20
156.788422
11
181.370663
21
154.354907
0
LINE
8
Layer 1
10
181.370663
20
154.354907
11
180.604803
21
151.584260
0
LINE
8
Layer 1
10
180.604803
20
151.584260
11
180.342294
21
148.508967
0
LINE
8
Layer 1
10
180.342294
20
148.508967
11
180.378399
21
146.475117
0
LINE
8
Layer 1
10
180.378399
20
146.475117
11
180.534027
21
144.891772
0
LINE
8
Layer 1
10
180.534027
20
144.891772
11
180.880145
21
143.686184
0
LINE
8
Layer 1
10
180.880145
20
143.686184
11
181.487722
21
142.785607
0
LINE
8
Layer 1
10
181.487722
20
142.785607
11
182.427727
21
142.117292
0
LINE
8
Layer 1
10
182.427727
20
142.117292
11
183.771129
21
141.608494
0
LINE
8
Layer 1
10
183.771129
20
141.608494
11
187.951996
21
140.778457
0
LINE
8
Layer 1
10
187.951996
20
140.778457
11
189.766025
21
140.410793
0
LINE
8
Layer 1
10
189.766025
20
140.410793
11
191.493319
21
139.906660
0
LINE
8
Layer 1
10
191.493319
20
139.906660
11
193.126949
21
139.274423
0
LINE
8
Layer 1
10
193.126949
20
139.274423
11
194.659986
21
138.522445
0
LINE
8
Layer 1
10
194.659986
20
138.522445
11
196.085503
21
137.659091
0
LINE
8
Layer 1
10
196.085503
20
137.659091
11
197.396571
21
136.692726
0
LINE
8
Layer 1
10
197.396571
20
136.692726
11
198.586261
21
135.631714
0
LINE
8
Layer 1
10
198.586261
20
135.631714
11
199.647645
21
134.484420
0
LINE
8
Layer 1
10
199.647645
20
134.484420
11
200.573794
21
133.259208
0
LINE
8
Layer 1
10
200.573794
20
133.259208
11
201.357780
21
131.964441
0
LINE
8
Layer 1
10
201.357780
20
131.964441
11
201.992675
21
130.608486
0
LINE
8
Layer 1
10
201.992675
20
130.608486
11
202.471550
21
129.199706
0
LINE
8
Layer 1
10
202.471550
20
129.199706
11
202.787477
21
127.746465
0
LINE
8
Layer 1
10
202.787477
20
127.746465
11
202.933527
21
126.257128
0
LINE
8
Layer 1
10
202.933527
20
126.257128
11
202.902772
21
124.740060
0
LINE
8
Layer 1
10
202.902772
20
124.740060
11
202.688283
21
123.203624
0
LINE
8
Layer 1
10
202.688283
20
123.203624
11
201.896184
21
119.854480
0
LINE
8
Layer 1
10
201.896184
20
119.854480
11
200.991427
21
117.499123
0
LINE
8
Layer 1
10
200.991427
20
117.499123
11
200.466184
21
116.697788
0
LINE
8
Layer 1
10
200.466184
20
116.697788
11
199.876036
21
116.149307
0
LINE
8
Layer 1
10
199.876036
20
116.149307
11
199.208736
21
115.855149
0
LINE
8
Layer 1
10
199.208736
20
115.855149
11
198.452036
21
115.816783
0
LINE
8
Layer 1
10
198.452036
20
115.816783
11
197.593690
21
116.035679
0
LINE
8
Layer 1
10
197.593690
20
116.035679
11
196.621451
21
116.513306
0
LINE
8
Layer 1
10
196.621451
20
116.513306
11
194.286303
21
118.250626
0
LINE
8
Layer 1
10
194.286303
20
118.250626
11
191.348618
21
121.040497
0
LINE
8
Layer 1
10
191.348618
20
121.040497
11
187.710420
21
124.894672
0
LINE
8
Layer 1
10
187.710420
20
124.894672
11
183.600293
21
129.233098
0
LINE
8
Layer 1
10
183.600293
20
129.233098
11
179.882575
21
132.815958
0
LINE
8
Layer 1
10
179.882575
20
132.815958
11
176.467224
21
135.697839
0
LINE
8
Layer 1
10
176.467224
20
135.697839
11
173.264195
21
137.933331
0
LINE
8
Layer 1
10
173.264195
20
137.933331
11
170.183446
21
139.577024
0
LINE
8
Layer 1
10
170.183446
20
139.577024
11
167.134932
21
140.683505
0
LINE
8
Layer 1
10
167.134932
20
140.683505
11
164.028611
21
141.307365
0
LINE
8
Layer 1
10
164.028611
20
141.307365
11
160.774439
21
141.503192
0
LINE
8
Layer 1
10
160.774439
20
141.503192
11
157.940927
21
141.280240
0
LINE
8
Layer 1
10
157.940927
20
141.280240
11
155.373746
21
140.632554
0
LINE
8
Layer 1
10
155.373746
20
140.632554
11
153.107253
21
139.591892
0
LINE
8
Layer 1
10
153.107253
20
139.591892
11
151.175806
21
138.190011
0
LINE
8
Layer 1
10
151.175806
20
138.190011
11
149.613762
21
136.458669
0
LINE
8
Layer 1
10
149.613762
20
136.458669
11
148.455479
21
134.429624
0
LINE
8
Layer 1
10
148.455479
20
134.429624
11
147.735313
21
132.134632
0
LINE
8
Layer 1
10
147.735313
20
132.134632
11
147.487623
21
129.605451
0
LINE
8
Layer 1
10
147.487623
20
129.605451
11
147.412359
21
128.064334
0
LINE
8
Layer 1
10
147.412359
20
128.064334
11
147.160553
21
126.726090
0
LINE
8
Layer 1
10
147.160553
20
126.726090
11
146.693183
21
125.542279
0
LINE
8
Layer 1
10
146.693183
20
125.542279
11
145.971228
21
124.464459
0
LINE
8
Layer 1
10
145.971228
20
124.464459
11
144.955665
21
123.444191
0
LINE
8
Layer 1
10
144.955665
20
123.444191
11
143.607473
21
122.433034
0
LINE
8
Layer 1
10
143.607473
20
122.433034
11
139.757113
21
120.244287
0
LINE
8
Layer 1
10
139.757113
20
120.244287
11
132.026601
21
116.258243
0
LINE
8
Layer 1
10
132.026601
20
116.258243
11
132.086996
21
120.667050
0
LINE
8
Layer 1
10
132.086996
20
120.667050
11
132.218707
21
123.705077
0
LINE
8
Layer 1
10
132.218707
20
123.705077
11
132.590876
21
126.393386
0
LINE
8
Layer 1
10
132.590876
20
126.393386
11
133.227309
21
128.775882
0
LINE
8
Layer 1
10
133.227309
20
128.775882
11
134.151810
21
130.896474
0
LINE
8
Layer 1
10
134.151810
20
130.896474
11
135.388183
21
132.799069
0
LINE
8
Layer 1
10
135.388183
20
132.799069
11
136.960233
21
134.527572
0
LINE
8
Layer 1
10
136.960233
20
134.527572
11
138.891765
21
136.125893
0
LINE
8
Layer 1
10
138.891765
20
136.125893
11
141.206584
21
137.637936
0
LINE
8
Layer 1
10
141.206584
20
137.637936
11
143.329213
21
138.926155
0
LINE
8
Layer 1
10
143.329213
20
138.926155
11
144.939489
21
140.038742
0
LINE
8
Layer 1
10
144.939489
20
140.038742
11
146.092811
21
141.090865
0
LINE
8
Layer 1
10
146.092811
20
141.090865
11
146.844578
21
142.197687
0
LINE
8
Layer 1
10
146.844578
20
142.197687
11
147.250188
21
143.474374
0
LINE
8
Layer 1
10
147.250188
20
143.474374
11
147.365041
21
145.036092
0
LINE
8
Layer 1
10
147.365041
20
145.036092
11
147.244536
21
146.998006
0
LINE
8
Layer 1
10
147.244536
20
146.998006
11
146.944072
21
149.475282
0
LINE
8
Layer 1
10
146.944072
20
149.475282
11
146.218740
21
152.635231
0
LINE
8
Layer 1
10
146.218740
20
152.635231
11
144.943231
21
155.895490
0
LINE
8
Layer 1
10
144.943231
20
155.895490
11
143.238496
21
159.095281
0
LINE
8
Layer 1
10
143.238496
20
159.095281
11
141.225487
21
162.073826
0
LINE
8
Layer 1
10
141.225487
20
162.073826
11
139.025157
21
164.670346
0
LINE
8
Layer 1
10
139.025157
20
164.670346
11
136.758458
21
166.724064
0
LINE
8
Layer 1
10
136.758458
20
166.724064
11
135.638017
21
167.497129
0
LINE
8
Layer 1
10
135.638017
20
167.497129
11
134.546341
21
168.074202
0
LINE
8
Layer 1
10
134.546341
20
168.074202
11
133.498549
21
168.435185
0
LINE
8
Layer 1
10
133.498549
20
168.435185
11
132.509760
21
168.559981
0
LINE
8
Layer 1
10
132.509760
20
168.559981
11
131.854934
21
168.673876
0
LINE
8
Layer 1
10
131.854934
20
168.673876
11
131.021220
21
169.000626
0
LINE
8
Layer 1
10
131.021220
20
169.000626
11
128.953773
21
170.203094
0
LINE
8
Layer 1
10
128.953773
20
170.203094
11
126.580705
21
171.988180
0
LINE
8
Layer 1
10
126.580705
20
171.988180
11
124.175303
21
174.176680
0
LINE
8
Layer 1
10
124.175303
20
174.176680
11
118.498208
21
179.853775
0
LINE
8
Layer 1
10
118.498208
20
179.853775
11
117.411105
21
175.444967
0
LINE
8
Layer 1
10
117.411105
20
175.444967
11
117.259845
21
174.236014
0
LINE
8
Layer 1
10
117.259845
20
174.236014
11
117.345002
21
172.768776
0
LINE
8
Layer 1
10
117.345002
20
172.768776
11
117.663802
21
171.050677
0
LINE
8
Layer 1
10
117.663802
20
171.050677
11
118.213474
21
169.089146
0
LINE
8
Layer 1
10
118.213474
20
169.089146
11
119.994345
21
164.465495
0
LINE
8
Layer 1
10
119.994345
20
164.465495
11
122.665436
21
158.957237
0
LINE
8
Layer 1
10
122.665436
20
158.957237
11
125.071553
21
153.759401
0
LINE
8
Layer 1
10
125.071553
20
153.759401
11
127.034158
21
148.268002
0
LINE
8
Layer 1
10
127.034158
20
148.268002
11
128.532654
21
142.635773
0
LINE
8
Layer 1
10
128.532654
20
142.635773
11
129.546441
21
137.015442
0
LINE
8
Layer 1
10
129.546441
20
137.015442
11
130.054921
21
131.559740
0
LINE
8
Layer 1
10
130.054921
20
131.559740
11
130.037495
21
126.421398
0
LINE
8
Layer 1
10
130.037495
20
126.421398
11
129.825131
21
124.018965
0
LINE
8
Layer 1
10
129.825131
20
124.018965
11
129.473565
21
121.753146
0
LINE
8
Layer 1
10
129.473565
20
121.753146
11
128.980223
21
119.643031
0
LINE
8
Layer 1
10
128.980223
20
119.643031
11
128.342531
21
117.707713
0
LINE
8
Layer 1
10
128.342531
20
117.707713
11
127.400839
21
115.595585
0
LINE
8
Layer 1
10
127.400839
20
115.595585
11
126.440304
21
114.231658
0
LINE
8
Layer 1
10
126.440304
20
114.231658
11
125.931561
21
113.841019
0
LINE
8
Layer 1
10
125.931561
20
113.841019
11
125.392416
21
113.650332
0
LINE
8
Layer 1
10
125.392416
20
113.650332
11
124.814304
21
113.663895
0
LINE
8
Layer 1
10
124.814304
20
113.663895
11
124.188663
21
113.886009
0
LINE
8
Layer 1
10
124.188663
20
113.886009
11
122.760535
21
114.973091
0
LINE
8
Layer 1
10
122.760535
20
114.973091
11
121.039520
21
116.945980
0
LINE
8
Layer 1
10
121.039520
20
116.945980
11
118.957109
21
119.839075
0
LINE
8
Layer 1
10
118.957109
20
119.839075
11
116.444790
21
123.686780
0
LINE
8
Layer 1
10
116.444790
20
123.686780
11
115.164824
21
125.876082
0
LINE
8
Layer 1
10
115.164824
20
125.876082
11
114.098519
21
128.033081
0
LINE
8
Layer 1
10
114.098519
20
128.033081
11
112.398350
21
132.444000
0
LINE
8
Layer 1
10
112.398350
20
132.444000
11
116.841943
21
136.071460
0
LINE
8
Layer 1
10
116.841943
20
136.071460
11
118.983014
21
137.939366
0
LINE
8
Layer 1
10
118.983014
20
137.939366
11
120.913993
21
140.053722
0
LINE
8
Layer 1
10
120.913993
20
140.053722
11
121.729617
21
141.728279
0
LINE
8
Layer 1
10
121.729617
20
141.728279
11
122.198849
21
143.545174
0
LINE
8
Layer 1
10
122.198849
20
143.545174
11
122.327625
21
145.503674
0
LINE
8
Layer 1
10
122.327625
20
145.503674
11
122.121885
21
147.603048
0
LINE
8
Layer 1
10
122.121885
20
147.603048
11
121.623788
21
149.719233
0
LINE
8
Layer 1
10
121.623788
20
149.719233
11
120.827515
21
151.964050
0
LINE
8
Layer 1
10
120.827515
20
151.964050
11
119.727211
21
154.338459
0
LINE
8
Layer 1
10
119.727211
20
154.338459
11
118.317024
21
156.843424
0
LINE
8
Layer 1
10
118.317024
20
156.843424
11
116.944088
21
159.461026
0
LINE
8
Layer 1
10
116.944088
20
159.461026
11
115.840277
21
162.313091
0
LINE
8
Layer 1
10
115.840277
20
162.313091
11
115.018631
21
165.295618
0
LINE
8
Layer 1
10
115.018631
20
165.295618
11
114.492189
21
168.304603
0
LINE
8
Layer 1
10
114.492189
20
168.304603
11
114.273992
21
171.236046
0
LINE
8
Layer 1
10
114.273992
20
171.236046
11
114.377080
21
173.985943
0
LINE
8
Layer 1
10
114.377080
20
173.985943
11
114.814491
21
176.450292
0
LINE
8
Layer 1
10
114.814491
20
176.450292
11
115.599266
21
178.525092
0
LINE
8
Layer 1
10
115.599266
20
178.525092
11
115.805873
21
179.139898
0
LINE
8
Layer 1
10
115.805873
20
179.139898
11
115.386311
21
178.928983
0
LINE
8
Layer 1
10
115.386311
20
178.928983
11
113.002297
21
176.290491
0
LINE
8
Layer 1
10
113.002297
20
176.290491
11
111.370411
21
173.804495
0
LINE
8
Layer 1
10
111.370411
20
173.804495
11
109.836320
21
170.607351
0
LINE
8
Layer 1
10
109.836320
20
170.607351
11
108.571635
21
167.111257
0
LINE
8
Layer 1
10
108.571635
20
167.111257
11
107.747966
21
163.728413
0
LINE
8
Layer 1
10
107.747966
20
163.728413
11
107.176369
21
160.919517
0
LINE
8
Layer 1
10
107.176369
20
160.919517
11
106.757212
21
157.761321
0
LINE
8
Layer 1
10
106.757212
20
157.761321
11
106.505638
21
154.332568
0
LINE
8
Layer 1
10
106.505638
20
154.332568
11
106.436789
21
150.712002
0
LINE
8
Layer 1
10
106.436789
20
150.712002
11
106.565809
21
146.978368
0
LINE
8
Layer 1
10
106.565809
20
146.978368
11
106.907842
21
143.210409
0
LINE
8
Layer 1
10
106.907842
20
143.210409
11
107.478030
21
139.486869
0
LINE
8
Layer 1
10
107.478030
20
139.486869
11
108.291517
21
135.886493
0
LINE
8
Layer 1
10
108.291517
20
135.886493
11
109.785147
21
131.178682
0
LINE
8
Layer 1
10
109.785147
20
131.178682
11
111.868330
21
126.078006
0
LINE
8
Layer 1
10
111.868330
20
126.078006
11
114.261820
21
121.200991
0
LINE
8
Layer 1
10
114.261820
20
121.200991
11
116.686370
21
117.164162
0
LINE
8
Layer 1
10
116.686370
20
117.164162
11
120.698416
21
110.965023
0
LINE
8
Layer 1
10
120.698416
20
110.965023
11
121.916480
21
108.802552
0
LINE
8
Layer 1
10
121.916480
20
108.802552
11
122.363464
21
107.682206
0
LINE
8
Layer 1
10
122.363464
20
107.682206
11
122.226600
21
107.384629
0
LINE
8
Layer 1
10
122.226600
20
107.384629
11
121.834361
21
106.997566
0
LINE
8
Layer 1
10
121.834361
20
106.997566
11
120.393872
21
106.019279
0
LINE
8
Layer 1
10
120.393872
20
106.019279
11
118.262228
21
104.875945
0
LINE
8
Layer 1
10
118.262228
20
104.875945
11
115.659659
21
103.696162
0
LINE
8
Layer 1
10
115.659659
20
103.696162
11
112.920288
21
102.658488
0
LINE
8
Layer 1
10
112.920288
20
102.658488
11
110.463633
21
101.924715
0
LINE
8
Layer 1
10
110.463633
20
101.924715
11
106.066367
21
101.061682
0
LINE
8
Layer 1
10
106.066367
20
101.061682
11
103.800746
21
101.081141
0
LINE
8
Layer 1
10
103.800746
20
101.081141
11
99.462520
21
101.943947
0
LINE
8
Layer 1
10
99.462520
20
101.943947
11
97.039015
21
102.672268
0
LINE
8
Layer 1
10
97.039015
20
102.672268
11
94.340361
21
103.696162
0
LINE
8
Layer 1
10
94.340361
20
103.696162
11
91.737794
21
104.875945
0
LINE
8
Layer 1
10
91.737794
20
104.875945
11
89.606151
21
106.019279
0
LINE
8
Layer 1
10
89.606151
20
106.019279
11
88.165662
21
106.997566
0
LINE
8
Layer 1
10
88.165662
20
106.997566
11
87.773423
21
107.384629
0
LINE
8
Layer 1
10
87.773423
20
107.384629
11
87.636559
21
107.682206
0
LINE
8
Layer 1
10
87.636559
20
107.682206
11
88.083543
21
108.802552
0
LINE
8
Layer 1
10
88.083543
20
108.802552
11
89.301607
21
110.965023
0
LINE
8
Layer 1
10
89.301607
20
110.965023
11
93.313651
21
117.164162
0
LINE
8
Layer 1
10
93.313651
20
117.164162
11
95.738201
21
121.200991
0
LINE
8
Layer 1
10
95.738201
20
121.200991
11
98.131690
21
126.078006
0
LINE
8
Layer 1
10
98.131690
20
126.078006
11
100.214873
21
131.178682
0
LINE
8
Layer 1
10
100.214873
20
131.178682
11
101.708503
21
135.886493
0
LINE
8
Layer 1
10
101.708503
20
135.886493
11
102.521992
21
139.486869
0
LINE
8
Layer 1
10
102.521992
20
139.486869
11
103.092182
21
143.210409
0
LINE
8
Layer 1
10
103.092182
20
143.210409
11
103.434217
21
146.978368
0
LINE
8
Layer 1
10
103.434217
20
146.978368
11
103.563240
21
150.712002
0
LINE
8
Layer 1
10
103.563240
20
150.712002
11
103.494392
21
154.332568
0
LINE
8
Layer 1
10
103.494392
20
154.332568
11
103.242817
21
157.761321
0
LINE
8
Layer 1
10
103.242817
20
157.761321
11
102.823657
21
160.919517
0
LINE
8
Layer 1
10
102.823657
20
160.919517
11
102.252055
21
163.728413
0
LINE
8
Layer 1
10
102.252055
20
163.728413
11
101.428386
21
167.111257
0
LINE
8
Layer 1
10
101.428386
20
167.111257
11
100.163701
21
170.607351
0
LINE
8
Layer 1
10
100.163701
20
170.607351
11
98.629610
21
173.804495
0
LINE
8
Layer 1
10
98.629610
20
173.804495
11
96.997723
21
176.290491
0
LINE
8
Layer 1
10
96.997723
20
176.290491
11
94.613709
21
178.928983
0
LINE
8
Layer 1
10
94.613709
20
178.928983
11
94.194147
21
179.139898
0
LINE
8
Layer 1
10
94.194147
20
179.139898
11
94.400754
21
178.525092
0
LINE
8
Layer 1
10
94.400754
20
178.525092
11
95.185530
21
176.450292
0
LINE
8
Layer 1
10
95.185530
20
176.450292
11
95.622943
21
173.985943
0
LINE
8
Layer 1
10
95.622943
20
173.985943
11
95.726033
21
171.236046
0
LINE
8
Layer 1
10
95.726033
20
171.236046
11
95.507838
21
168.304603
0
LINE
8
Layer 1
10
95.507838
20
168.304603
11
94.981398
21
165.295618
0
LINE
8
Layer 1
10
94.981398
20
165.295618
11
94.159751
21
162.313091
0
LINE
8
Layer 1
10
94.159751
20
162.313091
11
93.055938
21
159.461026
0
LINE
8
Layer 1
10
93.055938
20
159.461026
11
91.682996
21
156.843424
0
LINE
8
Layer 1
10
91.682996
20
156.843424
11
90.272815
21
154.338459
0
LINE
8
Layer 1
10
90.272815
20
154.338459
11
89.172507
21
151.964050
0
LINE
8
Layer 1
10
89.172507
20
151.964050
11
88.376228
21
149.719233
0
LINE
8
Layer 1
10
88.376228
20
149.719233
11
87.878135
21
147.603048
0
LINE
8
Layer 1
10
87.878135
20
147.603048
11
87.672398
21
145.503674
0
LINE
8
Layer 1
10
87.672398
20
145.503674
11
87.801179
21
143.545174
0
LINE
8
Layer 1
10
87.801179
20
143.545174
11
88.270413
21
141.728279
0
LINE
8
Layer 1
10
88.270413
20
141.728279
11
89.086030
21
140.053722
0
LINE
8
Layer 1
10
89.086030
20
140.053722
11
91.026452
21
137.939366
0
LINE
8
Layer 1
10
91.026452
20
137.939366
11
93.188283
21
136.071460
0
LINE
8
Layer 1
10
93.188283
20
136.071460
11
97.662066
21
132.444000
0
LINE
8
Layer 1
10
97.662066
20
132.444000
11
95.931699
21
128.033081
0
LINE
8
Layer 1
10
95.931699
20
128.033081
11
94.844633
21
125.876082
0
LINE
8
Layer 1
10
94.844633
20
125.876082
11
93.555230
21
123.686780
0
LINE
8
Layer 1
10
93.555230
20
123.686780
11
91.042911
21
119.839075
0
LINE
8
Layer 1
10
91.042911
20
119.839075
11
88.960500
21
116.945980
0
LINE
8
Layer 1
10
88.960500
20
116.945980
11
87.239486
21
114.973091
0
LINE
8
Layer 1
10
87.239486
20
114.973091
11
85.811358
21
113.886009
0
LINE
8
Layer 1
10
85.811358
20
113.886009
11
85.185716
21
113.663895
0
LINE
8
Layer 1
10
85.185716
20
113.663895
11
84.607605
21
113.650332
0
LINE
8
Layer 1
10
84.607605
20
113.650332
11
84.068459
21
113.841019
0
LINE
8
Layer 1
10
84.068459
20
113.841019
11
83.559716
21
114.231658
0
LINE
8
Layer 1
10
83.559716
20
114.231658
11
82.599181
21
115.595585
0
LINE
8
Layer 1
10
82.599181
20
115.595585
11
81.657489
21
117.707713
0
LINE
8
Layer 1
10
81.657489
20
117.707713
11
81.019796
21
119.643031
0
LINE
8
Layer 1
10
81.019796
20
119.643031
11
80.526455
21
121.753146
0
LINE
8
Layer 1
10
80.526455
20
121.753146
11
80.174889
21
124.018965
0
LINE
8
Layer 1
10
80.174889
20
124.018965
11
79.962524
21
126.421398
0
LINE
8
Layer 1
10
79.962524
20
126.421398
11
79.945098
21
131.559740
0
LINE
8
Layer 1
10
79.945098
20
131.559740
11
80.453578
21
137.015442
0
LINE
8
Layer 1
10
80.453578
20
137.015442
11
81.467365
21
142.635773
0
LINE
8
Layer 1
10
81.467365
20
142.635773
11
82.965861
21
148.268002
0
LINE
8
Layer 1
10
82.965861
20
148.268002
11
84.928467
21
153.759401
0
LINE
8
Layer 1
10
84.928467
20
153.759401
11
87.334584
21
158.957237
0
LINE
8
Layer 1
10
87.334584
20
158.957237
11
90.005685
21
164.465495
0
LINE
8
Layer 1
10
90.005685
20
164.465495
11
91.786555
21
169.089146
0
LINE
8
Layer 1
10
91.786555
20
169.089146
11
92.336225
21
171.050677
0
LINE
8
Layer 1
10
92.336225
20
171.050677
11
92.655023
21
172.768776
0
LINE
8
Layer 1
10
92.655023
20
172.768776
11
92.740177
21
174.236014
0
LINE
8
Layer 1
10
92.740177
20
174.236014
11
92.588915
21
175.444967
0
LINE
8
Layer 1
10
92.588915
20
175.444967
11
91.501812
21
179.853775
0
LINE
8
Layer 1
10
91.501812
20
179.853775
11
85.824720
21
174.176680
0
LINE
8
Layer 1
10
85.824720
20
174.176680
11
83.419317
21
171.988180
0
LINE
8
Layer 1
10
83.419317
20
171.988180
11
81.046248
21
170.203094
0
LINE
8
Layer 1
10
81.046248
20
170.203094
11
78.978800
21
169.000626
0
LINE
8
Layer 1
10
78.978800
20
169.000626
11
78.145087
21
168.673876
0
LINE
8
Layer 1
10
78.145087
20
168.673876
11
77.490261
21
168.559981
0
LINE
8
Layer 1
10
77.490261
20
168.559981
11
76.501475
21
168.435185
0
LINE
8
Layer 1
10
76.501475
20
168.435185
11
75.453685
21
168.074202
0
LINE
8
Layer 1
10
75.453685
20
168.074202
11
74.362010
21
167.497129
0
LINE
8
Layer 1
10
74.362010
20
167.497129
11
73.241571
21
166.724064
0
LINE
8
Layer 1
10
73.241571
20
166.724064
11
70.974871
21
164.670346
0
LINE
8
Layer 1
10
70.974871
20
164.670346
11
68.774539
21
162.073826
0
LINE
8
Layer 1
10
68.774539
20
162.073826
11
66.761528
21
159.095281
0
LINE
8
Layer 1
10
66.761528
20
159.095281
11
65.056790
21
155.895490
0
LINE
8
Layer 1
10
65.056790
20
155.895490
11
63.781278
21
152.635231
0
LINE
8
Layer 1
10
63.781278
20
152.635231
11
63.055946
21
149.475282
0
LINE
8
Layer 1
10
63.055946
20
149.475282
11
62.755482
21
146.998006
0
LINE
8
Layer 1
10
62.755482
20
146.998006
11
62.634976
21
145.036092
0
LINE
8
Layer 1
10
62.634976
20
145.036092
11
62.749830
21
143.474374
0
LINE
8
Layer 1
10
62.749830
20
143.474374
11
63.155440
21
142.197687
0
LINE
8
Layer 1
10
63.155440
20
142.197687
11
63.907207
21
141.090865
0
LINE
8
Layer 1
10
63.907207
20
141.090865
11
65.060529
21
140.038742
0
LINE
8
Layer 1
10
65.060529
20
140.038742
11
66.670806
21
138.926155
0
LINE
8
Layer 1
10
66.670806
20
138.926155
11
68.793436
21
137.637936
0
LINE
8
Layer 1
10
68.793436
20
137.637936
11
71.108255
21
136.125893
0
LINE
8
Layer 1
10
71.108255
20
136.125893
11
73.039787
21
134.527572
0
LINE
8
Layer 1
10
73.039787
20
134.527572
11
74.611838
21
132.799069
0
LINE
8
Layer 1
10
74.611838
20
132.799069
11
75.848211
21
130.896474
0
LINE
8
Layer 1
10
75.848211
20
130.896474
11
76.772711
21
128.775882
0
LINE
8
Layer 1
10
76.772711
20
128.775882
11
77.409144
21
126.393386
0
LINE
8
Layer 1
10
77.409144
20
126.393386
11
77.781313
21
123.705077
0
LINE
8
Layer 1
10
77.781313
20
123.705077
11
77.913024
21
120.667050
0
LINE
8
Layer 1
10
77.913024
20
120.667050
11
77.973417
21
116.258243
0
LINE
8
Layer 1
10
77.973417
20
116.258243
11
70.242907
21
120.244287
0
LINE
8
Layer 1
10
70.242907
20
120.244287
11
66.392546
21
122.433034
0
LINE
8
Layer 1
10
66.392546
20
122.433034
11
65.044353
21
123.444191
0
LINE
8
Layer 1
10
65.044353
20
123.444191
11
64.028790
21
124.464459
0
LINE
8
Layer 1
10
64.028790
20
124.464459
11
63.306834
21
125.542279
0
LINE
8
Layer 1
10
63.306834
20
125.542279
11
62.839464
21
126.726090
0
LINE
8
Layer 1
10
62.839464
20
126.726090
11
62.587658
21
128.064334
0
LINE
8
Layer 1
10
62.587658
20
128.064334
11
62.512394
21
129.605451
0
LINE
8
Layer 1
10
62.512394
20
129.605451
11
62.264704
21
132.134632
0
LINE
8
Layer 1
10
62.264704
20
132.134632
11
61.544539
21
134.429624
0
LINE
8
Layer 1
10
61.544539
20
134.429624
11
60.386256
21
136.458669
0
LINE
8
Layer 1
10
60.386256
20
136.458669
11
58.824212
21
138.190011
0
LINE
8
Layer 1
10
58.824212
20
138.190011
11
56.892765
21
139.591892
0
LINE
8
Layer 1
10
56.892765
20
139.591892
11
54.626273
21
140.632554
0
LINE
8
Layer 1
10
54.626273
20
140.632554
11
52.059092
21
141.280240
0
LINE
8
Layer 1
10
52.059092
20
141.280240
11
49.225581
21
141.503192
0
LINE
8
Layer 1
10
49.225581
20
141.503192
11
45.971414
21
141.307365
0
LINE
8
Layer 1
10
45.971414
20
141.307365
11
42.865095
21
140.683505
0
LINE
8
Layer 1
10
42.865095
20
140.683505
11
39.816580
21
139.577024
0
LINE
8
Layer 1
10
39.816580
20
139.577024
11
36.735828
21
137.933331
0
LINE
8
Layer 1
10
36.735828
20
137.933331
11
33.532795
21
135.697839
0
LINE
8
Layer 1
10
33.532795
20
135.697839
11
30.117438
21
132.815958
0
LINE
8
Layer 1
10
30.117438
20
132.815958
11
26.399715
21
129.233098
0
LINE
8
Layer 1
10
26.399715
20
129.233098
11
22.289581
21
124.894672
0
LINE
8
Layer 1
10
22.289581
20
124.894672
11
18.651382
21
121.040497
0
LINE
8
Layer 1
10
18.651382
20
121.040497
11
15.713696
21
118.250626
0
LINE
8
Layer 1
10
15.713696
20
118.250626
11
13.378549
21
116.513306
0
LINE
8
Layer 1
10
13.378549
20
116.513306
11
12.406309
21
116.035679
0
LINE
8
Layer 1
10
12.406309
20
116.035679
11
11.547963
21
115.816783
0
LINE
8
Layer 1
10
11.547963
20
115.816783
11
10.791263
21
115.855149
0
LINE
8
Layer 1
10
10.791263
20
115.855149
11
10.123963
21
116.149307
0
LINE
8
Layer 1
10
10.123963
20
116.149307
11
9.533815
21
116.697788
0
LINE
8
Layer 1
10
9.533815
20
116.697788
11
9.008572
21
117.499123
0
LINE
8
Layer 1
10
9.008572
20
117.499123
11
8.103815
21
119.854480
0
LINE
8
Layer 1
10
8.103815
20
119.854480
11
7.311715
21
123.203624
0
LINE
8
Layer 1
10
7.311715
20
123.203624
11
7.097227
21
124.740060
0
LINE
8
Layer 1
10
7.097227
20
124.740060
11
7.066472
21
126.257128
0
LINE
8
Layer 1
10
7.066472
20
126.257128
11
7.212522
21
127.746465
0
LINE
8
Layer 1
10
7.212522
20
127.746465
11
7.528449
21
129.199706
0
LINE
8
Layer 1
10
7.528449
20
129.199706
11
8.007325
21
130.608486
0
LINE
8
Layer 1
10
8.007325
20
130.608486
11
8.642220
21
131.964441
0
LINE
8
Layer 1
10
8.642220
20
131.964441
11
9.426206
21
133.259208
0
LINE
8
Layer 1
10
9.426206
20
133.259208
11
10.352356
21
134.484420
0
LINE
8
Layer 1
10
10.352356
20
134.484420
11
11.413739
21
135.631714
0
LINE
8
Layer 1
10
11.413739
20
135.631714
11
12.603429
21
136.692726
0
LINE
8
Layer 1
10
12.603429
20
136.692726
11
13.914497
21
137.659091
0
LINE
8
Layer 1
10
13.914497
20
137.659091
11
15.340013
21
138.522445
0
LINE
8
Layer 1
10
15.340013
20
138.522445
11
16.873050
21
139.274423
0
LINE
8
Layer 1
10
16.873050
20
139.274423
11
18.506680
21
139.906660
0
LINE
8
Layer 1
10
18.506680
20
139.906660
11
20.233973
21
140.410793
0
LINE
8
Layer 1
10
20.233973
20
140.410793
11
22.048002
21
140.778457
0
LINE
8
Layer 1
10
22.048002
20
140.778457
11
26.228873
21
141.608494
0
LINE
8
Layer 1
10
26.228873
20
141.608494
11
27.572278
21
142.117292
0
LINE
8
Layer 1
10
27.572278
20
142.117292
11
28.512287
21
142.785607
0
LINE
8
Layer 1
10
28.512287
20
142.785607
11
29.119867
21
143.686184
0
LINE
8
Layer 1
10
29.119867
20
143.686184
11
29.465988
21
144.891772
0
LINE
8
Layer 1
10
29.465988
20
144.891772
11
29.621617
21
146.475117
0
LINE
8
Layer 1
10
29.621617
20
146.475117
11
29.657723
21
148.508967
0
LINE
8
Layer 1
10
29.657723
20
148.508967
11
29.395213
21
151.584260
0
LINE
8
Layer 1
10
29.395213
20
151.584260
11
28.629351
21
154.354907
0
LINE
8
Layer 1
10
28.629351
20
154.354907
11
27.392637
21
156.788422
0
LINE
8
Layer 1
10
27.392637
20
156.788422
11
25.717571
21
158.852322
0
LINE
8
Layer 1
10
25.717571
20
158.852322
11
23.636655
21
160.514123
0
LINE
8
Layer 1
10
23.636655
20
160.514123
11
21.182388
21
161.741342
0
LINE
8
Layer 1
10
21.182388
20
161.741342
11
18.387271
21
162.501495
0
LINE
8
Layer 1
10
18.387271
20
162.501495
11
15.283804
21
162.762098
0
LINE
8
Layer 1
10
15.283804
20
162.762098
11
12.585925
21
162.580953
0
LINE
8
Layer 1
10
12.585925
20
162.580953
11
10.158235
21
162.087809
0
LINE
8
Layer 1
10
10.158235
20
162.087809
11
8.270110
21
161.358061
0
LINE
8
Layer 1
10
8.270110
20
161.358061
11
7.612564
21
160.928021
0
LINE
8
Layer 1
10
7.612564
20
160.928021
11
7.190927
21
160.467103
0
LINE
8
Layer 1
10
7.190927
20
160.467103
11
6.902823
21
159.718189
0
LINE
8
Layer 1
10
6.902823
20
159.718189
11
6.627813
21
158.463076
0
LINE
8
Layer 1
10
6.627813
20
158.463076
11
6.143356
21
154.705537
0
LINE
8
Layer 1
10
6.143356
20
154.705537
11
5.790119
21
149.737046
0
LINE
8
Layer 1
10
5.790119
20
149.737046
11
5.620668
21
144.100162
0
LINE
8
Layer 1
10
5.620668
20
144.100162
11
5.411505
21
138.192016
0
LINE
8
Layer 1
10
5.411505
20
138.192016
11
4.934474
21
133.484917
0
LINE
8
Layer 1
10
4.934474
20
133.484917
11
4.213187
21
130.013140
0
LINE
8
Layer 1
10
4.213187
20
130.013140
11
3.768327
21
128.751206
0
LINE
8
Layer 1
10
3.768327
20
128.751206
11
3.271257
21
127.810955
0
LINE
8
Layer 1
10
3.271257
20
127.810955
11
2.724931
21
127.196671
0
LINE
8
Layer 1
10
2.724931
20
127.196671
11
2.132298
21
126.912637
0
LINE
8
Layer 1
10
2.132298
20
126.912637
11
1.496311
21
126.963138
0
LINE
8
Layer 1
10
1.496311
20
126.963138
11
0.819921
21
127.352457
0
LINE
8
Layer 1
10
0.819921
20
127.352457
11
0.106080
21
128.084880
0
LINE
8
Layer 1
10
0.106080
20
128.084880
11
-0.642260
21
129.164689
0
LINE
8
Layer 1
10
-0.642260
20
129.164689
11
-2.230633
21
132.383605
0
LINE
8
Layer 1
10
-2.230633
20
132.383605
11
-3.615418
21
136.136763
0
LINE
8
Layer 1
10
-3.615418
20
136.136763
11
-4.562610
21
139.669821
0
LINE
8
Layer 1
10
-4.562610
20
139.669821
11
-5.075925
21
142.915796
0
LINE
8
Layer 1
10
-5.075925
20
142.915796
11
-5.159075
21
145.807705
0
LINE
8
Layer 1
10
-5.159075
20
145.807705
11
-4.815776
21
148.278564
0
LINE
8
Layer 1
10
-4.815776
20
148.278564
11
-4.049741
21
150.261390
0
LINE
8
Layer 1
10
-4.049741
20
150.261390
11
-3.509359
21
151.048859
0
LINE
8
Layer 1
10
-3.509359
20
151.048859
11
-2.864685
21
151.689201
0
LINE
8
Layer 1
10
-2.864685
20
151.689201
11
-2.116184
21
152.174042
0
LINE
8
Layer 1
10
-2.116184
20
152.174042
11
-1.264321
21
152.495011
0
LINE
8
Layer 1
10
-1.264321
20
152.495011
11
0.284623
21
153.182388
0
LINE
8
Layer 1
10
0.284623
20
153.182388
11
1.619655
21
154.336870
0
LINE
8
Layer 1
10
1.619655
20
154.336870
11
2.717044
21
155.889855
0
LINE
8
Layer 1
10
2.717044
20
155.889855
11
3.553062
21
157.772743
0
LINE
8
Layer 1
10
3.553062
20
157.772743
11
4.103978
21
159.916933
0
LINE
8
Layer 1
10
4.103978
20
159.916933
11
4.346065
21
162.253822
0
LINE
8
Layer 1
10
4.346065
20
162.253822
11
4.255591
21
164.714811
0
LINE
8
Layer 1
10
4.255591
20
164.714811
11
3.808829
21
167.231298
0
LINE
8
Layer 1
10
3.808829
20
167.231298
11
3.422392
21
168.319139
0
LINE
8
Layer 1
10
3.422392
20
168.319139
11
2.754252
21
169.685636
0
LINE
8
Layer 1
10
2.754252
20
169.685636
11
0.718631
21
173.033350
0
LINE
8
Layer 1
10
0.718631
20
173.033350
11
-2.006491
21
176.831939
0
LINE
8
Layer 1
10
-2.006491
20
176.831939
11
-5.129575
21
180.638903
0
LINE
8
Layer 1
10
-5.129575
20
180.638903
11
-8.395145
21
184.514613
0
LINE
8
Layer 1
10
-8.395145
20
184.514613
11
-11.503696
21
188.503284
0
LINE
8
Layer 1
10
-11.503696
20
188.503284
11
-14.097648
21
192.138145
0
LINE
8
Layer 1
10
-14.097648
20
192.138145
11
-15.819422
21
194.952429
0
LINE
8
Layer 1
10
-15.819422
20
194.952429
11
-17.057561
21
197.215480
0
LINE
8
Layer 1
10
-17.057561
20
197.215480
11
-17.491724
21
197.822753
0
LINE
8
Layer 1
10
-17.491724
20
197.822753
11
-17.812444
21
198.032555
0
LINE
8
Layer 1
10
-17.812444
20
198.032555
11
-17.812444
21
198.032555
0
LINE
8
Layer 1
10
48.561238
20
120.244287
11
51.943339
21
120.183892
0
LINE
8
Layer 1
10
51.943339
20
120.183892
11
55.308106
21
119.983383
0
LINE
8
Layer 1
10
55.308106
20
119.983383
11
58.601827
21
119.601755
0
LINE
8
Layer 1
10
58.601827
20
119.601755
11
61.793477
21
119.040658
0
LINE
8
Layer 1
10
61.793477
20
119.040658
11
64.852035
21
118.301742
0
LINE
8
Layer 1
10
64.852035
20
118.301742
11
67.746476
21
117.386655
0
LINE
8
Layer 1
10
67.746476
20
117.386655
11
70.445778
21
116.297049
0
LINE
8
Layer 1
10
70.445778
20
116.297049
11
72.918917
21
115.034574
0
LINE
8
Layer 1
10
72.918917
20
115.034574
11
75.134871
21
113.600878
0
LINE
8
Layer 1
10
75.134871
20
113.600878
11
76.923283
21
112.122834
0
LINE
8
Layer 1
10
76.923283
20
112.122834
11
77.811160
21
110.961223
0
LINE
8
Layer 1
10
77.811160
20
110.961223
11
77.916929
21
110.498770
0
LINE
8
Layer 1
10
77.916929
20
110.498770
11
77.797000
21
110.115053
0
LINE
8
Layer 1
10
77.797000
20
110.115053
11
77.451186
21
109.809949
0
LINE
8
Layer 1
10
77.451186
20
109.809949
11
76.879300
21
109.583334
0
LINE
8
Layer 1
10
76.879300
20
109.583334
11
75.056557
21
109.365075
0
LINE
8
Layer 1
10
75.056557
20
109.365075
11
72.327269
21
109.459285
0
LINE
8
Layer 1
10
72.327269
20
109.459285
11
68.689934
21
109.864972
0
LINE
8
Layer 1
10
68.689934
20
109.864972
11
64.143049
21
110.581148
0
LINE
8
Layer 1
10
64.143049
20
110.581148
11
58.985362
21
111.313173
0
LINE
8
Layer 1
10
58.985362
20
111.313173
11
54.433109
21
111.615053
0
LINE
8
Layer 1
10
54.433109
20
111.615053
11
50.511643
21
111.493752
0
LINE
8
Layer 1
10
50.511643
20
111.493752
11
47.246317
21
110.956235
0
LINE
8
Layer 1
10
47.246317
20
110.956235
11
45.867629
21
110.533570
0
LINE
8
Layer 1
10
45.867629
20
110.533570
11
44.662485
21
110.009463
0
LINE
8
Layer 1
10
44.662485
20
110.009463
11
43.634052
21
109.384784
0
LINE
8
Layer 1
10
43.634052
20
109.384784
11
42.785501
21
108.660402
0
LINE
8
Layer 1
10
42.785501
20
108.660402
11
42.119999
21
107.837189
0
LINE
8
Layer 1
10
42.119999
20
107.837189
11
41.640718
21
106.916015
0
LINE
8
Layer 1
10
41.640718
20
106.916015
11
41.350824
21
105.897750
0
LINE
8
Layer 1
10
41.350824
20
105.897750
11
41.253489
21
104.783265
0
LINE
8
Layer 1
10
41.253489
20
104.783265
11
41.177309
21
103.940442
0
LINE
8
Layer 1
10
41.177309
20
103.940442
11
40.952161
21
103.198200
0
LINE
8
Layer 1
10
40.952161
20
103.198200
11
40.583132
21
102.556910
0
LINE
8
Layer 1
10
40.583132
20
102.556910
11
40.075309
21
102.016942
0
LINE
8
Layer 1
10
40.075309
20
102.016942
11
39.433780
21
101.578667
0
LINE
8
Layer 1
10
39.433780
20
101.578667
11
38.663633
21
101.242456
0
LINE
8
Layer 1
10
38.663633
20
101.242456
11
36.757830
21
100.877706
0
LINE
8
Layer 1
10
36.757830
20
100.877706
11
34.398601
21
100.925659
0
LINE
8
Layer 1
10
34.398601
20
100.925659
11
31.626643
21
101.389277
0
LINE
8
Layer 1
10
31.626643
20
101.389277
11
28.482656
21
102.271527
0
LINE
8
Layer 1
10
28.482656
20
102.271527
11
25.007339
21
103.575373
0
LINE
8
Layer 1
10
25.007339
20
103.575373
11
21.758024
21
105.045103
0
LINE
8
Layer 1
10
21.758024
20
105.045103
11
19.464231
21
106.384053
0
LINE
8
Layer 1
10
19.464231
20
106.384053
11
18.677817
21
107.024352
0
LINE
8
Layer 1
10
18.677817
20
107.024352
11
18.132878
21
107.655797
0
LINE
8
Layer 1
10
18.132878
20
107.655797
11
17.830278
21
108.286334
0
LINE
8
Layer 1
10
17.830278
20
108.286334
11
17.770882
21
108.923910
0
LINE
8
Layer 1
10
17.770882
20
108.923910
11
17.955556
21
109.576472
0
LINE
8
Layer 1
10
17.955556
20
109.576472
11
18.385163
21
110.251966
0
LINE
8
Layer 1
10
18.385163
20
110.251966
11
19.982637
21
111.703539
0
LINE
8
Layer 1
10
19.982637
20
111.703539
11
22.570223
21
113.342203
0
LINE
8
Layer 1
10
22.570223
20
113.342203
11
26.154837
21
115.231532
0
LINE
8
Layer 1
10
26.154837
20
115.231532
11
28.623865
21
116.353667
0
LINE
8
Layer 1
10
28.623865
20
116.353667
11
31.229060
21
117.334106
0
LINE
8
Layer 1
10
31.229060
20
117.334106
11
33.949736
21
118.172905
0
LINE
8
Layer 1
10
33.949736
20
118.172905
11
36.765204
21
118.870121
0
LINE
8
Layer 1
10
36.765204
20
118.870121
11
42.597765
21
119.840030
0
LINE
8
Layer 1
10
42.597765
20
119.840030
11
48.561238
21
120.244287
0
LINE
8
Layer 1
10
48.561238
20
120.244287
11
48.561238
21
120.244287
0
LINE
8
Layer 1
10
161.438779
20
120.244287
11
167.402253
21
119.840030
0
LINE
8
Layer 1
10
167.402253
20
119.840030
11
173.234812
21
118.870121
0
LINE
8
Layer 1
10
173.234812
20
118.870121
11
176.050279
21
118.172905
0
LINE
8
Layer 1
10
176.050279
20
118.172905
11
178.770951
21
117.334106
0
LINE
8
Layer 1
10
178.770951
20
117.334106
11
181.376142
21
116.353667
0
LINE
8
Layer 1
10
181.376142
20
116.353667
11
183.845163
21
115.231532
0
LINE
8
Layer 1
10
183.845163
20
115.231532
11
187.429777
21
113.342203
0
LINE
8
Layer 1
10
187.429777
20
113.342203
11
190.017363
21
111.703539
0
LINE
8
Layer 1
10
190.017363
20
111.703539
11
191.614836
21
110.251966
0
LINE
8
Layer 1
10
191.614836
20
110.251966
11
192.044444
21
109.576472
0
LINE
8
Layer 1
10
192.044444
20
109.576472
11
192.229117
21
108.923910
0
LINE
8
Layer 1
10
192.229117
20
108.923910
11
192.169721
21
108.286334
0
LINE
8
Layer 1
10
192.169721
20
108.286334
11
191.867122
21
107.655797
0
LINE
8
Layer 1
10
191.867122
20
107.655797
11
191.322183
21
107.024352
0
LINE
8
Layer 1
10
191.322183
20
107.024352
11
190.535769
21
106.384053
0
LINE
8
Layer 1
10
190.535769
20
106.384053
11
188.241975
21
105.045103
0
LINE
8
Layer 1
10
188.241975
20
105.045103
11
184.992659
21
103.575373
0
LINE
8
Layer 1
10
184.992659
20
103.575373
11
181.517348
21
102.271527
0
LINE
8
Layer 1
10
181.517348
20
102.271527
11
178.373366
21
101.389277
0
LINE
8
Layer 1
10
178.373366
20
101.389277
11
175.601412
21
100.925659
0
LINE
8
Layer 1
10
175.601412
20
100.925659
11
173.242185
21
100.877706
0
LINE
8
Layer 1
10
173.242185
20
100.877706
11
171.336384
21
101.242456
0
LINE
8
Layer 1
10
171.336384
20
101.242456
11
170.566237
21
101.578667
0
LINE
8
Layer 1
10
170.566237
20
101.578667
11
169.924708
21
102.016942
0
LINE
8
Layer 1
10
169.924708
20
102.016942
11
169.416886
21
102.556910
0
LINE
8
Layer 1
10
169.416886
20
102.556910
11
169.047856
21
103.198200
0
LINE
8
Layer 1
10
169.047856
20
103.198200
11
168.822708
21
103.940442
0
LINE
8
Layer 1
10
168.822708
20
103.940442
11
168.746528
21
104.783265
0
LINE
8
Layer 1
10
168.746528
20
104.783265
11
168.649193
21
105.897750
0
LINE
8
Layer 1
10
168.649193
20
105.897750
11
168.359301
21
106.916015
0
LINE
8
Layer 1
10
168.359301
20
106.916015
11
167.880020
21
107.837189
0
LINE
8
Layer 1
10
167.880020
20
107.837189
11
167.214520
21
108.660402
0
LINE
8
Layer 1
10
167.214520
20
108.660402
11
166.365969
21
109.384784
0
LINE
8
Layer 1
10
166.365969
20
109.384784
11
165.337538
21
110.009463
0
LINE
8
Layer 1
10
165.337538
20
110.009463
11
164.132394
21
110.533570
0
LINE
8
Layer 1
10
164.132394
20
110.533570
11
162.753708
21
110.956235
0
LINE
8
Layer 1
10
162.753708
20
110.956235
11
159.488384
21
111.493752
0
LINE
8
Layer 1
10
159.488384
20
111.493752
11
155.566917
21
111.615053
0
LINE
8
Layer 1
10
155.566917
20
111.615053
11
151.014661
21
111.313173
0
LINE
8
Layer 1
10
151.014661
20
111.313173
11
145.856968
21
110.581148
0
LINE
8
Layer 1
10
145.856968
20
110.581148
11
141.310084
21
109.864972
0
LINE
8
Layer 1
10
141.310084
20
109.864972
11
137.672750
21
109.459285
0
LINE
8
Layer 1
10
137.672750
20
109.459285
11
134.943463
21
109.365075
0
LINE
8
Layer 1
10
134.943463
20
109.365075
11
133.120720
21
109.583334
0
LINE
8
Layer 1
10
133.120720
20
109.583334
11
132.548834
21
109.809949
0
LINE
8
Layer 1
10
132.548834
20
109.809949
11
132.203020
21
110.115053
0
LINE
8
Layer 1
10
132.203020
20
110.115053
11
132.083091
21
110.498770
0
LINE
8
Layer 1
10
132.083091
20
110.498770
11
132.188860
21
110.961223
0
LINE
8
Layer 1
10
132.188860
20
110.961223
11
133.076737
21
112.122834
0
LINE
8
Layer 1
10
133.076737
20
112.122834
11
134.865150
21
113.600878
0
LINE
8
Layer 1
10
134.865150
20
113.600878
11
137.081109
21
115.034574
0
LINE
8
Layer 1
10
137.081109
20
115.034574
11
139.554253
21
116.297049
0
LINE
8
Layer 1
10
139.554253
20
116.297049
11
142.253557
21
117.386655
0
LINE
8
Layer 1
10
142.253557
20
117.386655
11
145.147999
21
118.301742
0
LINE
8
Layer 1
10
145.147999
20
118.301742
11
148.206556
21
119.040658
0
LINE
8
Layer 1
10
148.206556
20
119.040658
11
151.398204
21
119.601755
0
LINE
8
Layer 1
10
151.398204
20
119.601755
11
154.691920
21
119.983383
0
LINE
8
Layer 1
10
154.691920
20
119.983383
11
158.056682
21
120.183892
0
LINE
8
Layer 1
10
158.056682
20
120.183892
11
161.438779
21
120.244287
0
LINE
8
Layer 1
10
161.438779
20
120.244287
11
161.438779
21
120.244287
 0 
ENDSEC
 0 
EOF
