999
"DXF R12 Output" (www.mydxf.blogspot.com)
 0 
SECTION
 2 
HEADER
 9 
$ACADVER
 1 
AC1009
 9 
$EXTMIN
 10 
 0 
 20 
 0 
 9 
$EXTMAX
 10 
 8.5 
 20 
 11 
 0 
ENDSEC
 0 
SECTION
 2 
ENTITIES
0
LINE
8
Layer 1
10
344.865960
20
191.790855
11
342.673573
21
193.127877
0
LINE
8
Layer 1
10
342.673573
20
193.127877
11
339.452192
21
194.720992
0
LINE
8
Layer 1
10
339.452192
20
194.720992
11
336.604243
21
195.663761
0
LINE
8
Layer 1
10
336.604243
20
195.663761
11
335.284934
21
195.878685
0
LINE
8
Layer 1
10
335.284934
20
195.878685
11
334.016537
21
195.915925
0
LINE
8
Layer 1
10
334.016537
20
195.915925
11
332.784904
21
195.770449
0
LINE
8
Layer 1
10
332.784904
20
195.770449
11
331.575886
21
195.437224
0
LINE
8
Layer 1
10
331.575886
20
195.437224
11
330.375335
21
194.911219
0
LINE
8
Layer 1
10
330.375335
20
194.911219
11
329.169101
21
194.187400
0
LINE
8
Layer 1
10
329.169101
20
194.187400
11
326.682991
21
192.126191
0
LINE
8
Layer 1
10
326.682991
20
192.126191
11
324.004369
21
189.213340
0
LINE
8
Layer 1
10
324.004369
20
189.213340
11
321.020045
21
185.408585
0
LINE
8
Layer 1
10
321.020045
20
185.408585
11
317.784444
21
181.465057
0
LINE
8
Layer 1
10
317.784444
20
181.465057
11
314.485002
21
178.128129
0
LINE
8
Layer 1
10
314.485002
20
178.128129
11
311.508749
21
175.749788
0
LINE
8
Layer 1
10
311.508749
20
175.749788
11
310.262765
21
175.030083
0
LINE
8
Layer 1
10
310.262765
20
175.030083
11
309.242714
21
174.682019
0
LINE
8
Layer 1
10
309.242714
20
174.682019
11
307.455855
21
174.178497
0
LINE
8
Layer 1
10
307.455855
20
174.178497
11
305.783971
21
173.336360
0
LINE
8
Layer 1
10
305.783971
20
173.336360
11
304.414480
21
172.272797
0
LINE
8
Layer 1
10
304.414480
20
172.272797
11
303.534798
21
171.104993
0
LINE
8
Layer 1
10
303.534798
20
171.104993
11
303.495753
21
170.829251
0
LINE
8
Layer 1
10
303.495753
20
170.829251
11
303.658502
21
170.592390
0
LINE
8
Layer 1
10
303.658502
20
170.592390
11
304.551779
21
170.234906
0
LINE
8
Layer 1
10
304.551779
20
170.234906
11
306.139420
21
170.031739
0
LINE
8
Layer 1
10
306.139420
20
170.031739
11
308.346214
21
169.982089
0
LINE
8
Layer 1
10
308.346214
20
169.982089
11
314.316423
21
170.340127
0
LINE
8
Layer 1
10
314.316423
20
170.340127
11
321.860728
21
171.302605
0
LINE
8
Layer 1
10
321.860728
20
171.302605
11
327.364711
21
172.223673
0
LINE
8
Layer 1
10
327.364711
20
172.223673
11
331.887684
21
173.149860
0
LINE
8
Layer 1
10
331.887684
20
173.149860
11
335.553463
21
174.137306
0
LINE
8
Layer 1
10
335.553463
20
174.137306
11
338.485865
21
175.242154
0
LINE
8
Layer 1
10
338.485865
20
175.242154
11
340.808704
21
176.520543
0
LINE
8
Layer 1
10
340.808704
20
176.520543
11
342.645798
21
178.028616
0
LINE
8
Layer 1
10
342.645798
20
178.028616
11
344.120963
21
179.822515
0
LINE
8
Layer 1
10
344.120963
20
179.822515
11
345.358014
21
181.958379
0
LINE
8
Layer 1
10
345.358014
20
181.958379
11
346.874656
21
185.435236
0
LINE
8
Layer 1
10
346.874656
20
185.435236
11
347.247804
21
186.817444
0
LINE
8
Layer 1
10
347.247804
20
186.817444
11
347.350976
21
188.016325
0
LINE
8
Layer 1
10
347.350976
20
188.016325
11
347.174274
21
189.072492
0
LINE
8
Layer 1
10
347.174274
20
189.072492
11
346.707802
21
190.026559
0
LINE
8
Layer 1
10
346.707802
20
190.026559
11
345.941663
21
190.919142
0
LINE
8
Layer 1
10
345.941663
20
190.919142
11
344.865960
21
191.790855
0
LINE
8
Layer 1
10
344.865960
20
191.790855
11
344.865960
21
191.790855
0
LINE
8
Layer 1
10
314.045713
20
206.423098
11
312.540618
21
207.298871
0
LINE
8
Layer 1
10
312.540618
20
207.298871
11
310.679479
21
207.893659
0
LINE
8
Layer 1
10
310.679479
20
207.893659
11
307.513234
21
208.500622
0
LINE
8
Layer 1
10
307.513234
20
208.500622
11
305.078133
21
208.705400
0
LINE
8
Layer 1
10
305.078133
20
208.705400
11
304.115324
21
208.631218
0
LINE
8
Layer 1
10
304.115324
20
208.631218
11
303.311977
21
208.425588
0
LINE
8
Layer 1
10
303.311977
20
208.425588
11
302.660317
21
208.078209
0
LINE
8
Layer 1
10
302.660317
20
208.078209
11
302.152569
21
207.578781
0
LINE
8
Layer 1
10
302.152569
20
207.578781
11
301.780957
21
206.917003
0
LINE
8
Layer 1
10
301.780957
20
206.917003
11
301.537708
21
206.082575
0
LINE
8
Layer 1
10
301.537708
20
206.082575
11
301.405197
21
203.854566
0
LINE
8
Layer 1
10
301.405197
20
203.854566
11
301.692837
21
200.812349
0
LINE
8
Layer 1
10
301.692837
20
200.812349
11
302.338430
21
196.873519
0
LINE
8
Layer 1
10
302.338430
20
196.873519
11
302.826218
21
193.634679
0
LINE
8
Layer 1
10
302.826218
20
193.634679
11
303.001706
21
190.797819
0
LINE
8
Layer 1
10
303.001706
20
190.797819
11
302.830900
21
188.259833
0
LINE
8
Layer 1
10
302.830900
20
188.259833
11
302.279805
21
185.917616
0
LINE
8
Layer 1
10
302.279805
20
185.917616
11
301.314428
21
183.668060
0
LINE
8
Layer 1
10
301.314428
20
183.668060
11
299.900776
21
181.408061
0
LINE
8
Layer 1
10
299.900776
20
181.408061
11
298.004854
21
179.034513
0
LINE
8
Layer 1
10
298.004854
20
179.034513
11
295.592669
21
176.444310
0
LINE
8
Layer 1
10
295.592669
20
176.444310
11
292.347876
21
172.923300
0
LINE
8
Layer 1
10
292.347876
20
172.923300
11
290.401561
21
170.364208
0
LINE
8
Layer 1
10
290.401561
20
170.364208
11
289.887752
21
169.448657
0
LINE
8
Layer 1
10
289.887752
20
169.448657
11
289.665465
21
168.777516
0
LINE
8
Layer 1
10
289.665465
20
168.777516
11
289.723668
21
168.352094
0
LINE
8
Layer 1
10
289.723668
20
168.352094
11
290.051328
21
168.173703
0
LINE
8
Layer 1
10
290.051328
20
168.173703
11
290.637412
21
168.243652
0
LINE
8
Layer 1
10
290.637412
20
168.243652
11
291.470888
21
168.563252
0
LINE
8
Layer 1
10
291.470888
20
168.563252
11
293.835886
21
169.956643
0
LINE
8
Layer 1
10
293.835886
20
169.956643
11
297.058062
21
172.364357
0
LINE
8
Layer 1
10
297.058062
20
172.364357
11
301.049154
21
175.796875
0
LINE
8
Layer 1
10
301.049154
20
175.796875
11
305.865829
21
180.557263
0
LINE
8
Layer 1
10
305.865829
20
180.557263
11
309.834591
21
185.264630
0
LINE
8
Layer 1
10
309.834591
20
185.264630
11
311.490987
21
187.565102
0
LINE
8
Layer 1
10
311.490987
20
187.565102
11
312.923383
21
189.812327
0
LINE
8
Layer 1
10
312.923383
20
189.812327
11
314.127771
21
191.992972
0
LINE
8
Layer 1
10
314.127771
20
191.992972
11
315.100145
21
194.093707
0
LINE
8
Layer 1
10
315.100145
20
194.093707
11
315.836496
21
196.101200
0
LINE
8
Layer 1
10
315.836496
20
196.101200
11
316.332817
21
198.002121
0
LINE
8
Layer 1
10
316.332817
20
198.002121
11
316.585102
21
199.783139
0
LINE
8
Layer 1
10
316.585102
20
199.783139
11
316.589342
21
201.430923
0
LINE
8
Layer 1
10
316.589342
20
201.430923
11
316.341531
21
202.932142
0
LINE
8
Layer 1
10
316.341531
20
202.932142
11
315.837660
21
204.273465
0
LINE
8
Layer 1
10
315.837660
20
204.273465
11
315.073723
21
205.441560
0
LINE
8
Layer 1
10
315.073723
20
205.441560
11
314.045713
21
206.423098
0
LINE
8
Layer 1
10
314.045713
20
206.423098
11
314.045713
21
206.423098
0
LINE
8
Layer 1
10
290.027388
20
206.806135
11
288.112752
21
207.870065
0
LINE
8
Layer 1
10
288.112752
20
207.870065
11
285.979900
21
208.557994
0
LINE
8
Layer 1
10
285.979900
20
208.557994
11
283.664233
21
208.831576
0
LINE
8
Layer 1
10
283.664233
20
208.831576
11
281.201154
21
208.652464
0
LINE
8
Layer 1
10
281.201154
20
208.652464
11
278.890306
21
208.039442
0
LINE
8
Layer 1
10
278.890306
20
208.039442
11
277.108343
21
207.106738
0
LINE
8
Layer 1
10
277.108343
20
207.106738
11
275.877432
21
205.937852
0
LINE
8
Layer 1
10
275.877432
20
205.937852
11
275.219736
21
204.616282
0
LINE
8
Layer 1
10
275.219736
20
204.616282
11
275.112771
21
203.924335
0
LINE
8
Layer 1
10
275.112771
20
203.924335
11
275.157422
21
203.225528
0
LINE
8
Layer 1
10
275.157422
20
203.225528
11
275.356459
21
202.530301
0
LINE
8
Layer 1
10
275.356459
20
202.530301
11
275.712654
21
201.849089
0
LINE
8
Layer 1
10
275.712654
20
201.849089
11
276.907599
21
200.570463
0
LINE
8
Layer 1
10
276.907599
20
200.570463
11
278.764421
21
199.473150
0
LINE
8
Layer 1
10
278.764421
20
199.473150
11
279.796079
21
198.843617
0
LINE
8
Layer 1
10
279.796079
20
198.843617
11
280.667137
21
197.961903
0
LINE
8
Layer 1
10
280.667137
20
197.961903
11
281.379122
21
196.850171
0
LINE
8
Layer 1
10
281.379122
20
196.850171
11
281.933555
21
195.530585
0
LINE
8
Layer 1
10
281.933555
20
195.530585
11
282.331963
21
194.025308
0
LINE
8
Layer 1
10
282.331963
20
194.025308
11
282.575868
21
192.356502
0
LINE
8
Layer 1
10
282.575868
20
192.356502
11
282.666794
21
190.546330
0
LINE
8
Layer 1
10
282.666794
20
190.546330
11
282.606266
21
188.616955
0
LINE
8
Layer 1
10
282.606266
20
188.616955
11
282.036941
21
184.489250
0
LINE
8
Layer 1
10
282.036941
20
184.489250
11
280.880087
21
180.150690
0
LINE
8
Layer 1
10
280.880087
20
180.150690
11
279.147894
21
175.778579
0
LINE
8
Layer 1
10
279.147894
20
175.778579
11
278.069856
21
173.635349
0
LINE
8
Layer 1
10
278.069856
20
173.635349
11
276.852555
21
171.550221
0
LINE
8
Layer 1
10
276.852555
20
171.550221
11
274.600792
21
167.585696
0
LINE
8
Layer 1
10
274.600792
20
167.585696
11
273.261452
21
164.422597
0
LINE
8
Layer 1
10
273.261452
20
164.422597
11
272.965825
21
163.241734
0
LINE
8
Layer 1
10
272.965825
20
163.241734
11
272.936565
21
162.381407
0
LINE
8
Layer 1
10
272.936565
20
162.381407
11
273.186425
21
161.881679
0
LINE
8
Layer 1
10
273.186425
20
161.881679
11
273.728160
21
161.782609
0
LINE
8
Layer 1
10
273.728160
20
161.782609
11
274.679811
21
162.158153
0
LINE
8
Layer 1
10
274.679811
20
162.158153
11
275.828538
21
162.973462
0
LINE
8
Layer 1
10
275.828538
20
162.973462
11
277.142365
21
164.180187
0
LINE
8
Layer 1
10
277.142365
20
164.180187
11
278.589318
21
165.729976
0
LINE
8
Layer 1
10
278.589318
20
165.729976
11
281.754702
21
169.665344
0
LINE
8
Layer 1
10
281.754702
20
169.665344
11
285.068894
21
174.392765
0
LINE
8
Layer 1
10
285.068894
20
174.392765
11
288.276094
21
179.525432
0
LINE
8
Layer 1
10
288.276094
20
179.525432
11
291.120506
21
184.676543
0
LINE
8
Layer 1
10
291.120506
20
184.676543
11
293.346331
21
189.459293
0
LINE
8
Layer 1
10
293.346331
20
189.459293
11
294.147336
21
191.591656
0
LINE
8
Layer 1
10
294.147336
20
191.591656
11
294.697771
21
193.486878
0
LINE
8
Layer 1
10
294.697771
20
193.486878
11
295.025902
21
195.467182
0
LINE
8
Layer 1
10
295.025902
20
195.467182
11
295.076754
21
197.382939
0
LINE
8
Layer 1
10
295.076754
20
197.382939
11
294.867047
21
199.215184
0
LINE
8
Layer 1
10
294.867047
20
199.215184
11
294.413499
21
200.944949
0
LINE
8
Layer 1
10
294.413499
20
200.944949
11
293.732832
21
202.553269
0
LINE
8
Layer 1
10
293.732832
20
202.553269
11
292.841765
21
204.021177
0
LINE
8
Layer 1
10
292.841765
20
204.021177
11
291.757019
21
205.329709
0
LINE
8
Layer 1
10
291.757019
20
205.329709
11
290.495313
21
206.459897
0
LINE
8
Layer 1
10
290.495313
20
206.459897
11
290.027388
21
206.806135
0
LINE
8
Layer 1
10
290.027388
20
206.806135
11
290.027388
21
206.806135
0
LINE
8
Layer 1
10
331.342915
20
161.016593
11
329.363611
21
162.145720
0
LINE
8
Layer 1
10
329.363611
20
162.145720
11
327.011945
21
163.057683
0
LINE
8
Layer 1
10
327.011945
20
163.057683
11
324.315890
21
163.741390
0
LINE
8
Layer 1
10
324.315890
20
163.741390
11
321.303417
21
164.185753
0
LINE
8
Layer 1
10
321.303417
20
164.185753
11
318.002498
21
164.379679
0
LINE
8
Layer 1
10
318.002498
20
164.379679
11
314.441104
21
164.312079
0
LINE
8
Layer 1
10
314.441104
20
164.312079
11
310.647208
21
163.971862
0
LINE
8
Layer 1
10
310.647208
20
163.971862
11
306.648781
21
163.347938
0
LINE
8
Layer 1
10
306.648781
20
163.347938
11
289.892401
21
160.200584
0
LINE
8
Layer 1
10
289.892401
20
160.200584
11
304.708221
21
159.287206
0
LINE
8
Layer 1
10
304.708221
20
159.287206
11
307.777564
21
158.981272
0
LINE
8
Layer 1
10
307.777564
20
158.981272
11
310.820598
21
158.457557
0
LINE
8
Layer 1
10
310.820598
20
158.457557
11
313.757869
21
157.744579
0
LINE
8
Layer 1
10
313.757869
20
157.744579
11
316.509922
21
156.870854
0
LINE
8
Layer 1
10
316.509922
20
156.870854
11
318.997302
21
155.864900
0
LINE
8
Layer 1
10
318.997302
20
155.864900
11
321.140553
21
154.755232
0
LINE
8
Layer 1
10
321.140553
20
154.755232
11
322.860221
21
153.570369
0
LINE
8
Layer 1
10
322.860221
20
153.570369
11
324.076850
21
152.338827
0
LINE
8
Layer 1
10
324.076850
20
152.338827
11
325.992900
21
149.988278
0
LINE
8
Layer 1
10
325.992900
20
149.988278
11
327.705086
21
148.305816
0
LINE
8
Layer 1
10
327.705086
20
148.305816
11
329.229614
21
147.291220
0
LINE
8
Layer 1
10
329.229614
20
147.291220
11
329.926572
21
147.034305
0
LINE
8
Layer 1
10
329.926572
20
147.034305
11
330.582693
21
146.944274
0
LINE
8
Layer 1
10
330.582693
20
146.944274
11
331.200004
21
147.021100
0
LINE
8
Layer 1
10
331.200004
20
147.021100
11
331.780531
21
147.264756
0
LINE
8
Layer 1
10
331.780531
20
147.264756
11
332.839334
21
148.252450
0
LINE
8
Layer 1
10
332.839334
20
148.252450
11
333.775312
21
149.907135
0
LINE
8
Layer 1
10
333.775312
20
149.907135
11
334.604670
21
152.228594
0
LINE
8
Layer 1
10
334.604670
20
152.228594
11
334.899583
21
153.572831
0
LINE
8
Layer 1
10
334.899583
20
153.572831
11
334.979330
21
154.852563
0
LINE
8
Layer 1
10
334.979330
20
154.852563
11
334.851119
21
156.064937
0
LINE
8
Layer 1
10
334.851119
20
156.064937
11
334.522156
21
157.207100
0
LINE
8
Layer 1
10
334.522156
20
157.207100
11
333.999647
21
158.276200
0
LINE
8
Layer 1
10
333.999647
20
158.276200
11
333.290800
21
159.269384
0
LINE
8
Layer 1
10
333.290800
20
159.269384
11
332.402820
21
160.183799
0
LINE
8
Layer 1
10
332.402820
20
160.183799
11
331.342915
21
161.016593
0
LINE
8
Layer 1
10
331.342915
20
161.016593
11
331.342915
21
161.016593
0
LINE
8
Layer 1
10
266.745918
20
202.343130
11
264.415320
21
203.610616
0
LINE
8
Layer 1
10
264.415320
20
203.610616
11
261.721559
21
204.393465
0
LINE
8
Layer 1
10
261.721559
20
204.393465
11
258.672998
21
204.654330
0
LINE
8
Layer 1
10
258.672998
20
204.654330
11
255.278001
21
204.355865
0
LINE
8
Layer 1
10
255.278001
20
204.355865
11
252.758313
21
203.909662
0
LINE
8
Layer 1
10
252.758313
20
203.909662
11
250.932050
21
203.459008
0
LINE
8
Layer 1
10
250.932050
20
203.459008
11
249.780298
21
202.908327
0
LINE
8
Layer 1
10
249.780298
20
202.908327
11
249.451453
21
202.565609
0
LINE
8
Layer 1
10
249.451453
20
202.565609
11
249.284143
21
202.162045
0
LINE
8
Layer 1
10
249.284143
20
202.162045
11
249.424669
21
201.124588
0
LINE
8
Layer 1
10
249.424669
20
201.124588
11
250.182961
21
199.700382
0
LINE
8
Layer 1
10
250.182961
20
199.700382
11
253.477189
21
195.309421
0
LINE
8
Layer 1
10
253.477189
20
195.309421
11
254.543640
21
193.807967
0
LINE
8
Layer 1
10
254.543640
20
193.807967
11
255.490189
21
192.153814
0
LINE
8
Layer 1
10
255.490189
20
192.153814
11
256.316364
21
190.354291
0
LINE
8
Layer 1
10
256.316364
20
190.354291
11
257.021694
21
188.416729
0
LINE
8
Layer 1
10
257.021694
20
188.416729
11
258.067936
21
184.156809
0
LINE
8
Layer 1
10
258.067936
20
184.156809
11
258.625145
21
179.432696
0
LINE
8
Layer 1
10
258.625145
20
179.432696
11
258.689551
21
174.303036
0
LINE
8
Layer 1
10
258.689551
20
174.303036
11
258.257384
21
168.826470
0
LINE
8
Layer 1
10
258.257384
20
168.826470
11
257.324874
21
163.061642
0
LINE
8
Layer 1
10
257.324874
20
163.061642
11
255.888253
21
157.067195
0
LINE
8
Layer 1
10
255.888253
20
157.067195
11
255.594283
21
155.646481
0
LINE
8
Layer 1
10
255.594283
20
155.646481
11
255.676584
21
154.875527
0
LINE
8
Layer 1
10
255.676584
20
154.875527
11
255.856031
21
154.731361
0
LINE
8
Layer 1
10
255.856031
20
154.731361
11
256.126179
21
154.746817
0
LINE
8
Layer 1
10
256.126179
20
154.746817
11
256.934092
21
155.252839
0
LINE
8
Layer 1
10
256.934092
20
155.252839
11
258.091346
21
156.386077
0
LINE
8
Layer 1
10
258.091346
20
156.386077
11
259.588963
21
158.139015
0
LINE
8
Layer 1
10
259.588963
20
158.139015
11
263.569385
21
163.473938
0
LINE
8
Layer 1
10
263.569385
20
163.473938
11
265.586766
21
166.516533
0
LINE
8
Layer 1
10
265.586766
20
166.516533
11
267.346245
21
169.553443
0
LINE
8
Layer 1
10
267.346245
20
169.553443
11
268.851121
21
172.568365
0
LINE
8
Layer 1
10
268.851121
20
172.568365
11
270.104691
21
175.544994
0
LINE
8
Layer 1
10
270.104691
20
175.544994
11
271.110251
21
178.467026
0
LINE
8
Layer 1
10
271.110251
20
178.467026
11
271.871101
21
181.318159
0
LINE
8
Layer 1
10
271.871101
20
181.318159
11
272.390537
21
184.082087
0
LINE
8
Layer 1
10
272.390537
20
184.082087
11
272.671856
21
186.742507
0
LINE
8
Layer 1
10
272.671856
20
186.742507
11
272.718357
21
189.283116
0
LINE
8
Layer 1
10
272.718357
20
189.283116
11
272.533336
21
191.687610
0
LINE
8
Layer 1
10
272.533336
20
191.687610
11
272.120091
21
193.939684
0
LINE
8
Layer 1
10
272.120091
20
193.939684
11
271.481919
21
196.023034
0
LINE
8
Layer 1
10
271.481919
20
196.023034
11
270.622119
21
197.921358
0
LINE
8
Layer 1
10
270.622119
20
197.921358
11
269.543987
21
199.618351
0
LINE
8
Layer 1
10
269.543987
20
199.618351
11
268.250820
21
201.097710
0
LINE
8
Layer 1
10
268.250820
20
201.097710
11
266.745918
21
202.343130
0
LINE
8
Layer 1
10
266.745918
20
202.343130
11
266.745918
21
202.343130
0
LINE
8
Layer 1
10
315.286475
20
146.983282
11
312.405331
21
148.800850
0
LINE
8
Layer 1
10
312.405331
20
148.800850
11
309.192947
21
150.384810
0
LINE
8
Layer 1
10
309.192947
20
150.384810
11
305.700216
21
151.701021
0
LINE
8
Layer 1
10
305.700216
20
151.701021
11
301.978028
21
152.715342
0
LINE
8
Layer 1
10
301.978028
20
152.715342
11
298.077278
21
153.393635
0
LINE
8
Layer 1
10
298.077278
20
153.393635
11
294.048856
21
153.701757
0
LINE
8
Layer 1
10
294.048856
20
153.701757
11
289.943656
21
153.605571
0
LINE
8
Layer 1
10
289.943656
20
153.605571
11
285.812569
21
153.070934
0
LINE
8
Layer 1
10
285.812569
20
153.070934
11
281.132971
21
152.057800
0
LINE
8
Layer 1
10
281.132971
20
152.057800
11
280.115965
21
151.608939
0
LINE
8
Layer 1
10
280.115965
20
151.608939
11
279.953851
21
151.378953
0
LINE
8
Layer 1
10
279.953851
20
151.378953
11
280.028640
21
151.137648
0
LINE
8
Layer 1
10
280.028640
20
151.137648
11
280.906861
21
150.598250
0
LINE
8
Layer 1
10
280.906861
20
150.598250
11
282.786491
21
149.945068
0
LINE
8
Layer 1
10
282.786491
20
149.945068
11
289.693435
21
148.114646
0
LINE
8
Layer 1
10
289.693435
20
148.114646
11
293.014286
21
147.151238
0
LINE
8
Layer 1
10
293.014286
20
147.151238
11
295.961219
21
146.003820
0
LINE
8
Layer 1
10
295.961219
20
146.003820
11
298.568029
21
144.645116
0
LINE
8
Layer 1
10
298.568029
20
144.645116
11
300.868510
21
143.047853
0
LINE
8
Layer 1
10
300.868510
20
143.047853
11
302.896458
21
141.184756
0
LINE
8
Layer 1
10
302.896458
20
141.184756
11
304.685666
21
139.028550
0
LINE
8
Layer 1
10
304.685666
20
139.028550
11
306.269929
21
136.551960
0
LINE
8
Layer 1
10
306.269929
20
136.551960
11
307.683041
21
133.727713
0
LINE
8
Layer 1
10
307.683041
20
133.727713
11
309.608756
21
129.628470
0
LINE
8
Layer 1
10
309.608756
20
129.628470
11
311.307437
21
126.592484
0
LINE
8
Layer 1
10
311.307437
20
126.592484
11
312.858036
21
124.593702
0
LINE
8
Layer 1
10
312.858036
20
124.593702
11
313.602476
21
123.975122
0
LINE
8
Layer 1
10
313.602476
20
123.975122
11
314.339503
21
123.606074
0
LINE
8
Layer 1
10
314.339503
20
123.606074
11
315.078984
21
123.483301
0
LINE
8
Layer 1
10
315.078984
20
123.483301
11
315.830790
21
123.603546
0
LINE
8
Layer 1
10
315.830790
20
123.603546
11
316.604788
21
123.963555
0
LINE
8
Layer 1
10
316.604788
20
123.963555
11
317.410848
21
124.560068
0
LINE
8
Layer 1
10
317.410848
20
124.560068
11
319.158629
21
126.449588
0
LINE
8
Layer 1
10
319.158629
20
126.449588
11
321.153084
21
129.246053
0
LINE
8
Layer 1
10
321.153084
20
129.246053
11
322.320815
21
131.500814
0
LINE
8
Layer 1
10
322.320815
20
131.500814
11
322.893182
21
133.778691
0
LINE
8
Layer 1
10
322.893182
20
133.778691
11
322.908441
21
136.053759
0
LINE
8
Layer 1
10
322.908441
20
136.053759
11
322.404849
21
138.300096
0
LINE
8
Layer 1
10
322.404849
20
138.300096
11
321.420662
21
140.491778
0
LINE
8
Layer 1
10
321.420662
20
140.491778
11
319.994134
21
142.602882
0
LINE
8
Layer 1
10
319.994134
20
142.602882
11
318.163522
21
144.607484
0
LINE
8
Layer 1
10
318.163522
20
144.607484
11
315.967082
21
146.479662
0
LINE
8
Layer 1
10
315.967082
20
146.479662
11
315.286475
21
146.983282
0
LINE
8
Layer 1
10
315.286475
20
146.983282
11
315.286475
21
146.983282
0
LINE
8
Layer 1
10
244.536530
20
189.735944
11
242.710093
21
190.858666
0
LINE
8
Layer 1
10
242.710093
20
190.858666
11
240.679688
21
191.740544
0
LINE
8
Layer 1
10
240.679688
20
191.740544
11
238.446461
21
192.368829
0
LINE
8
Layer 1
10
238.446461
20
192.368829
11
236.011559
21
192.730770
0
LINE
8
Layer 1
10
236.011559
20
192.730770
11
233.641406
21
192.861266
0
LINE
8
Layer 1
10
233.641406
20
192.861266
11
231.322625
21
192.831190
0
LINE
8
Layer 1
10
231.322625
20
192.831190
11
229.061829
21
192.644110
0
LINE
8
Layer 1
10
229.061829
20
192.644110
11
226.865631
21
192.303592
0
LINE
8
Layer 1
10
226.865631
20
192.303592
11
224.740646
21
191.813203
0
LINE
8
Layer 1
10
224.740646
20
191.813203
11
222.693486
21
191.176511
0
LINE
8
Layer 1
10
222.693486
20
191.176511
11
220.730765
21
190.397082
0
LINE
8
Layer 1
10
220.730765
20
190.397082
11
218.859096
21
189.478482
0
LINE
8
Layer 1
10
218.859096
20
189.478482
11
217.085094
21
188.424280
0
LINE
8
Layer 1
10
217.085094
20
188.424280
11
215.415371
21
187.238040
0
LINE
8
Layer 1
10
215.415371
20
187.238040
11
213.856541
21
185.923332
0
LINE
8
Layer 1
10
213.856541
20
185.923332
11
212.415218
21
184.483720
0
LINE
8
Layer 1
10
212.415218
20
184.483720
11
211.098015
21
182.922772
0
LINE
8
Layer 1
10
211.098015
20
182.922772
11
209.911546
21
181.244055
0
LINE
8
Layer 1
10
209.911546
20
181.244055
11
208.862424
21
179.451136
0
LINE
8
Layer 1
10
208.862424
20
179.451136
11
207.957262
21
177.547582
0
LINE
8
Layer 1
10
207.957262
20
177.547582
11
207.234361
21
175.627861
0
LINE
8
Layer 1
10
207.234361
20
175.627861
11
206.680815
21
173.702424
0
LINE
8
Layer 1
10
206.680815
20
173.702424
11
206.052861
21
169.938055
0
LINE
8
Layer 1
10
206.052861
20
169.938055
11
206.015534
21
166.461797
0
LINE
8
Layer 1
10
206.015534
20
166.461797
11
206.510969
21
163.480970
0
LINE
8
Layer 1
10
206.510969
20
163.480970
11
206.940389
21
162.241130
0
LINE
8
Layer 1
10
206.940389
20
162.241130
11
207.481300
21
161.202893
0
LINE
8
Layer 1
10
207.481300
20
161.202893
11
208.126469
21
160.392173
0
LINE
8
Layer 1
10
208.126469
20
160.392173
11
208.868662
21
159.834887
0
LINE
8
Layer 1
10
208.868662
20
159.834887
11
209.700647
21
159.556948
0
LINE
8
Layer 1
10
209.700647
20
159.556948
11
210.615190
21
159.584272
0
LINE
8
Layer 1
10
210.615190
20
159.584272
11
211.605058
21
159.942774
0
LINE
8
Layer 1
10
211.605058
20
159.942774
11
212.663018
21
160.658368
0
LINE
8
Layer 1
10
212.663018
20
160.658368
11
213.498058
21
161.431646
0
LINE
8
Layer 1
10
213.498058
20
161.431646
11
214.063226
21
162.149880
0
LINE
8
Layer 1
10
214.063226
20
162.149880
11
214.357265
21
162.820604
0
LINE
8
Layer 1
10
214.357265
20
162.820604
11
214.378921
21
163.451354
0
LINE
8
Layer 1
10
214.378921
20
163.451354
11
214.126939
21
164.049665
0
LINE
8
Layer 1
10
214.126939
20
164.049665
11
213.600064
21
164.623072
0
LINE
8
Layer 1
10
213.600064
20
164.623072
11
212.797041
21
165.179109
0
LINE
8
Layer 1
10
212.797041
20
165.179109
11
211.716614
21
165.725313
0
LINE
8
Layer 1
10
211.716614
20
165.725313
11
210.650285
21
166.366787
0
LINE
8
Layer 1
10
210.650285
20
166.366787
11
209.903903
21
167.174807
0
LINE
8
Layer 1
10
209.903903
20
167.174807
11
209.459134
21
168.123387
0
LINE
8
Layer 1
10
209.459134
20
168.123387
11
209.297646
21
169.186538
0
LINE
8
Layer 1
10
209.297646
20
169.186538
11
209.401108
21
170.338273
0
LINE
8
Layer 1
10
209.401108
20
170.338273
11
209.751186
21
171.552606
0
LINE
8
Layer 1
10
209.751186
20
171.552606
11
210.329548
21
172.803549
0
LINE
8
Layer 1
10
210.329548
20
172.803549
11
211.117862
21
174.065113
0
LINE
8
Layer 1
10
211.117862
20
174.065113
11
212.097796
21
175.311313
0
LINE
8
Layer 1
10
212.097796
20
175.311313
11
213.251017
21
176.516161
0
LINE
8
Layer 1
10
213.251017
20
176.516161
11
214.559193
21
177.653669
0
LINE
8
Layer 1
10
214.559193
20
177.653669
11
216.003991
21
178.697851
0
LINE
8
Layer 1
10
216.003991
20
178.697851
11
217.567079
21
179.622718
0
LINE
8
Layer 1
10
217.567079
20
179.622718
11
219.230124
21
180.402284
0
LINE
8
Layer 1
10
219.230124
20
180.402284
11
220.974795
21
181.010561
0
LINE
8
Layer 1
10
220.974795
20
181.010561
11
222.782759
21
181.421562
0
LINE
8
Layer 1
10
222.782759
20
181.421562
11
226.078155
21
181.739911
0
LINE
8
Layer 1
10
226.078155
20
181.739911
11
229.017785
21
181.566565
0
LINE
8
Layer 1
10
229.017785
20
181.566565
11
231.595622
21
180.933878
0
LINE
8
Layer 1
10
231.595622
20
180.933878
11
233.805642
21
179.874204
0
LINE
8
Layer 1
10
233.805642
20
179.874204
11
235.641822
21
178.419899
0
LINE
8
Layer 1
10
235.641822
20
178.419899
11
237.098135
21
176.603318
0
LINE
8
Layer 1
10
237.098135
20
176.603318
11
238.168557
21
174.456815
0
LINE
8
Layer 1
10
238.168557
20
174.456815
11
238.847064
21
172.012745
0
LINE
8
Layer 1
10
238.847064
20
172.012745
11
239.127630
21
169.303464
0
LINE
8
Layer 1
10
239.127630
20
169.303464
11
239.004231
21
166.361326
0
LINE
8
Layer 1
10
239.004231
20
166.361326
11
238.470843
21
163.218686
0
LINE
8
Layer 1
10
238.470843
20
163.218686
11
237.521439
21
159.907900
0
LINE
8
Layer 1
10
237.521439
20
159.907900
11
236.149996
21
156.461322
0
LINE
8
Layer 1
10
236.149996
20
156.461322
11
234.350489
21
152.911307
0
LINE
8
Layer 1
10
234.350489
20
152.911307
11
232.116894
21
149.290209
0
LINE
8
Layer 1
10
232.116894
20
149.290209
11
229.443184
21
145.630385
0
LINE
8
Layer 1
10
229.443184
20
145.630385
11
227.535569
21
143.368677
0
LINE
8
Layer 1
10
227.535569
20
143.368677
11
225.481114
21
141.223791
0
LINE
8
Layer 1
10
225.481114
20
141.223791
11
223.288760
21
139.196691
0
LINE
8
Layer 1
10
223.288760
20
139.196691
11
220.967449
21
137.288340
0
LINE
8
Layer 1
10
220.967449
20
137.288340
11
218.526121
21
135.499702
0
LINE
8
Layer 1
10
218.526121
20
135.499702
11
215.973718
21
133.831738
0
LINE
8
Layer 1
10
215.973718
20
133.831738
11
213.319182
21
132.285414
0
LINE
8
Layer 1
10
213.319182
20
132.285414
11
210.571453
21
130.861691
0
LINE
8
Layer 1
10
210.571453
20
130.861691
11
204.832184
21
128.385904
0
LINE
8
Layer 1
10
204.832184
20
128.385904
11
198.827442
21
126.412084
0
LINE
8
Layer 1
10
198.827442
20
126.412084
11
192.628756
21
124.947937
0
LINE
8
Layer 1
10
192.628756
20
124.947937
11
186.307658
21
124.001169
0
LINE
8
Layer 1
10
186.307658
20
124.001169
11
179.935677
21
123.579485
0
LINE
8
Layer 1
10
179.935677
20
123.579485
11
173.584346
21
123.690592
0
LINE
8
Layer 1
10
173.584346
20
123.690592
11
167.325193
21
124.342197
0
LINE
8
Layer 1
10
167.325193
20
124.342197
11
161.229749
21
125.542003
0
LINE
8
Layer 1
10
161.229749
20
125.542003
11
158.265772
21
126.349891
0
LINE
8
Layer 1
10
158.265772
20
126.349891
11
155.369546
21
127.297719
0
LINE
8
Layer 1
10
155.369546
20
127.297719
11
152.550012
21
128.386451
0
LINE
8
Layer 1
10
152.550012
20
128.386451
11
149.816113
21
129.617050
0
LINE
8
Layer 1
10
149.816113
20
129.617050
11
147.176788
21
130.990479
0
LINE
8
Layer 1
10
147.176788
20
130.990479
11
144.640981
21
132.507702
0
LINE
8
Layer 1
10
144.640981
20
132.507702
11
142.217631
21
134.169681
0
LINE
8
Layer 1
10
142.217631
20
134.169681
11
139.915680
21
135.977380
0
LINE
8
Layer 1
10
139.915680
20
135.977380
11
137.668835
21
137.746488
0
LINE
8
Layer 1
10
137.668835
20
137.746488
11
135.344366
21
139.358834
0
LINE
8
Layer 1
10
135.344366
20
139.358834
11
133.009502
21
140.781911
0
LINE
8
Layer 1
10
133.009502
20
140.781911
11
130.731471
21
141.983209
0
LINE
8
Layer 1
10
130.731471
20
141.983209
11
128.577502
21
142.930223
0
LINE
8
Layer 1
10
128.577502
20
142.930223
11
126.614822
21
143.590443
0
LINE
8
Layer 1
10
126.614822
20
143.590443
11
124.910660
21
143.931361
0
LINE
8
Layer 1
10
124.910660
20
143.931361
11
123.532245
21
143.920471
0
LINE
8
Layer 1
10
123.532245
20
143.920471
11
122.647013
21
143.855022
0
LINE
8
Layer 1
10
122.647013
20
143.855022
11
121.752060
21
143.942334
0
LINE
8
Layer 1
10
121.752060
20
143.942334
11
119.984954
21
144.535894
0
LINE
8
Layer 1
10
119.984954
20
144.535894
11
118.334853
21
145.622459
0
LINE
8
Layer 1
10
118.334853
20
145.622459
11
116.905682
21
147.123340
0
LINE
8
Layer 1
10
116.905682
20
147.123340
11
116.936153
21
148.629553
0
LINE
8
Layer 1
10
116.936153
20
148.629553
11
116.774663
21
150.129635
0
LINE
8
Layer 1
10
116.774663
20
150.129635
11
116.424377
21
151.604089
0
LINE
8
Layer 1
10
116.424377
20
151.604089
11
115.888460
21
153.033418
0
LINE
8
Layer 1
10
115.888460
20
153.033418
11
115.170077
21
154.398124
0
LINE
8
Layer 1
10
115.170077
20
154.398124
11
114.272393
21
155.678710
0
LINE
8
Layer 1
10
114.272393
20
155.678710
11
113.198572
21
156.855680
0
LINE
8
Layer 1
10
113.198572
20
156.855680
11
111.951781
21
157.909535
0
LINE
8
Layer 1
10
111.951781
20
157.909535
11
111.946535
21
157.902446
0
LINE
8
Layer 1
10
111.946535
20
157.902446
11
110.557174
21
158.793453
0
LINE
8
Layer 1
10
110.557174
20
158.793453
11
109.099623
21
159.478433
0
LINE
8
Layer 1
10
109.099623
20
159.478433
11
107.594108
21
159.960155
0
LINE
8
Layer 1
10
107.594108
20
159.960155
11
106.060854
21
160.241386
0
LINE
8
Layer 1
10
106.060854
20
160.241386
11
104.520087
21
160.324895
0
LINE
8
Layer 1
10
104.520087
20
160.324895
11
102.992032
21
160.213453
0
LINE
8
Layer 1
10
102.992032
20
160.213453
11
101.496916
21
159.909826
0
LINE
8
Layer 1
10
101.496916
20
159.909826
11
100.054963
21
159.416785
0
LINE
8
Layer 1
10
100.054963
20
159.416785
11
98.336473
21
160.300685
0
LINE
8
Layer 1
10
98.336473
20
160.300685
11
97.031761
21
161.564496
0
LINE
8
Layer 1
10
97.031761
20
161.564496
11
96.171943
21
163.185609
0
LINE
8
Layer 1
10
96.171943
20
163.185609
11
95.788136
21
165.141417
0
LINE
8
Layer 1
10
95.788136
20
165.141417
11
95.472662
21
166.529142
0
LINE
8
Layer 1
10
95.472662
20
166.529142
11
94.724355
21
167.845540
0
LINE
8
Layer 1
10
94.724355
20
167.845540
11
93.567100
21
169.089654
0
LINE
8
Layer 1
10
93.567100
20
169.089654
11
92.024780
21
170.260524
0
LINE
8
Layer 1
10
92.024780
20
170.260524
11
90.121281
21
171.357190
0
LINE
8
Layer 1
10
90.121281
20
171.357190
11
87.880487
21
172.378692
0
LINE
8
Layer 1
10
87.880487
20
172.378692
11
85.326283
21
173.324072
0
LINE
8
Layer 1
10
85.326283
20
173.324072
11
82.482553
21
174.192370
0
LINE
8
Layer 1
10
82.482553
20
174.192370
11
76.022054
21
175.693880
0
LINE
8
Layer 1
10
76.022054
20
175.693880
11
68.690068
21
176.875547
0
LINE
8
Layer 1
10
68.690068
20
176.875547
11
60.677670
21
177.729695
0
LINE
8
Layer 1
10
60.677670
20
177.729695
11
52.175938
21
178.248648
0
LINE
8
Layer 1
10
52.175938
20
178.248648
11
43.375948
21
178.424731
0
LINE
8
Layer 1
10
43.375948
20
178.424731
11
34.468777
21
178.250266
0
LINE
8
Layer 1
10
34.468777
20
178.250266
11
25.645502
21
177.717579
0
LINE
8
Layer 1
10
25.645502
20
177.717579
11
17.097199
21
176.818994
0
LINE
8
Layer 1
10
17.097199
20
176.818994
11
9.014945
21
175.546834
0
LINE
8
Layer 1
10
9.014945
20
175.546834
11
1.589817
21
173.893424
0
LINE
8
Layer 1
10
1.589817
20
173.893424
11
-1.816613
21
172.921351
0
LINE
8
Layer 1
10
-1.816613
20
172.921351
11
-4.987109
21
171.851087
0
LINE
8
Layer 1
10
-4.987109
20
171.851087
11
-7.897784
21
170.681673
0
LINE
8
Layer 1
10
-7.897784
20
170.681673
11
-10.524755
21
169.412148
0
LINE
8
Layer 1
10
-10.524755
20
169.412148
11
-14.343676
21
167.706941
0
LINE
8
Layer 1
10
-14.343676
20
167.706941
11
-18.269744
21
166.560268
0
LINE
8
Layer 1
10
-18.269744
20
166.560268
11
-22.241848
21
165.939293
0
LINE
8
Layer 1
10
-22.241848
20
165.939293
11
-26.198876
21
165.811177
0
LINE
8
Layer 1
10
-26.198876
20
165.811177
11
-30.079717
21
166.143083
0
LINE
8
Layer 1
10
-30.079717
20
166.143083
11
-33.823258
21
166.902172
0
LINE
8
Layer 1
10
-33.823258
20
166.902172
11
-37.368389
21
168.055608
0
LINE
8
Layer 1
10
-37.368389
20
168.055608
11
-40.653997
21
169.570551
0
LINE
8
Layer 1
10
-40.653997
20
169.570551
11
-43.618971
21
171.414165
0
LINE
8
Layer 1
10
-43.618971
20
171.414165
11
-46.202198
21
173.553612
0
LINE
8
Layer 1
10
-46.202198
20
173.553612
11
-48.342568
21
175.956053
0
LINE
8
Layer 1
10
-48.342568
20
175.956053
11
-49.978969
21
178.588651
0
LINE
8
Layer 1
10
-49.978969
20
178.588651
11
-50.589083
21
179.980997
0
LINE
8
Layer 1
10
-50.589083
20
179.980997
11
-51.050288
21
181.418568
0
LINE
8
Layer 1
10
-51.050288
20
181.418568
11
-51.354944
21
182.897260
0
LINE
8
Layer 1
10
-51.354944
20
182.897260
11
-51.495414
21
184.412967
0
LINE
8
Layer 1
10
-51.495414
20
184.412967
11
-51.464057
21
185.961585
0
LINE
8
Layer 1
10
-51.464057
20
185.961585
11
-51.253235
21
187.539009
0
LINE
8
Layer 1
10
-51.253235
20
187.539009
11
-50.855309
21
189.141134
0
LINE
8
Layer 1
10
-50.855309
20
189.141134
11
-50.262640
21
190.763857
0
LINE
8
Layer 1
10
-50.262640
20
190.763857
11
-49.497967
21
192.187808
0
LINE
8
Layer 1
10
-49.497967
20
192.187808
11
-48.453848
21
193.562340
0
LINE
8
Layer 1
10
-48.453848
20
193.562340
11
-47.173537
21
194.856474
0
LINE
8
Layer 1
10
-47.173537
20
194.856474
11
-45.700284
21
196.039231
0
LINE
8
Layer 1
10
-45.700284
20
196.039231
11
-44.077341
21
197.079631
0
LINE
8
Layer 1
10
-44.077341
20
197.079631
11
-42.347962
21
197.946697
0
LINE
8
Layer 1
10
-42.347962
20
197.946697
11
-40.555397
21
198.609447
0
LINE
8
Layer 1
10
-40.555397
20
198.609447
11
-38.742899
21
199.036905
0
LINE
8
Layer 1
10
-38.742899
20
199.036905
11
-37.012269
21
199.254318
0
LINE
8
Layer 1
10
-37.012269
20
199.254318
11
-35.488492
21
199.307220
0
LINE
8
Layer 1
10
-35.488492
20
199.307220
11
-34.195371
21
199.204051
0
LINE
8
Layer 1
10
-34.195371
20
199.204051
11
-33.156711
21
198.953250
0
LINE
8
Layer 1
10
-33.156711
20
198.953250
11
-32.396317
21
198.563257
0
LINE
8
Layer 1
10
-32.396317
20
198.563257
11
-31.937993
21
198.042510
0
LINE
8
Layer 1
10
-31.937993
20
198.042510
11
-31.805542
21
197.399450
0
LINE
8
Layer 1
10
-31.805542
20
197.399450
11
-32.022771
21
196.642517
0
LINE
8
Layer 1
10
-32.022771
20
196.642517
11
-32.470073
21
195.204677
0
LINE
8
Layer 1
10
-32.470073
20
195.204677
11
-32.456487
21
194.610055
0
LINE
8
Layer 1
10
-32.456487
20
194.610055
11
-32.294137
21
194.116079
0
LINE
8
Layer 1
10
-32.294137
20
194.116079
11
-31.990067
21
193.736082
0
LINE
8
Layer 1
10
-31.990067
20
193.736082
11
-31.551322
21
193.483399
0
LINE
8
Layer 1
10
-31.551322
20
193.483399
11
-30.984947
21
193.371364
0
LINE
8
Layer 1
10
-30.984947
20
193.371364
11
-30.297986
21
193.413314
0
LINE
8
Layer 1
10
-30.297986
20
193.413314
11
-29.299324
21
193.690473
0
LINE
8
Layer 1
10
-29.299324
20
193.690473
11
-28.486045
21
194.144941
0
LINE
8
Layer 1
10
-28.486045
20
194.144941
11
-27.852718
21
194.754423
0
LINE
8
Layer 1
10
-27.852718
20
194.754423
11
-27.393908
21
195.496623
0
LINE
8
Layer 1
10
-27.393908
20
195.496623
11
-27.104184
21
196.349247
0
LINE
8
Layer 1
10
-27.104184
20
196.349247
11
-26.978113
21
197.289999
0
LINE
8
Layer 1
10
-26.978113
20
197.289999
11
-27.195198
21
199.346704
0
LINE
8
Layer 1
10
-27.195198
20
199.346704
11
-28.001702
21
201.488378
0
LINE
8
Layer 1
10
-28.001702
20
201.488378
11
-29.354163
21
203.536658
0
LINE
8
Layer 1
10
-29.354163
20
203.536658
11
-30.221545
21
204.470037
0
LINE
8
Layer 1
10
-30.221545
20
204.470037
11
-31.209118
21
205.313182
0
LINE
8
Layer 1
10
-31.209118
20
205.313182
11
-32.311449
21
206.043797
0
LINE
8
Layer 1
10
-32.311449
20
206.043797
11
-33.523106
21
206.639587
0
LINE
8
Layer 1
10
-33.523106
20
206.639587
11
-35.352447
21
207.312152
0
LINE
8
Layer 1
10
-35.352447
20
207.312152
11
-37.182217
21
207.824420
0
LINE
8
Layer 1
10
-37.182217
20
207.824420
11
-39.008780
21
208.177440
0
LINE
8
Layer 1
10
-39.008780
20
208.177440
11
-40.828499
21
208.372265
0
LINE
8
Layer 1
10
-40.828499
20
208.372265
11
-42.637738
21
208.409945
0
LINE
8
Layer 1
10
-42.637738
20
208.409945
11
-44.432862
21
208.291531
0
LINE
8
Layer 1
10
-44.432862
20
208.291531
11
-46.210234
21
208.018074
0
LINE
8
Layer 1
10
-46.210234
20
208.018074
11
-47.966218
21
207.590626
0
LINE
8
Layer 1
10
-47.966218
20
207.590626
11
-49.697177
21
207.010236
0
LINE
8
Layer 1
10
-49.697177
20
207.010236
11
-51.399476
21
206.277956
0
LINE
8
Layer 1
10
-51.399476
20
206.277956
11
-54.703549
21
204.361929
0
LINE
8
Layer 1
10
-54.703549
20
204.361929
11
-57.849347
21
201.850953
0
LINE
8
Layer 1
10
-57.849347
20
201.850953
11
-60.807781
21
198.753435
0
LINE
8
Layer 1
10
-60.807781
20
198.753435
11
-62.222915
21
196.950652
0
LINE
8
Layer 1
10
-62.222915
20
196.950652
11
-63.448968
21
195.132346
0
LINE
8
Layer 1
10
-63.448968
20
195.132346
11
-64.490126
21
193.304160
0
LINE
8
Layer 1
10
-64.490126
20
193.304160
11
-65.350575
21
191.471739
0
LINE
8
Layer 1
10
-65.350575
20
191.471739
11
-66.034504
21
189.640725
0
LINE
8
Layer 1
10
-66.034504
20
189.640725
11
-66.546098
21
187.816763
0
LINE
8
Layer 1
10
-66.546098
20
187.816763
11
-66.889545
21
186.005496
0
LINE
8
Layer 1
10
-66.889545
20
186.005496
11
-67.069030
21
184.212567
0
LINE
8
Layer 1
10
-67.069030
20
184.212567
11
-67.088741
21
182.443620
0
LINE
8
Layer 1
10
-67.088741
20
182.443620
11
-66.952865
21
180.704299
0
LINE
8
Layer 1
10
-66.952865
20
180.704299
11
-66.665588
21
179.000248
0
LINE
8
Layer 1
10
-66.665588
20
179.000248
11
-66.231097
21
177.337110
0
LINE
8
Layer 1
10
-66.231097
20
177.337110
11
-64.937221
21
174.156146
0
LINE
8
Layer 1
10
-64.937221
20
174.156146
11
-63.104730
21
171.206558
0
LINE
8
Layer 1
10
-63.104730
20
171.206558
11
-60.767118
21
168.533494
0
LINE
8
Layer 1
10
-60.767118
20
168.533494
11
-57.957880
21
166.182103
0
LINE
8
Layer 1
10
-57.957880
20
166.182103
11
-54.710510
21
164.197533
0
LINE
8
Layer 1
10
-54.710510
20
164.197533
11
-51.058501
21
162.624935
0
LINE
8
Layer 1
10
-51.058501
20
162.624935
11
-47.035349
21
161.509455
0
LINE
8
Layer 1
10
-47.035349
20
161.509455
11
-42.674546
21
160.896245
0
LINE
8
Layer 1
10
-42.674546
20
160.896245
11
-38.009587
21
160.830451
0
LINE
8
Layer 1
10
-38.009587
20
160.830451
11
-33.073967
21
161.357224
0
LINE
8
Layer 1
10
-33.073967
20
161.357224
11
-24.078777
21
162.852858
0
LINE
8
Layer 1
10
-24.078777
20
162.852858
11
-31.956457
21
151.094859
0
LINE
8
Layer 1
10
-31.956457
20
151.094859
11
-34.101703
21
147.687591
0
LINE
8
Layer 1
10
-34.101703
20
147.687591
11
-35.972236
21
144.289462
0
LINE
8
Layer 1
10
-35.972236
20
144.289462
11
-37.570237
21
140.917594
0
LINE
8
Layer 1
10
-37.570237
20
140.917594
11
-38.897890
21
137.589110
0
LINE
8
Layer 1
10
-38.897890
20
137.589110
11
-39.957374
21
134.321133
0
LINE
8
Layer 1
10
-39.957374
20
134.321133
11
-40.750871
21
131.130786
0
LINE
8
Layer 1
10
-40.750871
20
131.130786
11
-41.280564
21
128.035193
0
LINE
8
Layer 1
10
-41.280564
20
128.035193
11
-41.548633
21
125.051476
0
LINE
8
Layer 1
10
-41.548633
20
125.051476
11
-41.557260
21
122.196759
0
LINE
8
Layer 1
10
-41.557260
20
122.196759
11
-41.308626
21
119.488165
0
LINE
8
Layer 1
10
-41.308626
20
119.488165
11
-40.804914
21
116.942816
0
LINE
8
Layer 1
10
-40.804914
20
116.942816
11
-40.048305
21
114.577835
0
LINE
8
Layer 1
10
-40.048305
20
114.577835
11
-39.040979
21
112.410347
0
LINE
8
Layer 1
10
-39.040979
20
112.410347
11
-37.785120
21
110.457473
0
LINE
8
Layer 1
10
-37.785120
20
110.457473
11
-36.282907
21
108.736338
0
LINE
8
Layer 1
10
-36.282907
20
108.736338
11
-34.536524
21
107.264063
0
LINE
8
Layer 1
10
-34.536524
20
107.264063
11
-32.710085
21
106.141342
0
LINE
8
Layer 1
10
-32.710085
20
106.141342
11
-30.679681
21
105.259464
0
LINE
8
Layer 1
10
-30.679681
20
105.259464
11
-28.446455
21
104.631178
0
LINE
8
Layer 1
10
-28.446455
20
104.631178
11
-26.011553
21
104.269237
0
LINE
8
Layer 1
10
-26.011553
20
104.269237
11
-23.641400
21
104.138742
0
LINE
8
Layer 1
10
-23.641400
20
104.138742
11
-21.322618
21
104.168819
0
LINE
8
Layer 1
10
-21.322618
20
104.168819
11
-19.061822
21
104.355899
0
LINE
8
Layer 1
10
-19.061822
20
104.355899
11
-16.865624
21
104.696417
0
LINE
8
Layer 1
10
-16.865624
20
104.696417
11
-14.740638
21
105.186806
0
LINE
8
Layer 1
10
-14.740638
20
105.186806
11
-12.693478
21
105.823498
0
LINE
8
Layer 1
10
-12.693478
20
105.823498
11
-10.730757
21
106.602927
0
LINE
8
Layer 1
10
-10.730757
20
106.602927
11
-8.859089
21
107.521526
0
LINE
8
Layer 1
10
-8.859089
20
107.521526
11
-7.085087
21
108.575729
0
LINE
8
Layer 1
10
-7.085087
20
108.575729
11
-5.415365
21
109.761967
0
LINE
8
Layer 1
10
-5.415365
20
109.761967
11
-3.856536
21
111.076676
0
LINE
8
Layer 1
10
-3.856536
20
111.076676
11
-2.415213
21
112.516287
0
LINE
8
Layer 1
10
-2.415213
20
112.516287
11
-1.098011
21
114.077234
0
LINE
8
Layer 1
10
-1.098011
20
114.077234
11
0.088458
21
115.755950
0
LINE
8
Layer 1
10
0.088458
20
115.755950
11
1.137580
21
117.548868
0
LINE
8
Layer 1
10
1.137580
20
117.548868
11
2.042741
21
119.452422
0
LINE
8
Layer 1
10
2.042741
20
119.452422
11
2.765644
21
121.372144
0
LINE
8
Layer 1
10
2.765644
20
121.372144
11
3.319190
21
123.297582
0
LINE
8
Layer 1
10
3.319190
20
123.297582
11
3.947145
21
127.061952
0
LINE
8
Layer 1
10
3.947145
20
127.061952
11
3.984472
21
130.538210
0
LINE
8
Layer 1
10
3.984472
20
130.538210
11
3.489038
21
133.519038
0
LINE
8
Layer 1
10
3.489038
20
133.519038
11
3.059618
21
134.758878
0
LINE
8
Layer 1
10
3.059618
20
134.758878
11
2.518707
21
135.797115
0
LINE
8
Layer 1
10
2.518707
20
135.797115
11
1.873538
21
136.607834
0
LINE
8
Layer 1
10
1.873538
20
136.607834
11
1.131344
21
137.165121
0
LINE
8
Layer 1
10
1.131344
20
137.165121
11
0.299359
21
137.443059
0
LINE
8
Layer 1
10
0.299359
20
137.443059
11
-0.615184
21
137.415735
0
LINE
8
Layer 1
10
-0.615184
20
137.415735
11
-1.605052
21
137.057233
0
LINE
8
Layer 1
10
-1.605052
20
137.057233
11
-2.663012
21
136.341639
0
LINE
8
Layer 1
10
-2.663012
20
136.341639
11
-3.498052
21
135.568362
0
LINE
8
Layer 1
10
-3.498052
20
135.568362
11
-4.063218
21
134.850129
0
LINE
8
Layer 1
10
-4.063218
20
134.850129
11
-4.357257
21
134.179405
0
LINE
8
Layer 1
10
-4.357257
20
134.179405
11
-4.378913
21
133.548655
0
LINE
8
Layer 1
10
-4.378913
20
133.548655
11
-4.126932
21
132.950343
0
LINE
8
Layer 1
10
-4.126932
20
132.950343
11
-3.600057
21
132.376936
0
LINE
8
Layer 1
10
-3.600057
20
132.376936
11
-2.797034
21
131.820898
0
LINE
8
Layer 1
10
-2.797034
20
131.820898
11
-1.716608
21
131.274694
0
LINE
8
Layer 1
10
-1.716608
20
131.274694
11
-0.650279
21
130.633221
0
LINE
8
Layer 1
10
-0.650279
20
130.633221
11
0.096104
21
129.825201
0
LINE
8
Layer 1
10
0.096104
20
129.825201
11
0.540873
21
128.876622
0
LINE
8
Layer 1
10
0.540873
20
128.876622
11
0.702361
21
127.813471
0
LINE
8
Layer 1
10
0.702361
20
127.813471
11
0.598900
21
126.661736
0
LINE
8
Layer 1
10
0.598900
20
126.661736
11
0.248822
21
125.447403
0
LINE
8
Layer 1
10
0.248822
20
125.447403
11
-0.329541
21
124.196461
0
LINE
8
Layer 1
10
-0.329541
20
124.196461
11
-1.117855
21
122.934896
0
LINE
8
Layer 1
10
-1.117855
20
122.934896
11
-2.097789
21
121.688695
0
LINE
8
Layer 1
10
-2.097789
20
121.688695
11
-3.251010
21
120.483847
0
LINE
8
Layer 1
10
-3.251010
20
120.483847
11
-4.559186
21
119.346339
0
LINE
8
Layer 1
10
-4.559186
20
119.346339
11
-6.003984
21
118.302157
0
LINE
8
Layer 1
10
-6.003984
20
118.302157
11
-7.567072
21
117.377290
0
LINE
8
Layer 1
10
-7.567072
20
117.377290
11
-9.230118
21
116.597724
0
LINE
8
Layer 1
10
-9.230118
20
116.597724
11
-10.974789
21
115.989446
0
LINE
8
Layer 1
10
-10.974789
20
115.989446
11
-12.782753
21
115.578445
0
LINE
8
Layer 1
10
-12.782753
20
115.578445
11
-16.078149
21
115.260096
0
LINE
8
Layer 1
10
-16.078149
20
115.260096
11
-19.017778
21
115.433443
0
LINE
8
Layer 1
10
-19.017778
20
115.433443
11
-21.595615
21
116.066131
0
LINE
8
Layer 1
10
-21.595615
20
116.066131
11
-23.805635
21
117.125805
0
LINE
8
Layer 1
10
-23.805635
20
117.125805
11
-25.641814
21
118.580110
0
LINE
8
Layer 1
10
-25.641814
20
118.580110
11
-27.098127
21
120.396692
0
LINE
8
Layer 1
10
-27.098127
20
120.396692
11
-28.168550
21
122.543195
0
LINE
8
Layer 1
10
-28.168550
20
122.543195
11
-28.847057
21
124.987264
0
LINE
8
Layer 1
10
-28.847057
20
124.987264
11
-29.127623
21
127.696545
0
LINE
8
Layer 1
10
-29.127623
20
127.696545
11
-29.004224
21
130.638682
0
LINE
8
Layer 1
10
-29.004224
20
130.638682
11
-28.470836
21
133.781322
0
LINE
8
Layer 1
10
-28.470836
20
133.781322
11
-27.521433
21
137.092108
0
LINE
8
Layer 1
10
-27.521433
20
137.092108
11
-26.149990
21
140.538686
0
LINE
8
Layer 1
10
-26.149990
20
140.538686
11
-24.350483
21
144.088701
0
LINE
8
Layer 1
10
-24.350483
20
144.088701
11
-22.116887
21
147.709798
0
LINE
8
Layer 1
10
-22.116887
20
147.709798
11
-19.443178
21
151.369622
0
LINE
8
Layer 1
10
-19.443178
20
151.369622
11
-17.535563
21
153.631331
0
LINE
8
Layer 1
10
-17.535563
20
153.631331
11
-15.481108
21
155.776217
0
LINE
8
Layer 1
10
-15.481108
20
155.776217
11
-13.288753
21
157.803317
0
LINE
8
Layer 1
10
-13.288753
20
157.803317
11
-10.967442
21
159.711668
0
LINE
8
Layer 1
10
-10.967442
20
159.711668
11
-8.526114
21
161.500307
0
LINE
8
Layer 1
10
-8.526114
20
161.500307
11
-5.973711
21
163.168271
0
LINE
8
Layer 1
10
-5.973711
20
163.168271
11
-3.319174
21
164.714595
0
LINE
8
Layer 1
10
-3.319174
20
164.714595
11
-0.571445
21
166.138318
0
LINE
8
Layer 1
10
-0.571445
20
166.138318
11
5.167824
21
168.614105
0
LINE
8
Layer 1
10
5.167824
20
168.614105
11
11.172567
21
170.587925
0
LINE
8
Layer 1
10
11.172567
20
170.587925
11
17.371252
21
172.052071
0
LINE
8
Layer 1
10
17.371252
20
172.052071
11
23.692351
21
172.998839
0
LINE
8
Layer 1
10
23.692351
20
172.998839
11
30.064331
21
173.420522
0
LINE
8
Layer 1
10
30.064331
20
173.420522
11
36.415662
21
173.309415
0
LINE
8
Layer 1
10
36.415662
20
173.309415
11
42.674815
21
172.657810
0
LINE
8
Layer 1
10
42.674815
20
172.657810
11
48.770258
21
171.458003
0
LINE
8
Layer 1
10
48.770258
20
171.458003
11
51.734236
21
170.650115
0
LINE
8
Layer 1
10
51.734236
20
170.650115
11
54.630462
21
169.702287
0
LINE
8
Layer 1
10
54.630462
20
169.702287
11
57.449995
21
168.613555
0
LINE
8
Layer 1
10
57.449995
20
168.613555
11
60.183894
21
167.382956
0
LINE
8
Layer 1
10
60.183894
20
167.382956
11
62.823218
21
166.009527
0
LINE
8
Layer 1
10
62.823218
20
166.009527
11
65.359026
21
164.492305
0
LINE
8
Layer 1
10
65.359026
20
164.492305
11
67.782376
21
162.830326
0
LINE
8
Layer 1
10
67.782376
20
162.830326
11
70.084326
21
161.022627
0
LINE
8
Layer 1
10
70.084326
20
161.022627
11
72.331170
21
159.253518
0
LINE
8
Layer 1
10
72.331170
20
159.253518
11
74.655639
21
157.641171
0
LINE
8
Layer 1
10
74.655639
20
157.641171
11
76.990502
21
156.218094
0
LINE
8
Layer 1
10
76.990502
20
156.218094
11
79.268533
21
155.016795
0
LINE
8
Layer 1
10
79.268533
20
155.016795
11
81.422503
21
154.069782
0
LINE
8
Layer 1
10
81.422503
20
154.069782
11
83.385183
21
153.409563
0
LINE
8
Layer 1
10
83.385183
20
153.409563
11
85.089344
21
153.068645
0
LINE
8
Layer 1
10
85.089344
20
153.068645
11
86.467758
21
153.079536
0
LINE
8
Layer 1
10
86.467758
20
153.079536
11
87.352991
21
153.144984
0
LINE
8
Layer 1
10
87.352991
20
153.144984
11
88.247944
21
153.057672
0
LINE
8
Layer 1
10
88.247944
20
153.057672
11
90.015050
21
152.464111
0
LINE
8
Layer 1
10
90.015050
20
152.464111
11
91.665153
21
151.377546
0
LINE
8
Layer 1
10
91.665153
20
151.377546
11
93.094325
21
149.876667
0
LINE
8
Layer 1
10
93.094325
20
149.876667
11
93.063852
21
148.370453
0
LINE
8
Layer 1
10
93.063852
20
148.370453
11
93.225342
21
146.870370
0
LINE
8
Layer 1
10
93.225342
20
146.870370
11
93.575628
21
145.395917
0
LINE
8
Layer 1
10
93.575628
20
145.395917
11
94.111545
21
143.966588
0
LINE
8
Layer 1
10
94.111545
20
143.966588
11
94.829929
21
142.601882
0
LINE
8
Layer 1
10
94.829929
20
142.601882
11
95.727613
21
141.321296
0
LINE
8
Layer 1
10
95.727613
20
141.321296
11
96.801434
21
140.144327
0
LINE
8
Layer 1
10
96.801434
20
140.144327
11
98.048225
21
139.090472
0
LINE
8
Layer 1
10
98.048225
20
139.090472
11
98.053471
21
139.097561
0
LINE
8
Layer 1
10
98.053471
20
139.097561
11
99.442832
21
138.206553
0
LINE
8
Layer 1
10
99.442832
20
138.206553
11
100.900382
21
137.521572
0
LINE
8
Layer 1
10
100.900382
20
137.521572
11
102.405897
21
137.039851
0
LINE
8
Layer 1
10
102.405897
20
137.039851
11
103.939151
21
136.758620
0
LINE
8
Layer 1
10
103.939151
20
136.758620
11
105.479919
21
136.675111
0
LINE
8
Layer 1
10
105.479919
20
136.675111
11
107.007973
21
136.786554
0
LINE
8
Layer 1
10
107.007973
20
136.786554
11
108.503090
21
137.090180
0
LINE
8
Layer 1
10
108.503090
20
137.090180
11
109.945043
21
137.583222
0
LINE
8
Layer 1
10
109.945043
20
137.583222
11
111.663532
21
136.699320
0
LINE
8
Layer 1
10
111.663532
20
136.699320
11
112.968244
21
135.435510
0
LINE
8
Layer 1
10
112.968244
20
135.435510
11
113.828062
21
133.814398
0
LINE
8
Layer 1
10
113.828062
20
133.814398
11
114.211870
21
131.858590
0
LINE
8
Layer 1
10
114.211870
20
131.858590
11
114.527344
21
130.470865
0
LINE
8
Layer 1
10
114.527344
20
130.470865
11
115.275651
21
129.154466
0
LINE
8
Layer 1
10
115.275651
20
129.154466
11
116.432906
21
127.910352
0
LINE
8
Layer 1
10
116.432906
20
127.910352
11
117.975225
21
126.739482
0
LINE
8
Layer 1
10
117.975225
20
126.739482
11
119.878724
21
125.642816
0
LINE
8
Layer 1
10
119.878724
20
125.642816
11
122.119518
21
124.621313
0
LINE
8
Layer 1
10
122.119518
20
124.621313
11
124.673723
21
123.675934
0
LINE
8
Layer 1
10
124.673723
20
123.675934
11
127.517452
21
122.807636
0
LINE
8
Layer 1
10
127.517452
20
122.807636
11
133.977951
21
121.306126
0
LINE
8
Layer 1
10
133.977951
20
121.306126
11
141.309938
21
120.124459
0
LINE
8
Layer 1
10
141.309938
20
120.124459
11
149.322336
21
119.270311
0
LINE
8
Layer 1
10
149.322336
20
119.270311
11
157.824068
21
118.751358
0
LINE
8
Layer 1
10
157.824068
20
118.751358
11
166.624058
21
118.575275
0
LINE
8
Layer 1
10
166.624058
20
118.575275
11
175.531229
21
118.749740
0
LINE
8
Layer 1
10
175.531229
20
118.749740
11
184.354505
21
119.282427
0
LINE
8
Layer 1
10
184.354505
20
119.282427
11
192.902808
21
120.181013
0
LINE
8
Layer 1
10
192.902808
20
120.181013
11
200.985061
21
121.453173
0
LINE
8
Layer 1
10
200.985061
20
121.453173
11
208.410190
21
123.106583
0
LINE
8
Layer 1
10
208.410190
20
123.106583
11
211.816620
21
124.078656
0
LINE
8
Layer 1
10
211.816620
20
124.078656
11
214.987115
21
125.148920
0
LINE
8
Layer 1
10
214.987115
20
125.148920
11
217.897790
21
126.318334
0
LINE
8
Layer 1
10
217.897790
20
126.318334
11
220.524761
21
127.587859
0
LINE
8
Layer 1
10
220.524761
20
127.587859
11
224.343682
21
129.293067
0
LINE
8
Layer 1
10
224.343682
20
129.293067
11
228.269751
21
130.439740
0
LINE
8
Layer 1
10
228.269751
20
130.439740
11
232.241855
21
131.060715
0
LINE
8
Layer 1
10
232.241855
20
131.060715
11
236.198883
21
131.188831
0
LINE
8
Layer 1
10
236.198883
20
131.188831
11
240.079724
21
130.856925
0
LINE
8
Layer 1
10
240.079724
20
130.856925
11
243.823266
21
130.097836
0
LINE
8
Layer 1
10
243.823266
20
130.097836
11
247.368396
21
128.944400
0
LINE
8
Layer 1
10
247.368396
20
128.944400
11
250.654004
21
127.429457
0
LINE
8
Layer 1
10
250.654004
20
127.429457
11
253.618978
21
125.585843
0
LINE
8
Layer 1
10
253.618978
20
125.585843
11
256.202205
21
123.446396
0
LINE
8
Layer 1
10
256.202205
20
123.446396
11
258.342575
21
121.043955
0
LINE
8
Layer 1
10
258.342575
20
121.043955
11
259.978975
21
118.411356
0
LINE
8
Layer 1
10
259.978975
20
118.411356
11
260.589089
21
117.019010
0
LINE
8
Layer 1
10
260.589089
20
117.019010
11
261.050294
21
115.581439
0
LINE
8
Layer 1
10
261.050294
20
115.581439
11
261.354951
21
114.102748
0
LINE
8
Layer 1
10
261.354951
20
114.102748
11
261.495420
21
112.587040
0
LINE
8
Layer 1
10
261.495420
20
112.587040
11
261.464063
21
111.038422
0
LINE
8
Layer 1
10
261.464063
20
111.038422
11
261.253242
21
109.460998
0
LINE
8
Layer 1
10
261.253242
20
109.460998
11
260.855316
21
107.858873
0
LINE
8
Layer 1
10
260.855316
20
107.858873
11
260.262647
21
106.236150
0
LINE
8
Layer 1
10
260.262647
20
106.236150
11
259.497974
21
104.812201
0
LINE
8
Layer 1
10
259.497974
20
104.812201
11
258.453856
21
103.437669
0
LINE
8
Layer 1
10
258.453856
20
103.437669
11
257.173544
21
102.143536
0
LINE
8
Layer 1
10
257.173544
20
102.143536
11
255.700291
21
100.960778
0
LINE
8
Layer 1
10
255.700291
20
100.960778
11
254.077348
21
99.920377
0
LINE
8
Layer 1
10
254.077348
20
99.920377
11
252.347968
21
99.053311
0
LINE
8
Layer 1
10
252.347968
20
99.053311
11
250.555404
21
98.390560
0
LINE
8
Layer 1
10
250.555404
20
98.390560
11
248.742906
21
97.963102
0
LINE
8
Layer 1
10
248.742906
20
97.963102
11
247.012276
21
97.745690
0
LINE
8
Layer 1
10
247.012276
20
97.745690
11
245.488498
21
97.692789
0
LINE
8
Layer 1
10
245.488498
20
97.692789
11
244.195377
21
97.795958
0
LINE
8
Layer 1
10
244.195377
20
97.795958
11
243.156717
21
98.046759
0
LINE
8
Layer 1
10
243.156717
20
98.046759
11
242.396323
21
98.436752
0
LINE
8
Layer 1
10
242.396323
20
98.436752
11
241.937999
21
98.957498
0
LINE
8
Layer 1
10
241.937999
20
98.957498
11
241.805548
21
99.600557
0
LINE
8
Layer 1
10
241.805548
20
99.600557
11
242.022777
21
100.357490
0
LINE
8
Layer 1
10
242.022777
20
100.357490
11
242.470079
21
101.795332
0
LINE
8
Layer 1
10
242.470079
20
101.795332
11
242.456493
21
102.389954
0
LINE
8
Layer 1
10
242.456493
20
102.389954
11
242.294143
21
102.883930
0
LINE
8
Layer 1
10
242.294143
20
102.883930
11
241.990073
21
103.263927
0
LINE
8
Layer 1
10
241.990073
20
103.263927
11
241.551327
21
103.516609
0
LINE
8
Layer 1
10
241.551327
20
103.516609
11
240.984951
21
103.628643
0
LINE
8
Layer 1
10
240.984951
20
103.628643
11
240.297990
21
103.586693
0
LINE
8
Layer 1
10
240.297990
20
103.586693
11
239.299329
21
103.309535
0
LINE
8
Layer 1
10
239.299329
20
103.309535
11
238.486051
21
102.855067
0
LINE
8
Layer 1
10
238.486051
20
102.855067
11
237.852724
21
102.245585
0
LINE
8
Layer 1
10
237.852724
20
102.245585
11
237.393915
21
101.503385
0
LINE
8
Layer 1
10
237.393915
20
101.503385
11
237.104192
21
100.650761
0
LINE
8
Layer 1
10
237.104192
20
100.650761
11
236.978121
21
99.710010
0
LINE
8
Layer 1
10
236.978121
20
99.710010
11
237.195206
21
97.653304
0
LINE
8
Layer 1
10
237.195206
20
97.653304
11
238.001710
21
95.511630
0
LINE
8
Layer 1
10
238.001710
20
95.511630
11
239.354169
21
93.463349
0
LINE
8
Layer 1
10
239.354169
20
93.463349
11
240.221551
21
92.529970
0
LINE
8
Layer 1
10
240.221551
20
92.529970
11
241.209124
21
91.686825
0
LINE
8
Layer 1
10
241.209124
20
91.686825
11
242.311456
21
90.956210
0
LINE
8
Layer 1
10
242.311456
20
90.956210
11
243.523112
21
90.360419
0
LINE
8
Layer 1
10
243.523112
20
90.360419
11
245.352454
21
89.687856
0
LINE
8
Layer 1
10
245.352454
20
89.687856
11
247.182223
21
89.175589
0
LINE
8
Layer 1
10
247.182223
20
89.175589
11
249.008786
21
88.822569
0
LINE
8
Layer 1
10
249.008786
20
88.822569
11
250.828505
21
88.627744
0
LINE
8
Layer 1
10
250.828505
20
88.627744
11
252.637745
21
88.590064
0
LINE
8
Layer 1
10
252.637745
20
88.590064
11
254.432868
21
88.708478
0
LINE
8
Layer 1
10
254.432868
20
88.708478
11
256.210240
21
88.981935
0
LINE
8
Layer 1
10
256.210240
20
88.981935
11
257.966224
21
89.409384
0
LINE
8
Layer 1
10
257.966224
20
89.409384
11
259.697183
21
89.989773
0
LINE
8
Layer 1
10
259.697183
20
89.989773
11
261.399482
21
90.722053
0
LINE
8
Layer 1
10
261.399482
20
90.722053
11
264.703555
21
92.638079
0
LINE
8
Layer 1
10
264.703555
20
92.638079
11
267.849353
21
95.149054
0
LINE
8
Layer 1
10
267.849353
20
95.149054
11
270.807787
21
98.246572
0
LINE
8
Layer 1
10
270.807787
20
98.246572
11
272.222922
21
100.049355
0
LINE
8
Layer 1
10
272.222922
20
100.049355
11
273.448975
21
101.867662
0
LINE
8
Layer 1
10
273.448975
20
101.867662
11
274.490133
21
103.695848
0
LINE
8
Layer 1
10
274.490133
20
103.695848
11
275.350583
21
105.528270
0
LINE
8
Layer 1
10
275.350583
20
105.528270
11
276.034512
21
107.359284
0
LINE
8
Layer 1
10
276.034512
20
107.359284
11
276.546106
21
109.183246
0
LINE
8
Layer 1
10
276.546106
20
109.183246
11
276.889553
21
110.994514
0
LINE
8
Layer 1
10
276.889553
20
110.994514
11
277.069039
21
112.787442
0
LINE
8
Layer 1
10
277.069039
20
112.787442
11
277.088750
21
114.556389
0
LINE
8
Layer 1
10
277.088750
20
114.556389
11
276.952874
21
116.295710
0
LINE
8
Layer 1
10
276.952874
20
116.295710
11
276.665597
21
117.999761
0
LINE
8
Layer 1
10
276.665597
20
117.999761
11
276.231106
21
119.662900
0
LINE
8
Layer 1
10
276.231106
20
119.662900
11
274.937229
21
122.843863
0
LINE
8
Layer 1
10
274.937229
20
122.843863
11
273.104738
21
125.793451
0
LINE
8
Layer 1
10
273.104738
20
125.793451
11
270.767126
21
128.466515
0
LINE
8
Layer 1
10
270.767126
20
128.466515
11
267.957888
21
130.817906
0
LINE
8
Layer 1
10
267.957888
20
130.817906
11
264.710517
21
132.802475
0
LINE
8
Layer 1
10
264.710517
20
132.802475
11
261.058508
21
134.375073
0
LINE
8
Layer 1
10
261.058508
20
134.375073
11
257.035355
21
135.490552
0
LINE
8
Layer 1
10
257.035355
20
135.490552
11
252.674552
21
136.103762
0
LINE
8
Layer 1
10
252.674552
20
136.103762
11
248.009593
21
136.169556
0
LINE
8
Layer 1
10
248.009593
20
136.169556
11
243.073973
21
135.642783
0
LINE
8
Layer 1
10
243.073973
20
135.642783
11
234.078780
21
134.147149
0
LINE
8
Layer 1
10
234.078780
20
134.147149
11
241.956463
21
145.905148
0
LINE
8
Layer 1
10
241.956463
20
145.905148
11
244.101709
21
149.312416
0
LINE
8
Layer 1
10
244.101709
20
149.312416
11
245.972242
21
152.710546
0
LINE
8
Layer 1
10
245.972242
20
152.710546
11
247.570244
21
156.082415
0
LINE
8
Layer 1
10
247.570244
20
156.082415
11
248.897897
21
159.410899
0
LINE
8
Layer 1
10
248.897897
20
159.410899
11
249.957381
21
162.678876
0
LINE
8
Layer 1
10
249.957381
20
162.678876
11
250.750878
21
165.869223
0
LINE
8
Layer 1
10
250.750878
20
165.869223
11
251.280570
21
168.964816
0
LINE
8
Layer 1
10
251.280570
20
168.964816
11
251.548639
21
171.948533
0
LINE
8
Layer 1
10
251.548639
20
171.948533
11
251.557266
21
174.803250
0
LINE
8
Layer 1
10
251.557266
20
174.803250
11
251.308632
21
177.511844
0
LINE
8
Layer 1
10
251.308632
20
177.511844
11
250.804920
21
180.057193
0
LINE
8
Layer 1
10
250.804920
20
180.057193
11
250.048310
21
182.422173
0
LINE
8
Layer 1
10
250.048310
20
182.422173
11
249.040985
21
184.589661
0
LINE
8
Layer 1
10
249.040985
20
184.589661
11
247.785125
21
186.542534
0
LINE
8
Layer 1
10
247.785125
20
186.542534
11
246.282913
21
188.263670
0
LINE
8
Layer 1
10
246.282913
20
188.263670
11
244.536530
21
189.735944
0
LINE
8
Layer 1
10
244.536530
20
189.735944
11
244.536530
21
189.735944
0
LINE
8
Layer 1
10
295.328933
20
135.847626
11
291.813323
21
138.081801
0
LINE
8
Layer 1
10
291.813323
20
138.081801
11
287.622901
21
140.071107
0
LINE
8
Layer 1
10
287.622901
20
140.071107
11
282.768105
21
141.791052
0
LINE
8
Layer 1
10
282.768105
20
141.791052
11
277.259373
21
143.217145
0
LINE
8
Layer 1
10
277.259373
20
143.217145
11
270.912593
21
144.392666
0
LINE
8
Layer 1
10
270.912593
20
144.392666
11
265.841429
21
144.932692
0
LINE
8
Layer 1
10
265.841429
20
144.932692
11
262.157701
21
144.899500
0
LINE
8
Layer 1
10
262.157701
20
144.899500
11
260.871069
21
144.687408
0
LINE
8
Layer 1
10
260.871069
20
144.687408
11
259.973229
21
144.355365
0
LINE
8
Layer 1
10
259.973229
20
144.355365
11
259.478158
21
143.911154
0
LINE
8
Layer 1
10
259.478158
20
143.911154
11
259.399834
21
143.362561
0
LINE
8
Layer 1
10
259.399834
20
143.362561
11
259.752235
21
142.717370
0
LINE
8
Layer 1
10
259.752235
20
142.717370
11
260.549337
21
141.983365
0
LINE
8
Layer 1
10
260.549337
20
141.983365
11
261.805119
21
141.168331
0
LINE
8
Layer 1
10
261.805119
20
141.168331
11
263.533558
21
140.280052
0
LINE
8
Layer 1
10
263.533558
20
140.280052
11
268.464318
21
138.314897
0
LINE
8
Layer 1
10
268.464318
20
138.314897
11
270.925927
21
137.369723
0
LINE
8
Layer 1
10
270.925927
20
137.369723
11
273.214423
21
136.315068
0
LINE
8
Layer 1
10
273.214423
20
136.315068
11
275.328932
21
135.152255
0
LINE
8
Layer 1
10
275.328932
20
135.152255
11
277.268582
21
133.882605
0
LINE
8
Layer 1
10
277.268582
20
133.882605
11
279.032503
21
132.507439
0
LINE
8
Layer 1
10
279.032503
20
132.507439
11
280.619821
21
131.028080
0
LINE
8
Layer 1
10
280.619821
20
131.028080
11
282.029665
21
129.445850
0
LINE
8
Layer 1
10
282.029665
20
129.445850
11
283.261163
21
127.762069
0
LINE
8
Layer 1
10
283.261163
20
127.762069
11
284.313444
21
125.978060
0
LINE
8
Layer 1
10
284.313444
20
125.978060
11
285.185634
21
124.095145
0
LINE
8
Layer 1
10
285.185634
20
124.095145
11
285.876862
21
122.114646
0
LINE
8
Layer 1
10
285.876862
20
122.114646
11
286.386257
21
120.037883
0
LINE
8
Layer 1
10
286.386257
20
120.037883
11
286.712946
21
117.866180
0
LINE
8
Layer 1
10
286.712946
20
117.866180
11
286.856057
21
115.600857
0
LINE
8
Layer 1
10
286.856057
20
115.600857
11
286.814719
21
113.243237
0
LINE
8
Layer 1
10
286.814719
20
113.243237
11
286.588059
21
110.794640
0
LINE
8
Layer 1
10
286.588059
20
110.794640
11
285.967569
21
104.997733
0
LINE
8
Layer 1
10
285.967569
20
104.997733
11
286.035974
21
103.426672
0
LINE
8
Layer 1
10
286.035974
20
103.426672
11
286.196622
21
102.955526
0
LINE
8
Layer 1
10
286.196622
20
102.955526
11
286.453675
21
102.687317
0
LINE
8
Layer 1
10
286.453675
20
102.687317
11
286.816215
21
102.617056
0
LINE
8
Layer 1
10
286.816215
20
102.617056
11
287.293323
21
102.739753
0
LINE
8
Layer 1
10
287.293323
20
102.739753
11
288.627564
21
103.544062
0
LINE
8
Layer 1
10
288.627564
20
103.544062
11
293.070421
21
107.248640
0
LINE
8
Layer 1
10
293.070421
20
107.248640
11
295.190919
21
109.215707
0
LINE
8
Layer 1
10
295.190919
20
109.215707
11
297.036963
21
111.182775
0
LINE
8
Layer 1
10
297.036963
20
111.182775
11
298.610812
21
113.144712
0
LINE
8
Layer 1
10
298.610812
20
113.144712
11
299.914724
21
115.096386
0
LINE
8
Layer 1
10
299.914724
20
115.096386
11
300.950959
21
117.032662
0
LINE
8
Layer 1
10
300.950959
20
117.032662
11
301.721777
21
118.948410
0
LINE
8
Layer 1
10
301.721777
20
118.948410
11
302.229435
21
120.838496
0
LINE
8
Layer 1
10
302.229435
20
120.838496
11
302.476193
21
122.697788
0
LINE
8
Layer 1
10
302.476193
20
122.697788
11
302.464310
21
124.521154
0
LINE
8
Layer 1
10
302.464310
20
124.521154
11
302.196044
21
126.303460
0
LINE
8
Layer 1
10
302.196044
20
126.303460
11
301.673656
21
128.039574
0
LINE
8
Layer 1
10
301.673656
20
128.039574
11
300.899404
21
129.724363
0
LINE
8
Layer 1
10
300.899404
20
129.724363
11
299.875546
21
131.352696
0
LINE
8
Layer 1
10
299.875546
20
131.352696
11
298.604342
21
132.919439
0
LINE
8
Layer 1
10
298.604342
20
132.919439
11
297.088052
21
134.419460
0
LINE
8
Layer 1
10
297.088052
20
134.419460
11
295.328933
21
135.847626
0
LINE
8
Layer 1
10
295.328933
20
135.847626
11
295.328933
21
135.847626
0
LINE
8
Layer 1
10
-76.449826
20
194.309730
11
-76.812532
21
194.380119
0
LINE
8
Layer 1
10
-76.812532
20
194.380119
11
-77.290074
21
194.257757
0
LINE
8
Layer 1
10
-77.290074
20
194.257757
11
-78.625636
21
193.454464
0
LINE
8
Layer 1
10
-78.625636
20
193.454464
11
-83.070418
21
189.751367
0
LINE
8
Layer 1
10
-83.070418
20
189.751367
11
-85.190917
21
187.784301
0
LINE
8
Layer 1
10
-85.190917
20
187.784301
11
-87.036961
21
185.817233
0
LINE
8
Layer 1
10
-87.036961
20
185.817233
11
-88.610811
21
183.855297
0
LINE
8
Layer 1
10
-88.610811
20
183.855297
11
-89.914724
21
181.903624
0
LINE
8
Layer 1
10
-89.914724
20
181.903624
11
-90.950960
21
179.967347
0
LINE
8
Layer 1
10
-90.950960
20
179.967347
11
-91.721777
21
178.051599
0
LINE
8
Layer 1
10
-91.721777
20
178.051599
11
-92.229436
21
176.161513
0
LINE
8
Layer 1
10
-92.229436
20
176.161513
11
-92.476194
21
174.302221
0
LINE
8
Layer 1
10
-92.476194
20
174.302221
11
-92.464311
21
172.478855
0
LINE
8
Layer 1
10
-92.464311
20
172.478855
11
-92.196047
21
170.696549
0
LINE
8
Layer 1
10
-92.196047
20
170.696549
11
-91.673659
21
168.960434
0
LINE
8
Layer 1
10
-91.673659
20
168.960434
11
-90.899407
21
167.275644
0
LINE
8
Layer 1
10
-90.899407
20
167.275644
11
-89.875550
21
165.647311
0
LINE
8
Layer 1
10
-89.875550
20
165.647311
11
-88.604348
21
164.080568
0
LINE
8
Layer 1
10
-88.604348
20
164.080568
11
-87.088058
21
162.580547
0
LINE
8
Layer 1
10
-87.088058
20
162.580547
11
-85.328941
21
161.152381
0
LINE
8
Layer 1
10
-85.328941
20
161.152381
11
-81.813321
21
158.918210
0
LINE
8
Layer 1
10
-81.813321
20
158.918210
11
-77.622894
21
156.928904
0
LINE
8
Layer 1
10
-77.622894
20
156.928904
11
-72.768097
21
155.208956
0
LINE
8
Layer 1
10
-72.768097
20
155.208956
11
-67.259367
21
153.782862
0
LINE
8
Layer 1
10
-67.259367
20
153.782862
11
-60.912587
21
152.607343
0
LINE
8
Layer 1
10
-60.912587
20
152.607343
11
-55.841423
21
152.067317
0
LINE
8
Layer 1
10
-55.841423
20
152.067317
11
-52.157695
21
152.100509
0
LINE
8
Layer 1
10
-52.157695
20
152.100509
11
-50.871063
21
152.312601
0
LINE
8
Layer 1
10
-50.871063
20
152.312601
11
-49.973223
21
152.644644
0
LINE
8
Layer 1
10
-49.973223
20
152.644644
11
-49.478152
21
153.088854
0
LINE
8
Layer 1
10
-49.478152
20
153.088854
11
-49.399828
21
153.637447
0
LINE
8
Layer 1
10
-49.399828
20
153.637447
11
-49.752229
21
154.282638
0
LINE
8
Layer 1
10
-49.752229
20
154.282638
11
-50.549331
21
155.016642
0
LINE
8
Layer 1
10
-50.549331
20
155.016642
11
-51.805113
21
155.831676
0
LINE
8
Layer 1
10
-51.805113
20
155.831676
11
-53.533552
21
156.719955
0
LINE
8
Layer 1
10
-53.533552
20
156.719955
11
-58.464312
21
158.685110
0
LINE
8
Layer 1
10
-58.464312
20
158.685110
11
-60.925920
21
159.630285
0
LINE
8
Layer 1
10
-60.925920
20
159.630285
11
-63.214415
21
160.684939
0
LINE
8
Layer 1
10
-63.214415
20
160.684939
11
-65.328924
21
161.847753
0
LINE
8
Layer 1
10
-65.328924
20
161.847753
11
-67.268575
21
163.117403
0
LINE
8
Layer 1
10
-67.268575
20
163.117403
11
-69.032495
21
164.492569
0
LINE
8
Layer 1
10
-69.032495
20
164.492569
11
-70.619814
21
165.971928
0
LINE
8
Layer 1
10
-70.619814
20
165.971928
11
-72.029659
21
167.554159
0
LINE
8
Layer 1
10
-72.029659
20
167.554159
11
-73.261157
21
169.237939
0
LINE
8
Layer 1
10
-73.261157
20
169.237939
11
-74.313438
21
171.021947
0
LINE
8
Layer 1
10
-74.313438
20
171.021947
11
-75.185628
21
172.904862
0
LINE
8
Layer 1
10
-75.185628
20
172.904862
11
-75.876856
21
174.885362
0
LINE
8
Layer 1
10
-75.876856
20
174.885362
11
-76.386250
21
176.962124
0
LINE
8
Layer 1
10
-76.386250
20
176.962124
11
-76.712938
21
179.133827
0
LINE
8
Layer 1
10
-76.712938
20
179.133827
11
-76.856048
21
181.399150
0
LINE
8
Layer 1
10
-76.856048
20
181.399150
11
-76.814707
21
183.756770
0
LINE
8
Layer 1
10
-76.814707
20
183.756770
11
-76.588044
21
186.205367
0
LINE
8
Layer 1
10
-76.588044
20
186.205367
11
-75.965637
21
192.000796
0
LINE
8
Layer 1
10
-75.965637
20
192.000796
11
-76.032724
21
193.570840
0
LINE
8
Layer 1
10
-76.032724
20
193.570840
11
-76.192937
21
194.041650
0
LINE
8
Layer 1
10
-76.192937
20
194.041650
11
-76.449826
21
194.309730
0
LINE
8
Layer 1
10
-76.449826
20
194.309730
11
-76.449826
21
194.309730
0
LINE
8
Layer 1
10
-45.756573
20
142.216182
11
-46.108260
21
142.258438
0
LINE
8
Layer 1
10
-46.108260
20
142.258438
11
-46.645081
21
141.972698
0
LINE
8
Layer 1
10
-46.645081
20
141.972698
11
-48.260951
21
140.428352
0
LINE
8
Layer 1
10
-48.260951
20
140.428352
11
-50.577834
21
137.605392
0
LINE
8
Layer 1
10
-50.577834
20
137.605392
11
-53.569379
21
133.526068
0
LINE
8
Layer 1
10
-53.569379
20
133.526068
11
-55.586759
21
130.483475
0
LINE
8
Layer 1
10
-55.586759
20
130.483475
11
-57.346238
21
127.446565
0
LINE
8
Layer 1
10
-57.346238
20
127.446565
11
-58.851114
21
124.431644
0
LINE
8
Layer 1
10
-58.851114
20
124.431644
11
-60.104683
21
121.455016
0
LINE
8
Layer 1
10
-60.104683
20
121.455016
11
-61.110244
21
118.532983
0
LINE
8
Layer 1
10
-61.110244
20
118.532983
11
-61.871094
21
115.681851
0
LINE
8
Layer 1
10
-61.871094
20
115.681851
11
-62.390529
21
112.917922
0
LINE
8
Layer 1
10
-62.390529
20
112.917922
11
-62.671849
21
110.257502
0
LINE
8
Layer 1
10
-62.671849
20
110.257502
11
-62.718350
21
107.716893
0
LINE
8
Layer 1
10
-62.718350
20
107.716893
11
-62.533329
21
105.312399
0
LINE
8
Layer 1
10
-62.533329
20
105.312399
11
-62.120084
21
103.060325
0
LINE
8
Layer 1
10
-62.120084
20
103.060325
11
-61.481913
21
100.976973
0
LINE
8
Layer 1
10
-61.481913
20
100.976973
11
-60.622112
21
99.078649
0
LINE
8
Layer 1
10
-60.622112
20
99.078649
11
-59.543980
21
97.381656
0
LINE
8
Layer 1
10
-59.543980
20
97.381656
11
-58.250814
21
95.902297
0
LINE
8
Layer 1
10
-58.250814
20
95.902297
11
-56.745911
21
94.656877
0
LINE
8
Layer 1
10
-56.745911
20
94.656877
11
-54.415313
21
93.389394
0
LINE
8
Layer 1
10
-54.415313
20
93.389394
11
-51.721552
21
92.606544
0
LINE
8
Layer 1
10
-51.721552
20
92.606544
11
-48.672992
21
92.345677
0
LINE
8
Layer 1
10
-48.672992
20
92.345677
11
-45.277995
21
92.644142
0
LINE
8
Layer 1
10
-45.277995
20
92.644142
11
-42.758306
21
93.090346
0
LINE
8
Layer 1
10
-42.758306
20
93.090346
11
-40.932042
21
93.541001
0
LINE
8
Layer 1
10
-40.932042
20
93.541001
11
-39.780291
21
94.091682
0
LINE
8
Layer 1
10
-39.780291
20
94.091682
11
-39.451446
21
94.434399
0
LINE
8
Layer 1
10
-39.451446
20
94.434399
11
-39.284135
21
94.837963
0
LINE
8
Layer 1
10
-39.284135
20
94.837963
11
-39.424662
21
95.875419
0
LINE
8
Layer 1
10
-39.424662
20
95.875419
11
-40.182955
21
97.299625
0
LINE
8
Layer 1
10
-40.182955
20
97.299625
11
-43.477183
21
101.690586
0
LINE
8
Layer 1
10
-43.477183
20
101.690586
11
-44.543634
21
103.192040
0
LINE
8
Layer 1
10
-44.543634
20
103.192040
11
-45.490182
21
104.846194
0
LINE
8
Layer 1
10
-45.490182
20
104.846194
11
-46.316358
21
106.645718
0
LINE
8
Layer 1
10
-46.316358
20
106.645718
11
-47.021688
21
108.583280
0
LINE
8
Layer 1
10
-47.021688
20
108.583280
11
-48.067930
21
112.843201
0
LINE
8
Layer 1
10
-48.067930
20
112.843201
11
-48.625139
21
117.567313
0
LINE
8
Layer 1
10
-48.625139
20
117.567313
11
-48.689544
21
122.696973
0
LINE
8
Layer 1
10
-48.689544
20
122.696973
11
-48.257377
21
128.173538
0
LINE
8
Layer 1
10
-48.257377
20
128.173538
11
-47.324868
21
133.938366
0
LINE
8
Layer 1
10
-47.324868
20
133.938366
11
-45.888247
21
139.932812
0
LINE
8
Layer 1
10
-45.888247
20
139.932812
11
-45.585011
21
141.485078
0
LINE
8
Layer 1
10
-45.585011
20
141.485078
11
-45.612399
21
141.952570
0
LINE
8
Layer 1
10
-45.612399
20
141.952570
11
-45.756573
21
142.216182
0
LINE
8
Layer 1
10
-45.756573
20
142.216182
11
-45.756573
21
142.216182
0
LINE
8
Layer 1
10
-103.603919
20
173.018587
11
-104.432980
21
173.416654
0
LINE
8
Layer 1
10
-104.432980
20
173.416654
11
-105.266608
21
173.503987
0
LINE
8
Layer 1
10
-105.266608
20
173.503987
11
-106.118889
21
173.285075
0
LINE
8
Layer 1
10
-106.118889
20
173.285075
11
-107.003907
21
172.764407
0
LINE
8
Layer 1
10
-107.003907
20
172.764407
11
-107.935748
21
171.946472
0
LINE
8
Layer 1
10
-107.935748
20
171.946472
11
-108.928499
21
170.835758
0
LINE
8
Layer 1
10
-108.928499
20
170.835758
11
-111.153070
21
167.753954
0
LINE
8
Layer 1
10
-111.153070
20
167.753954
11
-112.320800
21
165.499194
0
LINE
8
Layer 1
10
-112.320800
20
165.499194
11
-112.893166
21
163.221318
0
LINE
8
Layer 1
10
-112.893166
20
163.221318
11
-112.908425
21
160.946250
0
LINE
8
Layer 1
10
-112.908425
20
160.946250
11
-112.404833
21
158.699913
0
LINE
8
Layer 1
10
-112.404833
20
158.699913
11
-111.420645
21
156.508230
0
LINE
8
Layer 1
10
-111.420645
20
156.508230
11
-109.994117
21
154.397126
0
LINE
8
Layer 1
10
-109.994117
20
154.397126
11
-108.163506
21
152.392523
0
LINE
8
Layer 1
10
-108.163506
20
152.392523
11
-105.967067
21
150.520345
0
LINE
8
Layer 1
10
-105.967067
20
150.520345
11
-105.286471
21
150.016725
0
LINE
8
Layer 1
10
-105.286471
20
150.016725
11
-102.405325
21
148.199158
0
LINE
8
Layer 1
10
-102.405325
20
148.199158
11
-99.192940
21
146.615199
0
LINE
8
Layer 1
10
-99.192940
20
146.615199
11
-95.700209
21
145.298989
0
LINE
8
Layer 1
10
-95.700209
20
145.298989
11
-91.978023
21
144.284667
0
LINE
8
Layer 1
10
-91.978023
20
144.284667
11
-88.077275
21
143.606374
0
LINE
8
Layer 1
10
-88.077275
20
143.606374
11
-84.048855
21
143.298250
0
LINE
8
Layer 1
10
-84.048855
20
143.298250
11
-79.943655
21
143.394437
0
LINE
8
Layer 1
10
-79.943655
20
143.394437
11
-75.812568
21
143.929073
0
LINE
8
Layer 1
10
-75.812568
20
143.929073
11
-71.132966
21
144.942210
0
LINE
8
Layer 1
10
-71.132966
20
144.942210
11
-70.115959
21
145.391070
0
LINE
8
Layer 1
10
-70.115959
20
145.391070
11
-69.953845
21
145.621057
0
LINE
8
Layer 1
10
-69.953845
20
145.621057
11
-70.028634
21
145.862361
0
LINE
8
Layer 1
10
-70.028634
20
145.862361
11
-70.906855
21
146.401758
0
LINE
8
Layer 1
10
-70.906855
20
146.401758
11
-72.786486
21
147.054940
0
LINE
8
Layer 1
10
-72.786486
20
147.054940
11
-79.693431
21
148.885361
0
LINE
8
Layer 1
10
-79.693431
20
148.885361
11
-83.014279
21
149.848771
0
LINE
8
Layer 1
10
-83.014279
20
149.848771
11
-85.961212
21
150.996190
0
LINE
8
Layer 1
10
-85.961212
20
150.996190
11
-88.568022
21
152.354893
0
LINE
8
Layer 1
10
-88.568022
20
152.354893
11
-90.868505
21
153.952156
0
LINE
8
Layer 1
10
-90.868505
20
153.952156
11
-92.896455
21
155.815252
0
LINE
8
Layer 1
10
-92.896455
20
155.815252
11
-94.685664
21
157.971457
0
LINE
8
Layer 1
10
-94.685664
20
157.971457
11
-96.269928
21
160.448045
0
LINE
8
Layer 1
10
-96.269928
20
160.448045
11
-97.683041
21
163.272291
0
LINE
8
Layer 1
10
-97.683041
20
163.272291
11
-99.382303
21
166.916828
0
LINE
8
Layer 1
10
-99.382303
20
166.916828
11
-100.900457
21
169.743633
0
LINE
8
Layer 1
10
-100.900457
20
169.743633
11
-102.290122
21
171.771341
0
LINE
8
Layer 1
10
-102.290122
20
171.771341
11
-103.603919
21
173.018587
0
LINE
8
Layer 1
10
-103.603919
20
173.018587
11
-103.603919
21
173.018587
0
LINE
8
Layer 1
10
-63.189496
20
135.115036
11
-63.728154
21
135.217395
0
LINE
8
Layer 1
10
-63.728154
20
135.217395
11
-64.679805
21
134.841852
0
LINE
8
Layer 1
10
-64.679805
20
134.841852
11
-65.828531
21
134.026544
0
LINE
8
Layer 1
10
-65.828531
20
134.026544
11
-67.142358
21
132.819820
0
LINE
8
Layer 1
10
-67.142358
20
132.819820
11
-68.589311
21
131.270031
0
LINE
8
Layer 1
10
-68.589311
20
131.270031
11
-71.754696
21
127.334663
0
LINE
8
Layer 1
10
-71.754696
20
127.334663
11
-75.068888
21
122.607243
0
LINE
8
Layer 1
10
-75.068888
20
122.607243
11
-78.276090
21
117.474575
0
LINE
8
Layer 1
10
-78.276090
20
117.474575
11
-81.120503
21
112.323464
0
LINE
8
Layer 1
10
-81.120503
20
112.323464
11
-83.346329
21
107.540714
0
LINE
8
Layer 1
10
-83.346329
20
107.540714
11
-84.147335
21
105.408351
0
LINE
8
Layer 1
10
-84.147335
20
105.408351
11
-84.697770
21
103.513129
0
LINE
8
Layer 1
10
-84.697770
20
103.513129
11
-85.025900
21
101.532825
0
LINE
8
Layer 1
10
-85.025900
20
101.532825
11
-85.076751
21
99.617066
0
LINE
8
Layer 1
10
-85.076751
20
99.617066
11
-84.867043
21
97.784819
0
LINE
8
Layer 1
10
-84.867043
20
97.784819
11
-84.413495
21
96.055052
0
LINE
8
Layer 1
10
-84.413495
20
96.055052
11
-83.732826
21
94.446732
0
LINE
8
Layer 1
10
-83.732826
20
94.446732
11
-82.841758
21
92.978825
0
LINE
8
Layer 1
10
-82.841758
20
92.978825
11
-81.757008
21
91.670300
0
LINE
8
Layer 1
10
-81.757008
20
91.670300
11
-80.495298
21
90.540122
0
LINE
8
Layer 1
10
-80.495298
20
90.540122
11
-80.027388
21
90.193883
0
LINE
8
Layer 1
10
-80.027388
20
90.193883
11
-78.112752
21
89.129941
0
LINE
8
Layer 1
10
-78.112752
20
89.129941
11
-75.979901
21
88.442009
0
LINE
8
Layer 1
10
-75.979901
20
88.442009
11
-73.664232
21
88.168428
0
LINE
8
Layer 1
10
-73.664232
20
88.168428
11
-71.201147
21
88.347540
0
LINE
8
Layer 1
10
-71.201147
20
88.347540
11
-68.890299
21
88.960564
0
LINE
8
Layer 1
10
-68.890299
20
88.960564
11
-67.108336
21
89.893269
0
LINE
8
Layer 1
10
-67.108336
20
89.893269
11
-65.877424
21
91.062155
0
LINE
8
Layer 1
10
-65.877424
20
91.062155
11
-65.219729
21
92.383725
0
LINE
8
Layer 1
10
-65.219729
20
92.383725
11
-65.112764
21
93.075673
0
LINE
8
Layer 1
10
-65.112764
20
93.075673
11
-65.157415
21
93.774479
0
LINE
8
Layer 1
10
-65.157415
20
93.774479
11
-65.356453
21
94.469707
0
LINE
8
Layer 1
10
-65.356453
20
94.469707
11
-65.712648
21
95.150919
0
LINE
8
Layer 1
10
-65.712648
20
95.150919
11
-66.907593
21
96.429544
0
LINE
8
Layer 1
10
-66.907593
20
96.429544
11
-68.764415
21
97.526857
0
LINE
8
Layer 1
10
-68.764415
20
97.526857
11
-69.796072
21
98.156391
0
LINE
8
Layer 1
10
-69.796072
20
98.156391
11
-70.667130
21
99.038105
0
LINE
8
Layer 1
10
-70.667130
20
99.038105
11
-71.379114
21
100.149837
0
LINE
8
Layer 1
10
-71.379114
20
100.149837
11
-71.933547
21
101.469423
0
LINE
8
Layer 1
10
-71.933547
20
101.469423
11
-72.331955
21
102.974700
0
LINE
8
Layer 1
10
-72.331955
20
102.974700
11
-72.575860
21
104.643507
0
LINE
8
Layer 1
10
-72.575860
20
104.643507
11
-72.666787
21
106.453678
0
LINE
8
Layer 1
10
-72.666787
20
106.453678
11
-72.606259
21
108.383053
0
LINE
8
Layer 1
10
-72.606259
20
108.383053
11
-72.036936
21
112.510758
0
LINE
8
Layer 1
10
-72.036936
20
112.510758
11
-70.880082
21
116.849318
0
LINE
8
Layer 1
10
-70.880082
20
116.849318
11
-69.147891
21
121.221428
0
LINE
8
Layer 1
10
-69.147891
20
121.221428
11
-68.069853
21
123.364658
0
LINE
8
Layer 1
10
-68.069853
20
123.364658
11
-66.852552
21
125.449786
0
LINE
8
Layer 1
10
-66.852552
20
125.449786
11
-64.834932
21
128.955490
0
LINE
8
Layer 1
10
-64.834932
20
128.955490
11
-63.506700
21
131.877653
0
LINE
8
Layer 1
10
-63.506700
20
131.877653
11
-62.935630
21
134.002195
0
LINE
8
Layer 1
10
-62.935630
20
134.002195
11
-62.955210
21
134.698458
0
LINE
8
Layer 1
10
-62.955210
20
134.698458
11
-63.189496
21
135.115036
0
LINE
8
Layer 1
10
-63.189496
20
135.115036
11
-63.189496
21
135.115036
0
LINE
8
Layer 1
10
-79.892392
20
136.799423
11
-94.708204
21
137.712798
0
LINE
8
Layer 1
10
-94.708204
20
137.712798
11
-97.777552
21
138.018735
0
LINE
8
Layer 1
10
-97.777552
20
138.018735
11
-100.820591
21
138.542451
0
LINE
8
Layer 1
10
-100.820591
20
138.542451
11
-103.757865
21
139.255430
0
LINE
8
Layer 1
10
-103.757865
20
139.255430
11
-106.509919
21
140.129154
0
LINE
8
Layer 1
10
-106.509919
20
140.129154
11
-108.997299
21
141.135109
0
LINE
8
Layer 1
10
-108.997299
20
141.135109
11
-111.140549
21
142.244776
0
LINE
8
Layer 1
10
-111.140549
20
142.244776
11
-112.860213
21
143.429638
0
LINE
8
Layer 1
10
-112.860213
20
143.429638
11
-114.076838
21
144.661180
0
LINE
8
Layer 1
10
-114.076838
20
144.661180
11
-115.992885
21
147.011730
0
LINE
8
Layer 1
10
-115.992885
20
147.011730
11
-117.705070
21
148.694194
0
LINE
8
Layer 1
10
-117.705070
20
148.694194
11
-119.229599
21
149.708789
0
LINE
8
Layer 1
10
-119.229599
20
149.708789
11
-119.926558
21
149.965705
0
LINE
8
Layer 1
10
-119.926558
20
149.965705
11
-120.582680
21
150.055735
0
LINE
8
Layer 1
10
-120.582680
20
150.055735
11
-121.199993
21
149.978909
0
LINE
8
Layer 1
10
-121.199993
20
149.978909
11
-121.780520
21
149.735252
0
LINE
8
Layer 1
10
-121.780520
20
149.735252
11
-122.839325
21
148.747558
0
LINE
8
Layer 1
10
-122.839325
20
148.747558
11
-123.775302
21
147.092872
0
LINE
8
Layer 1
10
-123.775302
20
147.092872
11
-124.604659
21
144.771413
0
LINE
8
Layer 1
10
-124.604659
20
144.771413
11
-124.899575
21
143.427178
0
LINE
8
Layer 1
10
-124.899575
20
143.427178
11
-124.979322
21
142.147447
0
LINE
8
Layer 1
10
-124.979322
20
142.147447
11
-124.851110
21
140.935073
0
LINE
8
Layer 1
10
-124.851110
20
140.935073
11
-124.522144
21
139.792910
0
LINE
8
Layer 1
10
-124.522144
20
139.792910
11
-123.999634
21
138.723810
0
LINE
8
Layer 1
10
-123.999634
20
138.723810
11
-123.290785
21
137.730625
0
LINE
8
Layer 1
10
-123.290785
20
137.730625
11
-122.402807
21
136.816209
0
LINE
8
Layer 1
10
-122.402807
20
136.816209
11
-121.342906
21
135.983414
0
LINE
8
Layer 1
10
-121.342906
20
135.983414
11
-119.363603
21
134.854289
0
LINE
8
Layer 1
10
-119.363603
20
134.854289
11
-117.011938
21
133.942328
0
LINE
8
Layer 1
10
-117.011938
20
133.942328
11
-114.315882
21
133.258620
0
LINE
8
Layer 1
10
-114.315882
20
133.258620
11
-111.303409
21
132.814257
0
LINE
8
Layer 1
10
-111.303409
20
132.814257
11
-108.002490
21
132.620330
0
LINE
8
Layer 1
10
-108.002490
20
132.620330
11
-104.441097
21
132.687929
0
LINE
8
Layer 1
10
-104.441097
20
132.687929
11
-100.647205
21
133.028145
0
LINE
8
Layer 1
10
-100.647205
20
133.028145
11
-96.648784
21
133.652069
0
LINE
8
Layer 1
10
-96.648784
20
133.652069
11
-79.892392
21
136.799423
0
LINE
8
Layer 1
10
-79.892392
20
136.799423
11
-79.892392
21
136.799423
0
LINE
8
Layer 1
10
-79.858195
20
128.764963
11
-80.353441
21
128.814625
0
LINE
8
Layer 1
10
-80.353441
20
128.814625
11
-81.133158
21
128.583322
0
LINE
8
Layer 1
10
-81.133158
20
128.583322
11
-83.493418
21
127.271240
0
LINE
8
Layer 1
10
-83.493418
20
127.271240
11
-86.833804
21
124.815562
0
LINE
8
Layer 1
10
-86.833804
20
124.815562
11
-91.049142
21
121.203131
0
LINE
8
Layer 1
10
-91.049142
20
121.203131
11
-95.865818
21
116.442750
0
LINE
8
Layer 1
10
-95.865818
20
116.442750
11
-99.834582
21
111.735386
0
LINE
8
Layer 1
10
-99.834582
20
111.735386
11
-101.490978
21
109.434914
0
LINE
8
Layer 1
10
-101.490978
20
109.434914
11
-102.923374
21
107.187689
0
LINE
8
Layer 1
10
-102.923374
20
107.187689
11
-104.127763
21
105.007044
0
LINE
8
Layer 1
10
-104.127763
20
105.007044
11
-105.100137
21
102.906308
0
LINE
8
Layer 1
10
-105.100137
20
102.906308
11
-105.836489
21
100.898813
0
LINE
8
Layer 1
10
-105.836489
20
100.898813
11
-106.332811
21
98.997890
0
LINE
8
Layer 1
10
-106.332811
20
98.997890
11
-106.585097
21
97.216871
0
LINE
8
Layer 1
10
-106.585097
20
97.216871
11
-106.589338
21
95.569086
0
LINE
8
Layer 1
10
-106.589338
20
95.569086
11
-106.341527
21
94.067866
0
LINE
8
Layer 1
10
-106.341527
20
94.067866
11
-105.837658
21
92.726542
0
LINE
8
Layer 1
10
-105.837658
20
92.726542
11
-105.073722
21
91.558447
0
LINE
8
Layer 1
10
-105.073722
20
91.558447
11
-104.045712
21
90.576909
0
LINE
8
Layer 1
10
-104.045712
20
90.576909
11
-102.540615
21
89.701138
0
LINE
8
Layer 1
10
-102.540615
20
89.701138
11
-100.679467
21
89.106359
0
LINE
8
Layer 1
10
-100.679467
20
89.106359
11
-97.513223
21
88.499391
0
LINE
8
Layer 1
10
-97.513223
20
88.499391
11
-95.078123
21
88.294609
0
LINE
8
Layer 1
10
-95.078123
20
88.294609
11
-94.115315
21
88.368789
0
LINE
8
Layer 1
10
-94.115315
20
88.368789
11
-93.311969
21
88.574418
0
LINE
8
Layer 1
10
-93.311969
20
88.574418
11
-92.660309
21
88.921795
0
LINE
8
Layer 1
10
-92.660309
20
88.921795
11
-92.152561
21
89.421222
0
LINE
8
Layer 1
10
-92.152561
20
89.421222
11
-91.780950
21
90.082999
0
LINE
8
Layer 1
10
-91.780950
20
90.082999
11
-91.537701
21
90.917426
0
LINE
8
Layer 1
10
-91.537701
20
90.917426
11
-91.405189
21
93.145436
0
LINE
8
Layer 1
10
-91.405189
20
93.145436
11
-91.692825
21
96.187655
0
LINE
8
Layer 1
10
-91.692825
20
96.187655
11
-92.338412
21
100.126488
0
LINE
8
Layer 1
10
-92.338412
20
100.126488
11
-92.826204
21
103.365325
0
LINE
8
Layer 1
10
-92.826204
20
103.365325
11
-93.001694
21
106.202183
0
LINE
8
Layer 1
10
-93.001694
20
106.202183
11
-92.830889
21
108.740169
0
LINE
8
Layer 1
10
-92.830889
20
108.740169
11
-92.279796
21
111.082387
0
LINE
8
Layer 1
10
-92.279796
20
111.082387
11
-91.314421
21
113.331944
0
LINE
8
Layer 1
10
-91.314421
20
113.331944
11
-89.900771
21
115.591944
0
LINE
8
Layer 1
10
-89.900771
20
115.591944
11
-88.004853
21
117.965493
0
LINE
8
Layer 1
10
-88.004853
20
117.965493
11
-85.592672
21
120.555697
0
LINE
8
Layer 1
10
-85.592672
20
120.555697
11
-82.512293
21
123.884232
0
LINE
8
Layer 1
10
-82.512293
20
123.884232
11
-80.578700
21
126.367323
0
LINE
8
Layer 1
10
-80.578700
20
126.367323
11
-79.718473
21
127.996918
0
LINE
8
Layer 1
10
-79.718473
20
127.996918
11
-79.667929
21
128.489137
0
LINE
8
Layer 1
10
-79.667929
20
128.489137
11
-79.858195
21
128.764963
0
LINE
8
Layer 1
10
-79.858195
20
128.764963
11
-79.858195
21
128.764963
0
LINE
8
Layer 1
10
-93.661569
20
126.405734
11
-94.403536
21
126.727071
0
LINE
8
Layer 1
10
-94.403536
20
126.727071
11
-95.684108
21
126.930313
0
LINE
8
Layer 1
10
-95.684108
20
126.930313
11
-99.659813
21
126.984487
0
LINE
8
Layer 1
10
-99.659813
20
126.984487
11
-105.186181
21
126.572201
0
LINE
8
Layer 1
10
-105.186181
20
126.572201
11
-111.860708
21
125.697402
0
LINE
8
Layer 1
10
-111.860708
20
125.697402
11
-117.364690
21
124.776338
0
LINE
8
Layer 1
10
-117.364690
20
124.776338
11
-121.887665
21
123.850152
0
LINE
8
Layer 1
10
-121.887665
20
123.850152
11
-125.553449
21
122.862704
0
LINE
8
Layer 1
10
-125.553449
20
122.862704
11
-128.485856
21
121.757853
0
LINE
8
Layer 1
10
-128.485856
20
121.757853
11
-130.808700
21
120.479461
0
LINE
8
Layer 1
10
-130.808700
20
120.479461
11
-132.645797
21
118.971386
0
LINE
8
Layer 1
10
-132.645797
20
118.971386
11
-134.120962
21
117.177488
0
LINE
8
Layer 1
10
-134.120962
20
117.177488
11
-135.358008
21
115.041628
0
LINE
8
Layer 1
10
-135.358008
20
115.041628
11
-136.874648
21
111.564766
0
LINE
8
Layer 1
10
-136.874648
20
111.564766
11
-137.247798
21
110.182555
0
LINE
8
Layer 1
10
-137.247798
20
110.182555
11
-137.350972
21
108.983672
0
LINE
8
Layer 1
10
-137.350972
20
108.983672
11
-137.174271
21
107.927504
0
LINE
8
Layer 1
10
-137.174271
20
107.927504
11
-136.707798
21
106.973435
0
LINE
8
Layer 1
10
-136.707798
20
106.973435
11
-135.941656
21
106.080852
0
LINE
8
Layer 1
10
-135.941656
20
106.080852
11
-134.865945
21
105.209141
0
LINE
8
Layer 1
10
-134.865945
20
105.209141
11
-132.673561
21
103.872141
0
LINE
8
Layer 1
10
-132.673561
20
103.872141
11
-129.452183
21
102.279020
0
LINE
8
Layer 1
10
-129.452183
20
102.279020
11
-126.604236
21
101.336246
0
LINE
8
Layer 1
10
-126.604236
20
101.336246
11
-125.284928
21
101.121321
0
LINE
8
Layer 1
10
-125.284928
20
101.121321
11
-124.016532
21
101.084079
0
LINE
8
Layer 1
10
-124.016532
20
101.084079
11
-122.784899
21
101.229555
0
LINE
8
Layer 1
10
-122.784899
20
101.229555
11
-121.575881
21
101.562779
0
LINE
8
Layer 1
10
-121.575881
20
101.562779
11
-120.375329
21
102.088785
0
LINE
8
Layer 1
10
-120.375329
20
102.088785
11
-119.169094
21
102.812605
0
LINE
8
Layer 1
10
-119.169094
20
102.812605
11
-116.682982
21
104.873816
0
LINE
8
Layer 1
10
-116.682982
20
104.873816
11
-114.004355
21
107.786672
0
LINE
8
Layer 1
10
-114.004355
20
107.786672
11
-111.020025
21
111.591433
0
LINE
8
Layer 1
10
-111.020025
20
111.591433
11
-107.784438
21
115.534951
0
LINE
8
Layer 1
10
-107.784438
20
115.534951
11
-104.485001
21
118.871876
0
LINE
8
Layer 1
10
-104.485001
20
118.871876
11
-101.508749
21
121.250218
0
LINE
8
Layer 1
10
-101.508749
20
121.250218
11
-100.262765
21
121.969924
0
LINE
8
Layer 1
10
-100.262765
20
121.969924
11
-99.242713
21
122.317988
0
LINE
8
Layer 1
10
-99.242713
20
122.317988
11
-97.455849
21
122.821512
0
LINE
8
Layer 1
10
-97.455849
20
122.821512
11
-95.783962
21
123.663648
0
LINE
8
Layer 1
10
-95.783962
20
123.663648
11
-94.414472
21
124.727210
0
LINE
8
Layer 1
10
-94.414472
20
124.727210
11
-93.534797
21
125.895014
0
LINE
8
Layer 1
10
-93.534797
20
125.895014
11
-93.497286
21
126.169814
0
LINE
8
Layer 1
10
-93.497286
20
126.169814
11
-93.661569
21
126.405734
0
LINE
8
Layer 1
10
-93.661569
20
126.405734
11
-93.661569
21
126.405734
 0 
ENDSEC
 0 
EOF
