999
"DXF R12 Output" (www.mydxf.blogspot.com)
 0 
SECTION
 2 
HEADER
 9 
$ACADVER
 1 
AC1009
 9 
$EXTMIN
 10 
 0 
 20 
 0 
 9 
$EXTMAX
 10 
 8.5 
 20 
 11 
 0 
ENDSEC
 0 
SECTION
 2 
ENTITIES
0
LINE
8
Layer 1
10
98.241680
20
277.019944
11
95.668471
21
267.655151
0
LINE
8
Layer 1
10
95.668471
20
267.655151
11
94.347156
21
262.190675
0
LINE
8
Layer 1
10
94.347156
20
262.190675
11
93.269067
21
256.511571
0
LINE
8
Layer 1
10
93.269067
20
256.511571
11
92.633982
21
250.847907
0
LINE
8
Layer 1
10
92.633982
20
250.847907
11
92.544995
21
248.093761
0
LINE
8
Layer 1
10
92.544995
20
248.093761
11
92.641675
21
245.429752
0
LINE
8
Layer 1
10
92.641675
20
245.429752
11
92.948995
21
242.884636
0
LINE
8
Layer 1
10
92.948995
20
242.884636
11
93.491924
21
240.487174
0
LINE
8
Layer 1
10
93.491924
20
240.487174
11
94.295437
21
238.266123
0
LINE
8
Layer 1
10
94.295437
20
238.266123
11
95.384504
21
236.250241
0
LINE
8
Layer 1
10
95.384504
20
236.250241
11
96.940185
21
234.331916
0
LINE
8
Layer 1
10
96.940185
20
234.331916
11
98.912087
21
232.745408
0
LINE
8
Layer 1
10
98.912087
20
232.745408
11
101.318024
21
231.510201
0
LINE
8
Layer 1
10
101.318024
20
231.510201
11
104.175814
21
230.645779
0
LINE
8
Layer 1
10
104.175814
20
230.645779
11
105.054945
21
230.535888
0
LINE
8
Layer 1
10
105.054945
20
230.535888
11
105.824184
21
230.645779
0
LINE
8
Layer 1
10
105.824184
20
230.645779
11
108.681944
21
231.510201
0
LINE
8
Layer 1
10
108.681944
20
231.510201
11
111.087885
21
232.745408
0
LINE
8
Layer 1
10
111.087885
20
232.745408
11
113.059804
21
234.331916
0
LINE
8
Layer 1
10
113.059804
20
234.331916
11
114.615496
21
236.250241
0
LINE
8
Layer 1
10
114.615496
20
236.250241
11
115.704546
21
238.266123
0
LINE
8
Layer 1
10
115.704546
20
238.266123
11
116.508045
21
240.487174
0
LINE
8
Layer 1
10
116.508045
20
240.487174
11
117.050966
21
242.884636
0
LINE
8
Layer 1
10
117.050966
20
242.884636
11
117.358279
21
245.429752
0
LINE
8
Layer 1
10
117.358279
20
245.429752
11
117.454957
21
248.093761
0
LINE
8
Layer 1
10
117.454957
20
248.093761
11
117.365971
21
250.847907
0
LINE
8
Layer 1
10
117.365971
20
250.847907
11
116.730892
21
256.511571
0
LINE
8
Layer 1
10
116.730892
20
256.511571
11
115.652815
21
262.190675
0
LINE
8
Layer 1
10
115.652815
20
262.190675
11
114.331513
21
267.655151
0
LINE
8
Layer 1
10
114.331513
20
267.655151
11
111.758321
21
277.019944
0
LINE
8
Layer 1
10
111.758321
20
277.019944
11
104.986269
21
298.888331
0
LINE
8
Layer 1
10
104.986269
20
298.888331
11
98.241680
21
277.019944
0
LINE
8
Layer 1
10
98.241680
20
277.019944
11
98.241680
21
277.019944
0
LINE
8
Layer 1
10
67.691872
20
236.250241
11
64.981269
21
236.084389
0
LINE
8
Layer 1
10
64.981269
20
236.084389
11
62.314777
21
235.686768
0
LINE
8
Layer 1
10
62.314777
20
235.686768
11
59.708273
21
235.053705
0
LINE
8
Layer 1
10
59.708273
20
235.053705
11
57.177632
21
234.181526
0
LINE
8
Layer 1
10
57.177632
20
234.181526
11
54.738730
21
233.066556
0
LINE
8
Layer 1
10
54.738730
20
233.066556
11
52.407441
21
231.705123
0
LINE
8
Layer 1
10
52.407441
20
231.705123
11
50.199642
21
230.093551
0
LINE
8
Layer 1
10
50.199642
20
230.093551
11
48.131208
21
228.228168
0
LINE
8
Layer 1
10
48.131208
20
228.228168
11
46.376776
21
226.144103
0
LINE
8
Layer 1
10
46.376776
20
226.144103
11
44.961093
21
224.051518
0
LINE
8
Layer 1
10
44.961093
20
224.051518
11
43.867299
21
221.963932
0
LINE
8
Layer 1
10
43.867299
20
221.963932
11
43.078537
21
219.894863
0
LINE
8
Layer 1
10
43.078537
20
219.894863
11
42.577948
21
217.857830
0
LINE
8
Layer 1
10
42.577948
20
217.857830
11
42.348674
21
215.866352
0
LINE
8
Layer 1
10
42.348674
20
215.866352
11
42.373857
21
213.933947
0
LINE
8
Layer 1
10
42.373857
20
213.933947
11
42.636638
21
212.074135
0
LINE
8
Layer 1
10
42.636638
20
212.074135
11
43.305486
21
209.778800
0
LINE
8
Layer 1
10
43.305486
20
209.778800
11
44.306975
21
207.661120
0
LINE
8
Layer 1
10
44.306975
20
207.661120
11
45.604904
21
205.754127
0
LINE
8
Layer 1
10
45.604904
20
205.754127
11
47.163072
21
204.090851
0
LINE
8
Layer 1
10
47.163072
20
204.090851
11
48.945281
21
202.704323
0
LINE
8
Layer 1
10
48.945281
20
202.704323
11
50.915330
21
201.627575
0
LINE
8
Layer 1
10
50.915330
20
201.627575
11
53.037019
21
200.893636
0
LINE
8
Layer 1
10
53.037019
20
200.893636
11
55.274148
21
200.535539
0
LINE
8
Layer 1
10
55.274148
20
200.535539
11
57.168664
21
200.544833
0
LINE
8
Layer 1
10
57.168664
20
200.544833
11
59.096452
21
200.844492
0
LINE
8
Layer 1
10
59.096452
20
200.844492
11
61.035147
21
201.450879
0
LINE
8
Layer 1
10
61.035147
20
201.450879
11
62.962385
21
202.380361
0
LINE
8
Layer 1
10
62.962385
20
202.380361
11
64.855802
21
203.649301
0
LINE
8
Layer 1
10
64.855802
20
203.649301
11
66.693034
21
205.274065
0
LINE
8
Layer 1
10
66.693034
20
205.274065
11
68.451716
21
207.271019
0
LINE
8
Layer 1
10
68.451716
20
207.271019
11
70.109484
21
209.656526
0
LINE
8
Layer 1
10
70.109484
20
209.656526
11
73.516117
21
217.458813
0
LINE
8
Layer 1
10
73.516117
20
217.458813
11
77.801882
21
209.326851
0
LINE
8
Layer 1
10
77.801882
20
209.326851
11
78.771401
21
207.267361
0
LINE
8
Layer 1
10
78.771401
20
207.267361
11
79.521231
21
205.122861
0
LINE
8
Layer 1
10
79.521231
20
205.122861
11
80.051516
21
202.893681
0
LINE
8
Layer 1
10
80.051516
20
202.893681
11
80.362402
21
200.580154
0
LINE
8
Layer 1
10
80.362402
20
200.580154
11
80.454032
21
198.182610
0
LINE
8
Layer 1
10
80.454032
20
198.182610
11
80.326552
21
195.701382
0
LINE
8
Layer 1
10
80.326552
20
195.701382
11
79.980106
21
193.136799
0
LINE
8
Layer 1
10
79.980106
20
193.136799
11
79.414840
21
190.489195
0
LINE
8
Layer 1
10
79.414840
20
190.489195
11
78.630897
21
187.758899
0
LINE
8
Layer 1
10
78.630897
20
187.758899
11
77.628423
21
184.946244
0
LINE
8
Layer 1
10
77.628423
20
184.946244
11
76.407562
21
182.051561
0
LINE
8
Layer 1
10
76.407562
20
182.051561
11
74.968460
21
179.075181
0
LINE
8
Layer 1
10
74.968460
20
179.075181
11
71.436108
21
172.878655
0
LINE
8
Layer 1
10
71.436108
20
172.878655
11
67.032525
21
166.359319
0
LINE
8
Layer 1
10
67.032525
20
166.359319
11
56.482951
21
151.743764
0
LINE
8
Layer 1
10
56.482951
20
151.743764
11
49.559794
21
159.216379
0
LINE
8
Layer 1
10
49.559794
20
159.216379
11
47.670818
21
161.110596
0
LINE
8
Layer 1
10
47.670818
20
161.110596
11
45.813001
21
162.722296
0
LINE
8
Layer 1
10
45.813001
20
162.722296
11
44.009061
21
164.053611
0
LINE
8
Layer 1
10
44.009061
20
164.053611
11
42.281715
21
165.106676
0
LINE
8
Layer 1
10
42.281715
20
165.106676
11
40.653680
21
165.883624
0
LINE
8
Layer 1
10
40.653680
20
165.883624
11
39.147673
21
166.386589
0
LINE
8
Layer 1
10
39.147673
20
166.386589
11
37.786411
21
166.617704
0
LINE
8
Layer 1
10
37.786411
20
166.617704
11
36.592612
21
166.579103
0
LINE
8
Layer 1
10
36.592612
20
166.579103
11
35.696790
21
166.322986
0
LINE
8
Layer 1
10
35.696790
20
166.322986
11
34.962787
21
165.858966
0
LINE
8
Layer 1
10
34.962787
20
165.858966
11
34.402344
21
165.186293
0
LINE
8
Layer 1
10
34.402344
20
165.186293
11
34.027206
21
164.304219
0
LINE
8
Layer 1
10
34.027206
20
164.304219
11
33.849116
21
163.211993
0
LINE
8
Layer 1
10
33.849116
20
163.211993
11
33.879817
21
161.908868
0
LINE
8
Layer 1
10
33.879817
20
161.908868
11
34.131053
21
160.394094
0
LINE
8
Layer 1
10
34.131053
20
160.394094
11
34.614567
21
158.666921
0
LINE
8
Layer 1
10
34.614567
20
158.666921
11
35.420688
21
155.758343
0
LINE
8
Layer 1
10
35.420688
20
155.758343
11
35.986335
21
152.732244
0
LINE
8
Layer 1
10
35.986335
20
152.732244
11
36.327054
21
149.647655
0
LINE
8
Layer 1
10
36.327054
20
149.647655
11
36.458392
21
146.563606
0
LINE
8
Layer 1
10
36.458392
20
146.563606
11
36.395897
21
143.539127
0
LINE
8
Layer 1
10
36.395897
20
143.539127
11
36.155113
21
140.633249
0
LINE
8
Layer 1
10
36.155113
20
140.633249
11
35.751589
21
137.905002
0
LINE
8
Layer 1
10
35.751589
20
137.905002
11
35.200871
21
135.413416
0
LINE
8
Layer 1
10
35.200871
20
135.413416
11
34.518505
21
133.217522
0
LINE
8
Layer 1
10
34.518505
20
133.217522
11
33.720039
21
131.376350
0
LINE
8
Layer 1
10
33.720039
20
131.376350
11
32.821018
21
129.948930
0
LINE
8
Layer 1
10
32.821018
20
129.948930
11
31.836990
21
128.994293
0
LINE
8
Layer 1
10
31.836990
20
128.994293
11
30.783501
21
128.571470
0
LINE
8
Layer 1
10
30.783501
20
128.571470
11
30.235566
21
128.577935
0
LINE
8
Layer 1
10
30.235566
20
128.577935
11
29.676097
21
128.739490
0
LINE
8
Layer 1
10
29.676097
20
128.739490
11
28.530326
21
129.557384
0
LINE
8
Layer 1
10
28.530326
20
129.557384
11
27.361735
21
131.084183
0
LINE
8
Layer 1
10
27.361735
20
131.084183
11
26.653199
21
131.931110
0
LINE
8
Layer 1
10
26.653199
20
131.931110
11
25.669532
21
132.671415
0
LINE
8
Layer 1
10
25.669532
20
132.671415
11
24.455004
21
133.304335
0
LINE
8
Layer 1
10
24.455004
20
133.304335
11
23.053886
21
133.829110
0
LINE
8
Layer 1
10
23.053886
20
133.829110
11
19.868965
21
134.551178
0
LINE
8
Layer 1
10
19.868965
20
134.551178
11
16.468935
21
134.831524
0
LINE
8
Layer 1
10
16.468935
20
134.831524
11
13.207964
21
134.664058
0
LINE
8
Layer 1
10
13.207964
20
134.664058
11
11.740302
21
134.410491
0
LINE
8
Layer 1
10
11.740302
20
134.410491
11
10.440218
21
134.042687
0
LINE
8
Layer 1
10
10.440218
20
134.042687
11
9.351981
21
133.559882
0
LINE
8
Layer 1
10
9.351981
20
133.559882
11
8.519863
21
132.961317
0
LINE
8
Layer 1
10
8.519863
20
132.961317
11
7.988135
21
132.246230
0
LINE
8
Layer 1
10
7.988135
20
132.246230
11
7.801068
21
131.413858
0
LINE
8
Layer 1
10
7.801068
20
131.413858
11
8.062499
21
130.048462
0
LINE
8
Layer 1
10
8.062499
20
130.048462
11
8.772974
21
128.930326
0
LINE
8
Layer 1
10
8.772974
20
128.930326
11
9.821680
21
128.174824
0
LINE
8
Layer 1
10
9.821680
20
128.174824
11
11.097809
21
127.897333
0
LINE
8
Layer 1
10
11.097809
20
127.897333
11
11.966178
21
127.750618
0
LINE
8
Layer 1
10
11.966178
20
127.750618
11
12.798105
21
127.327736
0
LINE
8
Layer 1
10
12.798105
20
127.327736
11
13.586597
21
126.654576
0
LINE
8
Layer 1
10
13.586597
20
126.654576
11
14.324660
21
125.757027
0
LINE
8
Layer 1
10
14.324660
20
125.757027
11
15.621524
21
123.392323
0
LINE
8
Layer 1
10
15.621524
20
123.392323
11
16.632748
21
120.440746
0
LINE
8
Layer 1
10
16.632748
20
120.440746
11
17.302384
21
117.109413
0
LINE
8
Layer 1
10
17.302384
20
117.109413
11
17.574482
21
113.605445
0
LINE
8
Layer 1
10
17.574482
20
113.605445
11
17.393094
21
110.135961
0
LINE
8
Layer 1
10
17.393094
20
110.135961
11
17.114858
21
108.478875
0
LINE
8
Layer 1
10
17.114858
20
108.478875
11
16.702270
21
106.908079
0
LINE
8
Layer 1
10
16.702270
20
106.908079
11
16.011392
21
105.091990
0
LINE
8
Layer 1
10
16.011392
20
105.091990
11
15.186356
21
103.658225
0
LINE
8
Layer 1
10
15.186356
20
103.658225
11
14.181004
21
102.586758
0
LINE
8
Layer 1
10
14.181004
20
102.586758
11
12.949180
21
101.857563
0
LINE
8
Layer 1
10
12.949180
20
101.857563
11
11.444725
21
101.450613
0
LINE
8
Layer 1
10
11.444725
20
101.450613
11
9.621482
21
101.345881
0
LINE
8
Layer 1
10
9.621482
20
101.345881
11
7.433293
21
101.523341
0
LINE
8
Layer 1
10
7.433293
20
101.523341
11
4.834000
21
101.962967
0
LINE
8
Layer 1
10
4.834000
20
101.962967
11
2.496536
21
102.328194
0
LINE
8
Layer 1
10
2.496536
20
102.328194
11
0.306121
21
102.459820
0
LINE
8
Layer 1
10
0.306121
20
102.459820
11
-1.733913
21
102.357713
0
LINE
8
Layer 1
10
-1.733913
20
102.357713
11
-3.620234
21
102.021741
0
LINE
8
Layer 1
10
-3.620234
20
102.021741
11
-5.349512
21
101.451771
0
LINE
8
Layer 1
10
-5.349512
20
101.451771
11
-6.918416
21
100.647670
0
LINE
8
Layer 1
10
-6.918416
20
100.647670
11
-8.323612
21
99.609308
0
LINE
8
Layer 1
10
-8.323612
20
99.609308
11
-9.561772
21
98.336550
0
LINE
8
Layer 1
10
-9.561772
20
98.336550
11
-11.714680
21
95.494123
0
LINE
8
Layer 1
10
-11.714680
20
95.494123
11
-12.225394
21
94.514591
0
LINE
8
Layer 1
10
-12.225394
20
94.514591
11
-12.355307
21
93.786124
0
LINE
8
Layer 1
10
-12.355307
20
93.786124
11
-12.101687
21
93.276182
0
LINE
8
Layer 1
10
-12.101687
20
93.276182
11
-11.461802
21
92.952224
0
LINE
8
Layer 1
10
-11.461802
20
92.952224
11
-10.432922
21
92.781707
0
LINE
8
Layer 1
10
-10.432922
20
92.781707
11
-9.012315
21
92.732091
0
LINE
8
Layer 1
10
-9.012315
20
92.732091
11
-7.449231
21
92.600884
0
LINE
8
Layer 1
10
-7.449231
20
92.600884
11
-5.916708
21
92.213747
0
LINE
8
Layer 1
10
-5.916708
20
92.213747
11
-4.421068
21
91.580411
0
LINE
8
Layer 1
10
-4.421068
20
91.580411
11
-2.968631
21
90.710601
0
LINE
8
Layer 1
10
-2.968631
20
90.710601
11
-1.565717
21
89.614048
0
LINE
8
Layer 1
10
-1.565717
20
89.614048
11
-0.218647
21
88.300479
0
LINE
8
Layer 1
10
-0.218647
20
88.300479
11
1.066258
21
86.779622
0
LINE
8
Layer 1
10
1.066258
20
86.779622
11
2.282678
21
85.061206
0
LINE
8
Layer 1
10
2.282678
20
85.061206
11
3.424292
21
83.154959
0
LINE
8
Layer 1
10
3.424292
20
83.154959
11
4.484780
21
81.070609
0
LINE
8
Layer 1
10
4.484780
20
81.070609
11
6.337092
21
76.406514
0
LINE
8
Layer 1
10
6.337092
20
76.406514
11
7.789051
21
71.146746
0
LINE
8
Layer 1
10
7.789051
20
71.146746
11
8.790090
21
65.369134
0
LINE
8
Layer 1
10
8.790090
20
65.369134
11
9.316421
21
62.079628
0
LINE
8
Layer 1
10
9.316421
20
62.079628
11
10.089489
21
58.475743
0
LINE
8
Layer 1
10
10.089489
20
58.475743
11
12.225251
21
50.792468
0
LINE
8
Layer 1
10
12.225251
20
50.792468
11
14.896206
21
43.254586
0
LINE
8
Layer 1
10
14.896206
20
43.254586
11
16.338265
21
39.832442
0
LINE
8
Layer 1
10
16.338265
20
39.832442
11
17.801184
21
36.797374
0
LINE
8
Layer 1
10
17.801184
20
36.797374
11
19.412699
21
33.542690
0
LINE
8
Layer 1
10
19.412699
20
33.542690
11
20.687038
21
30.609245
0
LINE
8
Layer 1
10
20.687038
20
30.609245
11
21.625369
21
27.995247
0
LINE
8
Layer 1
10
21.625369
20
27.995247
11
22.228857
21
25.698907
0
LINE
8
Layer 1
10
22.228857
20
25.698907
11
22.498669
21
23.718434
0
LINE
8
Layer 1
10
22.498669
20
23.718434
11
22.435971
21
22.052038
0
LINE
8
Layer 1
10
22.435971
20
22.052038
11
22.041928
21
20.697930
0
LINE
8
Layer 1
10
22.041928
20
20.697930
11
21.317708
21
19.654318
0
LINE
8
Layer 1
10
21.317708
20
19.654318
11
20.241545
21
18.371156
0
LINE
8
Layer 1
10
20.241545
20
18.371156
11
19.413452
21
16.947650
0
LINE
8
Layer 1
10
19.413452
20
16.947650
11
18.823772
21
15.412467
0
LINE
8
Layer 1
10
18.823772
20
15.412467
11
18.462853
21
13.794272
0
LINE
8
Layer 1
10
18.462853
20
13.794272
11
18.321038
21
12.121732
0
LINE
8
Layer 1
10
18.321038
20
12.121732
11
18.388672
21
10.423511
0
LINE
8
Layer 1
10
18.388672
20
10.423511
11
18.656101
21
8.728276
0
LINE
8
Layer 1
10
18.656101
20
8.728276
11
19.113670
21
7.064693
0
LINE
8
Layer 1
10
19.113670
20
7.064693
11
19.751723
21
5.461428
0
LINE
8
Layer 1
10
19.751723
20
5.461428
11
20.560606
21
3.947146
0
LINE
8
Layer 1
10
20.560606
20
3.947146
11
21.530664
21
2.550514
0
LINE
8
Layer 1
10
21.530664
20
2.550514
11
22.652241
21
1.300196
0
LINE
8
Layer 1
10
22.652241
20
1.300196
11
23.915683
21
0.224860
0
LINE
8
Layer 1
10
23.915683
20
0.224860
11
25.311335
21
-0.646829
0
LINE
8
Layer 1
10
25.311335
20
-0.646829
11
26.829542
21
-1.286205
0
LINE
8
Layer 1
10
26.829542
20
-1.286205
11
28.460649
21
-1.664602
0
LINE
8
Layer 1
10
28.460649
20
-1.664602
11
31.682093
21
-1.882617
0
LINE
8
Layer 1
10
31.682093
20
-1.882617
11
32.899338
21
-1.770049
0
LINE
8
Layer 1
10
32.899338
20
-1.770049
11
33.836060
21
-1.518284
0
LINE
8
Layer 1
10
33.836060
20
-1.518284
11
34.478608
21
-1.133708
0
LINE
8
Layer 1
10
34.478608
20
-1.133708
11
34.813328
21
-0.622710
0
LINE
8
Layer 1
10
34.813328
20
-0.622710
11
34.826568
21
0.008322
0
LINE
8
Layer 1
10
34.826568
20
0.008322
11
34.504675
21
0.752998
0
LINE
8
Layer 1
10
34.504675
20
0.752998
11
33.932429
21
1.904024
0
LINE
8
Layer 1
10
33.932429
20
1.904024
11
33.690309
21
2.969440
0
LINE
8
Layer 1
10
33.690309
20
2.969440
11
33.776907
21
3.949032
0
LINE
8
Layer 1
10
33.776907
20
3.949032
11
34.190814
21
4.842581
0
LINE
8
Layer 1
10
34.190814
20
4.842581
11
34.930622
21
5.649872
0
LINE
8
Layer 1
10
34.930622
20
5.649872
11
35.994925
21
6.370688
0
LINE
8
Layer 1
10
35.994925
20
6.370688
11
37.382313
21
7.004812
0
LINE
8
Layer 1
10
37.382313
20
7.004812
11
39.091379
21
7.552028
0
LINE
8
Layer 1
10
39.091379
20
7.552028
11
43.468912
21
8.384870
0
LINE
8
Layer 1
10
43.468912
20
8.384870
11
49.116261
21
8.867481
0
LINE
8
Layer 1
10
49.116261
20
8.867481
11
56.022161
21
8.998128
0
LINE
8
Layer 1
10
56.022161
20
8.998128
11
64.175349
21
8.775080
0
LINE
8
Layer 1
10
64.175349
20
8.775080
11
70.730670
21
8.549086
0
LINE
8
Layer 1
10
70.730670
20
8.549086
11
76.191675
21
8.549808
0
LINE
8
Layer 1
10
76.191675
20
8.549808
11
80.749901
21
8.813915
0
LINE
8
Layer 1
10
80.749901
20
8.813915
11
84.596888
21
9.378073
0
LINE
8
Layer 1
10
84.596888
20
9.378073
11
87.924173
21
10.278949
0
LINE
8
Layer 1
10
87.924173
20
10.278949
11
90.923294
21
11.553209
0
LINE
8
Layer 1
10
90.923294
20
11.553209
11
93.785790
21
13.237522
0
LINE
8
Layer 1
10
93.785790
20
13.237522
11
96.703199
21
15.368554
0
LINE
8
Layer 1
10
96.703199
20
15.368554
11
99.329083
21
17.294970
0
LINE
8
Layer 1
10
99.329083
20
17.294970
11
101.654585
21
18.738702
0
LINE
8
Layer 1
10
101.654585
20
18.738702
11
103.592330
21
19.678693
0
LINE
8
Layer 1
10
103.592330
20
19.678693
11
105.054945
21
20.093882
0
LINE
8
Layer 1
10
105.054945
20
20.093882
11
106.521881
21
19.647653
0
LINE
8
Layer 1
10
106.521881
20
19.647653
11
108.437520
21
18.696913
0
LINE
8
Layer 1
10
108.437520
20
18.696913
11
110.722335
21
17.263326
0
LINE
8
Layer 1
10
110.722335
20
17.263326
11
113.296799
21
15.368554
0
LINE
8
Layer 1
10
113.296799
20
15.368554
11
116.214178
21
13.237522
0
LINE
8
Layer 1
10
116.214178
20
13.237522
11
119.076660
21
11.553209
0
LINE
8
Layer 1
10
119.076660
20
11.553209
11
122.075780
21
10.278949
0
LINE
8
Layer 1
10
122.075780
20
10.278949
11
125.403072
21
9.378073
0
LINE
8
Layer 1
10
125.403072
20
9.378073
11
129.250070
21
8.813915
0
LINE
8
Layer 1
10
129.250070
20
8.813915
11
133.808309
21
8.549808
0
LINE
8
Layer 1
10
133.808309
20
8.549808
11
139.269324
21
8.549086
0
LINE
8
Layer 1
10
139.269324
20
8.549086
11
145.824648
21
8.775080
0
LINE
8
Layer 1
10
145.824648
20
8.775080
11
153.977807
21
8.998128
0
LINE
8
Layer 1
10
153.977807
20
8.998128
11
160.883693
21
8.867481
0
LINE
8
Layer 1
10
160.883693
20
8.867481
11
166.531040
21
8.384870
0
LINE
8
Layer 1
10
166.531040
20
8.384870
11
170.908580
21
7.552028
0
LINE
8
Layer 1
10
170.908580
20
7.552028
11
172.617651
21
7.004812
0
LINE
8
Layer 1
10
172.617651
20
7.004812
11
174.005046
21
6.370688
0
LINE
8
Layer 1
10
174.005046
20
6.370688
11
175.069355
21
5.649872
0
LINE
8
Layer 1
10
175.069355
20
5.649872
11
175.809171
21
4.842581
0
LINE
8
Layer 1
10
175.809171
20
4.842581
11
176.223084
21
3.949032
0
LINE
8
Layer 1
10
176.223084
20
3.949032
11
176.309686
21
2.969440
0
LINE
8
Layer 1
10
176.309686
20
2.969440
11
176.067570
21
1.904024
0
LINE
8
Layer 1
10
176.067570
20
1.904024
11
175.495325
21
0.752998
0
LINE
8
Layer 1
10
175.495325
20
0.752998
11
175.173402
21
0.008322
0
LINE
8
Layer 1
10
175.173402
20
0.008322
11
175.186627
21
-0.622710
0
LINE
8
Layer 1
10
175.186627
20
-0.622710
11
175.521345
21
-1.133708
0
LINE
8
Layer 1
10
175.521345
20
-1.133708
11
176.163899
21
-1.518284
0
LINE
8
Layer 1
10
176.163899
20
-1.518284
11
177.100633
21
-1.770049
0
LINE
8
Layer 1
10
177.100633
20
-1.770049
11
178.317891
21
-1.882617
0
LINE
8
Layer 1
10
178.317891
20
-1.882617
11
181.539351
21
-1.664602
0
LINE
8
Layer 1
10
181.539351
20
-1.664602
11
183.170441
21
-1.286205
0
LINE
8
Layer 1
10
183.170441
20
-1.286205
11
184.688634
21
-0.646829
0
LINE
8
Layer 1
10
184.688634
20
-0.646829
11
186.084277
21
0.224860
0
LINE
8
Layer 1
10
186.084277
20
0.224860
11
187.347714
21
1.300196
0
LINE
8
Layer 1
10
187.347714
20
1.300196
11
188.469289
21
2.550514
0
LINE
8
Layer 1
10
188.469289
20
2.550514
11
189.439347
21
3.947146
0
LINE
8
Layer 1
10
189.439347
20
3.947146
11
190.248233
21
5.461428
0
LINE
8
Layer 1
10
190.248233
20
5.461428
11
190.886290
21
7.064693
0
LINE
8
Layer 1
10
190.886290
20
7.064693
11
191.343864
21
8.728276
0
LINE
8
Layer 1
10
191.343864
20
8.728276
11
191.611300
21
10.423511
0
LINE
8
Layer 1
10
191.611300
20
10.423511
11
191.678941
21
12.121732
0
LINE
8
Layer 1
10
191.678941
20
12.121732
11
191.537132
21
13.794272
0
LINE
8
Layer 1
10
191.537132
20
13.794272
11
191.176218
21
15.412467
0
LINE
8
Layer 1
10
191.176218
20
15.412467
11
190.586544
21
16.947650
0
LINE
8
Layer 1
10
190.586544
20
16.947650
11
189.758453
21
18.371156
0
LINE
8
Layer 1
10
189.758453
20
18.371156
11
188.682291
21
19.654318
0
LINE
8
Layer 1
10
188.682291
20
19.654318
11
187.958041
21
20.697930
0
LINE
8
Layer 1
10
187.958041
20
20.697930
11
187.563984
21
22.052038
0
LINE
8
Layer 1
10
187.563984
20
22.052038
11
187.501284
21
23.718434
0
LINE
8
Layer 1
10
187.501284
20
23.718434
11
187.771103
21
25.698907
0
LINE
8
Layer 1
10
187.771103
20
25.698907
11
188.374602
21
27.995247
0
LINE
8
Layer 1
10
188.374602
20
27.995247
11
189.312946
21
30.609245
0
LINE
8
Layer 1
10
189.312946
20
30.609245
11
190.587296
21
33.542690
0
LINE
8
Layer 1
10
190.587296
20
33.542690
11
192.198814
21
36.797374
0
LINE
8
Layer 1
10
192.198814
20
36.797374
11
193.661703
21
39.832442
0
LINE
8
Layer 1
10
193.661703
20
39.832442
11
195.103748
21
43.254586
0
LINE
8
Layer 1
10
195.103748
20
43.254586
11
197.774709
21
50.792468
0
LINE
8
Layer 1
10
197.774709
20
50.792468
11
199.910496
21
58.475743
0
LINE
8
Layer 1
10
199.910496
20
58.475743
11
200.683575
21
62.079628
0
LINE
8
Layer 1
10
200.683575
20
62.079628
11
201.209910
21
65.369134
0
LINE
8
Layer 1
10
201.209910
20
65.369134
11
202.210919
21
71.146746
0
LINE
8
Layer 1
10
202.210919
20
71.146746
11
203.662863
21
76.406514
0
LINE
8
Layer 1
10
203.662863
20
76.406514
11
205.515173
21
81.070609
0
LINE
8
Layer 1
10
205.515173
20
81.070609
11
206.575663
21
83.154959
0
LINE
8
Layer 1
10
206.575663
20
83.154959
11
207.717281
21
85.061206
0
LINE
8
Layer 1
10
207.717281
20
85.061206
11
208.933706
21
86.779622
0
LINE
8
Layer 1
10
208.933706
20
86.779622
11
210.218618
21
88.300479
0
LINE
8
Layer 1
10
210.218618
20
88.300479
11
211.565694
21
89.614048
0
LINE
8
Layer 1
10
211.565694
20
89.614048
11
212.968614
21
90.710601
0
LINE
8
Layer 1
10
212.968614
20
90.710601
11
214.421057
21
91.580411
0
LINE
8
Layer 1
10
214.421057
20
91.580411
11
215.916702
21
92.213747
0
LINE
8
Layer 1
10
215.916702
20
92.213747
11
217.449228
21
92.600884
0
LINE
8
Layer 1
10
217.449228
20
92.600884
11
219.012313
21
92.732091
0
LINE
8
Layer 1
10
219.012313
20
92.732091
11
220.432890
21
92.781707
0
LINE
8
Layer 1
10
220.432890
20
92.781707
11
221.461756
21
92.952224
0
LINE
8
Layer 1
10
221.461756
20
92.952224
11
222.101639
21
93.276182
0
LINE
8
Layer 1
10
222.101639
20
93.276182
11
222.355267
21
93.786124
0
LINE
8
Layer 1
10
222.355267
20
93.786124
11
222.225366
21
94.514591
0
LINE
8
Layer 1
10
222.225366
20
94.514591
11
221.714665
21
95.494123
0
LINE
8
Layer 1
10
221.714665
20
95.494123
11
219.561771
21
98.336550
0
LINE
8
Layer 1
10
219.561771
20
98.336550
11
218.323582
21
99.609308
0
LINE
8
Layer 1
10
218.323582
20
99.609308
11
216.918370
21
100.647670
0
LINE
8
Layer 1
10
216.918370
20
100.647670
11
215.349465
21
101.451771
0
LINE
8
Layer 1
10
215.349465
20
101.451771
11
213.620194
21
102.021741
0
LINE
8
Layer 1
10
213.620194
20
102.021741
11
211.733884
21
102.357713
0
LINE
8
Layer 1
10
211.733884
20
102.357713
11
209.693863
21
102.459820
0
LINE
8
Layer 1
10
209.693863
20
102.459820
11
207.503459
21
102.328194
0
LINE
8
Layer 1
10
207.503459
20
102.328194
11
205.166000
21
101.962967
0
LINE
8
Layer 1
10
205.166000
20
101.962967
11
202.566676
21
101.523341
0
LINE
8
Layer 1
10
202.566676
20
101.523341
11
200.378473
21
101.345881
0
LINE
8
Layer 1
10
200.378473
20
101.345881
11
198.555228
21
101.450613
0
LINE
8
Layer 1
10
198.555228
20
101.450613
11
197.050780
21
101.857563
0
LINE
8
Layer 1
10
197.050780
20
101.857563
11
195.818967
21
102.586758
0
LINE
8
Layer 1
10
195.818967
20
102.586758
11
194.813628
21
103.658225
0
LINE
8
Layer 1
10
194.813628
20
103.658225
11
193.988602
21
105.091990
0
LINE
8
Layer 1
10
193.988602
20
105.091990
11
193.297728
21
106.908079
0
LINE
8
Layer 1
10
193.297728
20
106.908079
11
192.885123
21
108.478875
0
LINE
8
Layer 1
10
192.885123
20
108.478875
11
192.606874
21
110.135961
0
LINE
8
Layer 1
10
192.606874
20
110.135961
11
192.425472
21
113.605445
0
LINE
8
Layer 1
10
192.425472
20
113.605445
11
192.697569
21
117.109413
0
LINE
8
Layer 1
10
192.697569
20
117.109413
11
193.367211
21
120.440746
0
LINE
8
Layer 1
10
193.367211
20
120.440746
11
194.378447
21
123.392323
0
LINE
8
Layer 1
10
194.378447
20
123.392323
11
195.675325
21
125.757027
0
LINE
8
Layer 1
10
195.675325
20
125.757027
11
196.413393
21
126.654576
0
LINE
8
Layer 1
10
196.413393
20
126.654576
11
197.201890
21
127.327736
0
LINE
8
Layer 1
10
197.201890
20
127.327736
11
198.033820
21
127.750618
0
LINE
8
Layer 1
10
198.033820
20
127.750618
11
198.902190
21
127.897333
0
LINE
8
Layer 1
10
198.902190
20
127.897333
11
200.178275
21
128.174824
0
LINE
8
Layer 1
10
200.178275
20
128.174824
11
201.226987
21
128.930326
0
LINE
8
Layer 1
10
201.226987
20
128.930326
11
201.937485
21
130.048462
0
LINE
8
Layer 1
10
201.937485
20
130.048462
11
202.198932
21
131.413858
0
LINE
8
Layer 1
10
202.198932
20
131.413858
11
202.011848
21
132.246230
0
LINE
8
Layer 1
10
202.011848
20
132.246230
11
201.480107
21
132.961317
0
LINE
8
Layer 1
10
201.480107
20
132.961317
11
200.647980
21
133.559882
0
LINE
8
Layer 1
10
200.647980
20
133.559882
11
199.559738
21
134.042687
0
LINE
8
Layer 1
10
199.559738
20
134.042687
11
198.259651
21
134.410491
0
LINE
8
Layer 1
10
198.259651
20
134.410491
11
196.791989
21
134.664058
0
LINE
8
Layer 1
10
196.791989
20
134.664058
11
193.531025
21
134.831524
0
LINE
8
Layer 1
10
193.531025
20
134.831524
11
190.131007
21
134.551178
0
LINE
8
Layer 1
10
190.131007
20
134.551178
11
186.946099
21
133.829110
0
LINE
8
Layer 1
10
186.946099
20
133.829110
11
185.544987
21
133.304335
0
LINE
8
Layer 1
10
185.544987
20
133.304335
11
184.330464
21
132.671415
0
LINE
8
Layer 1
10
184.330464
20
132.671415
11
183.346800
21
131.931110
0
LINE
8
Layer 1
10
183.346800
20
131.931110
11
182.638265
21
131.084183
0
LINE
8
Layer 1
10
182.638265
20
131.084183
11
181.469656
21
129.557384
0
LINE
8
Layer 1
10
181.469656
20
129.557384
11
180.323872
21
128.739490
0
LINE
8
Layer 1
10
180.323872
20
128.739490
11
179.764398
21
128.577935
0
LINE
8
Layer 1
10
179.764398
20
128.577935
11
179.216460
21
128.571470
0
LINE
8
Layer 1
10
179.216460
20
128.571470
11
178.162965
21
128.994293
0
LINE
8
Layer 1
10
178.162965
20
128.994293
11
177.178934
21
129.948930
0
LINE
8
Layer 1
10
177.178934
20
129.948930
11
176.279914
21
131.376350
0
LINE
8
Layer 1
10
176.279914
20
131.376350
11
175.481450
21
133.217522
0
LINE
8
Layer 1
10
175.481450
20
133.217522
11
174.799088
21
135.413416
0
LINE
8
Layer 1
10
174.799088
20
135.413416
11
174.248375
21
137.905002
0
LINE
8
Layer 1
10
174.248375
20
137.905002
11
173.844858
21
140.633249
0
LINE
8
Layer 1
10
173.844858
20
140.633249
11
173.604081
21
143.539127
0
LINE
8
Layer 1
10
173.604081
20
143.539127
11
173.541592
21
146.563606
0
LINE
8
Layer 1
10
173.541592
20
146.563606
11
173.672936
21
149.647655
0
LINE
8
Layer 1
10
173.672936
20
149.647655
11
174.013661
21
152.732244
0
LINE
8
Layer 1
10
174.013661
20
152.732244
11
174.579311
21
155.758343
0
LINE
8
Layer 1
10
174.579311
20
155.758343
11
175.385434
21
158.666921
0
LINE
8
Layer 1
10
175.385434
20
158.666921
11
175.864195
21
160.394094
0
LINE
8
Layer 1
10
175.864195
20
160.394094
11
176.102968
21
161.908868
0
LINE
8
Layer 1
10
176.102968
20
161.908868
11
176.116067
21
163.211993
0
LINE
8
Layer 1
10
176.116067
20
163.211993
11
175.917808
21
164.304219
0
LINE
8
Layer 1
10
175.917808
20
164.304219
11
175.522507
21
165.186293
0
LINE
8
Layer 1
10
175.522507
20
165.186293
11
174.944478
21
165.858966
0
LINE
8
Layer 1
10
174.944478
20
165.858966
11
174.198036
21
166.322986
0
LINE
8
Layer 1
10
174.198036
20
166.322986
11
173.297497
21
166.579103
0
LINE
8
Layer 1
10
173.297497
20
166.579103
11
172.108389
21
166.617704
0
LINE
8
Layer 1
10
172.108389
20
166.617704
11
170.759562
21
166.386589
0
LINE
8
Layer 1
10
170.759562
20
166.386589
11
169.271153
21
165.883624
0
LINE
8
Layer 1
10
169.271153
20
165.883624
11
167.663300
21
165.106676
0
LINE
8
Layer 1
10
167.663300
20
165.106676
11
165.956141
21
164.053611
0
LINE
8
Layer 1
10
165.956141
20
164.053611
11
164.169813
21
162.722296
0
LINE
8
Layer 1
10
164.169813
20
162.722296
11
162.324455
21
161.110596
0
LINE
8
Layer 1
10
162.324455
20
161.110596
11
160.440203
21
159.216379
0
LINE
8
Layer 1
10
160.440203
20
159.216379
11
153.517047
21
151.743764
0
LINE
8
Layer 1
10
153.517047
20
151.743764
11
142.967473
21
166.359319
0
LINE
8
Layer 1
10
142.967473
20
166.359319
11
138.563860
21
172.878655
0
LINE
8
Layer 1
10
138.563860
20
172.878655
11
135.031494
21
179.075181
0
LINE
8
Layer 1
10
135.031494
20
179.075181
11
133.592389
21
182.051561
0
LINE
8
Layer 1
10
133.592389
20
182.051561
11
132.371529
21
184.946244
0
LINE
8
Layer 1
10
132.371529
20
184.946244
11
131.369057
21
187.758899
0
LINE
8
Layer 1
10
131.369057
20
187.758899
11
130.585119
21
190.489195
0
LINE
8
Layer 1
10
130.585119
20
190.489195
11
130.019858
21
193.136799
0
LINE
8
Layer 1
10
130.019858
20
193.136799
11
129.673419
21
195.701382
0
LINE
8
Layer 1
10
129.673419
20
195.701382
11
129.545945
21
198.182610
0
LINE
8
Layer 1
10
129.545945
20
198.182610
11
129.637582
21
200.580154
0
LINE
8
Layer 1
10
129.637582
20
200.580154
11
129.948474
21
202.893681
0
LINE
8
Layer 1
10
129.948474
20
202.893681
11
130.478764
21
205.122861
0
LINE
8
Layer 1
10
130.478764
20
205.122861
11
131.228598
21
207.267361
0
LINE
8
Layer 1
10
131.228598
20
207.267361
11
132.198118
21
209.326851
0
LINE
8
Layer 1
10
132.198118
20
209.326851
11
136.483883
21
217.458813
0
LINE
8
Layer 1
10
136.483883
20
217.458813
11
139.890514
21
209.656526
0
LINE
8
Layer 1
10
139.890514
20
209.656526
11
141.548252
21
207.271019
0
LINE
8
Layer 1
10
141.548252
20
207.271019
11
143.306920
21
205.274065
0
LINE
8
Layer 1
10
143.306920
20
205.274065
11
145.144150
21
203.649301
0
LINE
8
Layer 1
10
145.144150
20
203.649301
11
147.037574
21
202.380361
0
LINE
8
Layer 1
10
147.037574
20
202.380361
11
148.964824
21
201.450879
0
LINE
8
Layer 1
10
148.964824
20
201.450879
11
150.903533
21
200.844492
0
LINE
8
Layer 1
10
150.903533
20
200.844492
11
152.831331
21
200.544833
0
LINE
8
Layer 1
10
152.831331
20
200.544833
11
154.725853
21
200.535539
0
LINE
8
Layer 1
10
154.725853
20
200.535539
11
156.962951
21
200.893636
0
LINE
8
Layer 1
10
156.962951
20
200.893636
11
159.084625
21
201.627575
0
LINE
8
Layer 1
10
159.084625
20
201.627575
11
161.054672
21
202.704323
0
LINE
8
Layer 1
10
161.054672
20
202.704323
11
162.836887
21
204.090851
0
LINE
8
Layer 1
10
162.836887
20
204.090851
11
164.395067
21
205.754127
0
LINE
8
Layer 1
10
164.395067
20
205.754127
11
165.693009
21
207.661120
0
LINE
8
Layer 1
10
165.693009
20
207.661120
11
166.694509
21
209.778800
0
LINE
8
Layer 1
10
166.694509
20
209.778800
11
167.363363
21
212.074135
0
LINE
8
Layer 1
10
167.363363
20
212.074135
11
167.626113
21
213.933947
0
LINE
8
Layer 1
10
167.626113
20
213.933947
11
167.651280
21
215.866352
0
LINE
8
Layer 1
10
167.651280
20
215.866352
11
167.422004
21
217.857830
0
LINE
8
Layer 1
10
167.422004
20
217.857830
11
166.921422
21
219.894863
0
LINE
8
Layer 1
10
166.921422
20
219.894863
11
166.132672
21
221.963932
0
LINE
8
Layer 1
10
166.132672
20
221.963932
11
165.038891
21
224.051518
0
LINE
8
Layer 1
10
165.038891
20
224.051518
11
163.623219
21
226.144103
0
LINE
8
Layer 1
10
163.623219
20
226.144103
11
161.868793
21
228.228168
0
LINE
8
Layer 1
10
161.868793
20
228.228168
11
159.800328
21
230.093551
0
LINE
8
Layer 1
10
159.800328
20
230.093551
11
157.592514
21
231.705123
0
LINE
8
Layer 1
10
157.592514
20
231.705123
11
155.261223
21
233.066556
0
LINE
8
Layer 1
10
155.261223
20
233.066556
11
152.822328
21
234.181526
0
LINE
8
Layer 1
10
152.822328
20
234.181526
11
150.291698
21
235.053705
0
LINE
8
Layer 1
10
150.291698
20
235.053705
11
147.685207
21
235.686768
0
LINE
8
Layer 1
10
147.685207
20
235.686768
11
145.018725
21
236.084389
0
LINE
8
Layer 1
10
145.018725
20
236.084389
11
142.308126
21
236.250241
0
LINE
8
Layer 1
10
142.308126
20
236.250241
11
140.028882
21
236.213794
0
LINE
8
Layer 1
10
140.028882
20
236.213794
11
137.743739
21
236.020515
0
LINE
8
Layer 1
10
137.743739
20
236.020515
11
135.463153
21
235.672476
0
LINE
8
Layer 1
10
135.463153
20
235.672476
11
133.197585
21
235.171752
0
LINE
8
Layer 1
10
133.197585
20
235.171752
11
130.957492
21
234.520416
0
LINE
8
Layer 1
10
130.957492
20
234.520416
11
128.753334
21
233.720541
0
LINE
8
Layer 1
10
128.753334
20
233.720541
11
126.595570
21
232.774200
0
LINE
8
Layer 1
10
126.595570
20
232.774200
11
124.494657
21
231.683467
0
LINE
8
Layer 1
10
124.494657
20
231.683467
11
122.461055
21
230.450414
0
LINE
8
Layer 1
10
122.461055
20
230.450414
11
120.505223
21
229.077116
0
LINE
8
Layer 1
10
120.505223
20
229.077116
11
118.637619
21
227.565645
0
LINE
8
Layer 1
10
118.637619
20
227.565645
11
116.868702
21
225.918075
0
LINE
8
Layer 1
10
116.868702
20
225.918075
11
115.208930
21
224.136480
0
LINE
8
Layer 1
10
115.208930
20
224.136480
11
113.668764
21
222.222931
0
LINE
8
Layer 1
10
113.668764
20
222.222931
11
112.258660
21
220.179503
0
LINE
8
Layer 1
10
112.258660
20
220.179503
11
110.989079
21
218.008269
0
LINE
8
Layer 1
10
110.989079
20
218.008269
11
106.263750
21
209.216959
0
LINE
8
Layer 1
10
106.263750
20
209.216959
11
104.986269
21
206.826814
0
LINE
8
Layer 1
10
104.986269
20
206.826814
11
103.736247
21
209.216959
0
LINE
8
Layer 1
10
103.736247
20
209.216959
11
99.010919
21
218.008269
0
LINE
8
Layer 1
10
99.010919
20
218.008269
11
97.741337
21
220.179503
0
LINE
8
Layer 1
10
97.741337
20
220.179503
11
96.331230
21
222.222931
0
LINE
8
Layer 1
10
96.331230
20
222.222931
11
94.791059
21
224.136480
0
LINE
8
Layer 1
10
94.791059
20
224.136480
11
93.131283
21
225.918075
0
LINE
8
Layer 1
10
93.131283
20
225.918075
11
91.362359
21
227.565645
0
LINE
8
Layer 1
10
91.362359
20
227.565645
11
89.494749
21
229.077116
0
LINE
8
Layer 1
10
89.494749
20
229.077116
11
87.538910
21
230.450414
0
LINE
8
Layer 1
10
87.538910
20
230.450414
11
85.505303
21
231.683467
0
LINE
8
Layer 1
10
85.505303
20
231.683467
11
83.404386
21
232.774200
0
LINE
8
Layer 1
10
83.404386
20
232.774200
11
81.246618
21
233.720541
0
LINE
8
Layer 1
10
81.246618
20
233.720541
11
79.042460
21
234.520416
0
LINE
8
Layer 1
10
79.042460
20
234.520416
11
76.802369
21
235.171752
0
LINE
8
Layer 1
10
76.802369
20
235.171752
11
74.536806
21
235.672476
0
LINE
8
Layer 1
10
74.536806
20
235.672476
11
72.256229
21
236.020515
0
LINE
8
Layer 1
10
72.256229
20
236.020515
11
69.971098
21
236.213794
0
LINE
8
Layer 1
10
69.971098
20
236.213794
11
67.691872
21
236.250241
0
LINE
8
Layer 1
10
67.691872
20
236.250241
11
67.691872
21
236.250241
0
LINE
8
Layer 1
10
103.956031
20
184.381505
11
104.487149
21
184.833925
0
LINE
8
Layer 1
10
104.487149
20
184.833925
11
104.988414
21
184.978930
0
LINE
8
Layer 1
10
104.988414
20
184.978930
11
105.488999
21
184.825327
0
LINE
8
Layer 1
10
105.488999
20
184.825327
11
106.043967
21
184.381505
0
LINE
8
Layer 1
10
106.043967
20
184.381505
11
110.329732
21
174.820957
0
LINE
8
Layer 1
10
110.329732
20
174.820957
11
112.843247
21
170.072675
0
LINE
8
Layer 1
10
112.843247
20
170.072675
11
116.461807
21
164.218050
0
LINE
8
Layer 1
10
116.461807
20
164.218050
11
120.695691
21
158.005472
0
LINE
8
Layer 1
10
120.695691
20
158.005472
11
125.055178
21
152.183331
0
LINE
8
Layer 1
10
125.055178
20
152.183331
11
127.840110
21
148.581867
0
LINE
8
Layer 1
10
127.840110
20
148.581867
11
129.960068
21
145.620828
0
LINE
8
Layer 1
10
129.960068
20
145.620828
11
131.439961
21
143.225655
0
LINE
8
Layer 1
10
131.439961
20
143.225655
11
132.304695
21
141.321789
0
LINE
8
Layer 1
10
132.304695
20
141.321789
11
132.579177
21
139.834671
0
LINE
8
Layer 1
10
132.579177
20
139.834671
11
132.502857
21
139.224092
0
LINE
8
Layer 1
10
132.502857
20
139.224092
11
132.288314
21
138.689740
0
LINE
8
Layer 1
10
132.288314
20
138.689740
11
131.457014
21
137.812440
0
LINE
8
Layer 1
10
131.457014
20
137.812440
11
130.110182
21
137.128209
0
LINE
8
Layer 1
10
130.110182
20
137.128209
11
128.492453
21
136.402482
0
LINE
8
Layer 1
10
128.492453
20
136.402482
11
127.169169
21
135.593797
0
LINE
8
Layer 1
10
127.169169
20
135.593797
11
126.132482
21
134.720060
0
LINE
8
Layer 1
10
126.132482
20
134.720060
11
125.374545
21
133.799178
0
LINE
8
Layer 1
10
125.374545
20
133.799178
11
124.887510
21
132.849060
0
LINE
8
Layer 1
10
124.887510
20
132.849060
11
124.663530
21
131.887612
0
LINE
8
Layer 1
10
124.663530
20
131.887612
11
124.694755
21
130.932742
0
LINE
8
Layer 1
10
124.694755
20
130.932742
11
124.973340
21
130.002356
0
LINE
8
Layer 1
10
124.973340
20
130.002356
11
125.491435
21
129.114364
0
LINE
8
Layer 1
10
125.491435
20
129.114364
11
126.241193
21
128.286670
0
LINE
8
Layer 1
10
126.241193
20
128.286670
11
127.214766
21
127.537184
0
LINE
8
Layer 1
10
127.214766
20
127.537184
11
128.404306
21
126.883812
0
LINE
8
Layer 1
10
128.404306
20
126.883812
11
129.801966
21
126.344462
0
LINE
8
Layer 1
10
129.801966
20
126.344462
11
131.399898
21
125.937041
0
LINE
8
Layer 1
10
131.399898
20
125.937041
11
133.190254
21
125.679456
0
LINE
8
Layer 1
10
133.190254
20
125.679456
11
135.165186
21
125.589616
0
LINE
8
Layer 1
10
135.165186
20
125.589616
11
137.365418
21
125.489911
0
LINE
8
Layer 1
10
137.365418
20
125.489911
11
139.647255
21
125.204580
0
LINE
8
Layer 1
10
139.647255
20
125.204580
11
141.944041
21
124.754336
0
LINE
8
Layer 1
10
141.944041
20
124.754336
11
144.189118
21
124.159893
0
LINE
8
Layer 1
10
144.189118
20
124.159893
11
146.315831
21
123.441963
0
LINE
8
Layer 1
10
146.315831
20
123.441963
11
148.257524
21
122.621261
0
LINE
8
Layer 1
10
148.257524
20
122.621261
11
149.947538
21
121.718500
0
LINE
8
Layer 1
10
149.947538
20
121.718500
11
151.319219
21
120.754393
0
LINE
8
Layer 1
10
151.319219
20
120.754393
11
153.044439
21
119.277199
0
LINE
8
Layer 1
10
153.044439
20
119.277199
11
154.250726
21
118.087692
0
LINE
8
Layer 1
10
154.250726
20
118.087692
11
154.923613
21
117.119616
0
LINE
8
Layer 1
10
154.923613
20
117.119616
11
155.048634
21
116.306716
0
LINE
8
Layer 1
10
155.048634
20
116.306716
11
154.611323
21
115.582738
0
LINE
8
Layer 1
10
154.611323
20
115.582738
11
153.597215
21
114.881426
0
LINE
8
Layer 1
10
153.597215
20
114.881426
11
151.991843
21
114.136525
0
LINE
8
Layer 1
10
151.991843
20
114.136525
11
149.780741
21
113.281780
0
LINE
8
Layer 1
10
149.780741
20
113.281780
11
148.288977
21
112.587647
0
LINE
8
Layer 1
10
148.288977
20
112.587647
11
146.903204
21
111.666415
0
LINE
8
Layer 1
10
146.903204
20
111.666415
11
145.652059
21
110.556148
0
LINE
8
Layer 1
10
145.652059
20
110.556148
11
144.564178
21
109.294907
0
LINE
8
Layer 1
10
144.564178
20
109.294907
11
143.668196
21
107.920754
0
LINE
8
Layer 1
10
143.668196
20
107.920754
11
142.992752
21
106.471751
0
LINE
8
Layer 1
10
142.992752
20
106.471751
11
142.566480
21
104.985961
0
LINE
8
Layer 1
10
142.566480
20
104.985961
11
142.418017
21
103.501445
0
LINE
8
Layer 1
10
142.418017
20
103.501445
11
142.495328
21
101.896151
0
LINE
8
Layer 1
10
142.495328
20
101.896151
11
142.727235
21
100.560111
0
LINE
8
Layer 1
10
142.727235
20
100.560111
11
143.113702
21
99.495793
0
LINE
8
Layer 1
10
143.113702
20
99.495793
11
143.654691
21
98.705671
0
LINE
8
Layer 1
10
143.654691
20
98.705671
11
144.350165
21
98.192215
0
LINE
8
Layer 1
10
144.350165
20
98.192215
11
145.200088
21
97.957895
0
LINE
8
Layer 1
10
145.200088
20
97.957895
11
146.204421
21
98.005183
0
LINE
8
Layer 1
10
146.204421
20
98.005183
11
147.363129
21
98.336550
0
LINE
8
Layer 1
10
147.363129
20
98.336550
11
148.544991
21
98.655182
0
LINE
8
Layer 1
10
148.544991
20
98.655182
11
149.889203
21
98.779193
0
LINE
8
Layer 1
10
149.889203
20
98.779193
11
151.373127
21
98.719204
0
LINE
8
Layer 1
10
151.373127
20
98.719204
11
152.974126
21
98.485839
0
LINE
8
Layer 1
10
152.974126
20
98.485839
11
156.436796
21
97.541469
0
LINE
8
Layer 1
10
156.436796
20
97.541469
11
160.096109
21
96.031065
0
LINE
8
Layer 1
10
160.096109
20
96.031065
11
163.770960
21
94.039606
0
LINE
8
Layer 1
10
163.770960
20
94.039606
11
167.280247
21
91.652074
0
LINE
8
Layer 1
10
167.280247
20
91.652074
11
170.442867
21
88.953450
0
LINE
8
Layer 1
10
170.442867
20
88.953450
11
173.077714
21
86.028715
0
LINE
8
Layer 1
10
173.077714
20
86.028715
11
173.940526
21
84.600561
0
LINE
8
Layer 1
10
173.940526
20
84.600561
11
174.749863
21
82.674848
0
LINE
8
Layer 1
10
174.749863
20
82.674848
11
175.487699
21
80.337419
0
LINE
8
Layer 1
10
175.487699
20
80.337419
11
176.136004
21
77.674116
0
LINE
8
Layer 1
10
176.136004
20
77.674116
11
177.091914
21
71.713262
0
LINE
8
Layer 1
10
177.091914
20
71.713262
11
177.363462
21
68.587395
0
LINE
8
Layer 1
10
177.363462
20
68.587395
11
177.473370
21
65.479025
0
LINE
8
Layer 1
10
177.473370
20
65.479025
11
177.330900
21
61.613989
0
LINE
8
Layer 1
10
177.330900
20
61.613989
11
176.855288
21
57.868301
0
LINE
8
Layer 1
10
176.855288
20
57.868301
11
176.062533
21
54.259900
0
LINE
8
Layer 1
10
176.062533
20
54.259900
11
174.968634
21
50.806725
0
LINE
8
Layer 1
10
174.968634
20
50.806725
11
173.589591
21
47.526716
0
LINE
8
Layer 1
10
173.589591
20
47.526716
11
171.941403
21
44.437811
0
LINE
8
Layer 1
10
171.941403
20
44.437811
11
170.040067
21
41.557949
0
LINE
8
Layer 1
10
170.040067
20
41.557949
11
167.901584
21
38.905069
0
LINE
8
Layer 1
10
167.901584
20
38.905069
11
165.541952
21
36.497110
0
LINE
8
Layer 1
10
165.541952
20
36.497110
11
162.977170
21
34.352011
0
LINE
8
Layer 1
10
162.977170
20
34.352011
11
160.223238
21
32.487712
0
LINE
8
Layer 1
10
160.223238
20
32.487712
11
157.296154
21
30.922150
0
LINE
8
Layer 1
10
157.296154
20
30.922150
11
154.211917
21
29.673266
0
LINE
8
Layer 1
10
154.211917
20
29.673266
11
150.986526
21
28.758997
0
LINE
8
Layer 1
10
150.986526
20
28.758997
11
147.635980
21
28.197284
0
LINE
8
Layer 1
10
147.635980
20
28.197284
11
144.176279
21
28.006064
0
LINE
8
Layer 1
10
144.176279
20
28.006064
11
140.913120
21
28.149964
0
LINE
8
Layer 1
10
140.913120
20
28.149964
11
137.819456
21
28.568118
0
LINE
8
Layer 1
10
137.819456
20
28.568118
11
134.913738
21
29.240230
0
LINE
8
Layer 1
10
134.913738
20
29.240230
11
132.214415
21
30.146002
0
LINE
8
Layer 1
10
132.214415
20
30.146002
11
129.739940
21
31.265137
0
LINE
8
Layer 1
10
129.739940
20
31.265137
11
127.508762
21
32.577337
0
LINE
8
Layer 1
10
127.508762
20
32.577337
11
125.539333
21
34.062305
0
LINE
8
Layer 1
10
125.539333
20
34.062305
11
123.850104
21
35.699743
0
LINE
8
Layer 1
10
123.850104
20
35.699743
11
122.459526
21
37.469355
0
LINE
8
Layer 1
10
122.459526
20
37.469355
11
121.386048
21
39.350841
0
LINE
8
Layer 1
10
121.386048
20
39.350841
11
120.648124
21
41.323906
0
LINE
8
Layer 1
10
120.648124
20
41.323906
11
120.264202
21
43.368252
0
LINE
8
Layer 1
10
120.264202
20
43.368252
11
120.252735
21
45.463581
0
LINE
8
Layer 1
10
120.252735
20
45.463581
11
120.632173
21
47.589595
0
LINE
8
Layer 1
10
120.632173
20
47.589595
11
121.420966
21
49.725999
0
LINE
8
Layer 1
10
121.420966
20
49.725999
11
122.637567
21
51.852493
0
LINE
8
Layer 1
10
122.637567
20
51.852493
11
123.949384
21
53.552670
0
LINE
8
Layer 1
10
123.949384
20
53.552670
11
125.415217
21
55.021405
0
LINE
8
Layer 1
10
125.415217
20
55.021405
11
127.027723
21
56.253202
0
LINE
8
Layer 1
10
127.027723
20
56.253202
11
128.779559
21
57.242566
0
LINE
8
Layer 1
10
128.779559
20
57.242566
11
130.663381
21
57.984000
0
LINE
8
Layer 1
10
130.663381
20
57.984000
11
132.671848
21
58.472007
0
LINE
8
Layer 1
10
132.671848
20
58.472007
11
134.797614
21
58.701093
0
LINE
8
Layer 1
10
134.797614
20
58.701093
11
137.033339
21
58.665760
0
LINE
8
Layer 1
10
137.033339
20
58.665760
11
139.779859
21
58.525801
0
LINE
8
Layer 1
10
139.779859
20
58.525801
11
141.913614
21
58.604606
0
LINE
8
Layer 1
10
141.913614
20
58.604606
11
143.495803
21
58.967813
0
LINE
8
Layer 1
10
143.495803
20
58.967813
11
144.587624
21
59.681059
0
LINE
8
Layer 1
10
144.587624
20
59.681059
11
145.250275
21
60.809981
0
LINE
8
Layer 1
10
145.250275
20
60.809981
11
145.544955
21
62.420217
0
LINE
8
Layer 1
10
145.544955
20
62.420217
11
145.532861
21
64.577404
0
LINE
8
Layer 1
10
145.532861
20
64.577404
11
145.275193
21
67.347178
0
LINE
8
Layer 1
10
145.275193
20
67.347178
11
144.829115
21
69.707672
0
LINE
8
Layer 1
10
144.829115
20
69.707672
11
144.076425
21
71.881548
0
LINE
8
Layer 1
10
144.076425
20
71.881548
11
143.040820
21
73.860585
0
LINE
8
Layer 1
10
143.040820
20
73.860585
11
141.745999
21
75.636560
0
LINE
8
Layer 1
10
141.745999
20
75.636560
11
140.215661
21
77.201251
0
LINE
8
Layer 1
10
140.215661
20
77.201251
11
138.473503
21
78.546436
0
LINE
8
Layer 1
10
138.473503
20
78.546436
11
136.543224
21
79.663892
0
LINE
8
Layer 1
10
136.543224
20
79.663892
11
134.448522
21
80.545398
0
LINE
8
Layer 1
10
134.448522
20
80.545398
11
132.213096
21
81.182730
0
LINE
8
Layer 1
10
132.213096
20
81.182730
11
129.860644
21
81.567667
0
LINE
8
Layer 1
10
129.860644
20
81.567667
11
127.414865
21
81.691986
0
LINE
8
Layer 1
10
127.414865
20
81.691986
11
124.899456
21
81.547465
0
LINE
8
Layer 1
10
124.899456
20
81.547465
11
122.338116
21
81.125882
0
LINE
8
Layer 1
10
122.338116
20
81.125882
11
119.754544
21
80.419014
0
LINE
8
Layer 1
10
119.754544
20
80.419014
11
117.172438
21
79.418639
0
LINE
8
Layer 1
10
117.172438
20
79.418639
11
114.615496
21
78.116536
0
LINE
8
Layer 1
10
114.615496
20
78.116536
11
111.904641
21
76.641526
0
LINE
8
Layer 1
10
111.904641
20
76.641526
11
109.597270
21
75.579359
0
LINE
8
Layer 1
10
109.597270
20
75.579359
11
107.601184
21
74.906648
0
LINE
8
Layer 1
10
107.601184
20
74.906648
11
105.824184
21
74.600010
0
LINE
8
Layer 1
10
105.824184
20
74.600010
11
104.175814
21
74.600010
0
LINE
8
Layer 1
10
104.175814
20
74.600010
11
102.398785
21
74.906648
0
LINE
8
Layer 1
10
102.398785
20
74.906648
11
100.402676
21
75.579359
0
LINE
8
Layer 1
10
100.402676
20
75.579359
11
98.095309
21
76.641526
0
LINE
8
Layer 1
10
98.095309
20
76.641526
11
95.384504
21
78.116536
0
LINE
8
Layer 1
10
95.384504
20
78.116536
11
92.827561
21
79.418639
0
LINE
8
Layer 1
10
92.827561
20
79.418639
11
90.245452
21
80.419014
0
LINE
8
Layer 1
10
90.245452
20
80.419014
11
87.661875
21
81.125882
0
LINE
8
Layer 1
10
87.661875
20
81.125882
11
85.100529
21
81.547465
0
LINE
8
Layer 1
10
85.100529
20
81.547465
11
82.585114
21
81.691986
0
LINE
8
Layer 1
10
82.585114
20
81.691986
11
80.139328
21
81.567667
0
LINE
8
Layer 1
10
80.139328
20
81.567667
11
77.786869
21
81.182730
0
LINE
8
Layer 1
10
77.786869
20
81.182730
11
75.551438
21
80.545398
0
LINE
8
Layer 1
10
75.551438
20
80.545398
11
73.456732
21
79.663892
0
LINE
8
Layer 1
10
73.456732
20
79.663892
11
71.526450
21
78.546436
0
LINE
8
Layer 1
10
71.526450
20
78.546436
11
69.784291
21
77.201251
0
LINE
8
Layer 1
10
69.784291
20
77.201251
11
68.253955
21
75.636560
0
LINE
8
Layer 1
10
68.253955
20
75.636560
11
66.959139
21
73.860585
0
LINE
8
Layer 1
10
66.959139
20
73.860585
11
65.923543
21
71.881548
0
LINE
8
Layer 1
10
65.923543
20
71.881548
11
65.170865
21
69.707672
0
LINE
8
Layer 1
10
65.170865
20
69.707672
11
64.724805
21
67.347178
0
LINE
8
Layer 1
10
64.724805
20
67.347178
11
64.467132
21
64.577404
0
LINE
8
Layer 1
10
64.467132
20
64.577404
11
64.455028
21
62.420217
0
LINE
8
Layer 1
10
64.455028
20
62.420217
11
64.749695
21
60.809981
0
LINE
8
Layer 1
10
64.749695
20
60.809981
11
65.412335
21
59.681059
0
LINE
8
Layer 1
10
65.412335
20
59.681059
11
66.504149
21
58.967813
0
LINE
8
Layer 1
10
66.504149
20
58.967813
11
68.086340
21
58.604606
0
LINE
8
Layer 1
10
68.086340
20
58.604606
11
70.220109
21
58.525801
0
LINE
8
Layer 1
10
70.220109
20
58.525801
11
72.966659
21
58.665760
0
LINE
8
Layer 1
10
72.966659
20
58.665760
11
75.202379
21
58.701093
0
LINE
8
Layer 1
10
75.202379
20
58.701093
11
77.328135
21
58.472007
0
LINE
8
Layer 1
10
77.328135
20
58.472007
11
79.336589
21
57.984000
0
LINE
8
Layer 1
10
79.336589
20
57.984000
11
81.220400
21
57.242566
0
LINE
8
Layer 1
10
81.220400
20
57.242566
11
82.972229
21
56.253202
0
LINE
8
Layer 1
10
82.972229
20
56.253202
11
84.584736
21
55.021405
0
LINE
8
Layer 1
10
84.584736
20
55.021405
11
86.050584
21
53.552670
0
LINE
8
Layer 1
10
86.050584
20
53.552670
11
87.362431
21
51.852493
0
LINE
8
Layer 1
10
87.362431
20
51.852493
11
88.579030
21
49.725999
0
LINE
8
Layer 1
10
88.579030
20
49.725999
11
89.367821
21
47.589595
0
LINE
8
Layer 1
10
89.367821
20
47.589595
11
89.747254
21
45.463581
0
LINE
8
Layer 1
10
89.747254
20
45.463581
11
89.735781
21
43.368252
0
LINE
8
Layer 1
10
89.735781
20
43.368252
11
89.351853
21
41.323906
0
LINE
8
Layer 1
10
89.351853
20
41.323906
11
88.613922
21
39.350841
0
LINE
8
Layer 1
10
88.613922
20
39.350841
11
87.540438
21
37.469355
0
LINE
8
Layer 1
10
87.540438
20
37.469355
11
86.149855
21
35.699743
0
LINE
8
Layer 1
10
86.149855
20
35.699743
11
84.460621
21
34.062305
0
LINE
8
Layer 1
10
84.460621
20
34.062305
11
82.491190
21
32.577337
0
LINE
8
Layer 1
10
82.491190
20
32.577337
11
80.260012
21
31.265137
0
LINE
8
Layer 1
10
80.260012
20
31.265137
11
77.785539
21
30.146002
0
LINE
8
Layer 1
10
77.785539
20
30.146002
11
75.086221
21
29.240230
0
LINE
8
Layer 1
10
75.086221
20
29.240230
11
72.180511
21
28.568118
0
LINE
8
Layer 1
10
72.180511
20
28.568118
11
69.086860
21
28.149964
0
LINE
8
Layer 1
10
69.086860
20
28.149964
11
65.823719
21
28.006064
0
LINE
8
Layer 1
10
65.823719
20
28.006064
11
62.364017
21
28.197284
0
LINE
8
Layer 1
10
62.364017
20
28.197284
11
59.013468
21
28.758997
0
LINE
8
Layer 1
10
59.013468
20
28.758997
11
55.788073
21
29.673266
0
LINE
8
Layer 1
10
55.788073
20
29.673266
11
52.703830
21
30.922150
0
LINE
8
Layer 1
10
52.703830
20
30.922150
11
49.776740
21
32.487712
0
LINE
8
Layer 1
10
49.776740
20
32.487712
11
47.022801
21
34.352011
0
LINE
8
Layer 1
10
47.022801
20
34.352011
11
44.458013
21
36.497110
0
LINE
8
Layer 1
10
44.458013
20
36.497110
11
42.098376
21
38.905069
0
LINE
8
Layer 1
10
42.098376
20
38.905069
11
39.959889
21
41.557949
0
LINE
8
Layer 1
10
39.959889
20
41.557949
11
38.058551
21
44.437811
0
LINE
8
Layer 1
10
38.058551
20
44.437811
11
36.410362
21
47.526716
0
LINE
8
Layer 1
10
36.410362
20
47.526716
11
35.031321
21
50.806725
0
LINE
8
Layer 1
10
35.031321
20
50.806725
11
33.937428
21
54.259900
0
LINE
8
Layer 1
10
33.937428
20
54.259900
11
33.144682
21
57.868301
0
LINE
8
Layer 1
10
33.144682
20
57.868301
11
32.669083
21
61.613989
0
LINE
8
Layer 1
10
32.669083
20
61.613989
11
32.526630
21
65.479025
0
LINE
8
Layer 1
10
32.526630
20
65.479025
11
32.636533
21
68.587395
0
LINE
8
Layer 1
10
32.636533
20
68.587395
11
32.908071
21
71.713262
0
LINE
8
Layer 1
10
32.908071
20
71.713262
11
33.863955
21
77.674116
0
LINE
8
Layer 1
10
33.863955
20
77.674116
11
34.512253
21
80.337419
0
LINE
8
Layer 1
10
34.512253
20
80.337419
11
35.250090
21
82.674848
0
LINE
8
Layer 1
10
35.250090
20
82.674848
11
36.059442
21
84.600561
0
LINE
8
Layer 1
10
36.059442
20
84.600561
11
36.922284
21
86.028715
0
LINE
8
Layer 1
10
36.922284
20
86.028715
11
39.557128
21
88.953450
0
LINE
8
Layer 1
10
39.557128
20
88.953450
11
42.719737
21
91.652074
0
LINE
8
Layer 1
10
42.719737
20
91.652074
11
46.229011
21
94.039606
0
LINE
8
Layer 1
10
46.229011
20
94.039606
11
49.903851
21
96.031065
0
LINE
8
Layer 1
10
49.903851
20
96.031065
11
53.563156
21
97.541469
0
LINE
8
Layer 1
10
53.563156
20
97.541469
11
57.025828
21
98.485839
0
LINE
8
Layer 1
10
57.025828
20
98.485839
11
58.626832
21
98.719204
0
LINE
8
Layer 1
10
58.626832
20
98.719204
11
60.110765
21
98.779193
0
LINE
8
Layer 1
10
60.110765
20
98.779193
11
61.454990
21
98.655182
0
LINE
8
Layer 1
10
61.454990
20
98.655182
11
62.636868
21
98.336550
0
LINE
8
Layer 1
10
62.636868
20
98.336550
11
63.795572
21
98.005183
0
LINE
8
Layer 1
10
63.795572
20
98.005183
11
64.799895
21
97.957895
0
LINE
8
Layer 1
10
64.799895
20
97.957895
11
65.649805
21
98.192215
0
LINE
8
Layer 1
10
65.649805
20
98.192215
11
66.345268
21
98.705671
0
LINE
8
Layer 1
10
66.345268
20
98.705671
11
66.886251
21
99.495793
0
LINE
8
Layer 1
10
66.886251
20
99.495793
11
67.272720
21
100.560111
0
LINE
8
Layer 1
10
67.272720
20
100.560111
11
67.504642
21
101.896151
0
LINE
8
Layer 1
10
67.504642
20
101.896151
11
67.581983
21
103.501445
0
LINE
8
Layer 1
10
67.581983
20
103.501445
11
67.433515
21
104.985961
0
LINE
8
Layer 1
10
67.433515
20
104.985961
11
67.007232
21
106.471751
0
LINE
8
Layer 1
10
67.007232
20
106.471751
11
66.331775
21
107.920754
0
LINE
8
Layer 1
10
66.331775
20
107.920754
11
65.435782
21
109.294907
0
LINE
8
Layer 1
10
65.435782
20
109.294907
11
64.347894
21
110.556148
0
LINE
8
Layer 1
10
64.347894
20
110.556148
11
63.096751
21
111.666415
0
LINE
8
Layer 1
10
63.096751
20
111.666415
11
61.710993
21
112.587647
0
LINE
8
Layer 1
10
61.710993
20
112.587647
11
60.219260
21
113.281780
0
LINE
8
Layer 1
10
60.219260
20
113.281780
11
58.008153
21
114.136525
0
LINE
8
Layer 1
10
58.008153
20
114.136525
11
56.402770
21
114.881426
0
LINE
8
Layer 1
10
56.402770
20
114.881426
11
55.388648
21
115.582738
0
LINE
8
Layer 1
10
55.388648
20
115.582738
11
54.951326
21
116.306716
0
LINE
8
Layer 1
10
54.951326
20
116.306716
11
55.076340
21
117.119616
0
LINE
8
Layer 1
10
55.076340
20
117.119616
11
55.749229
21
118.087692
0
LINE
8
Layer 1
10
55.749229
20
118.087692
11
56.955529
21
119.277199
0
LINE
8
Layer 1
10
56.955529
20
119.277199
11
58.680779
21
120.754393
0
LINE
8
Layer 1
10
58.680779
20
120.754393
11
60.052456
21
121.718500
0
LINE
8
Layer 1
10
60.052456
20
121.718500
11
61.742461
21
122.621261
0
LINE
8
Layer 1
10
61.742461
20
122.621261
11
63.684140
21
123.441963
0
LINE
8
Layer 1
10
63.684140
20
123.441963
11
65.810842
21
124.159893
0
LINE
8
Layer 1
10
65.810842
20
124.159893
11
68.055912
21
124.754336
0
LINE
8
Layer 1
10
68.055912
20
124.754336
11
70.352700
21
125.204580
0
LINE
8
Layer 1
10
70.352700
20
125.204580
11
72.634552
21
125.489911
0
LINE
8
Layer 1
10
72.634552
20
125.489911
11
74.834815
21
125.589616
0
LINE
8
Layer 1
10
74.834815
20
125.589616
11
76.809746
21
125.679456
0
LINE
8
Layer 1
10
76.809746
20
125.679456
11
78.600098
21
125.937041
0
LINE
8
Layer 1
10
78.600098
20
125.937041
11
80.198025
21
126.344462
0
LINE
8
Layer 1
10
80.198025
20
126.344462
11
81.595679
21
126.883812
0
LINE
8
Layer 1
10
81.595679
20
126.883812
11
82.785213
21
127.537184
0
LINE
8
Layer 1
10
82.785213
20
127.537184
11
83.758780
21
128.286670
0
LINE
8
Layer 1
10
83.758780
20
128.286670
11
84.508531
21
129.114364
0
LINE
8
Layer 1
10
84.508531
20
129.114364
11
85.026621
21
130.002356
0
LINE
8
Layer 1
10
85.026621
20
130.002356
11
85.305201
21
130.932742
0
LINE
8
Layer 1
10
85.305201
20
130.932742
11
85.336424
21
131.887612
0
LINE
8
Layer 1
10
85.336424
20
131.887612
11
85.112443
21
132.849060
0
LINE
8
Layer 1
10
85.112443
20
132.849060
11
84.625410
21
133.799178
0
LINE
8
Layer 1
10
84.625410
20
133.799178
11
83.867479
21
134.720060
0
LINE
8
Layer 1
10
83.867479
20
134.720060
11
82.830801
21
135.593797
0
LINE
8
Layer 1
10
82.830801
20
135.593797
11
81.507530
21
136.402482
0
LINE
8
Layer 1
10
81.507530
20
136.402482
11
79.889818
21
137.128209
0
LINE
8
Layer 1
10
79.889818
20
137.128209
11
78.542982
21
137.812440
0
LINE
8
Layer 1
10
78.542982
20
137.812440
11
77.711670
21
138.689740
0
LINE
8
Layer 1
10
77.711670
20
138.689740
11
77.497121
21
139.224092
0
LINE
8
Layer 1
10
77.497121
20
139.224092
11
77.420794
21
139.834671
0
LINE
8
Layer 1
10
77.420794
20
139.834671
11
77.695264
21
141.321789
0
LINE
8
Layer 1
10
77.695264
20
141.321789
11
78.559992
21
143.225655
0
LINE
8
Layer 1
10
78.559992
20
143.225655
11
80.039887
21
145.620828
0
LINE
8
Layer 1
10
80.039887
20
145.620828
11
82.159860
21
148.581867
0
LINE
8
Layer 1
10
82.159860
20
148.581867
11
84.944822
21
152.183331
0
LINE
8
Layer 1
10
84.944822
20
152.183331
11
89.304293
21
158.005472
0
LINE
8
Layer 1
10
89.304293
20
158.005472
11
93.538152
21
164.218050
0
LINE
8
Layer 1
10
93.538152
20
164.218050
11
97.156707
21
170.072675
0
LINE
8
Layer 1
10
97.156707
20
170.072675
11
99.670266
21
174.820957
0
LINE
8
Layer 1
10
99.670266
20
174.820957
11
103.956031
21
184.381505
0
LINE
8
Layer 1
10
103.956031
20
184.381505
11
103.956031
21
184.381505
0
LINE
8
Layer 1
10
104.175814
20
149.875611
11
97.912005
21
129.106138
0
LINE
8
Layer 1
10
97.912005
20
129.106138
11
95.181855
21
119.207196
0
LINE
8
Layer 1
10
95.181855
20
119.207196
11
94.179104
21
114.780860
0
LINE
8
Layer 1
10
94.179104
20
114.780860
11
93.418981
21
110.696091
0
LINE
8
Layer 1
10
93.418981
20
110.696091
11
92.902292
21
106.947497
0
LINE
8
Layer 1
10
92.902292
20
106.947497
11
92.629846
21
103.529686
0
LINE
8
Layer 1
10
92.629846
20
103.529686
11
92.602450
21
100.437267
0
LINE
8
Layer 1
10
92.602450
20
100.437267
11
92.820913
21
97.664846
0
LINE
8
Layer 1
10
92.820913
20
97.664846
11
93.286042
21
95.207032
0
LINE
8
Layer 1
10
93.286042
20
95.207032
11
93.998645
21
93.058433
0
LINE
8
Layer 1
10
93.998645
20
93.058433
11
94.959530
21
91.213656
0
LINE
8
Layer 1
10
94.959530
20
91.213656
11
96.169506
21
89.667310
0
LINE
8
Layer 1
10
96.169506
20
89.667310
11
97.629379
21
88.414003
0
LINE
8
Layer 1
10
97.629379
20
88.414003
11
99.339959
21
87.448341
0
LINE
8
Layer 1
10
99.339959
20
87.448341
11
101.302052
21
86.764935
0
LINE
8
Layer 1
10
101.302052
20
86.764935
11
103.516467
21
86.358390
0
LINE
8
Layer 1
10
103.516467
20
86.358390
11
106.483534
21
86.358390
0
LINE
8
Layer 1
10
106.483534
20
86.358390
11
108.697931
21
86.764935
0
LINE
8
Layer 1
10
108.697931
20
86.764935
11
110.660011
21
87.448341
0
LINE
8
Layer 1
10
110.660011
20
87.448341
11
112.370581
21
88.414003
0
LINE
8
Layer 1
10
112.370581
20
88.414003
11
113.830449
21
89.667310
0
LINE
8
Layer 1
10
113.830449
20
89.667310
11
115.040422
21
91.213656
0
LINE
8
Layer 1
10
115.040422
20
91.213656
11
116.001308
21
93.058433
0
LINE
8
Layer 1
10
116.001308
20
93.058433
11
116.713913
21
95.207032
0
LINE
8
Layer 1
10
116.713913
20
95.207032
11
117.179046
21
97.664846
0
LINE
8
Layer 1
10
117.179046
20
97.664846
11
117.397514
21
100.437267
0
LINE
8
Layer 1
10
117.397514
20
100.437267
11
117.370125
21
103.529686
0
LINE
8
Layer 1
10
117.370125
20
103.529686
11
117.097685
21
106.947497
0
LINE
8
Layer 1
10
117.097685
20
106.947497
11
116.581002
21
110.696091
0
LINE
8
Layer 1
10
116.581002
20
110.696091
11
115.820884
21
114.780860
0
LINE
8
Layer 1
10
115.820884
20
114.780860
11
114.818138
21
119.207196
0
LINE
8
Layer 1
10
114.818138
20
119.207196
11
112.087993
21
129.106138
0
LINE
8
Layer 1
10
112.087993
20
129.106138
11
105.824184
21
149.875611
0
LINE
8
Layer 1
10
105.824184
20
149.875611
11
105.379019
21
150.437811
0
LINE
8
Layer 1
10
105.379019
20
150.437811
11
104.975946
21
150.621203
0
LINE
8
Layer 1
10
104.975946
20
150.621203
11
104.584900
21
150.431798
0
LINE
8
Layer 1
10
104.584900
20
150.431798
11
104.175814
21
149.875611
0
LINE
8
Layer 1
10
104.175814
20
149.875611
11
104.175814
21
149.875611
0
LINE
8
Layer 1
10
-1.429809
20
35.368784
11
-4.046354
21
35.409632
0
LINE
8
Layer 1
10
-4.046354
20
35.409632
11
-6.907625
21
35.272745
0
LINE
8
Layer 1
10
-6.907625
20
35.272745
11
-13.365618
21
34.468222
0
LINE
8
Layer 1
10
-13.365618
20
34.468222
11
-20.806337
21
32.960121
0
LINE
8
Layer 1
10
-20.806337
20
32.960121
11
-29.232329
21
30.753348
0
LINE
8
Layer 1
10
-29.232329
20
30.753348
11
-52.089739
21
24.159863
0
LINE
8
Layer 1
10
-52.089739
20
24.159863
11
-35.276355
21
18.335621
0
LINE
8
Layer 1
10
-35.276355
20
18.335621
11
-26.089748
21
15.521822
0
LINE
8
Layer 1
10
-26.089748
20
15.521822
11
-20.604220
21
13.969860
0
LINE
8
Layer 1
10
-20.604220
20
13.969860
11
-14.861956
21
12.608893
0
LINE
8
Layer 1
10
-14.861956
20
12.608893
11
-9.116518
21
11.654697
0
LINE
8
Layer 1
10
-9.116518
20
11.654697
11
-6.321846
21
11.397569
0
LINE
8
Layer 1
10
-6.321846
20
11.397569
11
-3.621465
21
11.323050
0
LINE
8
Layer 1
10
-3.621465
20
11.323050
11
-1.047071
21
11.458113
0
LINE
8
Layer 1
10
-1.047071
20
11.458113
11
1.369641
21
11.829730
0
LINE
8
Layer 1
10
1.369641
20
11.829730
11
3.596976
21
12.464873
0
LINE
8
Layer 1
10
3.596976
20
12.464873
11
5.603240
21
13.390514
0
LINE
8
Layer 1
10
5.603240
20
13.390514
11
6.831346
21
14.200471
0
LINE
8
Layer 1
10
6.831346
20
14.200471
11
7.936910
21
15.164153
0
LINE
8
Layer 1
10
7.936910
20
15.164153
11
8.907802
21
16.291111
0
LINE
8
Layer 1
10
8.907802
20
16.291111
11
9.731890
21
17.590896
0
LINE
8
Layer 1
10
9.731890
20
17.590896
11
10.397044
21
19.073058
0
LINE
8
Layer 1
10
10.397044
20
19.073058
11
10.891133
21
20.747149
0
LINE
8
Layer 1
10
10.891133
20
20.747149
11
11.202026
21
22.622720
0
LINE
8
Layer 1
10
11.202026
20
22.622720
11
11.317592
21
24.709322
0
LINE
8
Layer 1
10
11.317592
20
24.709322
11
11.120608
21
27.062704
0
LINE
8
Layer 1
10
11.120608
20
27.062704
11
10.528403
21
29.124088
0
LINE
8
Layer 1
10
10.528403
20
29.124088
11
9.539095
21
30.893623
0
LINE
8
Layer 1
10
9.539095
20
30.893623
11
8.150804
21
32.371458
0
LINE
8
Layer 1
10
8.150804
20
32.371458
11
6.361648
21
33.557742
0
LINE
8
Layer 1
10
6.361648
20
33.557742
11
4.169749
21
34.452626
0
LINE
8
Layer 1
10
4.169749
20
34.452626
11
1.573223
21
35.056257
0
LINE
8
Layer 1
10
1.573223
20
35.056257
11
-1.429809
21
35.368784
0
LINE
8
Layer 1
10
-1.429809
20
35.368784
11
-1.429809
21
35.368784
0
LINE
8
Layer 1
10
211.429809
20
35.368784
11
208.426746
21
35.056257
0
LINE
8
Layer 1
10
208.426746
20
35.056257
11
205.830206
21
34.452626
0
LINE
8
Layer 1
10
205.830206
20
34.452626
11
203.638304
21
33.557742
0
LINE
8
Layer 1
10
203.638304
20
33.557742
11
201.849156
21
32.371458
0
LINE
8
Layer 1
10
201.849156
20
32.371458
11
200.460876
21
30.893623
0
LINE
8
Layer 1
10
200.460876
20
30.893623
11
199.471581
21
29.124088
0
LINE
8
Layer 1
10
199.471581
20
29.124088
11
198.879386
21
27.062704
0
LINE
8
Layer 1
10
198.879386
20
27.062704
11
198.682407
21
24.709322
0
LINE
8
Layer 1
10
198.682407
20
24.709322
11
198.797943
21
22.622720
0
LINE
8
Layer 1
10
198.797943
20
22.622720
11
199.108821
21
20.747149
0
LINE
8
Layer 1
10
199.108821
20
20.747149
11
199.602908
21
19.073058
0
LINE
8
Layer 1
10
199.602908
20
19.073058
11
200.268069
21
17.590896
0
LINE
8
Layer 1
10
200.268069
20
17.590896
11
201.092169
21
16.291111
0
LINE
8
Layer 1
10
201.092169
20
16.291111
11
202.063074
21
15.164153
0
LINE
8
Layer 1
10
202.063074
20
15.164153
11
203.168649
21
14.200471
0
LINE
8
Layer 1
10
203.168649
20
14.200471
11
204.396761
21
13.390514
0
LINE
8
Layer 1
10
204.396761
20
13.390514
11
206.403041
21
12.464873
0
LINE
8
Layer 1
10
206.403041
20
12.464873
11
208.630389
21
11.829730
0
LINE
8
Layer 1
10
208.630389
20
11.829730
11
211.047110
21
11.458113
0
LINE
8
Layer 1
10
211.047110
20
11.458113
11
213.621509
21
11.323050
0
LINE
8
Layer 1
10
213.621509
20
11.323050
11
216.321892
21
11.397569
0
LINE
8
Layer 1
10
216.321892
20
11.397569
11
219.116564
21
11.654697
0
LINE
8
Layer 1
10
219.116564
20
11.654697
11
224.861995
21
12.608893
0
LINE
8
Layer 1
10
224.861995
20
12.608893
11
230.604247
21
13.969860
0
LINE
8
Layer 1
10
230.604247
20
13.969860
11
236.089763
21
15.521822
0
LINE
8
Layer 1
10
236.089763
20
15.521822
11
245.276356
21
18.335621
0
LINE
8
Layer 1
10
245.276356
20
18.335621
11
262.089736
21
24.159863
0
LINE
8
Layer 1
10
262.089736
20
24.159863
11
239.232330
21
30.753348
0
LINE
8
Layer 1
10
239.232330
20
30.753348
11
230.806292
21
32.960121
0
LINE
8
Layer 1
10
230.806292
20
32.960121
11
223.365578
21
34.468222
0
LINE
8
Layer 1
10
223.365578
20
34.468222
11
216.907610
21
35.272745
0
LINE
8
Layer 1
10
216.907610
20
35.272745
11
214.046350
21
35.409632
0
LINE
8
Layer 1
10
214.046350
20
35.409632
11
211.429809
21
35.368784
0
LINE
8
Layer 1
10
211.429809
20
35.368784
11
211.429809
21
35.368784
 0 
ENDSEC
 0 
EOF
