0
SECTION
2
HEADER
9
$ACADVER
1
AC1009
9
$ANGDIR
70
0
9
$EXTMIN
10
0
20
0
9
$EXTMAX
10
24.0000
20
18.0000
0
ENDSEC
0
SECTION
2
ENTITIES
0
POLYLINE
8
Layer 1
66
1
0
VERTEX
8
0
10
0.5618
20
5.4299
0
VERTEX
8
0
10
0.5618
20
0.5618
0
VERTEX
8
0
10
5.4299
20
0.5618
42
0.0177
0
VERTEX
8
0
10
5.0432
20
0.7261
42
0.0079
0
VERTEX
8
0
10
4.8459
20
0.7983
42
0.0043
0
VERTEX
8
0
10
4.7464
20
0.8319
42
0.0081
0
VERTEX
8
0
10
4.6463
20
0.8636
42
-0.0130
0
VERTEX
8
0
10
4.6203
20
0.8540
42
-0.0121
0
VERTEX
8
0
10
4.5949
20
0.8461
42
-0.0233
0
VERTEX
8
0
10
4.5428
20
0.8340
42
-0.0401
0
VERTEX
8
0
10
4.4366
20
0.8236
42
-0.0322
0
VERTEX
8
0
10
4.3299
20
0.8291
42
-0.0256
0
VERTEX
8
0
10
4.2247
20
0.8473
42
-0.0204
0
VERTEX
8
0
10
4.1216
20
0.8754
42
-0.0166
0
VERTEX
8
0
10
4.0209
20
0.9113
42
-0.0248
0
VERTEX
8
0
10
3.8269
20
1.0008
42
-0.0185
0
VERTEX
8
0
10
3.6416
20
1.1074
42
-0.0149
0
VERTEX
8
0
10
3.4641
20
1.2264
42
-0.0134
0
VERTEX
8
0
10
3.2937
20
1.3554
42
-0.0071
0
VERTEX
8
0
10
3.2111
20
1.4234
42
-0.0119
0
VERTEX
8
0
10
3.1309
20
1.4938
42
-0.0348
0
VERTEX
8
0
10
3.0424
20
1.4800
42
-0.0178
0
VERTEX
8
0
10
2.9530
20
1.4764
42
-0.0184
0
VERTEX
8
0
10
2.7741
20
1.4838
42
-0.0113
0
VERTEX
8
0
10
2.5961
20
1.5024
42
-0.0133
0
VERTEX
8
0
10
2.4190
20
1.5288
42
-0.0234
0
VERTEX
8
0
10
2.4395
20
1.7308
42
-0.0277
0
VERTEX
8
0
10
2.4798
20
1.9298
42
-0.0318
0
VERTEX
8
0
10
2.5428
20
2.1227
42
-0.0355
0
VERTEX
8
0
10
2.6307
20
2.3056
42
-0.0228
0
VERTEX
8
0
10
2.3056
20
2.6307
42
-0.0343
0
VERTEX
8
0
10
2.1227
20
2.5428
42
-0.0303
0
VERTEX
8
0
10
1.9298
20
2.4798
42
-0.0261
0
VERTEX
8
0
10
1.7308
20
2.4395
42
-0.0222
0
VERTEX
8
0
10
1.5288
20
2.4190
42
-0.0103
0
VERTEX
8
0
10
1.5024
20
2.5961
42
-0.0131
0
VERTEX
8
0
10
1.4838
20
2.7742
42
-0.0231
0
VERTEX
8
0
10
1.4764
20
2.9531
42
-0.0216
0
VERTEX
8
0
10
1.4801
20
3.0425
42
-0.0169
0
VERTEX
8
0
10
1.4852
20
3.0870
42
-0.0263
0
VERTEX
8
0
10
1.4938
20
3.1309
42
-0.0036
0
VERTEX
8
0
10
1.4752
20
3.1513
42
-0.0024
0
VERTEX
8
0
10
1.4576
20
3.1713
42
-0.0039
0
VERTEX
8
0
10
1.4228
20
3.2118
42
-0.0068
0
VERTEX
8
0
10
1.3549
20
3.2944
42
-0.0136
0
VERTEX
8
0
10
1.2259
20
3.4649
42
-0.0159
0
VERTEX
8
0
10
1.1069
20
3.6424
42
-0.0203
0
VERTEX
8
0
10
1.0004
20
3.8277
42
-0.0279
0
VERTEX
8
0
10
0.9110
20
4.0218
42
-0.0178
0
VERTEX
8
0
10
0.8751
20
4.1224
42
-0.0220
0
VERTEX
8
0
10
0.8471
20
4.2255
42
-0.0277
0
VERTEX
8
0
10
0.8290
20
4.3308
42
-0.0348
0
VERTEX
8
0
10
0.8236
20
4.4375
42
-0.0428
0
VERTEX
8
0
10
0.8341
20
4.5437
42
-0.0494
0
VERTEX
8
0
10
0.8636
20
4.6463
42
0.0166
0
VERTEX
8
0
10
0.7261
20
5.0432
42
0.0087
0
VERTEX
8
0
10
0.6476
20
5.2381
42
0.0107
0
VERTEX
8
0
10
0.5618
20
5.4299
0
SEQEND
8
0
0
POLYLINE
8
Layer 1
66
1
0
VERTEX
8
0
10
3.3643
20
6.5701
0
VERTEX
8
0
10
3.3093
20
7.1220
42
-0.0523
0
VERTEX
8
0
10
3.6294
20
7.0261
42
-0.0543
0
VERTEX
8
0
10
3.9217
20
6.8640
42
-0.0526
0
VERTEX
8
0
10
4.1731
20
6.6439
42
-0.0264
0
VERTEX
8
0
10
4.2802
20
6.5154
42
-0.0147
0
VERTEX
8
0
10
4.3283
20
6.4468
42
-0.0202
0
VERTEX
8
0
10
4.3712
20
6.3751
42
0.0321
0
VERTEX
8
0
10
4.3132
20
6.4030
42
0.0191
0
VERTEX
8
0
10
4.2528
20
6.4254
42
0.0227
0
VERTEX
8
0
10
4.1289
20
6.4606
42
0.0128
0
VERTEX
8
0
10
4.0030
20
6.4881
42
0.0087
0
VERTEX
8
0
10
3.8762
20
6.5106
42
0.0121
0
VERTEX
8
0
10
3.6209
20
6.5455
42
0.0095
0
VERTEX
8
0
10
3.3643
20
6.5701
0
SEQEND
8
0
0
POLYLINE
8
Layer 1
66
1
0
VERTEX
8
0
10
2.5846
20
5.8884
42
0.0084
0
VERTEX
8
0
10
2.4379
20
5.8064
42
0.0189
0
VERTEX
8
0
10
2.1541
20
5.6266
42
0.0134
0
VERTEX
8
0
10
2.0187
20
5.5270
42
0.0180
0
VERTEX
8
0
10
1.8901
20
5.4189
42
0.0267
0
VERTEX
8
0
10
1.7723
20
5.2992
42
0.0200
0
VERTEX
8
0
10
1.7198
20
5.2336
42
0.0268
0
VERTEX
8
0
10
1.6738
20
5.1631
42
-0.0273
0
VERTEX
8
0
10
1.6642
20
5.2093
42
-0.0173
0
VERTEX
8
0
10
1.6581
20
5.2561
42
-0.0334
0
VERTEX
8
0
10
1.6554
20
5.3504
42
-0.0369
0
VERTEX
8
0
10
1.6661
20
5.4441
42
-0.0428
0
VERTEX
8
0
10
1.6918
20
5.5348
42
-0.0983
0
VERTEX
8
0
10
1.7919
20
5.6935
42
-0.0478
0
VERTEX
8
0
10
1.8632
20
5.7551
42
-0.0414
0
VERTEX
8
0
10
1.9439
20
5.8033
42
-0.0252
0
VERTEX
8
0
10
1.8699
20
5.7958
42
-0.0189
0
VERTEX
8
0
10
1.7955
20
5.7942
42
-0.0226
0
VERTEX
8
0
10
1.7212
20
5.7988
42
-0.0298
0
VERTEX
8
0
10
1.6479
20
5.8114
42
-0.0428
0
VERTEX
8
0
10
1.5774
20
5.8349
42
-0.0640
0
VERTEX
8
0
10
1.5140
20
5.8735
42
-0.0886
0
VERTEX
8
0
10
1.4663
20
5.9301
42
-0.0910
0
VERTEX
8
0
10
1.4421
20
6.0000
42
-0.0847
0
VERTEX
8
0
10
1.4663
20
6.0700
42
-0.0934
0
VERTEX
8
0
10
1.5141
20
6.1265
42
-0.0728
0
VERTEX
8
0
10
1.5774
20
6.1651
42
-0.0488
0
VERTEX
8
0
10
1.6480
20
6.1887
42
-0.0331
0
VERTEX
8
0
10
1.7213
20
6.2012
42
-0.0245
0
VERTEX
8
0
10
1.7955
20
6.2058
42
-0.0393
0
VERTEX
8
0
10
1.9439
20
6.1967
42
-0.0392
0
VERTEX
8
0
10
1.8629
20
6.2451
42
-0.0462
0
VERTEX
8
0
10
1.7916
20
6.3068
42
-0.1004
0
VERTEX
8
0
10
1.6917
20
6.4655
42
-0.0449
0
VERTEX
8
0
10
1.6660
20
6.5562
42
-0.0386
0
VERTEX
8
0
10
1.6554
20
6.6500
42
-0.0340
0
VERTEX
8
0
10
1.6581
20
6.7443
42
-0.0167
0
VERTEX
8
0
10
1.6642
20
6.7911
42
-0.0096
0
VERTEX
8
0
10
1.6685
20
6.8143
42
-0.0131
0
VERTEX
8
0
10
1.6738
20
6.8369
42
0.0293
0
VERTEX
8
0
10
1.7196
20
6.7666
42
0.0219
0
VERTEX
8
0
10
1.7722
20
6.7010
42
0.0311
0
VERTEX
8
0
10
1.8899
20
6.5813
42
0.0204
0
VERTEX
8
0
10
2.0185
20
6.4731
42
0.0146
0
VERTEX
8
0
10
2.1539
20
6.3736
42
0.0214
0
VERTEX
8
0
10
2.4377
20
6.1937
42
0.0176
0
VERTEX
8
0
10
2.7341
20
6.0350
0
VERTEX
8
0
10
2.7341
20
6.0000
0
VERTEX
8
0
10
2.7341
20
5.9650
42
0.0128
0
VERTEX
8
0
10
2.5846
20
5.8884
0
SEQEND
8
0
0
POLYLINE
8
Layer 1
66
1
0
VERTEX
8
0
10
2.6991
20
5.5899
42
0.0199
0
VERTEX
8
0
10
2.5057
20
5.4788
42
0.0183
0
VERTEX
8
0
10
2.3214
20
5.3533
42
0.0208
0
VERTEX
8
0
10
2.1471
20
5.2143
42
0.0255
0
VERTEX
8
0
10
1.9860
20
5.0603
42
0.0329
0
VERTEX
8
0
10
1.8430
20
4.8894
42
0.0433
0
VERTEX
8
0
10
1.7263
20
4.6998
42
0.0554
0
VERTEX
8
0
10
1.6472
20
4.4917
42
0.0642
0
VERTEX
8
0
10
1.6188
20
4.2712
42
0.0067
0
VERTEX
8
0
10
1.6193
20
4.2342
42
0.0072
0
VERTEX
8
0
10
1.6208
20
4.1967
42
0.0156
0
VERTEX
8
0
10
1.6272
20
4.1221
42
0.0365
0
VERTEX
8
0
10
1.6547
20
3.9749
42
0.0427
0
VERTEX
8
0
10
1.7046
20
3.8338
42
0.0471
0
VERTEX
8
0
10
1.7785
20
3.7037
42
0.0940
0
VERTEX
8
0
10
1.9928
20
3.4968
42
0.0440
0
VERTEX
8
0
10
2.1247
20
3.4261
42
0.0232
0
VERTEX
8
0
10
2.1949
20
3.3999
42
0.0350
0
VERTEX
8
0
10
2.2673
20
3.3809
42
-0.0282
0
VERTEX
8
0
10
2.2468
20
3.4095
42
-0.0172
0
VERTEX
8
0
10
2.2291
20
3.4396
42
-0.0197
0
VERTEX
8
0
10
2.1990
20
3.5026
42
-0.0191
0
VERTEX
8
0
10
2.1501
20
3.6335
42
-0.0106
0
VERTEX
8
0
10
2.1095
20
3.7672
42
-0.0071
0
VERTEX
8
0
10
2.0740
20
3.9024
42
-0.0094
0
VERTEX
8
0
10
2.0125
20
4.1750
42
-0.0100
0
VERTEX
8
0
10
1.9606
20
4.4496
42
0.0498
0
VERTEX
8
0
10
2.1820
20
4.4060
42
0.0452
0
VERTEX
8
0
10
2.4077
20
4.4058
42
0.0414
0
VERTEX
8
0
10
2.6301
20
4.4449
42
0.0214
0
VERTEX
8
0
10
2.7381
20
4.4781
42
0.0123
0
VERTEX
8
0
10
2.7909
20
4.4982
42
0.0219
0
VERTEX
8
0
10
2.8425
20
4.5213
0
VERTEX
8
0
10
2.8058
20
5.1631
42
-0.0100
0
VERTEX
8
0
10
2.7923
20
5.1697
42
-0.0115
0
VERTEX
8
0
10
2.7785
20
5.1771
42
-0.0258
0
VERTEX
8
0
10
2.7522
20
5.1939
42
-0.0634
0
VERTEX
8
0
10
2.7060
20
5.2358
42
-0.0698
0
VERTEX
8
0
10
2.6725
20
5.2883
42
-0.0633
0
VERTEX
8
0
10
2.6543
20
5.3479
42
-0.0503
0
VERTEX
8
0
10
2.6505
20
5.4102
42
-0.0389
0
VERTEX
8
0
10
2.6582
20
5.4721
42
-0.0321
0
VERTEX
8
0
10
2.6748
20
5.5324
42
-0.0400
0
VERTEX
8
0
10
2.6991
20
5.5899
0
SEQEND
8
0
0
POLYLINE
8
Layer 1
66
1
0
VERTEX
8
0
10
3.4593
20
5.5939
42
-0.0227
0
VERTEX
8
0
10
3.4295
20
5.5900
42
-0.0362
0
VERTEX
8
0
10
3.3993
20
5.5899
42
-0.0919
0
VERTEX
8
0
10
3.3318
20
5.6083
42
-0.0665
0
VERTEX
8
0
10
3.2726
20
5.6460
42
-0.0435
0
VERTEX
8
0
10
3.2222
20
5.6949
42
-0.0294
0
VERTEX
8
0
10
3.1787
20
5.7501
42
-0.0395
0
VERTEX
8
0
10
3.1071
20
5.8710
42
-0.0280
0
VERTEX
8
0
10
3.0509
20
6.0000
42
-0.0292
0
VERTEX
8
0
10
3.1070
20
6.1288
42
-0.0338
0
VERTEX
8
0
10
3.1786
20
6.2498
42
-0.0263
0
VERTEX
8
0
10
3.2221
20
6.3050
42
-0.0378
0
VERTEX
8
0
10
3.2725
20
6.3539
42
-0.0576
0
VERTEX
8
0
10
3.3316
20
6.3917
42
-0.0847
0
VERTEX
8
0
10
3.3993
20
6.4101
42
-0.0415
0
VERTEX
8
0
10
3.4292
20
6.4100
42
-0.0263
0
VERTEX
8
0
10
3.4589
20
6.4061
42
-0.0315
0
VERTEX
8
0
10
3.5172
20
6.3920
42
-0.0313
0
VERTEX
8
0
10
3.6299
20
6.3508
42
-0.0154
0
VERTEX
8
0
10
3.7389
20
6.3009
42
-0.0099
0
VERTEX
8
0
10
3.8456
20
6.2460
42
-0.0128
0
VERTEX
8
0
10
4.0541
20
6.1273
42
-0.0093
0
VERTEX
8
0
10
4.2579
20
6.0000
42
-0.0200
0
VERTEX
8
0
10
3.8459
20
5.7541
42
-0.0087
0
VERTEX
8
0
10
3.7392
20
5.6993
42
-0.0130
0
VERTEX
8
0
10
3.6302
20
5.6493
42
-0.0239
0
VERTEX
8
0
10
3.5176
20
5.6081
42
-0.0254
0
VERTEX
8
0
10
3.4593
20
5.5939
0
SEQEND
8
0
0
POLYLINE
8
Layer 1
66
1
0
VERTEX
8
0
10
3.6294
20
4.9739
42
-0.0535
0
VERTEX
8
0
10
3.3093
20
4.8780
0
VERTEX
8
0
10
3.3643
20
5.4299
42
0.0116
0
VERTEX
8
0
10
3.6207
20
5.4545
42
0.0106
0
VERTEX
8
0
10
3.8760
20
5.4894
42
0.0077
0
VERTEX
8
0
10
4.0029
20
5.5119
42
0.0110
0
VERTEX
8
0
10
4.1288
20
5.5394
42
0.0182
0
VERTEX
8
0
10
4.2526
20
5.5746
42
0.0164
0
VERTEX
8
0
10
4.3131
20
5.5970
42
0.0273
0
VERTEX
8
0
10
4.3712
20
5.6249
42
-0.0264
0
VERTEX
8
0
10
4.3283
20
5.5532
42
-0.0155
0
VERTEX
8
0
10
4.2802
20
5.4846
42
-0.0271
0
VERTEX
8
0
10
4.1731
20
5.3561
42
-0.0522
0
VERTEX
8
0
10
3.9216
20
5.1359
42
-0.0539
0
VERTEX
8
0
10
3.6294
20
4.9739
0
SEQEND
8
0
0
POLYLINE
8
Layer 1
66
1
0
VERTEX
8
0
10
4.4679
20
3.4543
42
0.0218
0
VERTEX
8
0
10
4.4276
20
3.4401
42
0.0132
0
VERTEX
8
0
10
4.3882
20
3.4235
42
0.0238
0
VERTEX
8
0
10
4.3120
20
3.3848
42
0.0502
0
VERTEX
8
0
10
4.1728
20
3.2857
42
0.0615
0
VERTEX
8
0
10
4.0600
20
3.1578
42
0.0715
0
VERTEX
8
0
10
3.9861
20
3.0042
42
0.0182
0
VERTEX
8
0
10
3.9179
20
3.0048
42
0.0110
0
VERTEX
8
0
10
3.8496
20
3.0019
42
0.0190
0
VERTEX
8
0
10
3.7137
20
2.9882
42
0.0373
0
VERTEX
8
0
10
3.4467
20
2.9308
42
0.0419
0
VERTEX
8
0
10
3.1925
20
2.8316
42
0.0484
0
VERTEX
8
0
10
2.9608
20
2.6874
42
-0.0213
0
VERTEX
8
0
10
2.6874
20
2.9608
42
0.0503
0
VERTEX
8
0
10
2.8316
20
3.1925
42
0.0441
0
VERTEX
8
0
10
2.9308
20
3.4467
42
0.0383
0
VERTEX
8
0
10
2.9882
20
3.7137
42
0.0186
0
VERTEX
8
0
10
3.0019
20
3.8496
42
0.0230
0
VERTEX
8
0
10
3.0042
20
3.9861
42
0.0728
0
VERTEX
8
0
10
3.1578
20
4.0600
42
0.0656
0
VERTEX
8
0
10
3.2858
20
4.1728
42
0.0535
0
VERTEX
8
0
10
3.3848
20
4.3120
42
0.0237
0
VERTEX
8
0
10
3.4235
20
4.3882
42
0.0275
0
VERTEX
8
0
10
3.4543
20
4.4679
42
0.0300
0
VERTEX
8
0
10
3.6618
20
4.4804
42
0.0378
0
VERTEX
8
0
10
3.8653
20
4.5217
42
0.0462
0
VERTEX
8
0
10
4.0585
20
4.5976
42
0.0530
0
VERTEX
8
0
10
4.2323
20
4.7108
42
0.0547
0
VERTEX
8
0
10
4.3776
20
4.8589
42
0.0512
0
VERTEX
8
0
10
4.4889
20
5.0341
42
0.0458
0
VERTEX
8
0
10
4.5650
20
5.2273
42
0.0222
0
VERTEX
8
0
10
4.5900
20
5.3281
42
0.0123
0
VERTEX
8
0
10
4.5989
20
5.3793
42
0.0074
0
VERTEX
8
0
10
4.6023
20
5.4051
42
0.0107
0
VERTEX
8
0
10
4.6046
20
5.4299
42
0.0387
0
VERTEX
8
0
10
4.6538
20
5.4785
42
0.0245
0
VERTEX
8
0
10
4.6972
20
5.5324
42
0.0294
0
VERTEX
8
0
10
4.7730
20
5.6482
0
VERTEX
8
0
10
4.7730
20
5.8166
0
VERTEX
8
0
10
5.5049
20
5.8166
42
0.2189
0
VERTEX
8
0
10
5.8166
20
5.5049
0
VERTEX
8
0
10
5.8166
20
4.7730
0
VERTEX
8
0
10
5.6482
20
4.7730
42
0.0236
0
VERTEX
8
0
10
5.5324
20
4.6972
42
0.0206
0
VERTEX
8
0
10
5.4785
20
4.6538
42
0.0323
0
VERTEX
8
0
10
5.4299
20
4.6046
42
0.0202
0
VERTEX
8
0
10
5.3783
20
4.5987
42
0.0130
0
VERTEX
8
0
10
5.3271
20
4.5898
42
0.0227
0
VERTEX
8
0
10
5.2263
20
4.5647
42
0.0446
0
VERTEX
8
0
10
5.0332
20
4.4884
42
0.0494
0
VERTEX
8
0
10
4.8581
20
4.3769
42
0.0539
0
VERTEX
8
0
10
4.7102
20
4.2315
42
0.0541
0
VERTEX
8
0
10
4.5971
20
4.0575
42
0.0489
0
VERTEX
8
0
10
4.5214
20
3.8642
42
0.0406
0
VERTEX
8
0
10
4.4802
20
3.6607
42
0.0168
0
VERTEX
8
0
10
4.4708
20
3.5572
42
0.0076
0
VERTEX
8
0
10
4.4686
20
3.5053
42
0.0037
0
VERTEX
8
0
10
4.4681
20
3.4793
42
0.0034
0
VERTEX
8
0
10
4.4679
20
3.4543
0
SEQEND
8
0
0
POLYLINE
8
Layer 1
66
1
0
VERTEX
8
0
10
5.4299
20
3.3643
0
VERTEX
8
0
10
4.8780
20
3.3093
42
-0.0526
0
VERTEX
8
0
10
4.9741
20
3.6296
42
-0.0543
0
VERTEX
8
0
10
5.1366
20
3.9220
42
-0.0527
0
VERTEX
8
0
10
5.3573
20
4.1733
42
-0.0264
0
VERTEX
8
0
10
5.4861
20
4.2803
42
-0.0148
0
VERTEX
8
0
10
5.5548
20
4.3283
42
-0.0201
0
VERTEX
8
0
10
5.6266
20
4.3712
42
0.0319
0
VERTEX
8
0
10
5.5987
20
4.3132
42
0.0190
0
VERTEX
8
0
10
5.5762
20
4.2528
42
0.0224
0
VERTEX
8
0
10
5.5408
20
4.1289
42
0.0127
0
VERTEX
8
0
10
5.5131
20
4.0031
42
0.0086
0
VERTEX
8
0
10
5.4904
20
3.8762
42
0.0121
0
VERTEX
8
0
10
5.4550
20
3.6209
42
0.0096
0
VERTEX
8
0
10
5.4299
20
3.3643
0
SEQEND
8
0
0
POLYLINE
8
Layer 1
66
1
0
VERTEX
8
0
10
5.5899
20
2.6991
42
-0.0159
0
VERTEX
8
0
10
5.5365
20
2.6014
42
-0.0096
0
VERTEX
8
0
10
5.4789
20
2.5059
42
-0.0180
0
VERTEX
8
0
10
5.3535
20
2.3216
42
-0.0197
0
VERTEX
8
0
10
5.2145
20
2.1473
42
-0.0238
0
VERTEX
8
0
10
5.0605
20
1.9862
42
-0.0301
0
VERTEX
8
0
10
4.8896
20
1.8432
42
-0.0394
0
VERTEX
8
0
10
4.7000
20
1.7264
42
-0.0513
0
VERTEX
8
0
10
4.4920
20
1.6473
42
-0.0304
0
VERTEX
8
0
10
4.3826
20
1.6261
42
-0.0322
0
VERTEX
8
0
10
4.2712
20
1.6188
42
-0.0283
0
VERTEX
8
0
10
4.1216
20
1.6272
42
-0.0344
0
VERTEX
8
0
10
3.9744
20
1.6549
42
-0.0408
0
VERTEX
8
0
10
3.8333
20
1.7048
42
-0.0460
0
VERTEX
8
0
10
3.7033
20
1.7788
42
-0.0962
0
VERTEX
8
0
10
3.4965
20
1.9932
42
-0.0444
0
VERTEX
8
0
10
3.4259
20
2.1252
42
-0.0225
0
VERTEX
8
0
10
3.3997
20
2.1954
42
-0.0127
0
VERTEX
8
0
10
3.3891
20
2.2313
42
-0.0179
0
VERTEX
8
0
10
3.3809
20
2.2673
42
0.0527
0
VERTEX
8
0
10
3.4394
20
2.2293
42
0.0243
0
VERTEX
8
0
10
3.5024
20
2.1991
42
0.0246
0
VERTEX
8
0
10
3.6333
20
2.1502
42
0.0125
0
VERTEX
8
0
10
3.7670
20
2.1096
42
0.0079
0
VERTEX
8
0
10
3.9021
20
2.0740
42
0.0108
0
VERTEX
8
0
10
4.1747
20
2.0125
42
0.0083
0
VERTEX
8
0
10
4.4496
20
1.9606
42
-0.0507
0
VERTEX
8
0
10
4.4059
20
2.1820
42
-0.0469
0
VERTEX
8
0
10
4.4057
20
2.4077
42
-0.0424
0
VERTEX
8
0
10
4.4448
20
2.6301
42
-0.0209
0
VERTEX
8
0
10
4.4780
20
2.7381
42
-0.0258
0
VERTEX
8
0
10
4.5213
20
2.8425
0
VERTEX
8
0
10
5.1631
20
2.8058
42
0.0451
0
VERTEX
8
0
10
5.1943
20
2.7517
42
0.0591
0
VERTEX
8
0
10
5.2363
20
2.7057
42
0.1379
0
VERTEX
8
0
10
5.3485
20
2.6542
42
0.0546
0
VERTEX
8
0
10
5.4108
20
2.6505
42
0.0421
0
VERTEX
8
0
10
5.4727
20
2.6583
42
0.0335
0
VERTEX
8
0
10
5.5329
20
2.6750
42
0.0155
0
VERTEX
8
0
10
5.5621
20
2.6862
42
0.0086
0
VERTEX
8
0
10
5.5764
20
2.6925
42
0.0116
0
VERTEX
8
0
10
5.5899
20
2.6991
0
SEQEND
8
0
0
POLYLINE
8
Layer 1
66
1
0
VERTEX
8
0
10
6.1116
20
2.5846
42
0.0084
0
VERTEX
8
0
10
6.1936
20
2.4379
42
0.0189
0
VERTEX
8
0
10
6.3734
20
2.1541
42
0.0134
0
VERTEX
8
0
10
6.4730
20
2.0187
42
0.0180
0
VERTEX
8
0
10
6.5811
20
1.8901
42
0.0267
0
VERTEX
8
0
10
6.7008
20
1.7723
42
0.0200
0
VERTEX
8
0
10
6.7664
20
1.7198
42
0.0268
0
VERTEX
8
0
10
6.8369
20
1.6738
42
-0.0271
0
VERTEX
8
0
10
6.7906
20
1.6642
42
-0.0173
0
VERTEX
8
0
10
6.7437
20
1.6581
42
-0.0332
0
VERTEX
8
0
10
6.6492
20
1.6554
42
-0.0368
0
VERTEX
8
0
10
6.5553
20
1.6660
42
-0.0427
0
VERTEX
8
0
10
6.4644
20
1.6917
42
-0.0986
0
VERTEX
8
0
10
6.3052
20
1.7916
42
-0.0481
0
VERTEX
8
0
10
6.2433
20
1.8630
42
-0.0415
0
VERTEX
8
0
10
6.1951
20
1.9439
42
-0.0255
0
VERTEX
8
0
10
6.2027
20
1.8699
42
-0.0190
0
VERTEX
8
0
10
6.2047
20
1.7956
42
-0.0223
0
VERTEX
8
0
10
6.2003
20
1.7214
42
-0.0297
0
VERTEX
8
0
10
6.1880
20
1.6480
42
-0.0428
0
VERTEX
8
0
10
6.1647
20
1.5775
42
-0.0642
0
VERTEX
8
0
10
6.1263
20
1.5141
42
-0.0891
0
VERTEX
8
0
10
6.0699
20
1.4663
42
-0.0912
0
VERTEX
8
0
10
6.0000
20
1.4421
42
-0.0849
0
VERTEX
8
0
10
5.9301
20
1.4663
42
-0.0937
0
VERTEX
8
0
10
5.8736
20
1.5141
42
-0.0730
0
VERTEX
8
0
10
5.8352
20
1.5776
42
-0.0490
0
VERTEX
8
0
10
5.8120
20
1.6481
42
-0.0332
0
VERTEX
8
0
10
5.7997
20
1.7214
42
-0.0243
0
VERTEX
8
0
10
5.7953
20
1.7957
42
-0.0391
0
VERTEX
8
0
10
5.8049
20
1.9439
42
-0.0394
0
VERTEX
8
0
10
5.7565
20
1.8627
42
-0.0463
0
VERTEX
8
0
10
5.6946
20
1.7914
42
-0.1006
0
VERTEX
8
0
10
5.5353
20
1.6916
42
-0.0449
0
VERTEX
8
0
10
5.4443
20
1.6660
42
-0.0387
0
VERTEX
8
0
10
5.3504
20
1.6554
42
-0.0339
0
VERTEX
8
0
10
5.2559
20
1.6581
42
-0.0167
0
VERTEX
8
0
10
5.2090
20
1.6642
42
-0.0095
0
VERTEX
8
0
10
5.1858
20
1.6685
42
-0.0131
0
VERTEX
8
0
10
5.1631
20
1.6738
42
0.0293
0
VERTEX
8
0
10
5.2334
20
1.7196
42
0.0219
0
VERTEX
8
0
10
5.2990
20
1.7722
42
0.0311
0
VERTEX
8
0
10
5.4187
20
1.8899
42
0.0204
0
VERTEX
8
0
10
5.5269
20
2.0185
42
0.0146
0
VERTEX
8
0
10
5.6264
20
2.1539
42
0.0214
0
VERTEX
8
0
10
5.8063
20
2.4377
42
0.0176
0
VERTEX
8
0
10
5.9650
20
2.7341
0
VERTEX
8
0
10
6.0000
20
2.7341
0
VERTEX
8
0
10
6.0350
20
2.7341
42
0.0128
0
VERTEX
8
0
10
6.1116
20
2.5846
0
SEQEND
8
0
0
POLYLINE
8
Layer 1
66
1
0
VERTEX
8
0
10
6.4101
20
2.6991
42
0.0400
0
VERTEX
8
0
10
6.4676
20
2.6748
42
0.0321
0
VERTEX
8
0
10
6.5279
20
2.6582
42
0.0389
0
VERTEX
8
0
10
6.5898
20
2.6505
42
0.0503
0
VERTEX
8
0
10
6.6521
20
2.6543
42
0.0633
0
VERTEX
8
0
10
6.7117
20
2.6725
42
0.0698
0
VERTEX
8
0
10
6.7642
20
2.7060
42
0.0634
0
VERTEX
8
0
10
6.8061
20
2.7522
42
0.0258
0
VERTEX
8
0
10
6.8229
20
2.7785
42
0.0115
0
VERTEX
8
0
10
6.8303
20
2.7923
42
0.0100
0
VERTEX
8
0
10
6.8369
20
2.8058
0
VERTEX
8
0
10
7.4787
20
2.8425
42
-0.0221
0
VERTEX
8
0
10
7.5018
20
2.7909
42
-0.0124
0
VERTEX
8
0
10
7.5220
20
2.7381
42
-0.0215
0
VERTEX
8
0
10
7.5552
20
2.6301
42
-0.0414
0
VERTEX
8
0
10
7.5943
20
2.4077
42
-0.0453
0
VERTEX
8
0
10
7.5941
20
2.1820
42
-0.0497
0
VERTEX
8
0
10
7.5504
20
1.9606
42
0.0100
0
VERTEX
8
0
10
7.8250
20
2.0125
42
0.0092
0
VERTEX
8
0
10
8.0976
20
2.0740
42
0.0070
0
VERTEX
8
0
10
8.2328
20
2.1095
42
0.0105
0
VERTEX
8
0
10
8.3665
20
2.1501
42
0.0189
0
VERTEX
8
0
10
8.4974
20
2.1990
42
0.0197
0
VERTEX
8
0
10
8.5604
20
2.2291
42
0.0172
0
VERTEX
8
0
10
8.5905
20
2.2468
42
0.0282
0
VERTEX
8
0
10
8.6191
20
2.2673
42
-0.0350
0
VERTEX
8
0
10
8.6001
20
2.1949
42
-0.0232
0
VERTEX
8
0
10
8.5739
20
2.1247
42
-0.0440
0
VERTEX
8
0
10
8.5032
20
1.9928
42
-0.0940
0
VERTEX
8
0
10
8.2963
20
1.7785
42
-0.0471
0
VERTEX
8
0
10
8.1662
20
1.7046
42
-0.0427
0
VERTEX
8
0
10
8.0251
20
1.6547
42
-0.0365
0
VERTEX
8
0
10
7.8779
20
1.6272
42
-0.0156
0
VERTEX
8
0
10
7.8033
20
1.6208
42
-0.0072
0
VERTEX
8
0
10
7.7658
20
1.6193
42
-0.0067
0
VERTEX
8
0
10
7.7288
20
1.6188
42
-0.0642
0
VERTEX
8
0
10
7.5083
20
1.6472
42
-0.0554
0
VERTEX
8
0
10
7.3002
20
1.7263
42
-0.0433
0
VERTEX
8
0
10
7.1106
20
1.8430
42
-0.0329
0
VERTEX
8
0
10
6.9397
20
1.9860
42
-0.0255
0
VERTEX
8
0
10
6.7857
20
2.1471
42
-0.0208
0
VERTEX
8
0
10
6.6467
20
2.3214
42
-0.0183
0
VERTEX
8
0
10
6.5212
20
2.5057
42
-0.0199
0
VERTEX
8
0
10
6.4101
20
2.6991
0
SEQEND
8
0
0
POLYLINE
8
Layer 1
66
1
0
VERTEX
8
0
10
6.4061
20
3.4593
42
-0.0227
0
VERTEX
8
0
10
6.4100
20
3.4295
42
-0.0363
0
VERTEX
8
0
10
6.4101
20
3.3993
42
-0.0920
0
VERTEX
8
0
10
6.3917
20
3.3318
42
-0.0665
0
VERTEX
8
0
10
6.3540
20
3.2727
42
-0.0434
0
VERTEX
8
0
10
6.3051
20
3.2222
42
-0.0295
0
VERTEX
8
0
10
6.2499
20
3.1788
42
-0.0396
0
VERTEX
8
0
10
6.1290
20
3.1071
42
-0.0278
0
VERTEX
8
0
10
6.0000
20
3.0509
42
-0.0290
0
VERTEX
8
0
10
5.8712
20
3.1071
42
-0.0336
0
VERTEX
8
0
10
5.7503
20
3.1787
42
-0.0262
0
VERTEX
8
0
10
5.6950
20
3.2221
42
-0.0378
0
VERTEX
8
0
10
5.6461
20
3.2725
42
-0.0578
0
VERTEX
8
0
10
5.6083
20
3.3317
42
-0.0847
0
VERTEX
8
0
10
5.5899
20
3.3993
42
-0.0416
0
VERTEX
8
0
10
5.5900
20
3.4292
42
-0.0262
0
VERTEX
8
0
10
5.5939
20
3.4589
42
-0.0316
0
VERTEX
8
0
10
5.6080
20
3.5172
42
-0.0314
0
VERTEX
8
0
10
5.6492
20
3.6298
42
-0.0155
0
VERTEX
8
0
10
5.6991
20
3.7389
42
-0.0098
0
VERTEX
8
0
10
5.7540
20
3.8456
42
-0.0127
0
VERTEX
8
0
10
5.8727
20
4.0541
42
-0.0092
0
VERTEX
8
0
10
6.0000
20
4.2579
42
-0.0200
0
VERTEX
8
0
10
6.2458
20
3.8459
42
-0.0086
0
VERTEX
8
0
10
6.3007
20
3.7392
42
-0.0130
0
VERTEX
8
0
10
6.3507
20
3.6302
42
-0.0237
0
VERTEX
8
0
10
6.3919
20
3.5176
42
-0.0254
0
VERTEX
8
0
10
6.4061
20
3.4593
0
SEQEND
8
0
0
POLYLINE
8
Layer 1
66
1
0
VERTEX
8
0
10
7.0259
20
3.6296
42
-0.0537
0
VERTEX
8
0
10
7.1220
20
3.3093
0
VERTEX
8
0
10
6.5701
20
3.3643
42
0.0115
0
VERTEX
8
0
10
6.5450
20
3.6207
42
0.0105
0
VERTEX
8
0
10
6.5096
20
3.8760
42
0.0077
0
VERTEX
8
0
10
6.4869
20
4.0029
42
0.0110
0
VERTEX
8
0
10
6.4592
20
4.1288
42
0.0182
0
VERTEX
8
0
10
6.4238
20
4.2526
42
0.0163
0
VERTEX
8
0
10
6.4014
20
4.3131
42
0.0272
0
VERTEX
8
0
10
6.3734
20
4.3712
42
-0.0264
0
VERTEX
8
0
10
6.4453
20
4.3283
42
-0.0155
0
VERTEX
8
0
10
6.5140
20
4.2803
42
-0.0272
0
VERTEX
8
0
10
6.6428
20
4.1733
42
-0.0522
0
VERTEX
8
0
10
6.8634
20
3.9219
42
-0.0542
0
VERTEX
8
0
10
7.0259
20
3.6296
0
SEQEND
8
0
0
POLYLINE
8
Layer 1
66
1
0
VERTEX
8
0
10
8.5457
20
4.4679
42
0.0365
0
VERTEX
8
0
10
8.5765
20
4.3882
42
0.0238
0
VERTEX
8
0
10
8.6152
20
4.3120
42
0.0503
0
VERTEX
8
0
10
8.7142
20
4.1728
42
0.0615
0
VERTEX
8
0
10
8.8422
20
4.0600
42
0.0716
0
VERTEX
8
0
10
8.9958
20
3.9861
42
0.0182
0
VERTEX
8
0
10
8.9952
20
3.9179
42
0.0110
0
VERTEX
8
0
10
8.9981
20
3.8496
42
0.0190
0
VERTEX
8
0
10
9.0118
20
3.7137
42
0.0373
0
VERTEX
8
0
10
9.0692
20
3.4467
42
0.0419
0
VERTEX
8
0
10
9.1684
20
3.1925
42
0.0484
0
VERTEX
8
0
10
9.3126
20
2.9608
42
-0.0213
0
VERTEX
8
0
10
9.0392
20
2.6874
42
0.0503
0
VERTEX
8
0
10
8.8075
20
2.8316
42
0.0441
0
VERTEX
8
0
10
8.5533
20
2.9308
42
0.0383
0
VERTEX
8
0
10
8.2863
20
2.9882
42
0.0186
0
VERTEX
8
0
10
8.1504
20
3.0019
42
0.0230
0
VERTEX
8
0
10
8.0139
20
3.0042
42
0.0726
0
VERTEX
8
0
10
7.9400
20
3.1578
42
0.0656
0
VERTEX
8
0
10
7.8271
20
3.2858
42
0.0534
0
VERTEX
8
0
10
7.6880
20
3.3848
42
0.0238
0
VERTEX
8
0
10
7.6118
20
3.4235
42
0.0274
0
VERTEX
8
0
10
7.5321
20
3.4543
42
0.0300
0
VERTEX
8
0
10
7.5196
20
3.6618
42
0.0378
0
VERTEX
8
0
10
7.4783
20
3.8653
42
0.0462
0
VERTEX
8
0
10
7.4024
20
4.0585
42
0.0530
0
VERTEX
8
0
10
7.2892
20
4.2323
42
0.0547
0
VERTEX
8
0
10
7.1411
20
4.3776
42
0.0512
0
VERTEX
8
0
10
6.9659
20
4.4889
42
0.0458
0
VERTEX
8
0
10
6.7727
20
4.5650
42
0.0222
0
VERTEX
8
0
10
6.6719
20
4.5900
42
0.0123
0
VERTEX
8
0
10
6.6207
20
4.5989
42
0.0074
0
VERTEX
8
0
10
6.5949
20
4.6023
42
0.0107
0
VERTEX
8
0
10
6.5701
20
4.6046
42
0.0387
0
VERTEX
8
0
10
6.5215
20
4.6538
42
0.0245
0
VERTEX
8
0
10
6.4676
20
4.6972
42
0.0294
0
VERTEX
8
0
10
6.3518
20
4.7730
0
VERTEX
8
0
10
6.1834
20
4.7730
0
VERTEX
8
0
10
6.1834
20
5.5032
42
0.2183
0
VERTEX
8
0
10
6.4968
20
5.8166
0
VERTEX
8
0
10
7.2270
20
5.8166
0
VERTEX
8
0
10
7.2270
20
5.6482
42
0.0236
0
VERTEX
8
0
10
7.3028
20
5.5324
42
0.0206
0
VERTEX
8
0
10
7.3462
20
5.4785
42
0.0323
0
VERTEX
8
0
10
7.3954
20
5.4299
42
0.0202
0
VERTEX
8
0
10
7.4013
20
5.3783
42
0.0130
0
VERTEX
8
0
10
7.4102
20
5.3271
42
0.0227
0
VERTEX
8
0
10
7.4353
20
5.2263
42
0.0446
0
VERTEX
8
0
10
7.5116
20
5.0332
42
0.0494
0
VERTEX
8
0
10
7.6231
20
4.8581
42
0.0539
0
VERTEX
8
0
10
7.7685
20
4.7102
42
0.0541
0
VERTEX
8
0
10
7.9425
20
4.5971
42
0.0489
0
VERTEX
8
0
10
8.1358
20
4.5214
42
0.0406
0
VERTEX
8
0
10
8.3393
20
4.4802
42
0.0168
0
VERTEX
8
0
10
8.4428
20
4.4708
42
0.0076
0
VERTEX
8
0
10
8.4947
20
4.4686
42
0.0037
0
VERTEX
8
0
10
8.5207
20
4.4681
42
0.0034
0
VERTEX
8
0
10
8.5457
20
4.4679
0
SEQEND
8
0
0
POLYLINE
8
Layer 1
66
1
0
VERTEX
8
0
10
8.6357
20
5.4299
0
VERTEX
8
0
10
8.6907
20
4.8780
42
-0.0523
0
VERTEX
8
0
10
8.3706
20
4.9739
42
-0.0543
0
VERTEX
8
0
10
8.0783
20
5.1360
42
-0.0526
0
VERTEX
8
0
10
7.8269
20
5.3561
42
-0.0264
0
VERTEX
8
0
10
7.7198
20
5.4846
42
-0.0147
0
VERTEX
8
0
10
7.6717
20
5.5532
42
-0.0202
0
VERTEX
8
0
10
7.6288
20
5.6249
42
0.0321
0
VERTEX
8
0
10
7.6868
20
5.5970
42
0.0191
0
VERTEX
8
0
10
7.7472
20
5.5746
42
0.0227
0
VERTEX
8
0
10
7.8711
20
5.5394
42
0.0128
0
VERTEX
8
0
10
7.9970
20
5.5119
42
0.0087
0
VERTEX
8
0
10
8.1238
20
5.4894
42
0.0121
0
VERTEX
8
0
10
8.3791
20
5.4545
42
0.0095
0
VERTEX
8
0
10
8.6357
20
5.4299
0
SEQEND
8
0
0
POLYLINE
8
Layer 1
66
1
0
VERTEX
8
0
10
9.3009
20
5.5899
42
-0.0116
0
VERTEX
8
0
10
9.3075
20
5.5764
42
-0.0086
0
VERTEX
8
0
10
9.3138
20
5.5621
42
-0.0155
0
VERTEX
8
0
10
9.3250
20
5.5329
42
-0.0335
0
VERTEX
8
0
10
9.3417
20
5.4727
42
-0.0421
0
VERTEX
8
0
10
9.3495
20
5.4108
42
-0.0546
0
VERTEX
8
0
10
9.3458
20
5.3485
42
-0.1379
0
VERTEX
8
0
10
9.2943
20
5.2363
42
-0.0591
0
VERTEX
8
0
10
9.2483
20
5.1943
42
-0.0451
0
VERTEX
8
0
10
9.1942
20
5.1631
0
VERTEX
8
0
10
9.1575
20
4.5213
42
0.0257
0
VERTEX
8
0
10
9.2619
20
4.4781
42
0.0208
0
VERTEX
8
0
10
9.3699
20
4.4449
42
0.0423
0
VERTEX
8
0
10
9.5923
20
4.4058
42
0.0469
0
VERTEX
8
0
10
9.8180
20
4.4060
42
0.0509
0
VERTEX
8
0
10
10.0394
20
4.4496
42
-0.0082
0
VERTEX
8
0
10
9.9875
20
4.1747
42
-0.0107
0
VERTEX
8
0
10
9.9260
20
3.9021
42
-0.0080
0
VERTEX
8
0
10
9.8904
20
3.7670
42
-0.0125
0
VERTEX
8
0
10
9.8498
20
3.6333
42
-0.0246
0
VERTEX
8
0
10
9.8009
20
3.5024
42
-0.0244
0
VERTEX
8
0
10
9.7707
20
3.4394
42
-0.0529
0
VERTEX
8
0
10
9.7327
20
3.3809
42
0.0179
0
VERTEX
8
0
10
9.7687
20
3.3891
42
0.0127
0
VERTEX
8
0
10
9.8046
20
3.3997
42
0.0225
0
VERTEX
8
0
10
9.8748
20
3.4259
42
0.0444
0
VERTEX
8
0
10
10.0068
20
3.4965
42
0.0962
0
VERTEX
8
0
10
10.2212
20
3.7033
42
0.0460
0
VERTEX
8
0
10
10.2952
20
3.8333
42
0.0408
0
VERTEX
8
0
10
10.3451
20
3.9744
42
0.0344
0
VERTEX
8
0
10
10.3728
20
4.1216
42
0.0283
0
VERTEX
8
0
10
10.3812
20
4.2712
42
0.0322
0
VERTEX
8
0
10
10.3739
20
4.3826
42
0.0304
0
VERTEX
8
0
10
10.3527
20
4.4920
42
0.0513
0
VERTEX
8
0
10
10.2736
20
4.7000
42
0.0394
0
VERTEX
8
0
10
10.1568
20
4.8896
42
0.0301
0
VERTEX
8
0
10
10.0138
20
5.0605
42
0.0238
0
VERTEX
8
0
10
9.8527
20
5.2145
42
0.0197
0
VERTEX
8
0
10
9.6784
20
5.3535
42
0.0180
0
VERTEX
8
0
10
9.4941
20
5.4789
42
0.0096
0
VERTEX
8
0
10
9.3986
20
5.5365
42
0.0159
0
VERTEX
8
0
10
9.3009
20
5.5899
0
SEQEND
8
0
0
POLYLINE
8
Layer 1
66
1
0
VERTEX
8
0
10
9.4154
20
6.1116
42
0.0084
0
VERTEX
8
0
10
9.5621
20
6.1936
42
0.0189
0
VERTEX
8
0
10
9.8459
20
6.3734
42
0.0134
0
VERTEX
8
0
10
9.9813
20
6.4730
42
0.0180
0
VERTEX
8
0
10
10.1099
20
6.5811
42
0.0267
0
VERTEX
8
0
10
10.2277
20
6.7008
42
0.0200
0
VERTEX
8
0
10
10.2802
20
6.7664
42
0.0268
0
VERTEX
8
0
10
10.3262
20
6.8369
42
-0.0273
0
VERTEX
8
0
10
10.3358
20
6.7907
42
-0.0173
0
VERTEX
8
0
10
10.3419
20
6.7439
42
-0.0334
0
VERTEX
8
0
10
10.3446
20
6.6496
42
-0.0369
0
VERTEX
8
0
10
10.3339
20
6.5559
42
-0.0428
0
VERTEX
8
0
10
10.3082
20
6.4652
42
-0.0983
0
VERTEX
8
0
10
10.2081
20
6.3065
42
-0.0478
0
VERTEX
8
0
10
10.1368
20
6.2449
42
-0.0414
0
VERTEX
8
0
10
10.0561
20
6.1967
42
-0.0252
0
VERTEX
8
0
10
10.1301
20
6.2042
42
-0.0189
0
VERTEX
8
0
10
10.2045
20
6.2058
42
-0.0226
0
VERTEX
8
0
10
10.2788
20
6.2012
42
-0.0298
0
VERTEX
8
0
10
10.3521
20
6.1886
42
-0.0428
0
VERTEX
8
0
10
10.4226
20
6.1651
42
-0.0640
0
VERTEX
8
0
10
10.4860
20
6.1265
42
-0.0886
0
VERTEX
8
0
10
10.5337
20
6.0699
42
-0.0910
0
VERTEX
8
0
10
10.5579
20
6.0000
42
-0.0847
0
VERTEX
8
0
10
10.5337
20
5.9300
42
-0.0934
0
VERTEX
8
0
10
10.4859
20
5.8735
42
-0.0728
0
VERTEX
8
0
10
10.4226
20
5.8349
42
-0.0488
0
VERTEX
8
0
10
10.3520
20
5.8113
42
-0.0331
0
VERTEX
8
0
10
10.2787
20
5.7988
42
-0.0245
0
VERTEX
8
0
10
10.2045
20
5.7942
42
-0.0393
0
VERTEX
8
0
10
10.0561
20
5.8033
42
-0.0392
0
VERTEX
8
0
10
10.1371
20
5.7549
42
-0.0462
0
VERTEX
8
0
10
10.2084
20
5.6932
42
-0.1004
0
VERTEX
8
0
10
10.3083
20
5.5345
42
-0.0449
0
VERTEX
8
0
10
10.3340
20
5.4438
42
-0.0386
0
VERTEX
8
0
10
10.3446
20
5.3500
42
-0.0340
0
VERTEX
8
0
10
10.3419
20
5.2557
42
-0.0167
0
VERTEX
8
0
10
10.3358
20
5.2089
42
-0.0096
0
VERTEX
8
0
10
10.3315
20
5.1857
42
-0.0131
0
VERTEX
8
0
10
10.3262
20
5.1631
42
0.0293
0
VERTEX
8
0
10
10.2804
20
5.2334
42
0.0219
0
VERTEX
8
0
10
10.2278
20
5.2990
42
0.0311
0
VERTEX
8
0
10
10.1101
20
5.4187
42
0.0204
0
VERTEX
8
0
10
9.9815
20
5.5269
42
0.0146
0
VERTEX
8
0
10
9.8461
20
5.6264
42
0.0214
0
VERTEX
8
0
10
9.5623
20
5.8063
42
0.0176
0
VERTEX
8
0
10
9.2659
20
5.9650
0
VERTEX
8
0
10
9.2659
20
6.0000
0
VERTEX
8
0
10
9.2659
20
6.0350
42
0.0128
0
VERTEX
8
0
10
9.4154
20
6.1116
0
SEQEND
8
0
0
POLYLINE
8
Layer 1
66
1
0
VERTEX
8
0
10
9.3009
20
6.4101
42
0.0400
0
VERTEX
8
0
10
9.3252
20
6.4676
42
0.0321
0
VERTEX
8
0
10
9.3418
20
6.5279
42
0.0389
0
VERTEX
8
0
10
9.3495
20
6.5898
42
0.0503
0
VERTEX
8
0
10
9.3457
20
6.6521
42
0.0633
0
VERTEX
8
0
10
9.3275
20
6.7117
42
0.0698
0
VERTEX
8
0
10
9.2940
20
6.7642
42
0.0634
0
VERTEX
8
0
10
9.2478
20
6.8061
42
0.0258
0
VERTEX
8
0
10
9.2215
20
6.8229
42
0.0115
0
VERTEX
8
0
10
9.2077
20
6.8303
42
0.0100
0
VERTEX
8
0
10
9.1942
20
6.8369
0
VERTEX
8
0
10
9.1575
20
7.4787
42
-0.0219
0
VERTEX
8
0
10
9.2091
20
7.5018
42
-0.0123
0
VERTEX
8
0
10
9.2619
20
7.5219
42
-0.0214
0
VERTEX
8
0
10
9.3699
20
7.5551
42
-0.0414
0
VERTEX
8
0
10
9.5923
20
7.5942
42
-0.0452
0
VERTEX
8
0
10
9.8180
20
7.5940
42
-0.0498
0
VERTEX
8
0
10
10.0394
20
7.5504
42
0.0100
0
VERTEX
8
0
10
9.9875
20
7.8250
42
0.0094
0
VERTEX
8
0
10
9.9260
20
8.0976
42
0.0071
0
VERTEX
8
0
10
9.8905
20
8.2328
42
0.0106
0
VERTEX
8
0
10
9.8499
20
8.3665
42
0.0191
0
VERTEX
8
0
10
9.8010
20
8.4974
42
0.0197
0
VERTEX
8
0
10
9.7709
20
8.5604
42
0.0172
0
VERTEX
8
0
10
9.7532
20
8.5905
42
0.0282
0
VERTEX
8
0
10
9.7327
20
8.6191
42
-0.0350
0
VERTEX
8
0
10
9.8051
20
8.6001
42
-0.0232
0
VERTEX
8
0
10
9.8753
20
8.5739
42
-0.0440
0
VERTEX
8
0
10
10.0072
20
8.5032
42
-0.0940
0
VERTEX
8
0
10
10.2215
20
8.2963
42
-0.0471
0
VERTEX
8
0
10
10.2954
20
8.1662
42
-0.0427
0
VERTEX
8
0
10
10.3453
20
8.0251
42
-0.0365
0
VERTEX
8
0
10
10.3728
20
7.8779
42
-0.0156
0
VERTEX
8
0
10
10.3792
20
7.8033
42
-0.0072
0
VERTEX
8
0
10
10.3807
20
7.7658
42
-0.0067
0
VERTEX
8
0
10
10.3812
20
7.7288
42
-0.0642
0
VERTEX
8
0
10
10.3528
20
7.5083
42
-0.0554
0
VERTEX
8
0
10
10.2737
20
7.3002
42
-0.0433
0
VERTEX
8
0
10
10.1570
20
7.1106
42
-0.0329
0
VERTEX
8
0
10
10.0140
20
6.9397
42
-0.0255
0
VERTEX
8
0
10
9.8529
20
6.7857
42
-0.0208
0
VERTEX
8
0
10
9.6786
20
6.6467
42
-0.0183
0
VERTEX
8
0
10
9.4943
20
6.5212
42
-0.0199
0
VERTEX
8
0
10
9.3009
20
6.4101
0
SEQEND
8
0
0
POLYLINE
8
Layer 1
66
1
0
VERTEX
8
0
10
8.5407
20
6.4061
42
-0.0227
0
VERTEX
8
0
10
8.5705
20
6.4100
42
-0.0362
0
VERTEX
8
0
10
8.6007
20
6.4101
42
-0.0919
0
VERTEX
8
0
10
8.6682
20
6.3917
42
-0.0665
0
VERTEX
8
0
10
8.7274
20
6.3540
42
-0.0435
0
VERTEX
8
0
10
8.7778
20
6.3051
42
-0.0294
0
VERTEX
8
0
10
8.8213
20
6.2499
42
-0.0395
0
VERTEX
8
0
10
8.8929
20
6.1290
42
-0.0280
0
VERTEX
8
0
10
8.9491
20
6.0000
42
-0.0292
0
VERTEX
8
0
10
8.8930
20
5.8712
42
-0.0338
0
VERTEX
8
0
10
8.8214
20
5.7502
42
-0.0263
0
VERTEX
8
0
10
8.7779
20
5.6950
42
-0.0378
0
VERTEX
8
0
10
8.7275
20
5.6461
42
-0.0576
0
VERTEX
8
0
10
8.6684
20
5.6083
42
-0.0847
0
VERTEX
8
0
10
8.6007
20
5.5899
42
-0.0415
0
VERTEX
8
0
10
8.5708
20
5.5900
42
-0.0263
0
VERTEX
8
0
10
8.5411
20
5.5939
42
-0.0315
0
VERTEX
8
0
10
8.4828
20
5.6080
42
-0.0313
0
VERTEX
8
0
10
8.3701
20
5.6492
42
-0.0154
0
VERTEX
8
0
10
8.2611
20
5.6991
42
-0.0099
0
VERTEX
8
0
10
8.1544
20
5.7540
42
-0.0128
0
VERTEX
8
0
10
7.9459
20
5.8727
42
-0.0093
0
VERTEX
8
0
10
7.7421
20
6.0000
42
-0.0200
0
VERTEX
8
0
10
8.1541
20
6.2459
42
-0.0087
0
VERTEX
8
0
10
8.2608
20
6.3007
42
-0.0130
0
VERTEX
8
0
10
8.3698
20
6.3507
42
-0.0239
0
VERTEX
8
0
10
8.4824
20
6.3919
42
-0.0254
0
VERTEX
8
0
10
8.5407
20
6.4061
0
SEQEND
8
0
0
POLYLINE
8
Layer 1
66
1
0
VERTEX
8
0
10
8.3706
20
7.0261
42
-0.0535
0
VERTEX
8
0
10
8.6907
20
7.1220
0
VERTEX
8
0
10
8.6357
20
6.5701
42
0.0116
0
VERTEX
8
0
10
8.3793
20
6.5455
42
0.0106
0
VERTEX
8
0
10
8.1240
20
6.5106
42
0.0077
0
VERTEX
8
0
10
7.9971
20
6.4881
42
0.0110
0
VERTEX
8
0
10
7.8712
20
6.4606
42
0.0182
0
VERTEX
8
0
10
7.7474
20
6.4254
42
0.0164
0
VERTEX
8
0
10
7.6869
20
6.4030
42
0.0273
0
VERTEX
8
0
10
7.6288
20
6.3751
42
-0.0264
0
VERTEX
8
0
10
7.6717
20
6.4468
42
-0.0155
0
VERTEX
8
0
10
7.7198
20
6.5154
42
-0.0271
0
VERTEX
8
0
10
7.8269
20
6.6439
42
-0.0522
0
VERTEX
8
0
10
8.0784
20
6.8641
42
-0.0539
0
VERTEX
8
0
10
8.3706
20
7.0261
0
SEQEND
8
0
0
POLYLINE
8
Layer 1
66
1
0
VERTEX
8
0
10
7.5321
20
8.5457
42
0.0218
0
VERTEX
8
0
10
7.5724
20
8.5599
42
0.0132
0
VERTEX
8
0
10
7.6118
20
8.5765
42
0.0238
0
VERTEX
8
0
10
7.6880
20
8.6152
42
0.0502
0
VERTEX
8
0
10
7.8272
20
8.7143
42
0.0615
0
VERTEX
8
0
10
7.9400
20
8.8422
42
0.0715
0
VERTEX
8
0
10
8.0139
20
8.9958
42
0.0182
0
VERTEX
8
0
10
8.0821
20
8.9952
42
0.0110
0
VERTEX
8
0
10
8.1504
20
8.9981
42
0.0190
0
VERTEX
8
0
10
8.2863
20
9.0118
42
0.0373
0
VERTEX
8
0
10
8.5533
20
9.0692
42
0.0419
0
VERTEX
8
0
10
8.8075
20
9.1684
42
0.0484
0
VERTEX
8
0
10
9.0392
20
9.3126
42
-0.0213
0
VERTEX
8
0
10
9.3126
20
9.0392
42
0.0503
0
VERTEX
8
0
10
9.1684
20
8.8075
42
0.0441
0
VERTEX
8
0
10
9.0692
20
8.5533
42
0.0383
0
VERTEX
8
0
10
9.0118
20
8.2863
42
0.0186
0
VERTEX
8
0
10
8.9981
20
8.1504
42
0.0230
0
VERTEX
8
0
10
8.9958
20
8.0139
42
0.0728
0
VERTEX
8
0
10
8.8422
20
7.9400
42
0.0656
0
VERTEX
8
0
10
8.7142
20
7.8272
42
0.0535
0
VERTEX
8
0
10
8.6152
20
7.6880
42
0.0237
0
VERTEX
8
0
10
8.5765
20
7.6118
42
0.0275
0
VERTEX
8
0
10
8.5457
20
7.5321
42
0.0300
0
VERTEX
8
0
10
8.3382
20
7.5196
42
0.0378
0
VERTEX
8
0
10
8.1347
20
7.4783
42
0.0462
0
VERTEX
8
0
10
7.9415
20
7.4024
42
0.0530
0
VERTEX
8
0
10
7.7677
20
7.2892
42
0.0547
0
VERTEX
8
0
10
7.6224
20
7.1411
42
0.0512
0
VERTEX
8
0
10
7.5111
20
6.9659
42
0.0458
0
VERTEX
8
0
10
7.4350
20
6.7727
42
0.0222
0
VERTEX
8
0
10
7.4100
20
6.6719
42
0.0123
0
VERTEX
8
0
10
7.4011
20
6.6207
42
0.0074
0
VERTEX
8
0
10
7.3977
20
6.5949
42
0.0107
0
VERTEX
8
0
10
7.3954
20
6.5701
42
0.0387
0
VERTEX
8
0
10
7.3462
20
6.5215
42
0.0245
0
VERTEX
8
0
10
7.3028
20
6.4676
42
0.0294
0
VERTEX
8
0
10
7.2270
20
6.3518
0
VERTEX
8
0
10
7.2270
20
6.1834
0
VERTEX
8
0
10
6.4968
20
6.1834
42
0.2183
0
VERTEX
8
0
10
6.1834
20
6.4968
0
VERTEX
8
0
10
6.1834
20
7.2270
0
VERTEX
8
0
10
6.3518
20
7.2270
42
0.0236
0
VERTEX
8
0
10
6.4676
20
7.3028
42
0.0206
0
VERTEX
8
0
10
6.5215
20
7.3462
42
0.0323
0
VERTEX
8
0
10
6.5701
20
7.3954
42
0.0202
0
VERTEX
8
0
10
6.6217
20
7.4013
42
0.0130
0
VERTEX
8
0
10
6.6729
20
7.4102
42
0.0227
0
VERTEX
8
0
10
6.7737
20
7.4353
42
0.0446
0
VERTEX
8
0
10
6.9668
20
7.5116
42
0.0494
0
VERTEX
8
0
10
7.1419
20
7.6231
42
0.0539
0
VERTEX
8
0
10
7.2898
20
7.7685
42
0.0541
0
VERTEX
8
0
10
7.4029
20
7.9425
42
0.0489
0
VERTEX
8
0
10
7.4786
20
8.1358
42
0.0406
0
VERTEX
8
0
10
7.5198
20
8.3393
42
0.0168
0
VERTEX
8
0
10
7.5292
20
8.4428
42
0.0076
0
VERTEX
8
0
10
7.5314
20
8.4947
42
0.0037
0
VERTEX
8
0
10
7.5319
20
8.5207
42
0.0034
0
VERTEX
8
0
10
7.5321
20
8.5457
0
SEQEND
8
0
0
POLYLINE
8
Layer 1
66
1
0
VERTEX
8
0
10
6.5701
20
8.6357
0
VERTEX
8
0
10
7.1220
20
8.6907
42
-0.0526
0
VERTEX
8
0
10
7.0259
20
8.3704
42
-0.0543
0
VERTEX
8
0
10
6.8634
20
8.0780
42
-0.0527
0
VERTEX
8
0
10
6.6427
20
7.8267
42
-0.0264
0
VERTEX
8
0
10
6.5139
20
7.7197
42
-0.0148
0
VERTEX
8
0
10
6.4452
20
7.6717
42
-0.0201
0
VERTEX
8
0
10
6.3734
20
7.6288
42
0.0319
0
VERTEX
8
0
10
6.4013
20
7.6868
42
0.0190
0
VERTEX
8
0
10
6.4238
20
7.7472
42
0.0224
0
VERTEX
8
0
10
6.4592
20
7.8711
42
0.0127
0
VERTEX
8
0
10
6.4869
20
7.9969
42
0.0086
0
VERTEX
8
0
10
6.5096
20
8.1238
42
0.0121
0
VERTEX
8
0
10
6.5450
20
8.3791
42
0.0096
0
VERTEX
8
0
10
6.5701
20
8.6357
0
SEQEND
8
0
0
POLYLINE
8
Layer 1
66
1
0
VERTEX
8
0
10
6.4101
20
9.3009
42
-0.0159
0
VERTEX
8
0
10
6.4635
20
9.3986
42
-0.0096
0
VERTEX
8
0
10
6.5211
20
9.4941
42
-0.0180
0
VERTEX
8
0
10
6.6465
20
9.6784
42
-0.0197
0
VERTEX
8
0
10
6.7855
20
9.8527
42
-0.0238
0
VERTEX
8
0
10
6.9395
20
10.0138
42
-0.0301
0
VERTEX
8
0
10
7.1104
20
10.1568
42
-0.0394
0
VERTEX
8
0
10
7.3000
20
10.2736
42
-0.0513
0
VERTEX
8
0
10
7.5080
20
10.3527
42
-0.0304
0
VERTEX
8
0
10
7.6174
20
10.3739
42
-0.0322
0
VERTEX
8
0
10
7.7288
20
10.3812
42
-0.0283
0
VERTEX
8
0
10
7.8784
20
10.3728
42
-0.0344
0
VERTEX
8
0
10
8.0256
20
10.3451
42
-0.0408
0
VERTEX
8
0
10
8.1667
20
10.2952
42
-0.0460
0
VERTEX
8
0
10
8.2967
20
10.2212
42
-0.0962
0
VERTEX
8
0
10
8.5035
20
10.0068
42
-0.0444
0
VERTEX
8
0
10
8.5741
20
9.8748
42
-0.0225
0
VERTEX
8
0
10
8.6003
20
9.8046
42
-0.0127
0
VERTEX
8
0
10
8.6109
20
9.7687
42
-0.0179
0
VERTEX
8
0
10
8.6191
20
9.7327
42
0.0527
0
VERTEX
8
0
10
8.5606
20
9.7707
42
0.0243
0
VERTEX
8
0
10
8.4976
20
9.8009
42
0.0246
0
VERTEX
8
0
10
8.3667
20
9.8498
42
0.0125
0
VERTEX
8
0
10
8.2330
20
9.8904
42
0.0079
0
VERTEX
8
0
10
8.0979
20
9.9260
42
0.0108
0
VERTEX
8
0
10
7.8253
20
9.9875
42
0.0083
0
VERTEX
8
0
10
7.5504
20
10.0394
42
-0.0507
0
VERTEX
8
0
10
7.5941
20
9.8180
42
-0.0469
0
VERTEX
8
0
10
7.5943
20
9.5923
42
-0.0424
0
VERTEX
8
0
10
7.5552
20
9.3699
42
-0.0209
0
VERTEX
8
0
10
7.5220
20
9.2619
42
-0.0258
0
VERTEX
8
0
10
7.4787
20
9.1575
0
VERTEX
8
0
10
6.8369
20
9.1942
42
0.0451
0
VERTEX
8
0
10
6.8057
20
9.2483
42
0.0591
0
VERTEX
8
0
10
6.7637
20
9.2943
42
0.1379
0
VERTEX
8
0
10
6.6515
20
9.3458
42
0.0546
0
VERTEX
8
0
10
6.5892
20
9.3495
42
0.0421
0
VERTEX
8
0
10
6.5273
20
9.3417
42
0.0335
0
VERTEX
8
0
10
6.4671
20
9.3250
42
0.0155
0
VERTEX
8
0
10
6.4379
20
9.3138
42
0.0086
0
VERTEX
8
0
10
6.4236
20
9.3075
42
0.0116
0
VERTEX
8
0
10
6.4101
20
9.3009
0
SEQEND
8
0
0
POLYLINE
8
Layer 1
66
1
0
VERTEX
8
0
10
5.9650
20
9.2659
42
0.0128
0
VERTEX
8
0
10
5.8884
20
9.4154
42
0.0084
0
VERTEX
8
0
10
5.8064
20
9.5621
42
0.0189
0
VERTEX
8
0
10
5.6266
20
9.8459
42
0.0134
0
VERTEX
8
0
10
5.5270
20
9.9813
42
0.0180
0
VERTEX
8
0
10
5.4189
20
10.1099
42
0.0267
0
VERTEX
8
0
10
5.2992
20
10.2277
42
0.0200
0
VERTEX
8
0
10
5.2336
20
10.2802
42
0.0268
0
VERTEX
8
0
10
5.1631
20
10.3262
42
-0.0271
0
VERTEX
8
0
10
5.2094
20
10.3358
42
-0.0171
0
VERTEX
8
0
10
5.2563
20
10.3419
42
-0.0332
0
VERTEX
8
0
10
5.3508
20
10.3446
42
-0.0368
0
VERTEX
8
0
10
5.4447
20
10.3340
42
-0.0426
0
VERTEX
8
0
10
5.5356
20
10.3083
42
-0.0984
0
VERTEX
8
0
10
5.6948
20
10.2084
42
-0.0481
0
VERTEX
8
0
10
5.7567
20
10.1370
42
-0.0414
0
VERTEX
8
0
10
5.8049
20
10.0561
42
-0.0255
0
VERTEX
8
0
10
5.7973
20
10.1301
42
-0.0190
0
VERTEX
8
0
10
5.7953
20
10.2044
42
-0.0223
0
VERTEX
8
0
10
5.7997
20
10.2786
42
-0.0297
0
VERTEX
8
0
10
5.8120
20
10.3520
42
-0.0428
0
VERTEX
8
0
10
5.8353
20
10.4225
42
-0.0642
0
VERTEX
8
0
10
5.8737
20
10.4859
42
-0.0891
0
VERTEX
8
0
10
5.9301
20
10.5337
42
-0.0912
0
VERTEX
8
0
10
6.0000
20
10.5579
42
-0.0849
0
VERTEX
8
0
10
6.0699
20
10.5337
42
-0.0937
0
VERTEX
8
0
10
6.1264
20
10.4859
42
-0.0730
0
VERTEX
8
0
10
6.1648
20
10.4224
42
-0.0490
0
VERTEX
8
0
10
6.1880
20
10.3519
42
-0.0332
0
VERTEX
8
0
10
6.2003
20
10.2786
42
-0.0243
0
VERTEX
8
0
10
6.2047
20
10.2043
42
-0.0391
0
VERTEX
8
0
10
6.1951
20
10.0561
42
-0.0394
0
VERTEX
8
0
10
6.2435
20
10.1373
42
-0.0463
0
VERTEX
8
0
10
6.3054
20
10.2086
42
-0.1006
0
VERTEX
8
0
10
6.4647
20
10.3084
42
-0.0449
0
VERTEX
8
0
10
6.5557
20
10.3340
42
-0.0387
0
VERTEX
8
0
10
6.6496
20
10.3446
42
-0.0339
0
VERTEX
8
0
10
6.7441
20
10.3419
42
-0.0167
0
VERTEX
8
0
10
6.7910
20
10.3358
42
-0.0095
0
VERTEX
8
0
10
6.8142
20
10.3315
42
-0.0131
0
VERTEX
8
0
10
6.8369
20
10.3262
42
0.0293
0
VERTEX
8
0
10
6.7666
20
10.2804
42
0.0219
0
VERTEX
8
0
10
6.7010
20
10.2278
42
0.0311
0
VERTEX
8
0
10
6.5813
20
10.1101
42
0.0204
0
VERTEX
8
0
10
6.4731
20
9.9815
42
0.0146
0
VERTEX
8
0
10
6.3736
20
9.8461
42
0.0214
0
VERTEX
8
0
10
6.1937
20
9.5623
42
0.0176
0
VERTEX
8
0
10
6.0350
20
9.2659
0
VERTEX
8
0
10
6.0000
20
9.2659
0
VERTEX
8
0
10
5.9650
20
9.2659
0
SEQEND
8
0
0
POLYLINE
8
Layer 1
66
1
0
VERTEX
8
0
10
5.5899
20
8.6007
42
-0.0920
0
VERTEX
8
0
10
5.6083
20
8.6682
42
-0.0665
0
VERTEX
8
0
10
5.6460
20
8.7273
42
-0.0434
0
VERTEX
8
0
10
5.6949
20
8.7778
42
-0.0295
0
VERTEX
8
0
10
5.7501
20
8.8212
42
-0.0396
0
VERTEX
8
0
10
5.8710
20
8.8929
42
-0.0278
0
VERTEX
8
0
10
6.0000
20
8.9491
42
-0.0290
0
VERTEX
8
0
10
6.1288
20
8.8929
42
-0.0336
0
VERTEX
8
0
10
6.2497
20
8.8213
42
-0.0262
0
VERTEX
8
0
10
6.3050
20
8.7779
42
-0.0378
0
VERTEX
8
0
10
6.3539
20
8.7275
42
-0.0578
0
VERTEX
8
0
10
6.3917
20
8.6683
42
-0.0847
0
VERTEX
8
0
10
6.4101
20
8.6007
42
-0.0416
0
VERTEX
8
0
10
6.4100
20
8.5708
42
-0.0262
0
VERTEX
8
0
10
6.4061
20
8.5411
42
-0.0316
0
VERTEX
8
0
10
6.3920
20
8.4828
42
-0.0314
0
VERTEX
8
0
10
6.3508
20
8.3702
42
-0.0155
0
VERTEX
8
0
10
6.3009
20
8.2611
42
-0.0098
0
VERTEX
8
0
10
6.2460
20
8.1544
42
-0.0127
0
VERTEX
8
0
10
6.1273
20
7.9459
42
-0.0092
0
VERTEX
8
0
10
6.0000
20
7.7421
42
-0.0200
0
VERTEX
8
0
10
5.7542
20
8.1541
42
-0.0086
0
VERTEX
8
0
10
5.6993
20
8.2608
42
-0.0130
0
VERTEX
8
0
10
5.6493
20
8.3698
42
-0.0237
0
VERTEX
8
0
10
5.6081
20
8.4824
42
-0.0254
0
VERTEX
8
0
10
5.5939
20
8.5407
42
-0.0227
0
VERTEX
8
0
10
5.5900
20
8.5705
42
-0.0363
0
VERTEX
8
0
10
5.5899
20
8.6007
0
SEQEND
8
0
0
POLYLINE
8
Layer 1
66
1
0
VERTEX
8
0
10
4.8780
20
8.6907
42
0.0537
0
VERTEX
8
0
10
4.9741
20
8.3704
42
0.0542
0
VERTEX
8
0
10
5.1366
20
8.0781
42
0.0522
0
VERTEX
8
0
10
5.3572
20
7.8267
42
0.0272
0
VERTEX
8
0
10
5.4860
20
7.7197
42
0.0155
0
VERTEX
8
0
10
5.5547
20
7.6717
42
0.0264
0
VERTEX
8
0
10
5.6266
20
7.6288
42
-0.0272
0
VERTEX
8
0
10
5.5986
20
7.6869
42
-0.0163
0
VERTEX
8
0
10
5.5762
20
7.7474
42
-0.0182
0
VERTEX
8
0
10
5.5408
20
7.8712
42
-0.0110
0
VERTEX
8
0
10
5.5131
20
7.9971
42
-0.0077
0
VERTEX
8
0
10
5.4904
20
8.1240
42
-0.0105
0
VERTEX
8
0
10
5.4550
20
8.3793
42
-0.0115
0
VERTEX
8
0
10
5.4299
20
8.6357
0
VERTEX
8
0
10
4.8780
20
8.6907
0
SEQEND
8
0
0
POLYLINE
8
Layer 1
66
1
0
VERTEX
8
0
10
3.3809
20
9.7327
42
-0.0350
0
VERTEX
8
0
10
3.3999
20
9.8051
42
-0.0232
0
VERTEX
8
0
10
3.4261
20
9.8753
42
-0.0440
0
VERTEX
8
0
10
3.4968
20
10.0072
42
-0.0940
0
VERTEX
8
0
10
3.7037
20
10.2215
42
-0.0471
0
VERTEX
8
0
10
3.8338
20
10.2954
42
-0.0427
0
VERTEX
8
0
10
3.9749
20
10.3453
42
-0.0365
0
VERTEX
8
0
10
4.1221
20
10.3728
42
-0.0156
0
VERTEX
8
0
10
4.1967
20
10.3792
42
-0.0072
0
VERTEX
8
0
10
4.2342
20
10.3807
42
-0.0067
0
VERTEX
8
0
10
4.2712
20
10.3812
42
-0.0642
0
VERTEX
8
0
10
4.4917
20
10.3528
42
-0.0554
0
VERTEX
8
0
10
4.6998
20
10.2737
42
-0.0433
0
VERTEX
8
0
10
4.8894
20
10.1570
42
-0.0329
0
VERTEX
8
0
10
5.0603
20
10.0140
42
-0.0255
0
VERTEX
8
0
10
5.2143
20
9.8529
42
-0.0208
0
VERTEX
8
0
10
5.3533
20
9.6786
42
-0.0183
0
VERTEX
8
0
10
5.4788
20
9.4943
42
-0.0199
0
VERTEX
8
0
10
5.5899
20
9.3009
42
0.0400
0
VERTEX
8
0
10
5.5324
20
9.3252
42
0.0321
0
VERTEX
8
0
10
5.4721
20
9.3418
42
0.0389
0
VERTEX
8
0
10
5.4102
20
9.3495
42
0.0503
0
VERTEX
8
0
10
5.3479
20
9.3457
42
0.0633
0
VERTEX
8
0
10
5.2883
20
9.3275
42
0.0698
0
VERTEX
8
0
10
5.2358
20
9.2940
42
0.0634
0
VERTEX
8
0
10
5.1939
20
9.2478
42
0.0258
0
VERTEX
8
0
10
5.1771
20
9.2215
42
0.0115
0
VERTEX
8
0
10
5.1697
20
9.2077
42
0.0100
0
VERTEX
8
0
10
5.1631
20
9.1942
0
VERTEX
8
0
10
4.5213
20
9.1575
42
-0.0221
0
VERTEX
8
0
10
4.4982
20
9.2091
42
-0.0124
0
VERTEX
8
0
10
4.4780
20
9.2619
42
-0.0215
0
VERTEX
8
0
10
4.4448
20
9.3699
42
-0.0414
0
VERTEX
8
0
10
4.4057
20
9.5923
42
-0.0453
0
VERTEX
8
0
10
4.4059
20
9.8180
42
-0.0497
0
VERTEX
8
0
10
4.4496
20
10.0394
42
0.0100
0
VERTEX
8
0
10
4.1750
20
9.9875
42
0.0092
0
VERTEX
8
0
10
3.9024
20
9.9260
42
0.0070
0
VERTEX
8
0
10
3.7672
20
9.8905
42
0.0105
0
VERTEX
8
0
10
3.6335
20
9.8499
42
0.0189
0
VERTEX
8
0
10
3.5026
20
9.8010
42
0.0197
0
VERTEX
8
0
10
3.4396
20
9.7709
42
0.0172
0
VERTEX
8
0
10
3.4095
20
9.7532
42
0.0282
0
VERTEX
8
0
10
3.3809
20
9.7327
0
SEQEND
8
0
0
POLYLINE
8
Layer 1
66
1
0
VERTEX
8
0
10
2.2673
20
8.6191
42
0.0179
0
VERTEX
8
0
10
2.2313
20
8.6109
42
0.0127
0
VERTEX
8
0
10
2.1954
20
8.6003
42
0.0225
0
VERTEX
8
0
10
2.1252
20
8.5741
42
0.0444
0
VERTEX
8
0
10
1.9932
20
8.5035
42
0.0962
0
VERTEX
8
0
10
1.7788
20
8.2967
42
0.0460
0
VERTEX
8
0
10
1.7048
20
8.1667
42
0.0408
0
VERTEX
8
0
10
1.6549
20
8.0256
42
0.0344
0
VERTEX
8
0
10
1.6272
20
7.8784
42
0.0283
0
VERTEX
8
0
10
1.6188
20
7.7288
42
0.0322
0
VERTEX
8
0
10
1.6261
20
7.6174
42
0.0304
0
VERTEX
8
0
10
1.6473
20
7.5080
42
0.0513
0
VERTEX
8
0
10
1.7264
20
7.3000
42
0.0394
0
VERTEX
8
0
10
1.8432
20
7.1104
42
0.0301
0
VERTEX
8
0
10
1.9862
20
6.9395
42
0.0238
0
VERTEX
8
0
10
2.1473
20
6.7855
42
0.0197
0
VERTEX
8
0
10
2.3216
20
6.6465
42
0.0180
0
VERTEX
8
0
10
2.5059
20
6.5211
42
0.0096
0
VERTEX
8
0
10
2.6014
20
6.4635
42
0.0159
0
VERTEX
8
0
10
2.6991
20
6.4101
42
-0.0116
0
VERTEX
8
0
10
2.6925
20
6.4236
42
-0.0086
0
VERTEX
8
0
10
2.6862
20
6.4379
42
-0.0155
0
VERTEX
8
0
10
2.6750
20
6.4671
42
-0.0335
0
VERTEX
8
0
10
2.6583
20
6.5273
42
-0.0421
0
VERTEX
8
0
10
2.6505
20
6.5892
42
-0.0546
0
VERTEX
8
0
10
2.6542
20
6.6515
42
-0.1379
0
VERTEX
8
0
10
2.7057
20
6.7637
42
-0.0591
0
VERTEX
8
0
10
2.7517
20
6.8057
42
-0.0451
0
VERTEX
8
0
10
2.8058
20
6.8369
0
VERTEX
8
0
10
2.8425
20
7.4787
42
0.0257
0
VERTEX
8
0
10
2.7381
20
7.5219
42
0.0208
0
VERTEX
8
0
10
2.6301
20
7.5551
42
0.0423
0
VERTEX
8
0
10
2.4077
20
7.5942
42
0.0469
0
VERTEX
8
0
10
2.1820
20
7.5940
42
0.0509
0
VERTEX
8
0
10
1.9606
20
7.5504
42
-0.0082
0
VERTEX
8
0
10
2.0125
20
7.8253
42
-0.0106
0
VERTEX
8
0
10
2.0740
20
8.0979
42
-0.0079
0
VERTEX
8
0
10
2.1096
20
8.2330
42
-0.0124
0
VERTEX
8
0
10
2.1502
20
8.3667
42
-0.0247
0
VERTEX
8
0
10
2.1991
20
8.4976
42
-0.0243
0
VERTEX
8
0
10
2.2293
20
8.5606
42
-0.0527
0
VERTEX
8
0
10
2.2673
20
8.6191
0
SEQEND
8
0
0
POLYLINE
8
Layer 1
66
1
0
VERTEX
8
0
10
2.6858
20
9.0409
42
-0.0213
0
VERTEX
8
0
10
2.9592
20
9.3142
42
0.0505
0
VERTEX
8
0
10
3.1910
20
9.1694
42
0.0441
0
VERTEX
8
0
10
3.4457
20
9.0697
42
0.0383
0
VERTEX
8
0
10
3.7131
20
9.0120
42
0.0186
0
VERTEX
8
0
10
3.8493
20
8.9981
42
0.0230
0
VERTEX
8
0
10
3.9861
20
8.9958
42
0.0726
0
VERTEX
8
0
10
4.0600
20
8.8422
42
0.0656
0
VERTEX
8
0
10
4.1729
20
8.7142
42
0.0534
0
VERTEX
8
0
10
4.3120
20
8.6152
42
0.0238
0
VERTEX
8
0
10
4.3882
20
8.5765
42
0.0274
0
VERTEX
8
0
10
4.4679
20
8.5457
42
0.0300
0
VERTEX
8
0
10
4.4804
20
8.3382
42
0.0378
0
VERTEX
8
0
10
4.5217
20
8.1347
42
0.0462
0
VERTEX
8
0
10
4.5976
20
7.9415
42
0.0530
0
VERTEX
8
0
10
4.7108
20
7.7677
42
0.0547
0
VERTEX
8
0
10
4.8589
20
7.6224
42
0.0512
0
VERTEX
8
0
10
5.0341
20
7.5111
42
0.0458
0
VERTEX
8
0
10
5.2273
20
7.4350
42
0.0222
0
VERTEX
8
0
10
5.3281
20
7.4100
42
0.0123
0
VERTEX
8
0
10
5.3793
20
7.4011
42
0.0074
0
VERTEX
8
0
10
5.4051
20
7.3977
42
0.0107
0
VERTEX
8
0
10
5.4299
20
7.3954
42
0.0387
0
VERTEX
8
0
10
5.4785
20
7.3462
42
0.0245
0
VERTEX
8
0
10
5.5324
20
7.3028
42
0.0294
0
VERTEX
8
0
10
5.6482
20
7.2270
0
VERTEX
8
0
10
5.8166
20
7.2270
0
VERTEX
8
0
10
5.8166
20
6.4951
42
0.1076
0
VERTEX
8
0
10
5.6258
20
6.3735
42
0.1089
0
VERTEX
8
0
10
5.5032
20
6.1834
0
VERTEX
8
0
10
4.7730
20
6.1834
0
VERTEX
8
0
10
4.7730
20
6.3518
42
0.0236
0
VERTEX
8
0
10
4.6972
20
6.4676
42
0.0206
0
VERTEX
8
0
10
4.6538
20
6.5215
42
0.0323
0
VERTEX
8
0
10
4.6046
20
6.5701
42
0.0202
0
VERTEX
8
0
10
4.5987
20
6.6217
42
0.0130
0
VERTEX
8
0
10
4.5898
20
6.6729
42
0.0227
0
VERTEX
8
0
10
4.5647
20
6.7737
42
0.0446
0
VERTEX
8
0
10
4.4884
20
6.9668
42
0.0494
0
VERTEX
8
0
10
4.3769
20
7.1419
42
0.0539
0
VERTEX
8
0
10
4.2315
20
7.2898
42
0.0541
0
VERTEX
8
0
10
4.0575
20
7.4029
42
0.0489
0
VERTEX
8
0
10
3.8642
20
7.4786
42
0.0406
0
VERTEX
8
0
10
3.6607
20
7.5198
42
0.0168
0
VERTEX
8
0
10
3.5572
20
7.5292
42
0.0076
0
VERTEX
8
0
10
3.5053
20
7.5314
42
0.0037
0
VERTEX
8
0
10
3.4793
20
7.5319
42
0.0034
0
VERTEX
8
0
10
3.4543
20
7.5321
42
0.0365
0
VERTEX
8
0
10
3.4235
20
7.6118
42
0.0238
0
VERTEX
8
0
10
3.3848
20
7.6880
42
0.0503
0
VERTEX
8
0
10
3.2858
20
7.8272
42
0.0615
0
VERTEX
8
0
10
3.1578
20
7.9400
42
0.0716
0
VERTEX
8
0
10
3.0042
20
8.0139
42
0.0181
0
VERTEX
8
0
10
3.0047
20
8.0823
42
0.0110
0
VERTEX
8
0
10
3.0019
20
8.1507
42
0.0190
0
VERTEX
8
0
10
2.9880
20
8.2869
42
0.0373
0
VERTEX
8
0
10
2.9303
20
8.5543
42
0.0420
0
VERTEX
8
0
10
2.8306
20
8.8090
42
0.0485
0
VERTEX
8
0
10
2.6858
20
9.0409
0
SEQEND
8
0
0
POLYLINE
8
Layer 1
66
1
0
VERTEX
8
0
10
0.5618
20
11.4382
0
VERTEX
8
0
10
5.4299
20
11.4382
42
-0.0107
0
VERTEX
8
0
10
5.2381
20
11.3524
42
-0.0087
0
VERTEX
8
0
10
5.0432
20
11.2739
42
-0.0166
0
VERTEX
8
0
10
4.6463
20
11.1364
42
0.0493
0
VERTEX
8
0
10
4.5437
20
11.1659
42
0.0428
0
VERTEX
8
0
10
4.4375
20
11.1764
42
0.0348
0
VERTEX
8
0
10
4.3308
20
11.1710
42
0.0276
0
VERTEX
8
0
10
4.2255
20
11.1529
42
0.0221
0
VERTEX
8
0
10
4.1224
20
11.1249
42
0.0180
0
VERTEX
8
0
10
4.0218
20
11.0890
42
0.0279
0
VERTEX
8
0
10
3.8277
20
10.9996
42
0.0202
0
VERTEX
8
0
10
3.6424
20
10.8931
42
0.0159
0
VERTEX
8
0
10
3.4649
20
10.7741
42
0.0136
0
VERTEX
8
0
10
3.2944
20
10.6451
42
0.0068
0
VERTEX
8
0
10
3.2118
20
10.5772
42
0.0040
0
VERTEX
8
0
10
3.1713
20
10.5424
42
0.0023
0
VERTEX
8
0
10
3.1513
20
10.5247
42
0.0037
0
VERTEX
8
0
10
3.1309
20
10.5062
42
0.0263
0
VERTEX
8
0
10
3.0870
20
10.5148
42
0.0171
0
VERTEX
8
0
10
3.0425
20
10.5199
42
0.0216
0
VERTEX
8
0
10
2.9531
20
10.5236
42
0.0231
0
VERTEX
8
0
10
2.7742
20
10.5162
42
0.0129
0
VERTEX
8
0
10
2.5961
20
10.4976
42
0.0105
0
VERTEX
8
0
10
2.4190
20
10.4712
42
0.0222
0
VERTEX
8
0
10
2.4395
20
10.2692
42
0.0261
0
VERTEX
8
0
10
2.4798
20
10.0702
42
0.0302
0
VERTEX
8
0
10
2.5428
20
9.8773
42
0.0343
0
VERTEX
8
0
10
2.6307
20
9.6944
42
0.0228
0
VERTEX
8
0
10
2.3056
20
9.3693
42
0.0355
0
VERTEX
8
0
10
2.1227
20
9.4572
42
0.0318
0
VERTEX
8
0
10
1.9298
20
9.5202
42
0.0277
0
VERTEX
8
0
10
1.7308
20
9.5605
42
0.0234
0
VERTEX
8
0
10
1.5288
20
9.5810
42
0.0133
0
VERTEX
8
0
10
1.5024
20
9.4039
42
0.0116
0
VERTEX
8
0
10
1.4838
20
9.2259
42
0.0184
0
VERTEX
8
0
10
1.4764
20
9.0470
42
0.0179
0
VERTEX
8
0
10
1.4800
20
8.9576
42
0.0347
0
VERTEX
8
0
10
1.4938
20
8.8691
42
0.0119
0
VERTEX
8
0
10
1.4234
20
8.7889
42
0.0071
0
VERTEX
8
0
10
1.3554
20
8.7063
42
0.0134
0
VERTEX
8
0
10
1.2264
20
8.5359
42
0.0149
0
VERTEX
8
0
10
1.1074
20
8.3584
42
0.0185
0
VERTEX
8
0
10
1.0008
20
8.1731
42
0.0248
0
VERTEX
8
0
10
0.9113
20
7.9791
42
0.0168
0
VERTEX
8
0
10
0.8754
20
7.8784
42
0.0205
0
VERTEX
8
0
10
0.8473
20
7.7753
42
0.0256
0
VERTEX
8
0
10
0.8291
20
7.6701
42
0.0322
0
VERTEX
8
0
10
0.8236
20
7.5634
42
0.0399
0
VERTEX
8
0
10
0.8340
20
7.4572
42
0.0233
0
VERTEX
8
0
10
0.8461
20
7.4051
42
0.0121
0
VERTEX
8
0
10
0.8540
20
7.3797
42
0.0129
0
VERTEX
8
0
10
0.8636
20
7.3537
42
-0.0081
0
VERTEX
8
0
10
0.8319
20
7.2536
42
-0.0043
0
VERTEX
8
0
10
0.7983
20
7.1541
42
-0.0079
0
VERTEX
8
0
10
0.7261
20
6.9568
42
-0.0177
0
VERTEX
8
0
10
0.5618
20
6.5701
0
VERTEX
8
0
10
0.5618
20
11.4382
0
SEQEND
8
0
0
POLYLINE
8
Layer 1
66
1
0
VERTEX
8
0
10
0.0000
20
12.0000
0
VERTEX
8
0
10
0.0000
20
0.0000
0
VERTEX
8
0
10
12.0000
20
0.0000
0
VERTEX
8
0
10
12.0000
20
12.0000
0
VERTEX
8
0
10
0.0000
20
12.0000
0
SEQEND
8
0
0
POLYLINE
8
Layer 1
66
1
0
VERTEX
8
0
10
6.5701
20
11.4382
0
VERTEX
8
0
10
11.4382
20
11.4382
0
VERTEX
8
0
10
11.4382
20
6.5701
42
-0.0107
0
VERTEX
8
0
10
11.3524
20
6.7619
42
-0.0087
0
VERTEX
8
0
10
11.2739
20
6.9568
42
-0.0166
0
VERTEX
8
0
10
11.1364
20
7.3537
42
0.0494
0
VERTEX
8
0
10
11.1659
20
7.4563
42
0.0428
0
VERTEX
8
0
10
11.1764
20
7.5625
42
0.0348
0
VERTEX
8
0
10
11.1710
20
7.6692
42
0.0277
0
VERTEX
8
0
10
11.1529
20
7.7745
42
0.0220
0
VERTEX
8
0
10
11.1249
20
7.8776
42
0.0178
0
VERTEX
8
0
10
11.0890
20
7.9782
42
0.0279
0
VERTEX
8
0
10
10.9996
20
8.1723
42
0.0203
0
VERTEX
8
0
10
10.8931
20
8.3576
42
0.0159
0
VERTEX
8
0
10
10.7741
20
8.5351
42
0.0136
0
VERTEX
8
0
10
10.6451
20
8.7056
42
0.0068
0
VERTEX
8
0
10
10.5772
20
8.7882
42
0.0039
0
VERTEX
8
0
10
10.5424
20
8.8287
42
0.0024
0
VERTEX
8
0
10
10.5248
20
8.8487
42
0.0036
0
VERTEX
8
0
10
10.5062
20
8.8691
42
0.0263
0
VERTEX
8
0
10
10.5148
20
8.9130
42
0.0169
0
VERTEX
8
0
10
10.5199
20
8.9575
42
0.0216
0
VERTEX
8
0
10
10.5236
20
9.0469
42
0.0231
0
VERTEX
8
0
10
10.5162
20
9.2258
42
0.0131
0
VERTEX
8
0
10
10.4976
20
9.4039
42
0.0103
0
VERTEX
8
0
10
10.4712
20
9.5810
42
0.0222
0
VERTEX
8
0
10
10.2692
20
9.5605
42
0.0261
0
VERTEX
8
0
10
10.0702
20
9.5202
42
0.0303
0
VERTEX
8
0
10
9.8773
20
9.4572
42
0.0343
0
VERTEX
8
0
10
9.6944
20
9.3693
42
0.0228
0
VERTEX
8
0
10
9.3693
20
9.6944
42
0.0355
0
VERTEX
8
0
10
9.4572
20
9.8773
42
0.0318
0
VERTEX
8
0
10
9.5202
20
10.0702
42
0.0277
0
VERTEX
8
0
10
9.5605
20
10.2692
42
0.0234
0
VERTEX
8
0
10
9.5810
20
10.4712
42
0.0133
0
VERTEX
8
0
10
9.4039
20
10.4976
42
0.0113
0
VERTEX
8
0
10
9.2259
20
10.5162
42
0.0184
0
VERTEX
8
0
10
9.0470
20
10.5236
42
0.0178
0
VERTEX
8
0
10
8.9576
20
10.5200
42
0.0348
0
VERTEX
8
0
10
8.8691
20
10.5062
42
0.0119
0
VERTEX
8
0
10
8.7889
20
10.5766
42
0.0071
0
VERTEX
8
0
10
8.7063
20
10.6446
42
0.0134
0
VERTEX
8
0
10
8.5359
20
10.7736
42
0.0149
0
VERTEX
8
0
10
8.3584
20
10.8926
42
0.0185
0
VERTEX
8
0
10
8.1731
20
10.9992
42
0.0248
0
VERTEX
8
0
10
7.9791
20
11.0887
42
0.0166
0
VERTEX
8
0
10
7.8784
20
11.1246
42
0.0204
0
VERTEX
8
0
10
7.7753
20
11.1527
42
0.0256
0
VERTEX
8
0
10
7.6701
20
11.1709
42
0.0322
0
VERTEX
8
0
10
7.5634
20
11.1764
42
0.0401
0
VERTEX
8
0
10
7.4572
20
11.1660
42
0.0233
0
VERTEX
8
0
10
7.4051
20
11.1539
42
0.0121
0
VERTEX
8
0
10
7.3797
20
11.1460
42
0.0130
0
VERTEX
8
0
10
7.3537
20
11.1364
42
-0.0081
0
VERTEX
8
0
10
7.2536
20
11.1681
42
-0.0043
0
VERTEX
8
0
10
7.1541
20
11.2017
42
-0.0079
0
VERTEX
8
0
10
6.9568
20
11.2739
42
-0.0177
0
VERTEX
8
0
10
6.5701
20
11.4382
0
SEQEND
8
0
0
POLYLINE
8
Layer 1
66
1
0
VERTEX
8
0
10
11.4382
20
5.4299
0
VERTEX
8
0
10
11.4382
20
0.5618
0
VERTEX
8
0
10
6.5701
20
0.5618
42
-0.0107
0
VERTEX
8
0
10
6.7619
20
0.6476
42
-0.0087
0
VERTEX
8
0
10
6.9568
20
0.7261
42
-0.0166
0
VERTEX
8
0
10
7.3537
20
0.8636
42
0.0493
0
VERTEX
8
0
10
7.4563
20
0.8341
42
0.0428
0
VERTEX
8
0
10
7.5625
20
0.8236
42
0.0348
0
VERTEX
8
0
10
7.6692
20
0.8290
42
0.0276
0
VERTEX
8
0
10
7.7745
20
0.8471
42
0.0221
0
VERTEX
8
0
10
7.8776
20
0.8751
42
0.0180
0
VERTEX
8
0
10
7.9782
20
0.9110
42
0.0279
0
VERTEX
8
0
10
8.1723
20
1.0004
42
0.0202
0
VERTEX
8
0
10
8.3576
20
1.1069
42
0.0159
0
VERTEX
8
0
10
8.5351
20
1.2259
42
0.0136
0
VERTEX
8
0
10
8.7056
20
1.3549
42
0.0068
0
VERTEX
8
0
10
8.7882
20
1.4228
42
0.0040
0
VERTEX
8
0
10
8.8287
20
1.4576
42
0.0023
0
VERTEX
8
0
10
8.8487
20
1.4753
42
0.0037
0
VERTEX
8
0
10
8.8691
20
1.4938
42
0.0263
0
VERTEX
8
0
10
8.9130
20
1.4852
42
0.0171
0
VERTEX
8
0
10
8.9575
20
1.4801
42
0.0216
0
VERTEX
8
0
10
9.0469
20
1.4764
42
0.0231
0
VERTEX
8
0
10
9.2258
20
1.4838
42
0.0129
0
VERTEX
8
0
10
9.4039
20
1.5024
42
0.0105
0
VERTEX
8
0
10
9.5810
20
1.5288
42
0.0222
0
VERTEX
8
0
10
9.5605
20
1.7308
42
0.0261
0
VERTEX
8
0
10
9.5202
20
1.9298
42
0.0302
0
VERTEX
8
0
10
9.4572
20
2.1227
42
0.0343
0
VERTEX
8
0
10
9.3693
20
2.3056
42
0.0228
0
VERTEX
8
0
10
9.6944
20
2.6307
42
0.0355
0
VERTEX
8
0
10
9.8773
20
2.5428
42
0.0318
0
VERTEX
8
0
10
10.0702
20
2.4798
42
0.0277
0
VERTEX
8
0
10
10.2692
20
2.4395
42
0.0234
0
VERTEX
8
0
10
10.4712
20
2.4190
42
0.0133
0
VERTEX
8
0
10
10.4976
20
2.5961
42
0.0116
0
VERTEX
8
0
10
10.5162
20
2.7741
42
0.0184
0
VERTEX
8
0
10
10.5236
20
2.9530
42
0.0179
0
VERTEX
8
0
10
10.5200
20
3.0424
42
0.0347
0
VERTEX
8
0
10
10.5062
20
3.1309
42
0.0119
0
VERTEX
8
0
10
10.5766
20
3.2111
42
0.0071
0
VERTEX
8
0
10
10.6446
20
3.2937
42
0.0134
0
VERTEX
8
0
10
10.7736
20
3.4641
42
0.0149
0
VERTEX
8
0
10
10.8926
20
3.6416
42
0.0185
0
VERTEX
8
0
10
10.9992
20
3.8269
42
0.0248
0
VERTEX
8
0
10
11.0887
20
4.0209
42
0.0168
0
VERTEX
8
0
10
11.1246
20
4.1216
42
0.0205
0
VERTEX
8
0
10
11.1527
20
4.2247
42
0.0256
0
VERTEX
8
0
10
11.1709
20
4.3299
42
0.0322
0
VERTEX
8
0
10
11.1764
20
4.4366
42
0.0399
0
VERTEX
8
0
10
11.1660
20
4.5428
42
0.0233
0
VERTEX
8
0
10
11.1539
20
4.5949
42
0.0121
0
VERTEX
8
0
10
11.1460
20
4.6203
42
0.0129
0
VERTEX
8
0
10
11.1364
20
4.6463
42
-0.0081
0
VERTEX
8
0
10
11.1681
20
4.7464
42
-0.0043
0
VERTEX
8
0
10
11.2017
20
4.8459
42
-0.0079
0
VERTEX
8
0
10
11.2739
20
5.0432
42
-0.0177
0
VERTEX
8
0
10
11.4382
20
5.4299
0
SEQEND
8
0
0
ENDSEC
0
EOF
