0
SECTION
2
HEADER
9
$ACADVER
1
AC1009
9
$ANGDIR
70
0
9
$EXTMIN
10
0
20
0
9
$EXTMAX
10
24.0000
20
18.0000
0
ENDSEC
0
SECTION
2
ENTITIES
0
POLYLINE
8
Layer 1
66
1
0
VERTEX
8
0
10
0.0000
20
12.0000
0
VERTEX
8
0
10
12.0000
20
12.0000
0
VERTEX
8
0
10
12.0000
20
0.0000
0
VERTEX
8
0
10
0.0000
20
0.0000
0
VERTEX
8
0
10
0.0000
20
12.0000
0
SEQEND
8
0
0
POLYLINE
8
Layer 1
66
1
0
VERTEX
8
0
10
1.2029
20
11.3184
0
VERTEX
8
0
10
5.6154
20
11.3184
42
0.0163
0
VERTEX
8
0
10
5.4955
20
11.1440
42
0.0192
0
VERTEX
8
0
10
5.3884
20
10.9614
42
0.0236
0
VERTEX
8
0
10
5.2978
20
10.7702
42
0.0297
0
VERTEX
8
0
10
5.2289
20
10.5702
42
0.0381
0
VERTEX
8
0
10
5.1886
20
10.3626
42
0.0479
0
VERTEX
8
0
10
5.1858
20
10.1513
42
0.0562
0
VERTEX
8
0
10
5.2281
20
9.9443
42
0.0579
0
VERTEX
8
0
10
5.3165
20
9.7527
42
0.0232
0
VERTEX
8
0
10
5.2230
20
9.7796
42
0.0154
0
VERTEX
8
0
10
5.1277
20
9.8001
42
0.0314
0
VERTEX
8
0
10
4.9343
20
9.8233
42
0.0391
0
VERTEX
8
0
10
4.7397
20
9.8184
42
0.0521
0
VERTEX
8
0
10
4.5496
20
9.7770
42
0.0679
0
VERTEX
8
0
10
4.3760
20
9.6899
42
0.0761
0
VERTEX
8
0
10
4.2354
20
9.5560
42
0.0675
0
VERTEX
8
0
10
4.1379
20
9.3879
42
0.0268
0
VERTEX
8
0
10
4.1047
20
9.2964
42
0.0117
0
VERTEX
8
0
10
4.0915
20
9.2495
42
0.0058
0
VERTEX
8
0
10
4.0856
20
9.2257
42
0.0022
0
VERTEX
8
0
10
4.0831
20
9.2144
42
0.0027
0
VERTEX
8
0
10
4.0808
20
9.2041
42
0.0367
0
VERTEX
8
0
10
3.6324
20
8.8888
0
VERTEX
8
0
10
1.2029
20
11.3184
0
SEQEND
8
0
0
POLYLINE
8
Layer 1
66
1
0
VERTEX
8
0
10
0.6816
20
10.7971
0
VERTEX
8
0
10
3.1112
20
8.3676
42
0.0173
0
VERTEX
8
0
10
2.9735
20
8.1875
42
0.0143
0
VERTEX
8
0
10
2.8469
20
7.9994
42
0.0298
0
VERTEX
8
0
10
2.7532
20
8.0056
42
0.0342
0
VERTEX
8
0
10
2.6596
20
7.9995
42
0.0762
0
VERTEX
8
0
10
2.4803
20
7.9463
42
0.0736
0
VERTEX
8
0
10
2.3247
20
7.8423
42
0.0303
0
VERTEX
8
0
10
2.2585
20
7.7758
42
0.0260
0
VERTEX
8
0
10
2.2000
20
7.7024
42
0.0420
0
VERTEX
8
0
10
2.1035
20
7.5415
42
0.0312
0
VERTEX
8
0
10
2.0300
20
7.3688
42
0.0252
0
VERTEX
8
0
10
1.9755
20
7.1891
42
0.0118
0
VERTEX
8
0
10
1.9548
20
7.0976
42
0.0066
0
VERTEX
8
0
10
1.9462
20
7.0514
42
0.0040
0
VERTEX
8
0
10
1.9424
20
7.0281
42
0.0057
0
VERTEX
8
0
10
1.9392
20
7.0061
42
0.0281
0
VERTEX
8
0
10
1.8978
20
7.0190
42
0.0175
0
VERTEX
8
0
10
1.8554
20
7.0285
42
0.0282
0
VERTEX
8
0
10
1.7691
20
7.0397
42
0.0463
0
VERTEX
8
0
10
1.5954
20
7.0372
42
0.0389
0
VERTEX
8
0
10
1.4244
20
7.0062
42
0.0335
0
VERTEX
8
0
10
1.2594
20
6.9515
42
0.0288
0
VERTEX
8
0
10
1.1023
20
6.8772
42
0.0245
0
VERTEX
8
0
10
0.9536
20
6.7870
42
0.0211
0
VERTEX
8
0
10
0.8135
20
6.6839
42
0.0181
0
VERTEX
8
0
10
0.6816
20
6.5705
0
VERTEX
8
0
10
0.6816
20
10.7971
0
SEQEND
8
0
0
POLYLINE
8
Layer 1
66
1
0
VERTEX
8
0
10
3.3682
20
7.8263
42
-0.0069
0
VERTEX
8
0
10
3.3858
20
7.8145
42
-0.0072
0
VERTEX
8
0
10
3.4038
20
7.8018
42
-0.0153
0
VERTEX
8
0
10
3.4385
20
7.7749
42
-0.0333
0
VERTEX
8
0
10
3.5025
20
7.7147
42
-0.0724
0
VERTEX
8
0
10
3.6025
20
7.5708
42
-0.0653
0
VERTEX
8
0
10
3.6585
20
7.4047
42
-0.0508
0
VERTEX
8
0
10
3.6731
20
7.2298
42
-0.0380
0
VERTEX
8
0
10
3.6552
20
7.0550
42
-0.0293
0
VERTEX
8
0
10
3.6132
20
6.8844
42
-0.0248
0
VERTEX
8
0
10
3.5527
20
6.7193
42
-0.0125
0
VERTEX
8
0
10
3.5164
20
6.6392
42
-0.0194
0
VERTEX
8
0
10
3.4757
20
6.5614
42
-0.0122
0
VERTEX
8
0
10
3.7789
20
6.3714
42
-0.0146
0
VERTEX
8
0
10
4.0717
20
6.1659
42
-0.3210
0
VERTEX
8
0
10
5.5371
20
7.8809
0
VERTEX
8
0
10
5.5521
20
7.8972
0
VERTEX
8
0
10
5.5678
20
7.9144
42
0.0035
0
VERTEX
8
0
10
5.5986
20
7.9488
42
0.0073
0
VERTEX
8
0
10
5.6588
20
8.0192
42
0.0156
0
VERTEX
8
0
10
5.7726
20
8.1650
42
0.0359
0
VERTEX
8
0
10
5.9702
20
8.4775
42
0.0411
0
VERTEX
8
0
10
6.1184
20
8.8161
42
0.0444
0
VERTEX
8
0
10
6.2074
20
9.1748
42
0.0449
0
VERTEX
8
0
10
6.2311
20
9.5436
42
0.0432
0
VERTEX
8
0
10
6.1892
20
9.9109
42
0.0418
0
VERTEX
8
0
10
6.0857
20
10.2657
42
0.0222
0
VERTEX
8
0
10
6.0118
20
10.4353
42
0.0130
0
VERTEX
8
0
10
5.9691
20
10.5174
42
0.0231
0
VERTEX
8
0
10
5.9216
20
10.5966
42
0.0353
0
VERTEX
8
0
10
5.8861
20
10.5818
42
0.0257
0
VERTEX
8
0
10
5.8529
20
10.5629
42
0.0458
0
VERTEX
8
0
10
5.7927
20
10.5159
42
0.0801
0
VERTEX
8
0
10
5.7010
20
10.3943
42
0.0620
0
VERTEX
8
0
10
5.6487
20
10.2510
42
0.0448
0
VERTEX
8
0
10
5.6295
20
10.0994
42
0.0323
0
VERTEX
8
0
10
5.6350
20
9.9467
42
0.0240
0
VERTEX
8
0
10
5.6582
20
9.7956
42
0.0183
0
VERTEX
8
0
10
5.6947
20
9.6471
42
0.0145
0
VERTEX
8
0
10
5.7412
20
9.5012
42
-0.0032
0
VERTEX
8
0
10
5.7487
20
9.4794
42
-0.0034
0
VERTEX
8
0
10
5.7561
20
9.4570
42
-0.0070
0
VERTEX
8
0
10
5.7700
20
9.4119
42
-0.0151
0
VERTEX
8
0
10
5.7938
20
9.3206
42
-0.0359
0
VERTEX
8
0
10
5.8234
20
9.1342
42
-0.0426
0
VERTEX
8
0
10
5.8244
20
8.9456
42
-0.0480
0
VERTEX
8
0
10
5.7919
20
8.7599
42
-0.0500
0
VERTEX
8
0
10
5.7240
20
8.5840
42
-0.0484
0
VERTEX
8
0
10
5.6228
20
8.4249
42
-0.0462
0
VERTEX
8
0
10
5.4934
20
8.2878
42
-0.0241
0
VERTEX
8
0
10
5.4197
20
8.2287
42
-0.0376
0
VERTEX
8
0
10
5.3402
20
8.1780
42
-0.0205
0
VERTEX
8
0
10
5.1720
20
8.1708
42
-0.0188
0
VERTEX
8
0
10
5.0039
20
8.1768
42
-0.0218
0
VERTEX
8
0
10
4.8368
20
8.1960
42
-0.0272
0
VERTEX
8
0
10
4.6723
20
8.2307
42
-0.0353
0
VERTEX
8
0
10
4.5131
20
8.2846
42
-0.0468
0
VERTEX
8
0
10
4.3642
20
8.3626
42
-0.0600
0
VERTEX
8
0
10
4.2345
20
8.4691
42
-0.0674
0
VERTEX
8
0
10
4.1355
20
8.6045
42
0.0853
0
VERTEX
8
0
10
3.3682
20
7.8263
0
SEQEND
8
0
0
POLYLINE
8
Layer 1
66
1
0
VERTEX
8
0
10
2.8933
20
6.1767
42
0.0618
0
VERTEX
8
0
10
2.3894
20
6.2406
42
0.0345
0
VERTEX
8
0
10
2.0981
20
6.2209
42
0.0333
0
VERTEX
8
0
10
1.8121
20
6.1618
42
0.0332
0
VERTEX
8
0
10
1.5365
20
6.0654
42
0.0184
0
VERTEX
8
0
10
1.4042
20
6.0035
42
0.0110
0
VERTEX
8
0
10
1.3399
20
5.9687
42
0.0194
0
VERTEX
8
0
10
1.2776
20
5.9307
42
0.0352
0
VERTEX
8
0
10
1.2924
20
5.8953
42
0.0257
0
VERTEX
8
0
10
1.3113
20
5.8620
42
0.0459
0
VERTEX
8
0
10
1.3584
20
5.8018
42
0.0800
0
VERTEX
8
0
10
1.4799
20
5.7101
42
0.0620
0
VERTEX
8
0
10
1.6233
20
5.6578
42
0.0448
0
VERTEX
8
0
10
1.7748
20
5.6387
42
0.0323
0
VERTEX
8
0
10
1.9275
20
5.6441
42
0.0240
0
VERTEX
8
0
10
2.0787
20
5.6674
42
0.0185
0
VERTEX
8
0
10
2.2272
20
5.7038
42
0.0145
0
VERTEX
8
0
10
2.3730
20
5.7503
42
-0.0032
0
VERTEX
8
0
10
2.3948
20
5.7578
42
-0.0033
0
VERTEX
8
0
10
2.4172
20
5.7652
42
-0.0070
0
VERTEX
8
0
10
2.4624
20
5.7791
42
-0.0151
0
VERTEX
8
0
10
2.5537
20
5.8029
42
-0.0359
0
VERTEX
8
0
10
2.7400
20
5.8325
42
-0.0427
0
VERTEX
8
0
10
2.9286
20
5.8335
42
-0.0481
0
VERTEX
8
0
10
3.1144
20
5.8010
42
-0.0982
0
VERTEX
8
0
10
3.4493
20
5.6319
42
-0.0461
0
VERTEX
8
0
10
3.5865
20
5.5025
42
-0.0241
0
VERTEX
8
0
10
3.6455
20
5.4288
42
-0.0376
0
VERTEX
8
0
10
3.6962
20
5.3493
42
-0.0193
0
VERTEX
8
0
10
3.7035
20
5.1933
42
-0.0174
0
VERTEX
8
0
10
3.6993
20
5.0373
42
-0.0196
0
VERTEX
8
0
10
3.6840
20
4.8820
42
-0.0236
0
VERTEX
8
0
10
3.6558
20
4.7286
42
-0.0299
0
VERTEX
8
0
10
3.6121
20
4.5788
42
-0.0388
0
VERTEX
8
0
10
3.5493
20
4.4361
42
-0.0499
0
VERTEX
8
0
10
3.4633
20
4.3061
42
-0.0598
0
VERTEX
8
0
10
3.3518
20
4.1974
42
0.0813
0
VERTEX
8
0
10
4.0699
20
3.4447
42
-0.0064
0
VERTEX
8
0
10
4.0806
20
3.4635
42
-0.0068
0
VERTEX
8
0
10
4.0924
20
3.4831
42
-0.0146
0
VERTEX
8
0
10
4.1177
20
3.5211
42
-0.0327
0
VERTEX
8
0
10
4.1750
20
3.5921
42
-0.0745
0
VERTEX
8
0
10
4.3163
20
3.7071
42
-0.0707
0
VERTEX
8
0
10
4.4849
20
3.7759
42
-0.0556
0
VERTEX
8
0
10
4.6659
20
3.7985
42
-0.0411
0
VERTEX
8
0
10
4.8479
20
3.7843
42
-0.0312
0
VERTEX
8
0
10
5.0258
20
3.7429
42
-0.0260
0
VERTEX
8
0
10
5.1977
20
3.6811
42
-0.0131
0
VERTEX
8
0
10
5.2811
20
3.6436
42
-0.0201
0
VERTEX
8
0
10
5.3621
20
3.6015
42
-0.0212
0
VERTEX
8
0
10
5.6829
20
4.0899
42
-0.2754
0
VERTEX
8
0
10
4.1683
20
5.3730
42
0.0179
0
VERTEX
8
0
10
3.9877
20
5.5525
42
0.0202
0
VERTEX
8
0
10
3.7943
20
5.7181
42
0.0229
0
VERTEX
8
0
10
3.5877
20
5.8667
42
0.0256
0
VERTEX
8
0
10
3.3679
20
5.9950
42
0.0279
0
VERTEX
8
0
10
3.1358
20
6.0994
42
0.0299
0
VERTEX
8
0
10
2.8933
20
6.1767
0
SEQEND
8
0
0
POLYLINE
8
Layer 1
66
1
0
VERTEX
8
0
10
2.1215
20
5.3256
42
-0.0524
0
VERTEX
8
0
10
1.9481
20
5.2434
42
-0.0518
0
VERTEX
8
0
10
1.7612
20
5.1990
42
-0.0456
0
VERTEX
8
0
10
1.5691
20
5.1927
42
-0.0375
0
VERTEX
8
0
10
1.3787
20
5.2192
42
-0.0299
0
VERTEX
8
0
10
1.1938
20
5.2720
42
-0.0240
0
VERTEX
8
0
10
1.0159
20
5.3451
42
-0.0196
0
VERTEX
8
0
10
0.8452
20
5.4340
42
-0.0166
0
VERTEX
8
0
10
0.6816
20
5.5352
0
VERTEX
8
0
10
0.6816
20
1.2029
0
VERTEX
8
0
10
3.1130
20
3.6343
42
-0.0169
0
VERTEX
8
0
10
2.9513
20
3.8457
42
-0.0188
0
VERTEX
8
0
10
2.8050
20
4.0680
42
-0.0193
0
VERTEX
8
0
10
2.7047
20
4.0826
42
-0.0027
0
VERTEX
8
0
10
2.6944
20
4.0846
0
VERTEX
8
0
10
2.6828
20
4.0869
42
-0.0055
0
VERTEX
8
0
10
2.6582
20
4.0921
42
-0.0112
0
VERTEX
8
0
10
2.6098
20
4.1040
42
-0.0258
0
VERTEX
8
0
10
2.5150
20
4.1348
42
-0.0305
0
VERTEX
8
0
10
2.4241
20
4.1757
42
-0.0348
0
VERTEX
8
0
10
2.3392
20
4.2279
42
-0.0778
0
VERTEX
8
0
10
2.1968
20
4.3664
42
-0.0709
0
VERTEX
8
0
10
2.1026
20
4.5415
42
-0.0301
0
VERTEX
8
0
10
2.0742
20
4.6370
42
-0.0259
0
VERTEX
8
0
10
2.0568
20
4.7352
42
-0.0404
0
VERTEX
8
0
10
2.0501
20
4.9343
42
-0.0323
0
VERTEX
8
0
10
2.0731
20
5.1324
42
-0.0157
0
VERTEX
8
0
10
2.0940
20
5.2299
42
-0.0236
0
VERTEX
8
0
10
2.1215
20
5.3256
0
SEQEND
8
0
0
POLYLINE
8
Layer 1
66
1
0
VERTEX
8
0
10
3.6343
20
3.1130
42
0.0077
0
VERTEX
8
0
10
3.7747
20
3.0011
42
0.0147
0
VERTEX
8
0
10
3.9204
20
2.8961
42
0.0656
0
VERTEX
8
0
10
3.9388
20
2.7195
42
0.0736
0
VERTEX
8
0
10
4.0062
20
2.5553
42
0.0662
0
VERTEX
8
0
10
4.1160
20
2.4158
42
0.0509
0
VERTEX
8
0
10
4.2543
20
2.3040
42
0.0376
0
VERTEX
8
0
10
4.4094
20
2.2167
42
0.0286
0
VERTEX
8
0
10
4.5743
20
2.1494
42
0.0236
0
VERTEX
8
0
10
4.7450
20
2.0991
42
0.0114
0
VERTEX
8
0
10
4.8320
20
2.0797
42
0.0064
0
VERTEX
8
0
10
4.8757
20
2.0716
42
0.0088
0
VERTEX
8
0
10
4.9192
20
2.0650
42
0.0312
0
VERTEX
8
0
10
4.9050
20
2.0182
42
0.0190
0
VERTEX
8
0
10
4.8950
20
1.9702
42
0.0306
0
VERTEX
8
0
10
4.8843
20
1.8729
42
0.0502
0
VERTEX
8
0
10
4.8939
20
1.6774
42
0.0419
0
VERTEX
8
0
10
4.9378
20
1.4867
42
0.0354
0
VERTEX
8
0
10
5.0098
20
1.3046
42
0.0297
0
VERTEX
8
0
10
5.1041
20
1.1329
42
0.0250
0
VERTEX
8
0
10
5.2161
20
0.9722
42
0.0210
0
VERTEX
8
0
10
5.3420
20
0.8220
42
0.0178
0
VERTEX
8
0
10
5.4787
20
0.6816
0
VERTEX
8
0
10
1.2029
20
0.6816
0
VERTEX
8
0
10
3.6343
20
3.1130
0
SEQEND
8
0
0
POLYLINE
8
Layer 1
66
1
0
VERTEX
8
0
10
5.7052
20
2.8105
42
0.0444
0
VERTEX
8
0
10
5.6840
20
2.4452
42
0.0427
0
VERTEX
8
0
10
5.7269
20
2.0819
42
0.0414
0
VERTEX
8
0
10
5.8302
20
1.7309
42
0.0221
0
VERTEX
8
0
10
5.9034
20
1.5630
42
0.0129
0
VERTEX
8
0
10
5.9457
20
1.4818
42
0.0230
0
VERTEX
8
0
10
5.9927
20
1.4034
42
0.0353
0
VERTEX
8
0
10
6.0282
20
1.4182
42
0.0257
0
VERTEX
8
0
10
6.0614
20
1.4371
42
0.0459
0
VERTEX
8
0
10
6.1216
20
1.4841
42
0.0801
0
VERTEX
8
0
10
6.2133
20
1.6057
42
0.0621
0
VERTEX
8
0
10
6.2656
20
1.7490
42
0.0448
0
VERTEX
8
0
10
6.2848
20
1.9006
42
0.0323
0
VERTEX
8
0
10
6.2794
20
2.0533
42
0.0239
0
VERTEX
8
0
10
6.2561
20
2.2044
42
0.0183
0
VERTEX
8
0
10
6.2196
20
2.3529
42
0.0145
0
VERTEX
8
0
10
6.1731
20
2.4988
42
-0.0032
0
VERTEX
8
0
10
6.1657
20
2.5206
42
-0.0033
0
VERTEX
8
0
10
6.1583
20
2.5430
42
-0.0070
0
VERTEX
8
0
10
6.1444
20
2.5882
42
-0.0152
0
VERTEX
8
0
10
6.1206
20
2.6796
42
-0.0359
0
VERTEX
8
0
10
6.0910
20
2.8660
42
-0.0428
0
VERTEX
8
0
10
6.0902
20
3.0547
42
-0.0481
0
VERTEX
8
0
10
6.1230
20
3.2405
42
-0.0500
0
VERTEX
8
0
10
6.1912
20
3.4164
42
-0.0484
0
VERTEX
8
0
10
6.2928
20
3.5754
42
-0.0460
0
VERTEX
8
0
10
6.4225
20
3.7124
42
-0.0241
0
VERTEX
8
0
10
6.4964
20
3.7713
42
-0.0375
0
VERTEX
8
0
10
6.5759
20
3.8220
42
-0.0210
0
VERTEX
8
0
10
6.7502
20
3.8292
42
-0.0197
0
VERTEX
8
0
10
6.9244
20
3.8223
42
-0.0230
0
VERTEX
8
0
10
7.0975
20
3.8011
42
-0.0290
0
VERTEX
8
0
10
7.2675
20
3.7629
42
-0.0385
0
VERTEX
8
0
10
7.4312
20
3.7033
42
-0.0514
0
VERTEX
8
0
10
7.5824
20
3.6169
42
-0.0649
0
VERTEX
8
0
10
7.7104
20
3.4992
42
-0.0698
0
VERTEX
8
0
10
7.8026
20
3.3518
42
0.0841
0
VERTEX
8
0
10
8.5790
20
4.0990
42
-0.0308
0
VERTEX
8
0
10
8.5163
20
4.1539
42
-0.0334
0
VERTEX
8
0
10
8.4609
20
4.2166
42
-0.0682
0
VERTEX
8
0
10
8.3779
20
4.3615
42
-0.0589
0
VERTEX
8
0
10
8.3353
20
4.5232
42
-0.0456
0
VERTEX
8
0
10
8.3286
20
4.6903
42
-0.0346
0
VERTEX
8
0
10
8.3498
20
4.8564
42
-0.0274
0
VERTEX
8
0
10
8.3920
20
5.0184
42
-0.0236
0
VERTEX
8
0
10
8.4507
20
5.1753
42
-0.0120
0
VERTEX
8
0
10
8.4855
20
5.2515
42
-0.0187
0
VERTEX
8
0
10
8.5243
20
5.3256
42
-0.0267
0
VERTEX
8
0
10
7.9174
20
5.7303
42
-0.3216
0
VERTEX
8
0
10
6.3572
20
4.0972
0
VERTEX
8
0
10
6.3425
20
4.0809
0
VERTEX
8
0
10
6.3271
20
4.0638
42
0.0036
0
VERTEX
8
0
10
6.2970
20
4.0294
42
0.0073
0
VERTEX
8
0
10
6.2380
20
3.9593
42
0.0157
0
VERTEX
8
0
10
6.1266
20
3.8139
42
0.0360
0
VERTEX
8
0
10
5.9341
20
3.5027
42
0.0409
0
VERTEX
8
0
10
5.7904
20
3.1662
42
0.0441
0
VERTEX
8
0
10
5.7052
20
2.8105
0
SEQEND
8
0
0
POLYLINE
8
Layer 1
66
1
0
VERTEX
8
0
10
6.5996
20
2.2473
42
-0.0580
0
VERTEX
8
0
10
6.6881
20
2.0557
42
-0.0562
0
VERTEX
8
0
10
6.7303
20
1.8487
42
-0.0479
0
VERTEX
8
0
10
6.7275
20
1.6374
42
-0.0380
0
VERTEX
8
0
10
6.6873
20
1.4298
42
-0.0298
0
VERTEX
8
0
10
6.6183
20
1.2298
42
-0.0235
0
VERTEX
8
0
10
6.5277
20
1.0386
42
-0.0192
0
VERTEX
8
0
10
6.4207
20
0.8560
42
-0.0163
0
VERTEX
8
0
10
6.3007
20
0.6816
0
VERTEX
8
0
10
10.7971
20
0.6816
0
VERTEX
8
0
10
8.3657
20
3.1130
42
-0.0214
0
VERTEX
8
0
10
8.1024
20
2.9141
42
-0.0234
0
VERTEX
8
0
10
7.8226
20
2.7394
42
-0.0029
0
VERTEX
8
0
10
7.8198
20
2.7293
42
-0.0025
0
VERTEX
8
0
10
7.8168
20
2.7185
42
-0.0060
0
VERTEX
8
0
10
7.8100
20
2.6959
42
-0.0124
0
VERTEX
8
0
10
7.7948
20
2.6516
42
-0.0280
0
VERTEX
8
0
10
7.7577
20
2.5654
42
-0.0683
0
VERTEX
8
0
10
7.6535
20
2.4100
42
-0.0730
0
VERTEX
8
0
10
7.5102
20
2.2898
42
-0.0630
0
VERTEX
8
0
10
7.3391
20
2.2139
42
-0.0482
0
VERTEX
8
0
10
7.1550
20
2.1792
42
-0.0365
0
VERTEX
8
0
10
6.9675
20
2.1774
42
-0.0300
0
VERTEX
8
0
10
6.7814
20
2.2011
42
-0.0148
0
VERTEX
8
0
10
6.6897
20
2.2213
42
-0.0225
0
VERTEX
8
0
10
6.5996
20
2.2473
0
SEQEND
8
0
0
POLYLINE
8
Layer 1
66
1
0
VERTEX
8
0
10
6.0000
20
4.7187
42
0.4142
0
VERTEX
8
0
10
7.2813
20
6.0000
42
0.4142
0
VERTEX
8
0
10
6.0000
20
7.2813
42
0.4142
0
VERTEX
8
0
10
4.7187
20
6.0000
42
0.4142
0
VERTEX
8
0
10
6.0000
20
4.7187
0
SEQEND
8
0
0
POLYLINE
8
Layer 1
66
1
0
VERTEX
8
0
10
7.8791
20
6.4648
0
VERTEX
8
0
10
7.8954
20
6.4481
0
VERTEX
8
0
10
7.9129
20
6.4305
42
0.0034
0
VERTEX
8
0
10
7.9477
20
6.3961
42
0.0071
0
VERTEX
8
0
10
8.0190
20
6.3285
42
0.0154
0
VERTEX
8
0
10
8.1672
20
6.1999
42
0.0359
0
VERTEX
8
0
10
8.4872
20
5.9733
42
0.0420
0
VERTEX
8
0
10
8.8380
20
5.7976
42
0.0464
0
VERTEX
8
0
10
9.2136
20
5.6856
42
0.0478
0
VERTEX
8
0
10
9.6036
20
5.6459
42
0.0462
0
VERTEX
8
0
10
9.9942
20
5.6802
42
0.0442
0
VERTEX
8
0
10
10.3722
20
5.7843
42
0.0233
0
VERTEX
8
0
10
10.5528
20
5.8612
42
0.0136
0
VERTEX
8
0
10
10.6401
20
5.9061
42
0.0241
0
VERTEX
8
0
10
10.7242
20
5.9563
42
0.0352
0
VERTEX
8
0
10
10.7093
20
5.9917
42
0.0256
0
VERTEX
8
0
10
10.6902
20
6.0250
42
0.0457
0
VERTEX
8
0
10
10.6430
20
6.0851
42
0.0798
0
VERTEX
8
0
10
10.5212
20
6.1768
42
0.0618
0
VERTEX
8
0
10
10.3776
20
6.2291
42
0.0448
0
VERTEX
8
0
10
10.2259
20
6.2483
42
0.0323
0
VERTEX
8
0
10
10.0730
20
6.2430
42
0.0241
0
VERTEX
8
0
10
9.9217
20
6.2197
42
0.0184
0
VERTEX
8
0
10
9.7730
20
6.1832
42
0.0145
0
VERTEX
8
0
10
9.6270
20
6.1367
42
-0.0032
0
VERTEX
8
0
10
9.6052
20
6.1292
42
-0.0034
0
VERTEX
8
0
10
9.5828
20
6.1218
42
-0.0070
0
VERTEX
8
0
10
9.5376
20
6.1079
42
-0.0151
0
VERTEX
8
0
10
9.4463
20
6.0841
42
-0.0358
0
VERTEX
8
0
10
9.2600
20
6.0545
42
-0.0427
0
VERTEX
8
0
10
9.0714
20
6.0535
42
-0.0480
0
VERTEX
8
0
10
8.8856
20
6.0860
42
-0.0982
0
VERTEX
8
0
10
8.5507
20
6.2551
42
-0.0462
0
VERTEX
8
0
10
8.4135
20
6.3845
42
-0.0241
0
VERTEX
8
0
10
8.3545
20
6.4582
42
-0.0376
0
VERTEX
8
0
10
8.3038
20
6.5377
42
-0.0200
0
VERTEX
8
0
10
8.2966
20
6.7013
42
-0.0183
0
VERTEX
8
0
10
8.3019
20
6.8649
42
-0.0209
0
VERTEX
8
0
10
8.3196
20
7.0277
42
-0.0258
0
VERTEX
8
0
10
8.3519
20
7.1882
42
-0.0332
0
VERTEX
8
0
10
8.4019
20
7.3439
42
-0.0437
0
VERTEX
8
0
10
8.4740
20
7.4907
42
-0.0562
0
VERTEX
8
0
10
8.5727
20
7.6210
42
-0.0650
0
VERTEX
8
0
10
8.6993
20
7.7242
42
0.0944
0
VERTEX
8
0
10
7.8700
20
8.6009
42
-0.0033
0
VERTEX
8
0
10
7.8653
20
8.5913
42
-0.0029
0
VERTEX
8
0
10
7.8602
20
8.5812
42
-0.0066
0
VERTEX
8
0
10
7.8491
20
8.5601
42
-0.0139
0
VERTEX
8
0
10
7.8253
20
8.5192
42
-0.0317
0
VERTEX
8
0
10
7.7707
20
8.4418
42
-0.0756
0
VERTEX
8
0
10
7.6325
20
8.3131
42
-0.0753
0
VERTEX
8
0
10
7.4620
20
8.2320
42
-0.0330
0
VERTEX
8
0
10
7.3696
20
8.2109
42
-0.0286
0
VERTEX
8
0
10
7.2754
20
8.2015
42
-0.0442
0
VERTEX
8
0
10
7.0864
20
8.2122
42
-0.0330
0
VERTEX
8
0
10
6.9014
20
8.2530
42
-0.0271
0
VERTEX
8
0
10
6.7228
20
8.3162
42
-0.0134
0
VERTEX
8
0
10
6.6362
20
8.3549
42
-0.0205
0
VERTEX
8
0
10
6.5523
20
8.3985
42
-0.0205
0
VERTEX
8
0
10
6.2424
20
7.9210
42
-0.3097
0
VERTEX
8
0
10
7.8791
20
6.4648
0
SEQEND
8
0
0
POLYLINE
8
Layer 1
66
1
0
VERTEX
8
0
10
9.2679
20
7.8080
42
0.0071
0
VERTEX
8
0
10
9.2816
20
7.8063
42
-0.0218
0
VERTEX
8
0
10
9.2953
20
7.8044
42
-0.0027
0
VERTEX
8
0
10
9.3056
20
7.8024
0
VERTEX
8
0
10
9.3172
20
7.8001
42
-0.0054
0
VERTEX
8
0
10
9.3418
20
7.7949
42
-0.0112
0
VERTEX
8
0
10
9.3902
20
7.7829
42
-0.0259
0
VERTEX
8
0
10
9.4850
20
7.7522
42
-0.0305
0
VERTEX
8
0
10
9.5759
20
7.7113
42
-0.0348
0
VERTEX
8
0
10
9.6608
20
7.6591
42
-0.0778
0
VERTEX
8
0
10
9.8032
20
7.5205
42
-0.0710
0
VERTEX
8
0
10
9.8974
20
7.3455
42
-0.0301
0
VERTEX
8
0
10
9.9258
20
7.2500
42
-0.0259
0
VERTEX
8
0
10
9.9432
20
7.1518
42
-0.0404
0
VERTEX
8
0
10
9.9499
20
6.9527
42
-0.0323
0
VERTEX
8
0
10
9.9269
20
6.7546
42
-0.0157
0
VERTEX
8
0
10
9.9060
20
6.6571
42
-0.0236
0
VERTEX
8
0
10
9.8785
20
6.5614
42
-0.0524
0
VERTEX
8
0
10
10.0519
20
6.6437
42
-0.0518
0
VERTEX
8
0
10
10.2388
20
6.6880
42
-0.0456
0
VERTEX
8
0
10
10.4309
20
6.6944
42
-0.0375
0
VERTEX
8
0
10
10.6213
20
6.6678
42
-0.0300
0
VERTEX
8
0
10
10.8062
20
6.6150
42
-0.0241
0
VERTEX
8
0
10
10.9841
20
6.5419
42
-0.0196
0
VERTEX
8
0
10
11.1548
20
6.4530
42
-0.0165
0
VERTEX
8
0
10
11.3184
20
6.3518
0
VERTEX
8
0
10
11.3184
20
10.7971
0
VERTEX
8
0
10
8.8870
20
8.3657
42
-0.0454
0
VERTEX
8
0
10
9.2679
20
7.8080
0
SEQEND
8
0
0
POLYLINE
8
Layer 1
66
1
0
VERTEX
8
0
10
8.3676
20
8.8888
0
VERTEX
8
0
10
10.7971
20
11.3184
0
VERTEX
8
0
10
6.4374
20
11.3184
42
-0.0177
0
VERTEX
8
0
10
6.5742
20
11.1780
42
-0.0210
0
VERTEX
8
0
10
6.7001
20
11.0278
42
-0.0250
0
VERTEX
8
0
10
6.8120
20
10.8671
42
-0.0297
0
VERTEX
8
0
10
6.9064
20
10.6954
42
-0.0354
0
VERTEX
8
0
10
6.9783
20
10.5133
42
-0.0419
0
VERTEX
8
0
10
7.0223
20
10.3226
42
-0.0503
0
VERTEX
8
0
10
7.0318
20
10.1271
42
-0.0306
0
VERTEX
8
0
10
7.0212
20
10.0298
42
-0.0191
0
VERTEX
8
0
10
7.0112
20
9.9818
42
-0.0312
0
VERTEX
8
0
10
6.9970
20
9.9350
42
-0.0138
0
VERTEX
8
0
10
7.0812
20
9.9208
42
-0.0109
0
VERTEX
8
0
10
7.1649
20
9.9024
42
-0.0225
0
VERTEX
8
0
10
7.3296
20
9.8547
42
-0.0269
0
VERTEX
8
0
10
7.4890
20
9.7916
42
-0.0348
0
VERTEX
8
0
10
7.6399
20
9.7103
42
-0.0465
0
VERTEX
8
0
10
7.7764
20
9.6069
42
-0.0607
0
VERTEX
8
0
10
7.8890
20
9.4781
42
-0.0705
0
VERTEX
8
0
10
7.9650
20
9.3250
42
-0.0667
0
VERTEX
8
0
10
7.9957
20
9.1568
42
-0.0305
0
VERTEX
8
0
10
8.3676
20
8.8888
0
SEQEND
8
0
0
POLYLINE
8
Layer 1
66
1
0
VERTEX
8
0
10
10.0608
20
4.8809
42
-0.0058
0
VERTEX
8
0
10
10.0576
20
4.8588
42
-0.0041
0
VERTEX
8
0
10
10.0537
20
4.8352
42
-0.0067
0
VERTEX
8
0
10
10.0450
20
4.7885
42
-0.0120
0
VERTEX
8
0
10
10.0240
20
4.6959
42
-0.0255
0
VERTEX
8
0
10
9.9687
20
4.5143
42
-0.0320
0
VERTEX
8
0
10
9.8939
20
4.3398
42
-0.0430
0
VERTEX
8
0
10
9.7953
20
4.1777
42
-0.0266
0
VERTEX
8
0
10
9.7354
20
4.1040
42
-0.0312
0
VERTEX
8
0
10
9.6677
20
4.0376
42
-0.0751
0
VERTEX
8
0
10
9.5086
20
3.9350
42
-0.0767
0
VERTEX
8
0
10
9.3261
20
3.8853
42
-0.0339
0
VERTEX
8
0
10
9.2313
20
3.8812
42
-0.0293
0
VERTEX
8
0
10
9.1367
20
3.8894
0
VERTEX
8
0
10
9.0857
20
3.8985
42
-0.0100
0
VERTEX
8
0
10
8.9902
20
3.7633
42
-0.0131
0
VERTEX
8
0
10
8.8888
20
3.6324
0
VERTEX
8
0
10
11.3184
20
1.2029
0
VERTEX
8
0
10
11.3184
20
5.3165
42
-0.0181
0
VERTEX
8
0
10
11.1865
20
5.2031
42
-0.0210
0
VERTEX
8
0
10
11.0464
20
5.1000
42
-0.0246
0
VERTEX
8
0
10
10.8977
20
5.0098
42
-0.0288
0
VERTEX
8
0
10
10.7406
20
4.9355
42
-0.0335
0
VERTEX
8
0
10
10.5756
20
4.8808
42
-0.0389
0
VERTEX
8
0
10
10.4046
20
4.8498
42
-0.0462
0
VERTEX
8
0
10
10.2309
20
4.8473
42
-0.0282
0
VERTEX
8
0
10
10.1446
20
4.8585
42
-0.0174
0
VERTEX
8
0
10
10.1022
20
4.8680
42
-0.0282
0
VERTEX
8
0
10
10.0608
20
4.8809
0
SEQEND
8
0
0
ENDSEC
0
EOF
