0
SECTION
2
HEADER
9
$ACADVER
1
AC1003
9
$INSBASE
10
0.0
20
0.0
30
0.0
9
$EXTMIN
10
0.000
20
0.000
30
0.0
9
$EXTMAX
10
625.000
20
793.000
30
0.0
9
$LIMMIN
10
0.000
20
0.000
9
$LIMMAX
10
625.000
20
793.000
9
$LTSCALE
40
1.0
9
$LUNITS
70
2
9
$LUPREC
70
3
9
$LIMCHECK
70
0
9
$UCSNAME
2

9
$UCSORG
10
0.0
20
0.0
30
0.0
9
$UCSXDIR
10
1.0
20
0.0
30
0.0
9
$UCSYDIR
10
0.0
20
1.0
30
0.0
9
$WORLDVIEW
70
1
9
$UNITMODE
70
0
0
ENDSEC
0
SECTION
2
TABLES
0
TABLE
2
VPORT
70
1
0
VPORT
2
*ACTIVE
70
0
10
0.0
20
0.0
11
1.0
21
1.0
12
312.500
22
396.500
13
0.0
23
0.0
14
1.0
24
1.0
15
0.0
25
0.0
16
0.0
26
0.0
36
1.0
17
0.0
27
0.0
37
0.0
40
500.0
41
1.269
42
50.0
43
0.0
44
0.0
50
0.0
51
0.0
71
0
72
100
73
1
74
1
75
0
76
0
77
0
78
0
0
ENDTAB
0
TABLE
2
LTYPE
70
1
0
LTYPE
2
CONTINUOUS
70
64
3
Solid line
72
65
73
0
40
0.000
0
ENDTAB
0
TABLE
2
LAYER
70
1
0
LAYER
2
0
70
64
62
7
6
CONTINUOUS
0
ENDTAB
0
ENDSEC
0
SECTION
2
BLOCKS
0
ENDSEC
0
SECTION
2
ENTITIES
0
POLYLINE
8
0
6
CONTINUOUS
66
1
62
7
10
0.0
20
0.0
30
0.000000
0
VERTEX
8
0
10
344.000000
20
720.000000
0
VERTEX
8
0
10
345.000000
20
721.000000
0
VERTEX
8
0
10
344.000000
20
724.000000
0
VERTEX
8
0
10
337.000000
20
731.000000
0
VERTEX
8
0
10
324.000000
20
736.000000
0
VERTEX
8
0
10
319.000000
20
736.000000
0
VERTEX
8
0
10
315.000000
20
734.000000
0
VERTEX
8
0
10
316.000000
20
732.000000
0
VERTEX
8
0
10
326.088235
20
729.352941
0
VERTEX
8
0
10
336.100000
20
725.200000
0
VERTEX
8
0
10
344.000000
20
720.000000
0
SEQEND
0
POLYLINE
8
0
6
CONTINUOUS
66
1
62
7
10
0.0
20
0.0
30
0.000000
0
VERTEX
8
0
10
314.000000
20
718.000000
0
VERTEX
8
0
10
316.000000
20
720.000000
0
VERTEX
8
0
10
315.200000
20
722.100000
0
VERTEX
8
0
10
314.800000
20
722.900000
0
VERTEX
8
0
10
312.000000
20
727.000000
0
VERTEX
8
0
10
306.153846
20
730.230769
0
VERTEX
8
0
10
295.900000
20
735.700000
0
VERTEX
8
0
10
286.000000
20
739.000000
0
VERTEX
8
0
10
282.900000
20
738.200000
0
VERTEX
8
0
10
282.000000
20
738.000000
0
VERTEX
8
0
10
279.000000
20
734.000000
0
VERTEX
8
0
10
279.000000
20
728.000000
0
VERTEX
8
0
10
280.300000
20
725.100000
0
VERTEX
8
0
10
283.000000
20
720.000000
0
VERTEX
8
0
10
284.000000
20
720.000000
0
VERTEX
8
0
10
286.000000
20
722.000000
0
VERTEX
8
0
10
285.000000
20
732.000000
0
VERTEX
8
0
10
286.000000
20
733.000000
0
VERTEX
8
0
10
296.846154
20
727.769231
0
VERTEX
8
0
10
312.100000
20
718.300000
0
VERTEX
8
0
10
314.000000
20
718.000000
0
SEQEND
0
POLYLINE
8
0
6
CONTINUOUS
66
1
62
7
10
0.0
20
0.0
30
0.000000
0
VERTEX
8
0
10
343.000000
20
705.000000
0
VERTEX
8
0
10
346.000000
20
706.000000
0
VERTEX
8
0
10
354.200000
20
715.900000
0
VERTEX
8
0
10
355.200000
20
717.900000
0
VERTEX
8
0
10
360.000000
20
730.000000
0
VERTEX
8
0
10
360.000000
20
733.000000
0
VERTEX
8
0
10
358.700000
20
735.900000
0
VERTEX
8
0
10
357.000000
20
739.000000
0
VERTEX
8
0
10
350.900000
20
737.200000
0
VERTEX
8
0
10
348.000000
20
735.000000
0
VERTEX
8
0
10
347.769231
20
734.153846
0
VERTEX
8
0
10
346.000000
20
732.000000
0
VERTEX
8
0
10
347.000000
20
731.000000
0
VERTEX
8
0
10
350.000000
20
731.000000
0
VERTEX
8
0
10
351.000000
20
732.000000
0
VERTEX
8
0
10
353.000000
20
729.000000
0
VERTEX
8
0
10
353.000000
20
727.000000
0
VERTEX
8
0
10
347.769231
20
715.153846
0
VERTEX
8
0
10
346.230769
20
712.846154
0
VERTEX
8
0
10
343.000000
20
706.000000
0
VERTEX
8
0
10
343.000000
20
705.000000
0
SEQEND
0
POLYLINE
8
0
6
CONTINUOUS
66
1
62
7
10
0.0
20
0.0
30
0.000000
0
VERTEX
8
0
10
314.000000
20
704.000000
0
VERTEX
8
0
10
319.180000
20
707.760000
0
VERTEX
8
0
10
324.000000
20
711.000000
0
VERTEX
8
0
10
331.000000
20
718.000000
0
VERTEX
8
0
10
332.000000
20
721.000000
0
VERTEX
8
0
10
331.000000
20
722.000000
0
VERTEX
8
0
10
326.180000
20
719.760000
0
VERTEX
8
0
10
317.000000
20
713.000000
0
VERTEX
8
0
10
311.800000
20
707.100000
0
VERTEX
8
0
10
311.000000
20
706.000000
0
VERTEX
8
0
10
312.000000
20
704.000000
0
VERTEX
8
0
10
314.000000
20
704.000000
0
SEQEND
0
POLYLINE
8
0
6
CONTINUOUS
66
1
62
7
10
0.0
20
0.0
30
0.000000
0
VERTEX
8
0
10
342.000000
20
704.000000
0
VERTEX
8
0
10
343.000000
20
705.000000
0
SEQEND
0
POLYLINE
8
0
6
CONTINUOUS
66
1
62
7
10
0.0
20
0.0
30
0.000000
0
VERTEX
8
0
10
315.000000
20
690.000000
0
VERTEX
8
0
10
315.500000
20
691.000000
0
VERTEX
8
0
10
314.800000
20
692.900000
0
VERTEX
8
0
10
314.200000
20
694.100000
0
VERTEX
8
0
10
309.000000
20
701.000000
0
VERTEX
8
0
10
298.000000
20
711.000000
0
VERTEX
8
0
10
297.000000
20
711.000000
0
VERTEX
8
0
10
296.000000
20
709.000000
0
VERTEX
8
0
10
299.760000
20
703.820000
0
VERTEX
8
0
10
303.000000
20
699.000000
0
VERTEX
8
0
10
311.000000
20
691.000000
0
VERTEX
8
0
10
313.100000
20
690.300000
0
VERTEX
8
0
10
315.000000
20
690.000000
0
SEQEND
0
POLYLINE
8
0
6
CONTINUOUS
66
1
62
7
10
0.0
20
0.0
30
0.000000
0
VERTEX
8
0
10
284.000000
20
689.000000
0
VERTEX
8
0
10
284.800000
20
690.100000
0
VERTEX
8
0
10
286.647059
20
696.088235
0
VERTEX
8
0
10
290.240000
20
708.820000
0
VERTEX
8
0
10
295.200000
20
716.900000
0
VERTEX
8
0
10
297.000000
20
720.000000
0
VERTEX
8
0
10
295.000000
20
721.000000
0
VERTEX
8
0
10
290.000000
20
717.000000
0
VERTEX
8
0
10
287.240000
20
712.820000
0
VERTEX
8
0
10
284.300000
20
705.900000
0
VERTEX
8
0
10
283.700000
20
704.100000
0
VERTEX
8
0
10
282.000000
20
698.000000
0
VERTEX
8
0
10
282.000000
20
691.000000
0
VERTEX
8
0
10
284.000000
20
689.000000
0
SEQEND
0
POLYLINE
8
0
6
CONTINUOUS
66
1
62
7
10
0.0
20
0.0
30
0.000000
0
VERTEX
8
0
10
341.000000
20
688.000000
0
VERTEX
8
0
10
343.000000
20
690.000000
0
VERTEX
8
0
10
342.200000
20
692.100000
0
VERTEX
8
0
10
341.000000
20
695.000000
0
VERTEX
8
0
10
329.000000
20
706.000000
0
VERTEX
8
0
10
328.000000
20
706.000000
0
VERTEX
8
0
10
326.000000
20
704.000000
0
VERTEX
8
0
10
328.769231
20
699.846154
0
VERTEX
8
0
10
336.000000
20
691.000000
0
VERTEX
8
0
10
341.000000
20
688.000000
0
SEQEND
0
POLYLINE
8
0
6
CONTINUOUS
66
1
62
7
10
0.0
20
0.0
30
0.000000
0
VERTEX
8
0
10
327.000000
20
675.000000
0
VERTEX
8
0
10
325.000000
20
676.000000
0
SEQEND
0
POLYLINE
8
0
6
CONTINUOUS
66
1
62
7
10
0.0
20
0.0
30
0.000000
0
VERTEX
8
0
10
310.000000
20
672.000000
0
VERTEX
8
0
10
319.204918
20
679.754098
0
VERTEX
8
0
10
325.240000
20
685.820000
0
VERTEX
8
0
10
329.000000
20
692.000000
0
VERTEX
8
0
10
328.000000
20
693.000000
0
VERTEX
8
0
10
325.900000
20
692.200000
0
VERTEX
8
0
10
321.000000
20
689.000000
0
VERTEX
8
0
10
310.760000
20
677.180000
0
VERTEX
8
0
10
309.153846
20
673.769231
0
VERTEX
8
0
10
310.000000
20
672.000000
0
SEQEND
0
POLYLINE
8
0
6
CONTINUOUS
66
1
62
7
10
0.0
20
0.0
30
0.000000
0
VERTEX
8
0
10
343.000000
20
672.000000
0
VERTEX
8
0
10
346.000000
20
674.000000
0
VERTEX
8
0
10
347.200000
20
675.900000
0
VERTEX
8
0
10
348.200000
20
677.900000
0
VERTEX
8
0
10
354.647059
20
693.088235
0
VERTEX
8
0
10
355.647059
20
697.088235
0
VERTEX
8
0
10
357.000000
20
703.000000
0
VERTEX
8
0
10
356.000000
20
705.000000
0
VERTEX
8
0
10
354.000000
20
707.000000
0
VERTEX
8
0
10
352.000000
20
705.000000
0
VERTEX
8
0
10
350.384615
20
695.923077
0
VERTEX
8
0
10
349.615385
20
692.076923
0
VERTEX
8
0
10
341.800000
20
677.100000
0
VERTEX
8
0
10
341.200000
20
675.900000
0
VERTEX
8
0
10
340.000000
20
673.000000
0
VERTEX
8
0
10
341.000000
20
672.000000
0
VERTEX
8
0
10
343.000000
20
672.000000
0
SEQEND
0
POLYLINE
8
0
6
CONTINUOUS
66
1
62
7
10
0.0
20
0.0
30
0.000000
0
VERTEX
8
0
10
285.000000
20
659.000000
0
VERTEX
8
0
10
286.769231
20
661.153846
0
VERTEX
8
0
10
288.594595
20
670.067568
0
VERTEX
8
0
10
289.405405
20
674.932432
0
VERTEX
8
0
10
297.200000
20
689.900000
0
VERTEX
8
0
10
297.800000
20
691.100000
0
VERTEX
8
0
10
299.000000
20
694.000000
0
VERTEX
8
0
10
298.000000
20
695.000000
0
VERTEX
8
0
10
295.000000
20
694.000000
0
VERTEX
8
0
10
292.000000
20
691.000000
0
VERTEX
8
0
10
289.200000
20
684.900000
0
VERTEX
8
0
10
288.800000
20
684.100000
0
VERTEX
8
0
10
283.352941
20
671.911765
0
VERTEX
8
0
10
282.000000
20
665.000000
0
VERTEX
8
0
10
283.300000
20
662.100000
0
VERTEX
8
0
10
285.000000
20
659.000000
0
SEQEND
0
POLYLINE
8
0
6
CONTINUOUS
66
1
62
7
10
0.0
20
0.0
30
0.000000
0
VERTEX
8
0
10
343.000000
20
659.000000
0
VERTEX
8
0
10
338.245902
20
665.204918
0
VERTEX
8
0
10
331.180000
20
672.240000
0
VERTEX
8
0
10
327.000000
20
675.000000
0
SEQEND
0
POLYLINE
8
0
6
CONTINUOUS
66
1
62
7
10
0.0
20
0.0
30
0.000000
0
VERTEX
8
0
10
311.000000
20
658.000000
0
VERTEX
8
0
10
311.000000
20
659.000000
0
VERTEX
8
0
10
307.000000
20
667.000000
0
VERTEX
8
0
10
299.100000
20
674.200000
0
VERTEX
8
0
10
296.250000
20
674.750000
0
VERTEX
8
0
10
296.800000
20
671.900000
0
VERTEX
8
0
10
300.000000
20
667.000000
0
VERTEX
8
0
10
306.000000
20
661.000000
0
VERTEX
8
0
10
310.180000
20
658.240000
0
VERTEX
8
0
10
311.000000
20
658.000000
0
SEQEND
0
POLYLINE
8
0
6
CONTINUOUS
66
1
62
7
10
0.0
20
0.0
30
0.000000
0
VERTEX
8
0
10
342.000000
20
658.000000
0
VERTEX
8
0
10
336.000000
20
662.000000
0
VERTEX
8
0
10
329.760000
20
669.820000
0
VERTEX
8
0
10
327.240000
20
673.180000
0
VERTEX
8
0
10
327.000000
20
675.000000
0
SEQEND
0
POLYLINE
8
0
6
CONTINUOUS
66
1
62
7
10
0.0
20
0.0
30
0.000000
0
VERTEX
8
0
10
342.000000
20
658.000000
0
VERTEX
8
0
10
343.000000
20
659.000000
0
SEQEND
0
POLYLINE
8
0
6
CONTINUOUS
66
1
62
7
10
0.0
20
0.0
30
0.000000
0
VERTEX
8
0
10
344.000000
20
658.000000
0
VERTEX
8
0
10
343.000000
20
659.000000
0
SEQEND
0
POLYLINE
8
0
6
CONTINUOUS
66
1
62
7
10
0.0
20
0.0
30
0.000000
0
VERTEX
8
0
10
344.000000
20
657.000000
0
VERTEX
8
0
10
342.000000
20
658.000000
0
SEQEND
0
POLYLINE
8
0
6
CONTINUOUS
66
1
62
7
10
0.0
20
0.0
30
0.000000
0
VERTEX
8
0
10
344.000000
20
657.000000
0
VERTEX
8
0
10
344.000000
20
658.000000
0
SEQEND
0
POLYLINE
8
0
6
CONTINUOUS
66
1
62
7
10
0.0
20
0.0
30
0.000000
0
VERTEX
8
0
10
313.000000
20
656.000000
0
VERTEX
8
0
10
311.000000
20
658.000000
0
SEQEND
0
POLYLINE
8
0
6
CONTINUOUS
66
1
62
7
10
0.0
20
0.0
30
0.000000
0
VERTEX
8
0
10
346.000000
20
656.000000
0
VERTEX
8
0
10
344.000000
20
657.000000
0
SEQEND
0
POLYLINE
8
0
6
CONTINUOUS
66
1
62
7
10
0.0
20
0.0
30
0.000000
0
VERTEX
8
0
10
312.000000
20
642.000000
0
VERTEX
8
0
10
314.100000
20
642.800000
0
VERTEX
8
0
10
329.000000
20
657.000000
0
VERTEX
8
0
10
328.000000
20
659.000000
0
VERTEX
8
0
10
319.000000
20
653.000000
0
VERTEX
8
0
10
317.000000
20
651.000000
0
VERTEX
8
0
10
312.000000
20
643.000000
0
VERTEX
8
0
10
312.000000
20
642.000000
0
SEQEND
0
POLYLINE
8
0
6
CONTINUOUS
66
1
62
7
10
0.0
20
0.0
30
0.000000
0
VERTEX
8
0
10
311.000000
20
641.000000
0
VERTEX
8
0
10
312.000000
20
642.000000
0
SEQEND
0
POLYLINE
8
0
6
CONTINUOUS
66
1
62
7
10
0.0
20
0.0
30
0.000000
0
VERTEX
8
0
10
344.000000
20
640.000000
0
VERTEX
8
0
10
348.000000
20
642.000000
0
VERTEX
8
0
10
355.200000
20
655.900000
0
VERTEX
8
0
10
357.000000
20
662.000000
0
VERTEX
8
0
10
357.000000
20
668.000000
0
VERTEX
8
0
10
354.000000
20
675.000000
0
VERTEX
8
0
10
353.000000
20
674.000000
0
VERTEX
8
0
10
350.384615
20
659.923077
0
VERTEX
8
0
10
349.615385
20
656.076923
0
VERTEX
8
0
10
343.800000
20
646.100000
0
VERTEX
8
0
10
342.800000
20
644.100000
0
VERTEX
8
0
10
342.250000
20
640.250000
0
VERTEX
8
0
10
344.000000
20
640.000000
0
SEQEND
0
POLYLINE
8
0
6
CONTINUOUS
66
1
62
7
10
0.0
20
0.0
30
0.000000
0
VERTEX
8
0
10
356.000000
20
637.000000
0
VERTEX
8
0
10
356.000000
20
639.000000
0
SEQEND
0
POLYLINE
8
0
6
CONTINUOUS
66
1
62
7
10
0.0
20
0.0
30
0.000000
0
VERTEX
8
0
10
323.000000
20
628.000000
0
VERTEX
8
0
10
324.076923
20
628.615385
0
VERTEX
8
0
10
328.000000
20
629.000000
0
VERTEX
8
0
10
330.000000
20
631.000000
0
VERTEX
8
0
10
309.100000
20
638.200000
0
VERTEX
8
0
10
307.100000
20
639.200000
0
VERTEX
8
0
10
299.000000
20
644.000000
0
VERTEX
8
0
10
297.000000
20
644.000000
0
VERTEX
8
0
10
296.000000
20
643.000000
0
VERTEX
8
0
10
297.200000
20
639.100000
0
VERTEX
8
0
10
298.000000
20
637.000000
0
VERTEX
8
0
10
306.900000
20
630.800000
0
VERTEX
8
0
10
308.100000
20
630.200000
0
VERTEX
8
0
10
316.053846
20
628.430769
0
VERTEX
8
0
10
323.000000
20
628.000000
0
SEQEND
0
POLYLINE
8
0
6
CONTINUOUS
66
1
62
7
10
0.0
20
0.0
30
0.000000
0
VERTEX
8
0
10
356.000000
20
637.000000
0
VERTEX
8
0
10
349.000000
20
630.000000
0
VERTEX
8
0
10
339.180000
20
636.240000
0
VERTEX
8
0
10
335.180000
20
639.240000
0
VERTEX
8
0
10
329.900000
20
642.700000
0
VERTEX
8
0
10
327.250000
20
642.750000
0
VERTEX
8
0
10
327.000000
20
641.000000
0
VERTEX
8
0
10
335.000000
20
633.000000
0
VERTEX
8
0
10
341.153846
20
629.230769
0
VERTEX
8
0
10
341.900000
20
628.800000
0
VERTEX
8
0
10
354.000000
20
621.000000
0
VERTEX
8
0
10
356.000000
20
623.000000
0
VERTEX
8
0
10
357.000000
20
635.000000
0
VERTEX
8
0
10
356.000000
20
637.000000
0
SEQEND
0
POLYLINE
8
0
6
CONTINUOUS
66
1
62
7
10
0.0
20
0.0
30
0.000000
0
VERTEX
8
0
10
285.000000
20
619.000000
0
VERTEX
8
0
10
290.100000
20
620.800000
0
VERTEX
8
0
10
298.000000
20
626.000000
0
VERTEX
8
0
10
298.200000
20
626.900000
0
VERTEX
8
0
10
299.000000
20
628.000000
0
VERTEX
8
0
10
297.000000
20
630.000000
0
VERTEX
8
0
10
294.911765
20
630.647059
0
VERTEX
8
0
10
290.000000
20
632.000000
0
VERTEX
8
0
10
288.000000
20
634.000000
0
VERTEX
8
0
10
289.352941
20
640.911765
0
VERTEX
8
0
10
291.200000
20
644.900000
0
VERTEX
8
0
10
299.000000
20
658.000000
0
VERTEX
8
0
10
297.000000
20
660.000000
0
VERTEX
8
0
10
296.000000
20
660.000000
0
VERTEX
8
0
10
290.800000
20
654.100000
0
VERTEX
8
0
10
289.800000
20
652.100000
0
VERTEX
8
0
10
283.405405
20
636.932432
0
VERTEX
8
0
10
282.000000
20
631.000000
0
VERTEX
8
0
10
282.000000
20
625.000000
0
VERTEX
8
0
10
285.000000
20
619.000000
0
SEQEND
0
POLYLINE
8
0
6
CONTINUOUS
66
1
62
7
10
0.0
20
0.0
30
0.000000
0
VERTEX
8
0
10
274.000000
20
607.000000
0
VERTEX
8
0
10
292.911765
20
612.352941
0
VERTEX
8
0
10
321.000000
20
619.000000
0
VERTEX
8
0
10
329.000000
20
619.000000
0
VERTEX
8
0
10
347.911765
20
614.647059
0
VERTEX
8
0
10
349.088235
20
614.352941
0
VERTEX
8
0
10
359.000000
20
612.000000
0
VERTEX
8
0
10
361.000000
20
614.000000
0
VERTEX
8
0
10
362.647059
20
621.088235
0
VERTEX
8
0
10
364.520767
20
639.019169
0
VERTEX
8
0
10
367.478336
20
710.980069
0
VERTEX
8
0
10
368.750000
20
746.750000
0
VERTEX
8
0
10
269.250000
20
746.750000
0
VERTEX
8
0
10
272.420000
20
724.060000
0
VERTEX
8
0
10
274.000000
20
607.000000
0
SEQEND
0
POLYLINE
8
0
6
CONTINUOUS
66
1
62
7
10
0.0
20
0.0
30
0.000000
0
VERTEX
8
0
10
282.000000
20
582.000000
0
VERTEX
8
0
10
284.000000
20
583.000000
0
SEQEND
0
POLYLINE
8
0
6
CONTINUOUS
66
1
62
7
10
0.0
20
0.0
30
0.000000
0
VERTEX
8
0
10
284.000000
20
583.000000
0
VERTEX
8
0
10
302.000000
20
587.000000
0
VERTEX
8
0
10
308.000000
20
587.000000
0
VERTEX
8
0
10
318.900000
20
582.800000
0
VERTEX
8
0
10
331.153846
20
575.230769
0
VERTEX
8
0
10
335.000000
20
574.000000
0
VERTEX
8
0
10
336.000000
20
575.000000
0
VERTEX
8
0
10
332.000000
20
579.000000
0
VERTEX
8
0
10
319.900000
20
586.700000
0
VERTEX
8
0
10
318.100000
20
587.300000
0
VERTEX
8
0
10
308.000000
20
590.000000
0
VERTEX
8
0
10
298.000000
20
590.000000
0
VERTEX
8
0
10
292.067568
20
588.594595
0
VERTEX
8
0
10
286.000000
20
586.000000
0
VERTEX
8
0
10
284.000000
20
584.000000
0
VERTEX
8
0
10
284.000000
20
583.000000
0
SEQEND
0
POLYLINE
8
0
6
CONTINUOUS
66
1
62
7
10
0.0
20
0.0
30
0.000000
0
VERTEX
8
0
10
127.000000
20
554.000000
0
VERTEX
8
0
10
125.000000
20
554.000000
0
SEQEND
0
POLYLINE
8
0
6
CONTINUOUS
66
1
62
7
10
0.0
20
0.0
30
0.000000
0
VERTEX
8
0
10
182.000000
20
554.000000
0
VERTEX
8
0
10
187.000000
20
555.000000
0
SEQEND
0
POLYLINE
8
0
6
CONTINUOUS
66
1
62
7
10
0.0
20
0.0
30
0.000000
0
VERTEX
8
0
10
371.000000
20
554.000000
0
VERTEX
8
0
10
372.000000
20
557.000000
0
VERTEX
8
0
10
372.000000
20
570.000000
0
VERTEX
8
0
10
369.800000
20
573.900000
0
VERTEX
8
0
10
366.000000
20
580.000000
0
VERTEX
8
0
10
361.100000
20
584.200000
0
VERTEX
8
0
10
356.846154
20
586.769231
0
VERTEX
8
0
10
347.000000
20
590.000000
0
VERTEX
8
0
10
331.000000
20
590.000000
0
VERTEX
8
0
10
330.000000
20
589.000000
0
VERTEX
8
0
10
331.900000
20
587.800000
0
VERTEX
8
0
10
335.030973
20
586.464602
0
VERTEX
8
0
10
348.969027
20
585.535398
0
VERTEX
8
0
10
355.900000
20
583.800000
0
VERTEX
8
0
10
360.000000
20
582.000000
0
VERTEX
8
0
10
364.000000
20
578.000000
0
VERTEX
8
0
10
364.594595
20
573.932432
0
VERTEX
8
0
10
368.000000
20
555.000000
0
VERTEX
8
0
10
369.000000
20
554.000000
0
VERTEX
8
0
10
371.000000
20
554.000000
0
SEQEND
0
POLYLINE
8
0
6
CONTINUOUS
66
1
62
7
10
0.0
20
0.0
30
0.000000
0
VERTEX
8
0
10
485.000000
20
553.000000
0
VERTEX
8
0
10
484.000000
20
553.000000
0
SEQEND
0
POLYLINE
8
0
6
CONTINUOUS
66
1
62
7
10
0.0
20
0.0
30
0.000000
0
VERTEX
8
0
10
291.000000
20
551.000000
0
VERTEX
8
0
10
303.195122
20
560.756098
0
VERTEX
8
0
10
310.247059
20
567.788235
0
VERTEX
8
0
10
315.752941
20
574.211765
0
VERTEX
8
0
10
317.000000
20
577.000000
0
VERTEX
8
0
10
316.000000
20
578.000000
0
VERTEX
8
0
10
310.153846
20
575.769231
0
VERTEX
8
0
10
307.846154
20
574.230769
0
VERTEX
8
0
10
303.000000
20
571.000000
0
VERTEX
8
0
10
291.000000
20
559.000000
0
VERTEX
8
0
10
288.300000
20
553.900000
0
VERTEX
8
0
10
288.000000
20
552.000000
0
VERTEX
8
0
10
289.000000
20
551.000000
0
VERTEX
8
0
10
291.000000
20
551.000000
0
SEQEND
0
POLYLINE
8
0
6
CONTINUOUS
66
1
62
7
10
0.0
20
0.0
30
0.000000
0
VERTEX
8
0
10
128.000000
20
542.000000
0
VERTEX
8
0
10
137.900000
20
548.200000
0
VERTEX
8
0
10
147.911765
20
552.352941
0
VERTEX
8
0
10
149.088235
20
552.647059
0
VERTEX
8
0
10
157.000000
20
555.000000
0
VERTEX
8
0
10
158.000000
20
557.000000
0
VERTEX
8
0
10
156.000000
20
559.000000
0
VERTEX
8
0
10
150.900000
20
557.300000
0
VERTEX
8
0
10
130.000000
20
549.000000
0
VERTEX
8
0
10
125.000000
20
544.000000
0
VERTEX
8
0
10
126.000000
20
542.000000
0
VERTEX
8
0
10
128.000000
20
542.000000
0
SEQEND
0
POLYLINE
8
0
6
CONTINUOUS
66
1
62
7
10
0.0
20
0.0
30
0.000000
0
VERTEX
8
0
10
220.000000
20
544.000000
0
VERTEX
8
0
10
221.000000
20
544.000000
0
VERTEX
8
0
10
223.230769
20
546.846154
0
VERTEX
8
0
10
224.769231
20
549.153846
0
VERTEX
8
0
10
226.000000
20
553.000000
0
VERTEX
8
0
10
224.000000
20
555.000000
0
VERTEX
8
0
10
218.000000
20
556.000000
0
VERTEX
8
0
10
210.000000
20
556.000000
0
VERTEX
8
0
10
198.100000
20
552.700000
0
VERTEX
8
0
10
194.900000
20
551.200000
0
VERTEX
8
0
10
190.000000
20
549.000000
0
VERTEX
8
0
10
186.000000
20
544.000000
0
VERTEX
8
0
10
187.000000
20
542.000000
0
VERTEX
8
0
10
190.000000
20
542.000000
0
VERTEX
8
0
10
193.900000
20
544.200000
0
VERTEX
8
0
10
215.000000
20
553.000000
0
VERTEX
8
0
10
217.000000
20
553.000000
0
VERTEX
8
0
10
220.000000
20
551.000000
0
VERTEX
8
0
10
220.000000
20
544.000000
0
SEQEND
0
POLYLINE
8
0
6
CONTINUOUS
66
1
62
7
10
0.0
20
0.0
30
0.000000
0
VERTEX
8
0
10
182.000000
20
554.000000
0
VERTEX
8
0
10
181.000000
20
555.000000
0
VERTEX
8
0
10
171.932432
20
554.405405
0
VERTEX
8
0
10
167.067568
20
553.594595
0
VERTEX
8
0
10
159.000000
20
550.000000
0
VERTEX
8
0
10
153.000000
20
544.000000
0
VERTEX
8
0
10
153.000000
20
542.000000
0
VERTEX
8
0
10
154.000000
20
541.000000
0
VERTEX
8
0
10
161.846154
20
545.230769
0
VERTEX
8
0
10
164.153846
20
546.769231
0
VERTEX
8
0
10
182.000000
20
554.000000
0
SEQEND
0
POLYLINE
8
0
6
CONTINUOUS
66
1
62
7
10
0.0
20
0.0
30
0.000000
0
VERTEX
8
0
10
219.000000
20
541.000000
0
VERTEX
8
0
10
220.000000
20
544.000000
0
SEQEND
0
POLYLINE
8
0
6
CONTINUOUS
66
1
62
7
10
0.0
20
0.0
30
0.000000
0
VERTEX
8
0
10
360.000000
20
540.000000
0
VERTEX
8
0
10
359.000000
20
540.000000
0
SEQEND
0
POLYLINE
8
0
6
CONTINUOUS
66
1
62
7
10
0.0
20
0.0
30
0.000000
0
VERTEX
8
0
10
471.000000
20
540.000000
0
VERTEX
8
0
10
472.000000
20
541.000000
0
SEQEND
0
POLYLINE
8
0
6
CONTINUOUS
66
1
62
7
10
0.0
20
0.0
30
0.000000
0
VERTEX
8
0
10
145.000000
20
539.000000
0
VERTEX
8
0
10
141.000000
20
543.000000
0
SEQEND
0
POLYLINE
8
0
6
CONTINUOUS
66
1
62
7
10
0.0
20
0.0
30
0.000000
0
VERTEX
8
0
10
258.000000
20
539.000000
0
VERTEX
8
0
10
264.800000
20
558.100000
0
VERTEX
8
0
10
271.000000
20
567.000000
0
VERTEX
8
0
10
273.900000
20
568.200000
0
VERTEX
8
0
10
281.076923
20
570.615385
0
VERTEX
8
0
10
290.088235
20
572.647059
0
VERTEX
8
0
10
296.000000
20
574.000000
0
VERTEX
8
0
10
297.000000
20
575.000000
0
VERTEX
8
0
10
295.000000
20
577.000000
0
VERTEX
8
0
10
291.000000
20
578.000000
0
VERTEX
8
0
10
284.000000
20
578.000000
0
VERTEX
8
0
10
276.100000
20
575.800000
0
VERTEX
8
0
10
270.900000
20
573.200000
0
VERTEX
8
0
10
262.000000
20
566.000000
0
VERTEX
8
0
10
259.230769
20
560.846154
0
VERTEX
8
0
10
256.000000
20
551.000000
0
VERTEX
8
0
10
256.000000
20
544.000000
0
VERTEX
8
0
10
257.352941
20
540.088235
0
VERTEX
8
0
10
258.000000
20
539.000000
0
SEQEND
0
POLYLINE
8
0
6
CONTINUOUS
66
1
62
7
10
0.0
20
0.0
30
0.000000
0
VERTEX
8
0
10
426.000000
20
539.000000
0
VERTEX
8
0
10
426.000000
20
541.000000
0
SEQEND
0
POLYLINE
8
0
6
CONTINUOUS
66
1
62
7
10
0.0
20
0.0
30
0.000000
0
VERTEX
8
0
10
486.000000
20
539.000000
0
VERTEX
8
0
10
480.153846
20
542.230769
0
VERTEX
8
0
10
469.900000
20
547.700000
0
VERTEX
8
0
10
455.911765
20
550.647059
0
VERTEX
8
0
10
451.000000
20
552.000000
0
VERTEX
8
0
10
450.000000
20
553.000000
0
VERTEX
8
0
10
457.000000
20
556.000000
0
VERTEX
8
0
10
461.000000
20
556.000000
0
VERTEX
8
0
10
470.900000
20
552.800000
0
VERTEX
8
0
10
472.100000
20
552.200000
0
VERTEX
8
0
10
479.783186
20
546.752212
0
VERTEX
8
0
10
487.000000
20
540.000000
0
SEQEND
0
POLYLINE
8
0
6
CONTINUOUS
66
1
62
7
10
0.0
20
0.0
30
0.000000
0
VERTEX
8
0
10
486.000000
20
539.000000
0
VERTEX
8
0
10
487.000000
20
540.000000
0
SEQEND
0
POLYLINE
8
0
6
CONTINUOUS
66
1
62
7
10
0.0
20
0.0
30
0.000000
0
VERTEX
8
0
10
488.000000
20
539.000000
0
VERTEX
8
0
10
487.000000
20
540.000000
0
SEQEND
0
POLYLINE
8
0
6
CONTINUOUS
66
1
62
7
10
0.0
20
0.0
30
0.000000
0
VERTEX
8
0
10
516.000000
20
539.000000
0
VERTEX
8
0
10
512.243902
20
543.195122
0
VERTEX
8
0
10
507.195122
20
548.243902
0
VERTEX
8
0
10
502.804878
20
551.756098
0
VERTEX
8
0
10
495.000000
20
555.000000
0
VERTEX
8
0
10
488.000000
20
555.000000
0
VERTEX
8
0
10
486.100000
20
553.800000
0
VERTEX
8
0
10
485.000000
20
553.000000
0
SEQEND
0
POLYLINE
8
0
6
CONTINUOUS
66
1
62
7
10
0.0
20
0.0
30
0.000000
0
VERTEX
8
0
10
145.000000
20
538.000000
0
VERTEX
8
0
10
145.000000
20
539.000000
0
SEQEND
0
POLYLINE
8
0
6
CONTINUOUS
66
1
62
7
10
0.0
20
0.0
30
0.000000
0
VERTEX
8
0
10
487.000000
20
538.000000
0
VERTEX
8
0
10
486.000000
20
539.000000
0
SEQEND
0
POLYLINE
8
0
6
CONTINUOUS
66
1
62
7
10
0.0
20
0.0
30
0.000000
0
VERTEX
8
0
10
487.000000
20
538.000000
0
VERTEX
8
0
10
488.000000
20
539.000000
0
SEQEND
0
POLYLINE
8
0
6
CONTINUOUS
66
1
62
7
10
0.0
20
0.0
30
0.000000
0
VERTEX
8
0
10
489.000000
20
538.000000
0
VERTEX
8
0
10
488.000000
20
539.000000
0
SEQEND
0
POLYLINE
8
0
6
CONTINUOUS
66
1
62
7
10
0.0
20
0.0
30
0.000000
0
VERTEX
8
0
10
504.000000
20
538.000000
0
VERTEX
8
0
10
505.000000
20
539.000000
0
SEQEND
0
POLYLINE
8
0
6
CONTINUOUS
66
1
62
7
10
0.0
20
0.0
30
0.000000
0
VERTEX
8
0
10
515.000000
20
538.000000
0
VERTEX
8
0
10
503.846154
20
545.769231
0
VERTEX
8
0
10
494.900000
20
549.700000
0
VERTEX
8
0
10
485.000000
20
553.000000
0
SEQEND
0
POLYLINE
8
0
6
CONTINUOUS
66
1
62
7
10
0.0
20
0.0
30
0.000000
0
VERTEX
8
0
10
515.000000
20
538.000000
0
VERTEX
8
0
10
516.000000
20
539.000000
0
SEQEND
0
POLYLINE
8
0
6
CONTINUOUS
66
1
62
7
10
0.0
20
0.0
30
0.000000
0
VERTEX
8
0
10
517.000000
20
538.000000
0
VERTEX
8
0
10
516.000000
20
539.000000
0
SEQEND
0
POLYLINE
8
0
6
CONTINUOUS
66
1
62
7
10
0.0
20
0.0
30
0.000000
0
VERTEX
8
0
10
258.000000
20
537.000000
0
VERTEX
8
0
10
258.000000
20
539.000000
0
SEQEND
0
POLYLINE
8
0
6
CONTINUOUS
66
1
62
7
10
0.0
20
0.0
30
0.000000
0
VERTEX
8
0
10
489.000000
20
537.000000
0
VERTEX
8
0
10
487.000000
20
538.000000
0
SEQEND
0
POLYLINE
8
0
6
CONTINUOUS
66
1
62
7
10
0.0
20
0.0
30
0.000000
0
VERTEX
8
0
10
489.000000
20
537.000000
0
VERTEX
8
0
10
489.000000
20
538.000000
0
SEQEND
0
POLYLINE
8
0
6
CONTINUOUS
66
1
62
7
10
0.0
20
0.0
30
0.000000
0
VERTEX
8
0
10
517.000000
20
537.000000
0
VERTEX
8
0
10
515.000000
20
538.000000
0
SEQEND
0
POLYLINE
8
0
6
CONTINUOUS
66
1
62
7
10
0.0
20
0.0
30
0.000000
0
VERTEX
8
0
10
517.000000
20
537.000000
0
VERTEX
8
0
10
517.000000
20
538.000000
0
SEQEND
0
POLYLINE
8
0
6
CONTINUOUS
66
1
62
7
10
0.0
20
0.0
30
0.000000
0
VERTEX
8
0
10
426.000000
20
541.000000
0
VERTEX
8
0
10
429.000000
20
549.000000
0
VERTEX
8
0
10
431.000000
20
549.000000
0
VERTEX
8
0
10
450.846154
20
537.769231
0
VERTEX
8
0
10
454.000000
20
536.000000
0
VERTEX
8
0
10
455.000000
20
537.000000
0
VERTEX
8
0
10
453.000000
20
540.000000
0
VERTEX
8
0
10
444.180000
20
547.240000
0
VERTEX
8
0
10
437.846154
20
551.769231
0
VERTEX
8
0
10
428.900000
20
554.700000
0
VERTEX
8
0
10
427.100000
20
555.300000
0
VERTEX
8
0
10
423.000000
20
556.000000
0
VERTEX
8
0
10
418.000000
20
554.000000
0
VERTEX
8
0
10
418.000000
20
553.000000
0
VERTEX
8
0
10
425.000000
20
541.000000
0
VERTEX
8
0
10
426.000000
20
541.000000
0
SEQEND
0
POLYLINE
8
0
6
CONTINUOUS
66
1
62
7
10
0.0
20
0.0
30
0.000000
0
VERTEX
8
0
10
490.000000
20
536.000000
0
VERTEX
8
0
10
489.000000
20
537.000000
0
SEQEND
0
POLYLINE
8
0
6
CONTINUOUS
66
1
62
7
10
0.0
20
0.0
30
0.000000
0
VERTEX
8
0
10
519.000000
20
535.000000
0
VERTEX
8
0
10
517.000000
20
537.000000
0
SEQEND
0
POLYLINE
8
0
6
CONTINUOUS
66
1
62
7
10
0.0
20
0.0
30
0.000000
0
VERTEX
8
0
10
359.000000
20
540.000000
0
VERTEX
8
0
10
358.000000
20
541.000000
0
VERTEX
8
0
10
341.000000
20
540.000000
0
VERTEX
8
0
10
337.000000
20
541.000000
0
VERTEX
8
0
10
335.000000
20
544.000000
0
VERTEX
8
0
10
335.000000
20
548.000000
0
VERTEX
8
0
10
337.200000
20
553.900000
0
VERTEX
8
0
10
337.800000
20
555.100000
0
VERTEX
8
0
10
339.000000
20
558.000000
0
VERTEX
8
0
10
346.000000
20
565.000000
0
VERTEX
8
0
10
351.100000
20
567.800000
0
VERTEX
8
0
10
359.000000
20
570.000000
0
VERTEX
8
0
10
361.000000
20
572.000000
0
VERTEX
8
0
10
356.000000
20
575.000000
0
VERTEX
8
0
10
353.000000
20
575.000000
0
VERTEX
8
0
10
346.100000
20
572.700000
0
VERTEX
8
0
10
344.900000
20
572.200000
0
VERTEX
8
0
10
340.000000
20
570.000000
0
VERTEX
8
0
10
333.000000
20
563.000000
0
VERTEX
8
0
10
332.200000
20
560.900000
0
VERTEX
8
0
10
331.800000
20
560.100000
0
VERTEX
8
0
10
329.000000
20
555.000000
0
VERTEX
8
0
10
329.000000
20
541.000000
0
VERTEX
8
0
10
330.000000
20
537.000000
0
VERTEX
8
0
10
334.000000
20
533.000000
0
VERTEX
8
0
10
345.076923
20
534.615385
0
VERTEX
8
0
10
348.923077
20
535.384615
0
VERTEX
8
0
10
352.900000
20
537.200000
0
VERTEX
8
0
10
359.000000
20
540.000000
0
SEQEND
0
POLYLINE
8
0
6
CONTINUOUS
66
1
62
7
10
0.0
20
0.0
30
0.000000
0
VERTEX
8
0
10
154.000000
20
532.000000
0
VERTEX
8
0
10
146.783186
20
538.752212
0
VERTEX
8
0
10
145.000000
20
539.000000
0
SEQEND
0
POLYLINE
8
0
6
CONTINUOUS
66
1
62
7
10
0.0
20
0.0
30
0.000000
0
VERTEX
8
0
10
309.000000
20
532.000000
0
VERTEX
8
0
10
313.000000
20
533.000000
0
VERTEX
8
0
10
315.000000
20
535.000000
0
VERTEX
8
0
10
316.000000
20
539.000000
0
VERTEX
8
0
10
314.352941
20
554.088235
0
VERTEX
8
0
10
313.647059
20
556.911765
0
VERTEX
8
0
10
312.000000
20
560.000000
0
VERTEX
8
0
10
311.000000
20
559.000000
0
VERTEX
8
0
10
309.352941
20
545.911765
0
VERTEX
8
0
10
309.000000
20
543.000000
0
VERTEX
8
0
10
304.000000
20
540.000000
0
VERTEX
8
0
10
300.000000
20
540.000000
0
VERTEX
8
0
10
294.100000
20
542.200000
0
VERTEX
8
0
10
292.900000
20
542.800000
0
VERTEX
8
0
10
290.000000
20
544.000000
0
VERTEX
8
0
10
283.000000
20
551.000000
0
VERTEX
8
0
10
279.230769
20
558.153846
0
VERTEX
8
0
10
278.800000
20
558.900000
0
VERTEX
8
0
10
277.000000
20
562.000000
0
VERTEX
8
0
10
275.000000
20
562.000000
0
VERTEX
8
0
10
274.000000
20
561.000000
0
VERTEX
8
0
10
274.000000
20
554.000000
0
VERTEX
8
0
10
274.700000
20
552.900000
0
VERTEX
8
0
10
280.000000
20
544.000000
0
VERTEX
8
0
10
283.000000
20
541.000000
0
VERTEX
8
0
10
287.100000
20
539.200000
0
VERTEX
8
0
10
292.100000
20
536.200000
0
VERTEX
8
0
10
302.088235
20
533.352941
0
VERTEX
8
0
10
309.000000
20
532.000000
0
SEQEND
0
POLYLINE
8
0
6
CONTINUOUS
66
1
62
7
10
0.0
20
0.0
30
0.000000
0
VERTEX
8
0
10
153.000000
20
531.000000
0
VERTEX
8
0
10
152.000000
20
531.000000
0
VERTEX
8
0
10
145.000000
20
538.000000
0
SEQEND
0
POLYLINE
8
0
6
CONTINUOUS
66
1
62
7
10
0.0
20
0.0
30
0.000000
0
VERTEX
8
0
10
153.000000
20
531.000000
0
VERTEX
8
0
10
154.000000
20
532.000000
0
SEQEND
0
POLYLINE
8
0
6
CONTINUOUS
66
1
62
7
10
0.0
20
0.0
30
0.000000
0
VERTEX
8
0
10
155.000000
20
531.000000
0
VERTEX
8
0
10
154.000000
20
532.000000
0
SEQEND
0
POLYLINE
8
0
6
CONTINUOUS
66
1
62
7
10
0.0
20
0.0
30
0.000000
0
VERTEX
8
0
10
154.000000
20
530.000000
0
VERTEX
8
0
10
153.000000
20
531.000000
0
SEQEND
0
POLYLINE
8
0
6
CONTINUOUS
66
1
62
7
10
0.0
20
0.0
30
0.000000
0
VERTEX
8
0
10
154.000000
20
530.000000
0
VERTEX
8
0
10
155.000000
20
531.000000
0
SEQEND
0
POLYLINE
8
0
6
CONTINUOUS
66
1
62
7
10
0.0
20
0.0
30
0.000000
0
VERTEX
8
0
10
156.000000
20
530.000000
0
VERTEX
8
0
10
155.000000
20
531.000000
0
SEQEND
0
POLYLINE
8
0
6
CONTINUOUS
66
1
62
7
10
0.0
20
0.0
30
0.000000
0
VERTEX
8
0
10
176.000000
20
530.000000
0
VERTEX
8
0
10
177.000000
20
531.000000
0
SEQEND
0
POLYLINE
8
0
6
CONTINUOUS
66
1
62
7
10
0.0
20
0.0
30
0.000000
0
VERTEX
8
0
10
374.000000
20
530.000000
0
VERTEX
8
0
10
375.000000
20
531.000000
0
VERTEX
8
0
10
375.000000
20
535.000000
0
VERTEX
8
0
10
373.800000
20
536.900000
0
VERTEX
8
0
10
373.200000
20
538.100000
0
VERTEX
8
0
10
364.752212
20
549.783186
0
VERTEX
8
0
10
358.000000
20
558.000000
0
VERTEX
8
0
10
353.100000
20
562.200000
0
VERTEX
8
0
10
352.000000
20
563.000000
0
VERTEX
8
0
10
351.000000
20
561.000000
0
VERTEX
8
0
10
355.769231
20
553.846154
0
VERTEX
8
0
10
367.754098
20
537.795082
0
VERTEX
8
0
10
374.000000
20
530.000000
0
SEQEND
0
POLYLINE
8
0
6
CONTINUOUS
66
1
62
7
10
0.0
20
0.0
30
0.000000
0
VERTEX
8
0
10
155.000000
20
529.000000
0
VERTEX
8
0
10
154.000000
20
530.000000
0
SEQEND
0
POLYLINE
8
0
6
CONTINUOUS
66
1
62
7
10
0.0
20
0.0
30
0.000000
0
VERTEX
8
0
10
155.000000
20
529.000000
0
VERTEX
8
0
10
156.000000
20
530.000000
0
SEQEND
0
POLYLINE
8
0
6
CONTINUOUS
66
1
62
7
10
0.0
20
0.0
30
0.000000
0
VERTEX
8
0
10
157.000000
20
529.000000
0
VERTEX
8
0
10
156.000000
20
530.000000
0
SEQEND
0
POLYLINE
8
0
6
CONTINUOUS
66
1
62
7
10
0.0
20
0.0
30
0.000000
0
VERTEX
8
0
10
403.000000
20
529.000000
0
VERTEX
8
0
10
402.000000
20
535.000000
0
SEQEND
0
POLYLINE
8
0
6
CONTINUOUS
66
1
62
7
10
0.0
20
0.0
30
0.000000
0
VERTEX
8
0
10
125.000000
20
554.000000
0
VERTEX
8
0
10
123.100000
20
555.200000
0
VERTEX
8
0
10
116.000000
20
558.000000
0
VERTEX
8
0
10
113.000000
20
558.000000
0
VERTEX
8
0
10
111.000000
20
556.000000
0
VERTEX
8
0
10
113.800000
20
547.900000
0
VERTEX
8
0
10
119.230769
20
538.153846
0
VERTEX
8
0
10
126.000000
20
528.000000
0
VERTEX
8
0
10
128.000000
20
529.000000
0
VERTEX
8
0
10
127.200000
20
531.100000
0
VERTEX
8
0
10
126.800000
20
531.900000
0
VERTEX
8
0
10
116.000000
20
550.000000
0
VERTEX
8
0
10
118.000000
20
552.000000
0
VERTEX
8
0
10
125.000000
20
554.000000
0
SEQEND
0
POLYLINE
8
0
6
CONTINUOUS
66
1
62
7
10
0.0
20
0.0
30
0.000000
0
VERTEX
8
0
10
157.000000
20
528.000000
0
VERTEX
8
0
10
155.000000
20
529.000000
0
SEQEND
0
POLYLINE
8
0
6
CONTINUOUS
66
1
62
7
10
0.0
20
0.0
30
0.000000
0
VERTEX
8
0
10
157.000000
20
528.000000
0
VERTEX
8
0
10
157.000000
20
529.000000
0
SEQEND
0
POLYLINE
8
0
6
CONTINUOUS
66
1
62
7
10
0.0
20
0.0
30
0.000000
0
VERTEX
8
0
10
191.000000
20
527.000000
0
VERTEX
8
0
10
192.000000
20
528.000000
0
VERTEX
8
0
10
188.000000
20
534.000000
0
VERTEX
8
0
10
181.000000
20
541.000000
0
VERTEX
8
0
10
176.820000
20
543.760000
0
VERTEX
8
0
10
173.000000
20
546.000000
0
VERTEX
8
0
10
172.000000
20
544.000000
0
VERTEX
8
0
10
172.800000
20
542.900000
0
VERTEX
8
0
10
176.000000
20
538.000000
0
VERTEX
8
0
10
182.000000
20
532.000000
0
VERTEX
8
0
10
186.180000
20
529.240000
0
VERTEX
8
0
10
191.000000
20
527.000000
0
SEQEND
0
POLYLINE
8
0
6
CONTINUOUS
66
1
62
7
10
0.0
20
0.0
30
0.000000
0
VERTEX
8
0
10
159.000000
20
526.000000
0
VERTEX
8
0
10
157.000000
20
528.000000
0
SEQEND
0
POLYLINE
8
0
6
CONTINUOUS
66
1
62
7
10
0.0
20
0.0
30
0.000000
0
VERTEX
8
0
10
205.000000
20
526.000000
0
VERTEX
8
0
10
204.000000
20
527.000000
0
SEQEND
0
POLYLINE
8
0
6
CONTINUOUS
66
1
62
7
10
0.0
20
0.0
30
0.000000
0
VERTEX
8
0
10
205.000000
20
526.000000
0
VERTEX
8
0
10
206.000000
20
527.000000
0
VERTEX
8
0
10
205.000000
20
528.000000
0
VERTEX
8
0
10
204.000000
20
527.000000
0
SEQEND
0
POLYLINE
8
0
6
CONTINUOUS
66
1
62
7
10
0.0
20
0.0
30
0.000000
0
VERTEX
8
0
10
452.000000
20
525.000000
0
VERTEX
8
0
10
453.000000
20
528.000000
0
VERTEX
8
0
10
456.000000
20
531.000000
0
VERTEX
8
0
10
466.100000
20
537.800000
0
VERTEX
8
0
10
471.000000
20
540.000000
0
SEQEND
0
POLYLINE
8
0
6
CONTINUOUS
66
1
62
7
10
0.0
20
0.0
30
0.000000
0
VERTEX
8
0
10
467.000000
20
525.000000
0
VERTEX
8
0
10
466.000000
20
526.000000
0
SEQEND
0
POLYLINE
8
0
6
CONTINUOUS
66
1
62
7
10
0.0
20
0.0
30
0.000000
0
VERTEX
8
0
10
486.000000
20
525.000000
0
VERTEX
8
0
10
490.795082
20
529.245902
0
VERTEX
8
0
10
502.100000
20
537.800000
0
VERTEX
8
0
10
504.000000
20
538.000000
0
SEQEND
0
POLYLINE
8
0
6
CONTINUOUS
66
1
62
7
10
0.0
20
0.0
30
0.000000
0
VERTEX
8
0
10
453.000000
20
524.000000
0
VERTEX
8
0
10
452.000000
20
525.000000
0
SEQEND
0
POLYLINE
8
0
6
CONTINUOUS
66
1
62
7
10
0.0
20
0.0
30
0.000000
0
VERTEX
8
0
10
453.000000
20
524.000000
0
VERTEX
8
0
10
457.820000
20
526.240000
0
VERTEX
8
0
10
461.180000
20
528.760000
0
VERTEX
8
0
10
470.000000
20
537.000000
0
VERTEX
8
0
10
471.000000
20
540.000000
0
SEQEND
0
POLYLINE
8
0
6
CONTINUOUS
66
1
62
7
10
0.0
20
0.0
30
0.000000
0
VERTEX
8
0
10
467.000000
20
524.000000
0
VERTEX
8
0
10
467.000000
20
525.000000
0
SEQEND
0
POLYLINE
8
0
6
CONTINUOUS
66
1
62
7
10
0.0
20
0.0
30
0.000000
0
VERTEX
8
0
10
469.000000
20
524.000000
0
VERTEX
8
0
10
467.000000
20
525.000000
0
SEQEND
0
POLYLINE
8
0
6
CONTINUOUS
66
1
62
7
10
0.0
20
0.0
30
0.000000
0
VERTEX
8
0
10
487.000000
20
524.000000
0
VERTEX
8
0
10
486.000000
20
525.000000
0
SEQEND
0
POLYLINE
8
0
6
CONTINUOUS
66
1
62
7
10
0.0
20
0.0
30
0.000000
0
VERTEX
8
0
10
487.000000
20
524.000000
0
VERTEX
8
0
10
491.100000
20
525.800000
0
VERTEX
8
0
10
496.000000
20
528.000000
0
VERTEX
8
0
10
503.000000
20
535.000000
0
VERTEX
8
0
10
503.800000
20
537.100000
0
VERTEX
8
0
10
504.000000
20
538.000000
0
SEQEND
0
POLYLINE
8
0
6
CONTINUOUS
66
1
62
7
10
0.0
20
0.0
30
0.000000
0
VERTEX
8
0
10
501.000000
20
524.000000
0
VERTEX
8
0
10
500.000000
20
525.000000
0
SEQEND
0
POLYLINE
8
0
6
CONTINUOUS
66
1
62
7
10
0.0
20
0.0
30
0.000000
0
VERTEX
8
0
10
452.000000
20
525.000000
0
VERTEX
8
0
10
451.000000
20
524.000000
0
VERTEX
8
0
10
452.000000
20
523.000000
0
VERTEX
8
0
10
453.000000
20
524.000000
0
SEQEND
0
POLYLINE
8
0
6
CONTINUOUS
66
1
62
7
10
0.0
20
0.0
30
0.000000
0
VERTEX
8
0
10
468.000000
20
523.000000
0
VERTEX
8
0
10
467.000000
20
524.000000
0
SEQEND
0
POLYLINE
8
0
6
CONTINUOUS
66
1
62
7
10
0.0
20
0.0
30
0.000000
0
VERTEX
8
0
10
468.000000
20
523.000000
0
VERTEX
8
0
10
469.000000
20
524.000000
0
SEQEND
0
POLYLINE
8
0
6
CONTINUOUS
66
1
62
7
10
0.0
20
0.0
30
0.000000
0
VERTEX
8
0
10
485.000000
20
523.000000
0
VERTEX
8
0
10
486.000000
20
525.000000
0
SEQEND
0
POLYLINE
8
0
6
CONTINUOUS
66
1
62
7
10
0.0
20
0.0
30
0.000000
0
VERTEX
8
0
10
485.000000
20
523.000000
0
VERTEX
8
0
10
487.000000
20
524.000000
0
SEQEND
0
POLYLINE
8
0
6
CONTINUOUS
66
1
62
7
10
0.0
20
0.0
30
0.000000
0
VERTEX
8
0
10
501.000000
20
523.000000
0
VERTEX
8
0
10
501.000000
20
524.000000
0
SEQEND
0
POLYLINE
8
0
6
CONTINUOUS
66
1
62
7
10
0.0
20
0.0
30
0.000000
0
VERTEX
8
0
10
503.000000
20
523.000000
0
VERTEX
8
0
10
501.000000
20
524.000000
0
SEQEND
0
POLYLINE
8
0
6
CONTINUOUS
66
1
62
7
10
0.0
20
0.0
30
0.000000
0
VERTEX
8
0
10
484.000000
20
522.000000
0
VERTEX
8
0
10
485.000000
20
523.000000
0
SEQEND
0
POLYLINE
8
0
6
CONTINUOUS
66
1
62
7
10
0.0
20
0.0
30
0.000000
0
VERTEX
8
0
10
502.000000
20
522.000000
0
VERTEX
8
0
10
501.000000
20
523.000000
0
SEQEND
0
POLYLINE
8
0
6
CONTINUOUS
66
1
62
7
10
0.0
20
0.0
30
0.000000
0
VERTEX
8
0
10
502.000000
20
522.000000
0
VERTEX
8
0
10
503.000000
20
523.000000
0
SEQEND
0
POLYLINE
8
0
6
CONTINUOUS
66
1
62
7
10
0.0
20
0.0
30
0.000000
0
VERTEX
8
0
10
504.000000
20
522.000000
0
VERTEX
8
0
10
503.000000
20
523.000000
0
SEQEND
0
POLYLINE
8
0
6
CONTINUOUS
66
1
62
7
10
0.0
20
0.0
30
0.000000
0
VERTEX
8
0
10
519.000000
20
522.000000
0
VERTEX
8
0
10
521.760000
20
525.180000
0
VERTEX
8
0
10
527.800000
20
534.100000
0
VERTEX
8
0
10
528.200000
20
534.900000
0
VERTEX
8
0
10
531.000000
20
543.000000
0
VERTEX
8
0
10
531.000000
20
553.000000
0
VERTEX
8
0
10
529.000000
20
555.000000
0
VERTEX
8
0
10
525.000000
20
555.000000
0
VERTEX
8
0
10
522.200000
20
553.600000
0
VERTEX
8
0
10
517.000000
20
550.000000
0
VERTEX
8
0
10
518.000000
20
548.000000
0
VERTEX
8
0
10
524.000000
20
548.000000
0
VERTEX
8
0
10
527.000000
20
545.000000
0
VERTEX
8
0
10
527.000000
20
542.000000
0
VERTEX
8
0
10
517.300000
20
524.900000
0
VERTEX
8
0
10
517.000000
20
523.000000
0
VERTEX
8
0
10
518.000000
20
522.000000
0
VERTEX
8
0
10
519.000000
20
522.000000
0
SEQEND
0
POLYLINE
8
0
6
CONTINUOUS
66
1
62
7
10
0.0
20
0.0
30
0.000000
0
VERTEX
8
0
10
503.000000
20
521.000000
0
VERTEX
8
0
10
502.000000
20
522.000000
0
SEQEND
0
POLYLINE
8
0
6
CONTINUOUS
66
1
62
7
10
0.0
20
0.0
30
0.000000
0
VERTEX
8
0
10
503.000000
20
521.000000
0
VERTEX
8
0
10
504.000000
20
522.000000
0
SEQEND
0
POLYLINE
8
0
6
CONTINUOUS
66
1
62
7
10
0.0
20
0.0
30
0.000000
0
VERTEX
8
0
10
527.000000
20
518.000000
0
VERTEX
8
0
10
527.000000
20
523.000000
0
SEQEND
0
POLYLINE
8
0
6
CONTINUOUS
66
1
62
7
10
0.0
20
0.0
30
0.000000
0
VERTEX
8
0
10
218.000000
20
515.000000
0
VERTEX
8
0
10
220.000000
20
520.000000
0
VERTEX
8
0
10
220.000000
20
524.000000
0
VERTEX
8
0
10
213.800000
20
538.900000
0
VERTEX
8
0
10
213.200000
20
540.100000
0
VERTEX
8
0
10
210.000000
20
544.000000
0
VERTEX
8
0
10
209.000000
20
544.000000
0
VERTEX
8
0
10
207.000000
20
542.000000
0
VERTEX
8
0
10
208.200000
20
538.100000
0
VERTEX
8
0
10
208.800000
20
536.900000
0
VERTEX
8
0
10
215.352941
20
520.088235
0
VERTEX
8
0
10
217.000000
20
515.000000
0
VERTEX
8
0
10
218.000000
20
515.000000
0
SEQEND
0
POLYLINE
8
0
6
CONTINUOUS
66
1
62
7
10
0.0
20
0.0
30
0.000000
0
VERTEX
8
0
10
376.000000
20
514.000000
0
VERTEX
8
0
10
378.760000
20
517.180000
0
VERTEX
8
0
10
383.800000
20
526.100000
0
VERTEX
8
0
10
384.200000
20
526.900000
0
VERTEX
8
0
10
389.000000
20
541.000000
0
VERTEX
8
0
10
389.000000
20
545.000000
0
VERTEX
8
0
10
383.760000
20
557.820000
0
VERTEX
8
0
10
380.000000
20
563.000000
0
VERTEX
8
0
10
379.000000
20
562.000000
0
VERTEX
8
0
10
383.000000
20
542.000000
0
VERTEX
8
0
10
381.647059
20
538.088235
0
VERTEX
8
0
10
378.200000
20
528.900000
0
VERTEX
8
0
10
376.769231
20
526.153846
0
VERTEX
8
0
10
373.000000
20
520.000000
0
VERTEX
8
0
10
374.230769
20
516.153846
0
VERTEX
8
0
10
376.000000
20
514.000000
0
SEQEND
0
POLYLINE
8
0
6
CONTINUOUS
66
1
62
7
10
0.0
20
0.0
30
0.000000
0
VERTEX
8
0
10
130.000000
20
513.000000
0
VERTEX
8
0
10
129.000000
20
514.000000
0
SEQEND
0
POLYLINE
8
0
6
CONTINUOUS
66
1
62
7
10
0.0
20
0.0
30
0.000000
0
VERTEX
8
0
10
130.000000
20
513.000000
0
VERTEX
8
0
10
131.000000
20
513.000000
0
VERTEX
8
0
10
138.000000
20
520.000000
0
VERTEX
8
0
10
141.700000
20
526.100000
0
VERTEX
8
0
10
143.000000
20
529.000000
0
VERTEX
8
0
10
141.000000
20
530.000000
0
VERTEX
8
0
10
134.000000
20
523.000000
0
VERTEX
8
0
10
129.200000
20
514.900000
0
VERTEX
8
0
10
129.000000
20
514.000000
0
SEQEND
0
POLYLINE
8
0
6
CONTINUOUS
66
1
62
7
10
0.0
20
0.0
30
0.000000
0
VERTEX
8
0
10
189.000000
20
513.000000
0
VERTEX
8
0
10
193.000000
20
519.000000
0
VERTEX
8
0
10
201.900000
20
526.200000
0
VERTEX
8
0
10
204.000000
20
527.000000
0
SEQEND
0
POLYLINE
8
0
6
CONTINUOUS
66
1
62
7
10
0.0
20
0.0
30
0.000000
0
VERTEX
8
0
10
129.000000
20
514.000000
0
VERTEX
8
0
10
128.000000
20
513.000000
0
VERTEX
8
0
10
129.000000
20
512.000000
0
VERTEX
8
0
10
130.000000
20
513.000000
0
SEQEND
0
POLYLINE
8
0
6
CONTINUOUS
66
1
62
7
10
0.0
20
0.0
30
0.000000
0
VERTEX
8
0
10
159.000000
20
512.000000
0
VERTEX
8
0
10
159.000000
20
513.000000
0
VERTEX
8
0
10
160.240000
20
515.820000
0
VERTEX
8
0
10
162.760000
20
519.180000
0
VERTEX
8
0
10
170.000000
20
527.000000
0
VERTEX
8
0
10
176.000000
20
530.000000
0
SEQEND
0
POLYLINE
8
0
6
CONTINUOUS
66
1
62
7
10
0.0
20
0.0
30
0.000000
0
VERTEX
8
0
10
159.000000
20
512.000000
0
VERTEX
8
0
10
165.000000
20
516.000000
0
VERTEX
8
0
10
171.000000
20
522.000000
0
VERTEX
8
0
10
174.756098
20
527.195122
0
VERTEX
8
0
10
176.000000
20
530.000000
0
SEQEND
0
POLYLINE
8
0
6
CONTINUOUS
66
1
62
7
10
0.0
20
0.0
30
0.000000
0
VERTEX
8
0
10
190.000000
20
512.000000
0
VERTEX
8
0
10
189.000000
20
513.000000
0
SEQEND
0
POLYLINE
8
0
6
CONTINUOUS
66
1
62
7
10
0.0
20
0.0
30
0.000000
0
VERTEX
8
0
10
190.000000
20
512.000000
0
VERTEX
8
0
10
196.000000
20
515.000000
0
VERTEX
8
0
10
204.200000
20
523.900000
0
VERTEX
8
0
10
205.000000
20
526.000000
0
SEQEND
0
POLYLINE
8
0
6
CONTINUOUS
66
1
62
7
10
0.0
20
0.0
30
0.000000
0
VERTEX
8
0
10
426.000000
20
512.000000
0
VERTEX
8
0
10
429.200000
20
516.900000
0
VERTEX
8
0
10
434.647059
20
528.088235
0
VERTEX
8
0
10
437.000000
20
539.000000
0
VERTEX
8
0
10
436.000000
20
540.000000
0
VERTEX
8
0
10
433.000000
20
538.000000
0
VERTEX
8
0
10
425.000000
20
518.000000
0
VERTEX
8
0
10
425.000000
20
513.000000
0
VERTEX
8
0
10
426.000000
20
512.000000
0
SEQEND
0
POLYLINE
8
0
6
CONTINUOUS
66
1
62
7
10
0.0
20
0.0
30
0.000000
0
VERTEX
8
0
10
437.000000
20
512.000000
0
VERTEX
8
0
10
438.000000
20
513.000000
0
SEQEND
0
POLYLINE
8
0
6
CONTINUOUS
66
1
62
7
10
0.0
20
0.0
30
0.000000
0
VERTEX
8
0
10
158.000000
20
511.000000
0
VERTEX
8
0
10
159.000000
20
512.000000
0
SEQEND
0
POLYLINE
8
0
6
CONTINUOUS
66
1
62
7
10
0.0
20
0.0
30
0.000000
0
VERTEX
8
0
10
189.000000
20
513.000000
0
VERTEX
8
0
10
188.000000
20
512.000000
0
VERTEX
8
0
10
189.000000
20
511.000000
0
VERTEX
8
0
10
190.000000
20
512.000000
0
SEQEND
0
POLYLINE
8
0
6
CONTINUOUS
66
1
62
7
10
0.0
20
0.0
30
0.000000
0
VERTEX
8
0
10
426.000000
20
510.000000
0
VERTEX
8
0
10
426.000000
20
512.000000
0
SEQEND
0
POLYLINE
8
0
6
CONTINUOUS
66
1
62
7
10
0.0
20
0.0
30
0.000000
0
VERTEX
8
0
10
469.000000
20
510.000000
0
VERTEX
8
0
10
470.000000
20
511.000000
0
SEQEND
0
POLYLINE
8
0
6
CONTINUOUS
66
1
62
7
10
0.0
20
0.0
30
0.000000
0
VERTEX
8
0
10
453.000000
20
509.000000
0
VERTEX
8
0
10
452.000000
20
513.000000
0
VERTEX
8
0
10
444.180000
20
520.240000
0
VERTEX
8
0
10
439.000000
20
524.000000
0
VERTEX
8
0
10
437.000000
20
524.000000
0
VERTEX
8
0
10
436.000000
20
523.000000
0
VERTEX
8
0
10
437.000000
20
521.000000
0
VERTEX
8
0
10
445.000000
20
513.000000
0
VERTEX
8
0
10
449.180000
20
510.240000
0
VERTEX
8
0
10
453.000000
20
509.000000
0
SEQEND
0
POLYLINE
8
0
6
CONTINUOUS
66
1
62
7
10
0.0
20
0.0
30
0.000000
0
VERTEX
8
0
10
485.000000
20
509.000000
0
VERTEX
8
0
10
482.240000
20
512.180000
0
VERTEX
8
0
10
475.204918
20
519.245902
0
VERTEX
8
0
10
469.000000
20
524.000000
0
SEQEND
0
POLYLINE
8
0
6
CONTINUOUS
66
1
62
7
10
0.0
20
0.0
30
0.000000
0
VERTEX
8
0
10
515.000000
20
509.000000
0
VERTEX
8
0
10
510.000000
20
512.000000
0
VERTEX
8
0
10
506.760000
20
515.820000
0
VERTEX
8
0
10
503.000000
20
521.000000
0
SEQEND
0
POLYLINE
8
0
6
CONTINUOUS
66
1
62
7
10
0.0
20
0.0
30
0.000000
0
VERTEX
8
0
10
515.000000
20
509.000000
0
VERTEX
8
0
10
515.000000
20
510.000000
0
VERTEX
8
0
10
510.000000
20
517.000000
0
VERTEX
8
0
10
505.000000
20
522.000000
0
VERTEX
8
0
10
504.000000
20
522.000000
0
SEQEND
0
POLYLINE
8
0
6
CONTINUOUS
66
1
62
7
10
0.0
20
0.0
30
0.000000
0
VERTEX
8
0
10
485.000000
20
508.000000
0
VERTEX
8
0
10
483.180000
20
508.240000
0
VERTEX
8
0
10
471.000000
20
518.000000
0
VERTEX
8
0
10
468.000000
20
523.000000
0
SEQEND
0
POLYLINE
8
0
6
CONTINUOUS
66
1
62
7
10
0.0
20
0.0
30
0.000000
0
VERTEX
8
0
10
485.000000
20
508.000000
0
VERTEX
8
0
10
485.000000
20
509.000000
0
SEQEND
0
POLYLINE
8
0
6
CONTINUOUS
66
1
62
7
10
0.0
20
0.0
30
0.000000
0
VERTEX
8
0
10
517.000000
20
508.000000
0
VERTEX
8
0
10
515.000000
20
509.000000
0
SEQEND
0
POLYLINE
8
0
6
CONTINUOUS
66
1
62
7
10
0.0
20
0.0
30
0.000000
0
VERTEX
8
0
10
486.000000
20
506.000000
0
VERTEX
8
0
10
485.000000
20
508.000000
0
SEQEND
0
POLYLINE
8
0
6
CONTINUOUS
66
1
62
7
10
0.0
20
0.0
30
0.000000
0
VERTEX
8
0
10
192.000000
20
499.000000
0
VERTEX
8
0
10
189.100000
20
499.300000
0
VERTEX
8
0
10
184.180000
20
502.240000
0
VERTEX
8
0
10
180.000000
20
505.000000
0
VERTEX
8
0
10
174.000000
20
512.000000
0
VERTEX
8
0
10
175.000000
20
514.000000
0
VERTEX
8
0
10
184.783186
20
506.752212
0
VERTEX
8
0
10
192.000000
20
500.000000
0
SEQEND
0
POLYLINE
8
0
6
CONTINUOUS
66
1
62
7
10
0.0
20
0.0
30
0.000000
0
VERTEX
8
0
10
192.000000
20
499.000000
0
VERTEX
8
0
10
192.000000
20
500.000000
0
SEQEND
0
POLYLINE
8
0
6
CONTINUOUS
66
1
62
7
10
0.0
20
0.0
30
0.000000
0
VERTEX
8
0
10
206.000000
20
499.000000
0
VERTEX
8
0
10
208.000000
20
500.000000
0
SEQEND
0
POLYLINE
8
0
6
CONTINUOUS
66
1
62
7
10
0.0
20
0.0
30
0.000000
0
VERTEX
8
0
10
193.000000
20
498.000000
0
VERTEX
8
0
10
192.000000
20
499.000000
0
SEQEND
0
POLYLINE
8
0
6
CONTINUOUS
66
1
62
7
10
0.0
20
0.0
30
0.000000
0
VERTEX
8
0
10
204.000000
20
498.000000
0
VERTEX
8
0
10
206.000000
20
499.000000
0
SEQEND
0
POLYLINE
8
0
6
CONTINUOUS
66
1
62
7
10
0.0
20
0.0
30
0.000000
0
VERTEX
8
0
10
159.000000
20
497.000000
0
VERTEX
8
0
10
158.000000
20
501.000000
0
VERTEX
8
0
10
149.180000
20
509.240000
0
VERTEX
8
0
10
143.100000
20
513.200000
0
VERTEX
8
0
10
140.250000
20
513.750000
0
VERTEX
8
0
10
140.000000
20
513.000000
0
VERTEX
8
0
10
140.000000
20
511.000000
0
VERTEX
8
0
10
144.000000
20
507.000000
0
VERTEX
8
0
10
157.100000
20
497.200000
0
VERTEX
8
0
10
159.000000
20
497.000000
0
SEQEND
0
POLYLINE
8
0
6
CONTINUOUS
66
1
62
7
10
0.0
20
0.0
30
0.000000
0
VERTEX
8
0
10
202.000000
20
497.000000
0
VERTEX
8
0
10
204.000000
20
498.000000
0
SEQEND
0
POLYLINE
8
0
6
CONTINUOUS
66
1
62
7
10
0.0
20
0.0
30
0.000000
0
VERTEX
8
0
10
205.000000
20
497.000000
0
VERTEX
8
0
10
204.000000
20
498.000000
0
SEQEND
0
POLYLINE
8
0
6
CONTINUOUS
66
1
62
7
10
0.0
20
0.0
30
0.000000
0
VERTEX
8
0
10
205.000000
20
497.000000
0
VERTEX
8
0
10
206.000000
20
499.000000
0
SEQEND
0
POLYLINE
8
0
6
CONTINUOUS
66
1
62
7
10
0.0
20
0.0
30
0.000000
0
VERTEX
8
0
10
126.000000
20
496.000000
0
VERTEX
8
0
10
128.000000
20
498.000000
0
VERTEX
8
0
10
121.300000
20
515.100000
0
VERTEX
8
0
10
117.000000
20
527.000000
0
VERTEX
8
0
10
116.000000
20
528.000000
0
VERTEX
8
0
10
114.000000
20
523.000000
0
VERTEX
8
0
10
114.000000
20
517.000000
0
VERTEX
8
0
10
117.230769
20
507.153846
0
VERTEX
8
0
10
126.000000
20
496.000000
0
SEQEND
0
POLYLINE
8
0
6
CONTINUOUS
66
1
62
7
10
0.0
20
0.0
30
0.000000
0
VERTEX
8
0
10
203.000000
20
496.000000
0
VERTEX
8
0
10
202.000000
20
497.000000
0
SEQEND
0
POLYLINE
8
0
6
CONTINUOUS
66
1
62
7
10
0.0
20
0.0
30
0.000000
0
VERTEX
8
0
10
203.000000
20
496.000000
0
VERTEX
8
0
10
205.000000
20
497.000000
0
SEQEND
0
POLYLINE
8
0
6
CONTINUOUS
66
1
62
7
10
0.0
20
0.0
30
0.000000
0
VERTEX
8
0
10
467.000000
20
495.000000
0
VERTEX
8
0
10
466.000000
20
496.000000
0
VERTEX
8
0
10
467.000000
20
497.000000
0
VERTEX
8
0
10
468.000000
20
496.000000
0
SEQEND
0
POLYLINE
8
0
6
CONTINUOUS
66
1
62
7
10
0.0
20
0.0
30
0.000000
0
VERTEX
8
0
10
467.000000
20
495.000000
0
VERTEX
8
0
10
468.000000
20
496.000000
0
SEQEND
0
POLYLINE
8
0
6
CONTINUOUS
66
1
62
7
10
0.0
20
0.0
30
0.000000
0
VERTEX
8
0
10
469.000000
20
510.000000
0
VERTEX
8
0
10
468.000000
20
510.000000
0
VERTEX
8
0
10
459.000000
20
505.000000
0
VERTEX
8
0
10
450.000000
20
496.000000
0
VERTEX
8
0
10
450.000000
20
495.000000
0
VERTEX
8
0
10
451.000000
20
494.000000
0
VERTEX
8
0
10
456.153846
20
496.769231
0
VERTEX
8
0
10
461.000000
20
500.000000
0
VERTEX
8
0
10
468.000000
20
507.000000
0
VERTEX
8
0
10
468.800000
20
509.100000
0
VERTEX
8
0
10
469.000000
20
510.000000
0
SEQEND
0
POLYLINE
8
0
6
CONTINUOUS
66
1
62
7
10
0.0
20
0.0
30
0.000000
0
VERTEX
8
0
10
297.000000
20
492.000000
0
VERTEX
8
0
10
298.200000
20
495.100000
0
VERTEX
8
0
10
277.000000
20
521.000000
0
VERTEX
8
0
10
271.000000
20
527.000000
0
VERTEX
8
0
10
270.000000
20
526.000000
0
VERTEX
8
0
10
270.000000
20
523.000000
0
VERTEX
8
0
10
272.200000
20
519.100000
0
VERTEX
8
0
10
277.760000
20
510.820000
0
VERTEX
8
0
10
281.000000
20
506.000000
0
VERTEX
8
0
10
292.000000
20
495.000000
0
VERTEX
8
0
10
297.000000
20
492.000000
0
SEQEND
0
POLYLINE
8
0
6
CONTINUOUS
66
1
62
7
10
0.0
20
0.0
30
0.000000
0
VERTEX
8
0
10
484.000000
20
492.000000
0
VERTEX
8
0
10
487.100000
20
493.800000
0
VERTEX
8
0
10
503.000000
20
506.000000
0
VERTEX
8
0
10
503.000000
20
508.000000
0
VERTEX
8
0
10
502.000000
20
509.000000
0
VERTEX
8
0
10
495.100000
20
504.800000
0
VERTEX
8
0
10
486.000000
20
499.000000
0
VERTEX
8
0
10
483.800000
20
496.100000
0
VERTEX
8
0
10
482.800000
20
494.100000
0
VERTEX
8
0
10
482.000000
20
493.000000
0
VERTEX
8
0
10
484.000000
20
492.000000
0
SEQEND
0
POLYLINE
8
0
6
CONTINUOUS
66
1
62
7
10
0.0
20
0.0
30
0.000000
0
VERTEX
8
0
10
527.000000
20
518.000000
0
VERTEX
8
0
10
526.000000
20
518.000000
0
VERTEX
8
0
10
513.800000
20
496.100000
0
VERTEX
8
0
10
513.000000
20
495.000000
0
VERTEX
8
0
10
513.000000
20
493.000000
0
VERTEX
8
0
10
514.000000
20
492.000000
0
VERTEX
8
0
10
518.000000
20
494.000000
0
VERTEX
8
0
10
519.000000
20
495.000000
0
VERTEX
8
0
10
524.647059
20
507.088235
0
VERTEX
8
0
10
527.000000
20
518.000000
0
SEQEND
0
POLYLINE
8
0
6
CONTINUOUS
66
1
62
7
10
0.0
20
0.0
30
0.000000
0
VERTEX
8
0
10
502.000000
20
491.000000
0
VERTEX
8
0
10
498.000000
20
493.000000
0
VERTEX
8
0
10
499.000000
20
495.000000
0
VERTEX
8
0
10
503.000000
20
492.000000
0
SEQEND
0
POLYLINE
8
0
6
CONTINUOUS
66
1
62
7
10
0.0
20
0.0
30
0.000000
0
VERTEX
8
0
10
502.000000
20
491.000000
0
VERTEX
8
0
10
503.000000
20
492.000000
0
SEQEND
0
POLYLINE
8
0
6
CONTINUOUS
66
1
62
7
10
0.0
20
0.0
30
0.000000
0
VERTEX
8
0
10
504.000000
20
491.000000
0
VERTEX
8
0
10
503.000000
20
492.000000
0
SEQEND
0
POLYLINE
8
0
6
CONTINUOUS
66
1
62
7
10
0.0
20
0.0
30
0.000000
0
VERTEX
8
0
10
503.000000
20
490.000000
0
VERTEX
8
0
10
502.000000
20
491.000000
0
SEQEND
0
POLYLINE
8
0
6
CONTINUOUS
66
1
62
7
10
0.0
20
0.0
30
0.000000
0
VERTEX
8
0
10
503.000000
20
490.000000
0
VERTEX
8
0
10
504.000000
20
491.000000
0
SEQEND
0
POLYLINE
8
0
6
CONTINUOUS
66
1
62
7
10
0.0
20
0.0
30
0.000000
0
VERTEX
8
0
10
372.000000
20
488.000000
0
VERTEX
8
0
10
375.000000
20
495.000000
0
VERTEX
8
0
10
375.000000
20
499.000000
0
VERTEX
8
0
10
372.700000
20
503.900000
0
VERTEX
8
0
10
372.200000
20
505.100000
0
VERTEX
8
0
10
363.000000
20
516.000000
0
VERTEX
8
0
10
362.153846
20
516.230769
0
VERTEX
8
0
10
352.911765
20
521.647059
0
VERTEX
8
0
10
344.067568
20
523.405405
0
VERTEX
8
0
10
335.000000
20
524.000000
0
VERTEX
8
0
10
327.900000
20
522.200000
0
VERTEX
8
0
10
325.000000
20
520.000000
0
VERTEX
8
0
10
328.384615
20
505.076923
0
VERTEX
8
0
10
332.200000
20
493.100000
0
VERTEX
8
0
10
335.000000
20
489.000000
0
VERTEX
8
0
10
336.000000
20
491.000000
0
VERTEX
8
0
10
334.594595
20
496.932432
0
VERTEX
8
0
10
333.000000
20
511.000000
0
VERTEX
8
0
10
334.000000
20
514.000000
0
VERTEX
8
0
10
336.000000
20
516.000000
0
VERTEX
8
0
10
346.000000
20
517.000000
0
VERTEX
8
0
10
354.900000
20
513.800000
0
VERTEX
8
0
10
357.000000
20
513.000000
0
VERTEX
8
0
10
361.240000
20
508.180000
0
VERTEX
8
0
10
363.760000
20
504.820000
0
VERTEX
8
0
10
367.700000
20
495.900000
0
VERTEX
8
0
10
369.441176
20
491.264706
0
VERTEX
8
0
10
372.000000
20
488.000000
0
SEQEND
0
POLYLINE
8
0
6
CONTINUOUS
66
1
62
7
10
0.0
20
0.0
30
0.000000
0
VERTEX
8
0
10
506.000000
20
488.000000
0
VERTEX
8
0
10
505.000000
20
488.000000
0
VERTEX
8
0
10
503.000000
20
490.000000
0
SEQEND
0
POLYLINE
8
0
6
CONTINUOUS
66
1
62
7
10
0.0
20
0.0
30
0.000000
0
VERTEX
8
0
10
506.000000
20
488.000000
0
VERTEX
8
0
10
506.000000
20
489.000000
0
VERTEX
8
0
10
505.000000
20
491.000000
0
VERTEX
8
0
10
504.000000
20
491.000000
0
SEQEND
0
POLYLINE
8
0
6
CONTINUOUS
66
1
62
7
10
0.0
20
0.0
30
0.000000
0
VERTEX
8
0
10
264.000000
20
486.000000
0
VERTEX
8
0
10
263.000000
20
486.000000
0
VERTEX
8
0
10
260.769231
20
488.846154
0
VERTEX
8
0
10
257.420000
20
495.060000
0
VERTEX
8
0
10
256.580000
20
500.940000
0
VERTEX
8
0
10
256.000000
20
511.000000
0
VERTEX
8
0
10
260.800000
20
528.100000
0
VERTEX
8
0
10
261.800000
20
530.100000
0
VERTEX
8
0
10
265.000000
20
537.000000
0
VERTEX
8
0
10
270.000000
20
542.000000
0
VERTEX
8
0
10
272.750000
20
541.750000
0
VERTEX
8
0
10
272.647059
20
538.088235
0
VERTEX
8
0
10
268.800000
20
530.100000
0
VERTEX
8
0
10
261.000000
20
512.000000
0
VERTEX
8
0
10
265.000000
20
487.000000
0
SEQEND
0
POLYLINE
8
0
6
CONTINUOUS
66
1
62
7
10
0.0
20
0.0
30
0.000000
0
VERTEX
8
0
10
264.000000
20
486.000000
0
VERTEX
8
0
10
265.000000
20
487.000000
0
SEQEND
0
POLYLINE
8
0
6
CONTINUOUS
66
1
62
7
10
0.0
20
0.0
30
0.000000
0
VERTEX
8
0
10
508.000000
20
486.000000
0
VERTEX
8
0
10
506.000000
20
488.000000
0
SEQEND
0
POLYLINE
8
0
6
CONTINUOUS
66
1
62
7
10
0.0
20
0.0
30
0.000000
0
VERTEX
8
0
10
209.000000
20
485.000000
0
VERTEX
8
0
10
204.000000
20
487.000000
0
SEQEND
0
POLYLINE
8
0
6
CONTINUOUS
66
1
62
7
10
0.0
20
0.0
30
0.000000
0
VERTEX
8
0
10
264.000000
20
486.000000
0
VERTEX
8
0
10
265.000000
20
485.000000
0
VERTEX
8
0
10
266.000000
20
486.000000
0
VERTEX
8
0
10
265.000000
20
487.000000
0
SEQEND
0
POLYLINE
8
0
6
CONTINUOUS
66
1
62
7
10
0.0
20
0.0
30
0.000000
0
VERTEX
8
0
10
151.000000
20
483.000000
0
VERTEX
8
0
10
159.100000
20
485.800000
0
VERTEX
8
0
10
173.153846
20
493.769231
0
VERTEX
8
0
10
175.100000
20
494.800000
0
VERTEX
8
0
10
179.000000
20
498.000000
0
VERTEX
8
0
10
177.000000
20
500.000000
0
VERTEX
8
0
10
164.900000
20
494.200000
0
VERTEX
8
0
10
160.100000
20
491.800000
0
VERTEX
8
0
10
141.000000
20
486.000000
0
VERTEX
8
0
10
141.000000
20
485.000000
0
VERTEX
8
0
10
146.067568
20
483.405405
0
VERTEX
8
0
10
151.000000
20
483.000000
0
SEQEND
0
POLYLINE
8
0
6
CONTINUOUS
66
1
62
7
10
0.0
20
0.0
30
0.000000
0
VERTEX
8
0
10
202.000000
20
497.000000
0
VERTEX
8
0
10
199.900000
20
496.200000
0
VERTEX
8
0
10
183.088235
20
489.647059
0
VERTEX
8
0
10
177.900000
20
488.300000
0
VERTEX
8
0
10
174.000000
20
487.000000
0
VERTEX
8
0
10
172.000000
20
485.000000
0
VERTEX
8
0
10
174.000000
20
483.000000
0
VERTEX
8
0
10
181.000000
20
483.000000
0
VERTEX
8
0
10
194.900000
20
489.200000
0
VERTEX
8
0
10
203.000000
20
496.000000
0
SEQEND
0
POLYLINE
8
0
6
CONTINUOUS
66
1
62
7
10
0.0
20
0.0
30
0.000000
0
VERTEX
8
0
10
515.000000
20
483.000000
0
VERTEX
8
0
10
511.000000
20
485.000000
0
SEQEND
0
POLYLINE
8
0
6
CONTINUOUS
66
1
62
7
10
0.0
20
0.0
30
0.000000
0
VERTEX
8
0
10
518.000000
20
482.000000
0
VERTEX
8
0
10
515.000000
20
483.000000
0
SEQEND
0
POLYLINE
8
0
6
CONTINUOUS
66
1
62
7
10
0.0
20
0.0
30
0.000000
0
VERTEX
8
0
10
502.000000
20
481.000000
0
VERTEX
8
0
10
502.000000
20
482.000000
0
VERTEX
8
0
10
492.088235
20
484.352941
0
VERTEX
8
0
10
490.900000
20
484.700000
0
VERTEX
8
0
10
472.900000
20
493.800000
0
VERTEX
8
0
10
468.000000
20
496.000000
0
SEQEND
0
POLYLINE
8
0
6
CONTINUOUS
66
1
62
7
10
0.0
20
0.0
30
0.000000
0
VERTEX
8
0
10
502.000000
20
481.000000
0
VERTEX
8
0
10
504.000000
20
482.000000
0
SEQEND
0
POLYLINE
8
0
6
CONTINUOUS
66
1
62
7
10
0.0
20
0.0
30
0.000000
0
VERTEX
8
0
10
517.000000
20
481.000000
0
VERTEX
8
0
10
516.000000
20
481.000000
0
VERTEX
8
0
10
515.000000
20
483.000000
0
SEQEND
0
POLYLINE
8
0
6
CONTINUOUS
66
1
62
7
10
0.0
20
0.0
30
0.000000
0
VERTEX
8
0
10
517.000000
20
481.000000
0
VERTEX
8
0
10
518.000000
20
482.000000
0
SEQEND
0
POLYLINE
8
0
6
CONTINUOUS
66
1
62
7
10
0.0
20
0.0
30
0.000000
0
VERTEX
8
0
10
209.000000
20
485.000000
0
VERTEX
8
0
10
210.900000
20
483.800000
0
VERTEX
8
0
10
223.000000
20
480.000000
0
VERTEX
8
0
10
226.000000
20
480.000000
0
VERTEX
8
0
10
228.000000
20
482.000000
0
VERTEX
8
0
10
226.300000
20
486.100000
0
VERTEX
8
0
10
225.700000
20
487.900000
0
VERTEX
8
0
10
219.800000
20
497.900000
0
VERTEX
8
0
10
219.200000
20
499.100000
0
VERTEX
8
0
10
211.000000
20
511.000000
0
VERTEX
8
0
10
206.000000
20
515.000000
0
VERTEX
8
0
10
205.000000
20
513.000000
0
VERTEX
8
0
10
208.760000
20
507.820000
0
VERTEX
8
0
10
218.200000
20
494.100000
0
VERTEX
8
0
10
219.300000
20
491.100000
0
VERTEX
8
0
10
221.000000
20
488.000000
0
VERTEX
8
0
10
219.000000
20
486.000000
0
VERTEX
8
0
10
209.000000
20
485.000000
0
SEQEND
0
POLYLINE
8
0
6
CONTINUOUS
66
1
62
7
10
0.0
20
0.0
30
0.000000
0
VERTEX
8
0
10
437.000000
20
512.000000
0
VERTEX
8
0
10
433.846154
20
510.230769
0
VERTEX
8
0
10
427.000000
20
504.000000
0
VERTEX
8
0
10
426.769231
20
503.153846
0
VERTEX
8
0
10
414.300000
20
483.900000
0
VERTEX
8
0
10
414.000000
20
482.000000
0
VERTEX
8
0
10
419.000000
20
480.000000
0
VERTEX
8
0
10
425.000000
20
480.000000
0
VERTEX
8
0
10
434.000000
20
482.000000
0
VERTEX
8
0
10
436.000000
20
484.000000
0
VERTEX
8
0
10
434.000000
20
486.000000
0
VERTEX
8
0
10
426.000000
20
487.000000
0
VERTEX
8
0
10
424.000000
20
490.000000
0
VERTEX
8
0
10
427.240000
20
496.820000
0
VERTEX
8
0
10
430.240000
20
500.820000
0
VERTEX
8
0
10
436.800000
20
510.100000
0
VERTEX
8
0
10
437.000000
20
512.000000
0
SEQEND
0
POLYLINE
8
0
6
CONTINUOUS
66
1
62
7
10
0.0
20
0.0
30
0.000000
0
VERTEX
8
0
10
465.000000
20
480.000000
0
VERTEX
8
0
10
467.000000
20
481.000000
0
VERTEX
8
0
10
469.000000
20
483.000000
0
VERTEX
8
0
10
467.100000
20
484.200000
0
VERTEX
8
0
10
450.900000
20
488.800000
0
VERTEX
8
0
10
438.538462
20
497.307692
0
VERTEX
8
0
10
435.250000
20
497.750000
0
VERTEX
8
0
10
435.000000
20
495.000000
0
VERTEX
8
0
10
437.820000
20
492.760000
0
VERTEX
8
0
10
441.180000
20
490.240000
0
VERTEX
8
0
10
452.900000
20
482.800000
0
VERTEX
8
0
10
461.076923
20
480.384615
0
VERTEX
8
0
10
465.000000
20
480.000000
0
SEQEND
0
POLYLINE
8
0
6
CONTINUOUS
66
1
62
7
10
0.0
20
0.0
30
0.000000
0
VERTEX
8
0
10
467.000000
20
495.000000
0
VERTEX
8
0
10
467.000000
20
494.000000
0
VERTEX
8
0
10
475.900000
20
486.800000
0
VERTEX
8
0
10
488.076923
20
480.384615
0
VERTEX
8
0
10
493.000000
20
479.000000
0
VERTEX
8
0
10
498.088235
20
479.647059
0
VERTEX
8
0
10
502.000000
20
481.000000
0
SEQEND
0
POLYLINE
8
0
6
CONTINUOUS
66
1
62
7
10
0.0
20
0.0
30
0.000000
0
VERTEX
8
0
10
294.000000
20
478.000000
0
VERTEX
8
0
10
299.900000
20
480.200000
0
VERTEX
8
0
10
307.000000
20
485.000000
0
VERTEX
8
0
10
311.769231
20
492.153846
0
VERTEX
8
0
10
314.580000
20
500.060000
0
VERTEX
8
0
10
316.000000
20
507.000000
0
VERTEX
8
0
10
316.000000
20
518.000000
0
VERTEX
8
0
10
312.000000
20
522.000000
0
VERTEX
8
0
10
310.100000
20
522.300000
0
VERTEX
8
0
10
309.000000
20
523.000000
0
VERTEX
8
0
10
300.000000
20
523.000000
0
VERTEX
8
0
10
287.000000
20
521.000000
0
VERTEX
8
0
10
286.000000
20
520.000000
0
VERTEX
8
0
10
288.000000
20
518.000000
0
VERTEX
8
0
10
303.000000
20
516.000000
0
VERTEX
8
0
10
305.000000
20
514.000000
0
VERTEX
8
0
10
305.647059
20
511.911765
0
VERTEX
8
0
10
307.000000
20
508.000000
0
VERTEX
8
0
10
307.000000
20
497.000000
0
VERTEX
8
0
10
305.200000
20
493.900000
0
VERTEX
8
0
10
304.000000
20
491.000000
0
VERTEX
8
0
10
296.820000
20
485.240000
0
VERTEX
8
0
10
285.000000
20
481.000000
0
VERTEX
8
0
10
285.000000
20
480.000000
0
VERTEX
8
0
10
287.000000
20
478.000000
0
VERTEX
8
0
10
294.000000
20
478.000000
0
SEQEND
0
POLYLINE
8
0
6
CONTINUOUS
66
1
62
7
10
0.0
20
0.0
30
0.000000
0
VERTEX
8
0
10
111.000000
20
477.000000
0
VERTEX
8
0
10
118.100000
20
480.800000
0
VERTEX
8
0
10
138.153846
20
491.769231
0
VERTEX
8
0
10
138.820000
20
492.240000
0
VERTEX
8
0
10
145.000000
20
497.000000
0
VERTEX
8
0
10
144.000000
20
499.000000
0
VERTEX
8
0
10
133.100000
20
492.800000
0
VERTEX
8
0
10
127.100000
20
489.800000
0
VERTEX
8
0
10
124.000000
20
488.000000
0
VERTEX
8
0
10
122.000000
20
488.000000
0
VERTEX
8
0
10
118.000000
20
491.000000
0
VERTEX
8
0
10
117.750000
20
496.750000
0
VERTEX
8
0
10
116.000000
20
497.000000
0
VERTEX
8
0
10
112.240000
20
491.820000
0
VERTEX
8
0
10
108.000000
20
481.000000
0
VERTEX
8
0
10
108.000000
20
479.000000
0
VERTEX
8
0
10
110.000000
20
477.000000
0
VERTEX
8
0
10
111.000000
20
477.000000
0
SEQEND
0
POLYLINE
8
0
6
CONTINUOUS
66
1
62
7
10
0.0
20
0.0
30
0.000000
0
VERTEX
8
0
10
517.000000
20
481.000000
0
VERTEX
8
0
10
519.153846
20
479.230769
0
VERTEX
8
0
10
525.000000
20
477.000000
0
VERTEX
8
0
10
528.100000
20
477.800000
0
VERTEX
8
0
10
529.000000
20
478.000000
0
VERTEX
8
0
10
531.000000
20
482.000000
0
VERTEX
8
0
10
531.000000
20
485.000000
0
VERTEX
8
0
10
527.000000
20
496.000000
0
VERTEX
8
0
10
526.000000
20
495.000000
0
VERTEX
8
0
10
528.000000
20
486.000000
0
VERTEX
8
0
10
527.200000
20
482.900000
0
VERTEX
8
0
10
526.000000
20
481.000000
0
VERTEX
8
0
10
520.911765
20
481.647059
0
VERTEX
8
0
10
518.000000
20
482.000000
0
SEQEND
0
POLYLINE
8
0
6
CONTINUOUS
66
1
62
7
10
0.0
20
0.0
30
0.000000
0
VERTEX
8
0
10
358.000000
20
472.000000
0
VERTEX
8
0
10
359.088235
20
472.647059
0
VERTEX
8
0
10
372.000000
20
478.000000
0
VERTEX
8
0
10
382.000000
20
488.000000
0
VERTEX
8
0
10
384.760000
20
492.180000
0
VERTEX
8
0
10
388.300000
20
498.900000
0
VERTEX
8
0
10
390.000000
20
503.000000
0
VERTEX
8
0
10
390.000000
20
514.000000
0
VERTEX
8
0
10
387.000000
20
518.000000
0
VERTEX
8
0
10
385.000000
20
516.000000
0
VERTEX
8
0
10
384.405405
20
513.932432
0
VERTEX
8
0
10
382.384615
20
500.923077
0
VERTEX
8
0
10
380.600000
20
494.200000
0
VERTEX
8
0
10
376.000000
20
487.000000
0
VERTEX
8
0
10
366.100000
20
479.800000
0
VERTEX
8
0
10
360.900000
20
478.300000
0
VERTEX
8
0
10
351.000000
20
476.000000
0
VERTEX
8
0
10
349.000000
20
474.000000
0
VERTEX
8
0
10
351.000000
20
472.000000
0
VERTEX
8
0
10
358.000000
20
472.000000
0
SEQEND
0
POLYLINE
8
0
6
CONTINUOUS
66
1
62
7
10
0.0
20
0.0
30
0.000000
0
VERTEX
8
0
10
118.000000
20
471.000000
0
VERTEX
8
0
10
119.014261
20
471.515125
0
VERTEX
8
0
10
236.000000
20
475.000000
0
VERTEX
8
0
10
237.000000
20
476.000000
0
VERTEX
8
0
10
229.647059
20
502.911765
0
VERTEX
8
0
10
228.647059
20
506.911765
0
VERTEX
8
0
10
227.000000
20
517.000000
0
VERTEX
8
0
10
227.000000
20
529.000000
0
VERTEX
8
0
10
228.439024
20
537.951220
0
VERTEX
8
0
10
231.300000
20
548.900000
0
VERTEX
8
0
10
234.750000
20
560.750000
0
VERTEX
8
0
10
111.027586
20
567.468966
0
VERTEX
8
0
10
102.250000
20
567.750000
0
VERTEX
8
0
10
102.000000
20
472.000000
0
VERTEX
8
0
10
102.250000
20
471.250000
0
VERTEX
8
0
10
118.000000
20
471.000000
0
SEQEND
0
POLYLINE
8
0
6
CONTINUOUS
66
1
62
7
10
0.0
20
0.0
30
0.000000
0
VERTEX
8
0
10
332.000000
20
471.000000
0
VERTEX
8
0
10
344.211765
20
480.752941
0
VERTEX
8
0
10
354.245902
20
490.795082
0
VERTEX
8
0
10
358.754098
20
496.204918
0
VERTEX
8
0
10
360.000000
20
499.000000
0
VERTEX
8
0
10
359.000000
20
500.000000
0
VERTEX
8
0
10
352.153846
20
494.769231
0
VERTEX
8
0
10
338.000000
20
484.000000
0
VERTEX
8
0
10
329.800000
20
475.100000
0
VERTEX
8
0
10
329.000000
20
473.000000
0
VERTEX
8
0
10
330.900000
20
471.800000
0
VERTEX
8
0
10
332.000000
20
471.000000
0
SEQEND
0
POLYLINE
8
0
6
CONTINUOUS
66
1
62
7
10
0.0
20
0.0
30
0.000000
0
VERTEX
8
0
10
533.000000
20
469.000000
0
VERTEX
8
0
10
534.904494
20
472.252809
0
VERTEX
8
0
10
536.450820
20
481.959016
0
VERTEX
8
0
10
540.615385
20
559.076923
0
VERTEX
8
0
10
540.750000
20
563.750000
0
VERTEX
8
0
10
409.250000
20
563.750000
0
VERTEX
8
0
10
415.000000
20
530.000000
0
VERTEX
8
0
10
415.000000
20
520.000000
0
VERTEX
8
0
10
413.569231
20
512.053846
0
VERTEX
8
0
10
413.405405
20
510.932432
0
VERTEX
8
0
10
408.700000
20
490.100000
0
VERTEX
8
0
10
407.700000
20
487.100000
0
VERTEX
8
0
10
405.000000
20
478.000000
0
VERTEX
8
0
10
405.000000
20
475.000000
0
VERTEX
8
0
10
406.000000
20
474.000000
0
VERTEX
8
0
10
524.044554
20
469.445545
0
VERTEX
8
0
10
533.000000
20
469.000000
0
SEQEND
0
POLYLINE
8
0
6
CONTINUOUS
66
1
62
7
10
0.0
20
0.0
30
0.000000
0
VERTEX
8
0
10
368.000000
20
468.000000
0
VERTEX
8
0
10
368.000000
20
469.000000
0
SEQEND
0
POLYLINE
8
0
6
CONTINUOUS
66
1
62
7
10
0.0
20
0.0
30
0.000000
0
VERTEX
8
0
10
368.000000
20
468.000000
0
VERTEX
8
0
10
369.000000
20
468.000000
0
VERTEX
8
0
10
370.000000
20
469.000000
0
VERTEX
8
0
10
369.000000
20
470.000000
0
VERTEX
8
0
10
368.000000
20
469.000000
0
SEQEND
0
POLYLINE
8
0
6
CONTINUOUS
66
1
62
7
10
0.0
20
0.0
30
0.000000
0
VERTEX
8
0
10
368.000000
20
469.000000
0
VERTEX
8
0
10
365.100000
20
468.700000
0
VERTEX
8
0
10
351.000000
20
466.000000
0
VERTEX
8
0
10
338.000000
20
466.000000
0
VERTEX
8
0
10
330.053846
20
467.430769
0
VERTEX
8
0
10
316.100000
20
475.200000
0
VERTEX
8
0
10
312.100000
20
477.200000
0
VERTEX
8
0
10
311.000000
20
478.000000
0
VERTEX
8
0
10
310.000000
20
477.000000
0
VERTEX
8
0
10
310.800000
20
473.900000
0
VERTEX
8
0
10
311.000000
20
473.000000
0
VERTEX
8
0
10
316.900000
20
469.800000
0
VERTEX
8
0
10
329.900000
20
463.800000
0
VERTEX
8
0
10
343.000000
20
460.000000
0
VERTEX
8
0
10
350.000000
20
460.000000
0
VERTEX
8
0
10
356.940000
20
461.420000
0
VERTEX
8
0
10
362.900000
20
464.200000
0
VERTEX
8
0
10
368.000000
20
468.000000
0
SEQEND
0
POLYLINE
8
0
6
CONTINUOUS
66
1
62
7
10
0.0
20
0.0
30
0.000000
0
VERTEX
8
0
10
307.000000
20
457.000000
0
VERTEX
8
0
10
313.940000
20
458.420000
0
VERTEX
8
0
10
317.000000
20
460.000000
0
VERTEX
8
0
10
316.000000
20
462.000000
0
VERTEX
8
0
10
309.962069
20
462.544828
0
VERTEX
8
0
10
299.037931
20
463.455172
0
VERTEX
8
0
10
288.000000
20
467.000000
0
VERTEX
8
0
10
284.000000
20
471.000000
0
VERTEX
8
0
10
282.200000
20
475.100000
0
VERTEX
8
0
10
281.800000
20
475.900000
0
VERTEX
8
0
10
276.000000
20
501.000000
0
VERTEX
8
0
10
274.000000
20
503.000000
0
VERTEX
8
0
10
271.800000
20
500.100000
0
VERTEX
8
0
10
270.000000
20
495.000000
0
VERTEX
8
0
10
270.000000
20
490.000000
0
VERTEX
8
0
10
272.352941
20
481.088235
0
VERTEX
8
0
10
273.800000
20
477.900000
0
VERTEX
8
0
10
280.000000
20
467.000000
0
VERTEX
8
0
10
286.846154
20
461.769231
0
VERTEX
8
0
10
291.088235
20
459.352941
0
VERTEX
8
0
10
293.911765
20
458.647059
0
VERTEX
8
0
10
307.000000
20
457.000000
0
SEQEND
0
POLYLINE
8
0
6
CONTINUOUS
66
1
62
7
10
0.0
20
0.0
30
0.000000
0
VERTEX
8
0
10
402.000000
20
535.000000
0
VERTEX
8
0
10
402.000000
20
536.000000
0
VERTEX
8
0
10
398.352941
20
553.088235
0
VERTEX
8
0
10
397.647059
20
555.911765
0
VERTEX
8
0
10
392.800000
20
564.900000
0
VERTEX
8
0
10
392.200000
20
566.100000
0
VERTEX
8
0
10
388.000000
20
574.000000
0
VERTEX
8
0
10
371.000000
20
591.000000
0
VERTEX
8
0
10
368.900000
20
591.800000
0
VERTEX
8
0
10
358.153846
20
598.230769
0
VERTEX
8
0
10
349.911765
20
602.647059
0
VERTEX
8
0
10
326.000000
20
608.000000
0
VERTEX
8
0
10
314.946154
20
607.430769
0
VERTEX
8
0
10
308.053846
20
606.569231
0
VERTEX
8
0
10
296.088235
20
603.647059
0
VERTEX
8
0
10
283.100000
20
597.800000
0
VERTEX
8
0
10
272.820000
20
591.240000
0
VERTEX
8
0
10
269.000000
20
589.000000
0
VERTEX
8
0
10
256.000000
20
576.000000
0
VERTEX
8
0
10
249.230769
20
565.846154
0
VERTEX
8
0
10
243.200000
20
552.900000
0
VERTEX
8
0
10
242.800000
20
552.100000
0
VERTEX
8
0
10
240.000000
20
535.000000
0
VERTEX
8
0
10
240.000000
20
513.000000
0
VERTEX
8
0
10
241.458824
20
500.035294
0
VERTEX
8
0
10
245.300000
20
489.100000
0
VERTEX
8
0
10
249.230769
20
482.153846
0
VERTEX
8
0
10
250.769231
20
479.846154
0
VERTEX
8
0
10
256.000000
20
472.000000
0
VERTEX
8
0
10
271.000000
20
457.000000
0
VERTEX
8
0
10
284.100000
20
449.200000
0
VERTEX
8
0
10
292.900000
20
445.700000
0
VERTEX
8
0
10
303.067568
20
442.405405
0
VERTEX
8
0
10
313.932432
20
440.594595
0
VERTEX
8
0
10
315.000000
20
440.000000
0
VERTEX
8
0
10
325.000000
20
440.000000
0
VERTEX
8
0
10
335.959016
20
441.450820
0
VERTEX
8
0
10
349.911765
20
445.352941
0
VERTEX
8
0
10
353.100000
20
446.800000
0
VERTEX
8
0
10
367.804878
20
454.243902
0
VERTEX
8
0
10
380.000000
20
464.000000
0
VERTEX
8
0
10
393.200000
20
480.900000
0
VERTEX
8
0
10
396.300000
20
487.900000
0
VERTEX
8
0
10
400.594595
20
498.067568
0
VERTEX
8
0
10
403.000000
20
517.000000
0
VERTEX
8
0
10
402.000000
20
518.000000
0
VERTEX
8
0
10
396.700000
20
499.100000
0
VERTEX
8
0
10
393.700000
20
491.100000
0
VERTEX
8
0
10
387.760000
20
480.180000
0
VERTEX
8
0
10
385.240000
20
476.820000
0
VERTEX
8
0
10
382.000000
20
472.000000
0
VERTEX
8
0
10
371.000000
20
461.000000
0
VERTEX
8
0
10
360.900000
20
455.200000
0
VERTEX
8
0
10
354.900000
20
452.200000
0
VERTEX
8
0
10
339.911765
20
447.352941
0
VERTEX
8
0
10
337.088235
20
446.647059
0
VERTEX
8
0
10
332.000000
20
445.000000
0
VERTEX
8
0
10
307.000000
20
445.000000
0
VERTEX
8
0
10
293.100000
20
449.200000
0
VERTEX
8
0
10
288.900000
20
450.800000
0
VERTEX
8
0
10
275.180000
20
458.240000
0
VERTEX
8
0
10
271.820000
20
460.760000
0
VERTEX
8
0
10
260.000000
20
472.000000
0
VERTEX
8
0
10
251.800000
20
485.900000
0
VERTEX
8
0
10
247.800000
20
495.900000
0
VERTEX
8
0
10
245.615385
20
502.923077
0
VERTEX
8
0
10
244.594595
20
508.932432
0
VERTEX
8
0
10
243.000000
20
516.000000
0
VERTEX
8
0
10
243.000000
20
528.000000
0
VERTEX
8
0
10
244.450820
20
538.959016
0
VERTEX
8
0
10
248.352941
20
553.911765
0
VERTEX
8
0
10
248.800000
20
555.100000
0
VERTEX
8
0
10
257.000000
20
571.000000
0
VERTEX
8
0
10
272.846154
20
586.230769
0
VERTEX
8
0
10
290.100000
20
596.700000
0
VERTEX
8
0
10
296.088235
20
598.647059
0
VERTEX
8
0
10
319.000000
20
604.000000
0
VERTEX
8
0
10
329.000000
20
604.000000
0
VERTEX
8
0
10
337.951220
20
602.560976
0
VERTEX
8
0
10
339.100000
20
602.300000
0
VERTEX
8
0
10
351.900000
20
597.800000
0
VERTEX
8
0
10
357.900000
20
594.800000
0
VERTEX
8
0
10
368.820000
20
587.760000
0
VERTEX
8
0
10
372.180000
20
585.240000
0
VERTEX
8
0
10
377.245902
20
580.204918
0
VERTEX
8
0
10
381.754098
20
574.795082
0
VERTEX
8
0
10
391.800000
20
558.900000
0
VERTEX
8
0
10
392.200000
20
558.100000
0
VERTEX
8
0
10
401.000000
20
535.000000
0
VERTEX
8
0
10
402.000000
20
535.000000
0
SEQEND
0
POLYLINE
8
0
6
CONTINUOUS
66
1
62
7
10
0.0
20
0.0
30
0.000000
0
VERTEX
8
0
10
357.000000
20
438.000000
0
VERTEX
8
0
10
361.000000
20
440.000000
0
SEQEND
0
POLYLINE
8
0
6
CONTINUOUS
66
1
62
7
10
0.0
20
0.0
30
0.000000
0
VERTEX
8
0
10
299.000000
20
404.000000
0
VERTEX
8
0
10
307.900000
20
410.200000
0
VERTEX
8
0
10
318.088235
20
414.647059
0
VERTEX
8
0
10
329.750000
20
417.250000
0
VERTEX
8
0
10
330.000000
20
419.000000
0
VERTEX
8
0
10
327.000000
20
421.000000
0
VERTEX
8
0
10
315.000000
20
421.000000
0
VERTEX
8
0
10
310.900000
20
419.200000
0
VERTEX
8
0
10
302.000000
20
414.000000
0
VERTEX
8
0
10
295.800000
20
407.100000
0
VERTEX
8
0
10
295.250000
20
404.250000
0
VERTEX
8
0
10
299.000000
20
404.000000
0
SEQEND
0
POLYLINE
8
0
6
CONTINUOUS
66
1
62
7
10
0.0
20
0.0
30
0.000000
0
VERTEX
8
0
10
359.000000
20
404.000000
0
VERTEX
8
0
10
359.000000
20
406.000000
0
SEQEND
0
POLYLINE
8
0
6
CONTINUOUS
66
1
62
7
10
0.0
20
0.0
30
0.000000
0
VERTEX
8
0
10
359.000000
20
406.000000
0
VERTEX
8
0
10
359.615385
20
407.076923
0
VERTEX
8
0
10
363.000000
20
427.000000
0
VERTEX
8
0
10
361.000000
20
429.000000
0
VERTEX
8
0
10
354.900000
20
426.200000
0
VERTEX
8
0
10
346.900000
20
422.200000
0
VERTEX
8
0
10
329.000000
20
410.000000
0
VERTEX
8
0
10
326.000000
20
407.000000
0
VERTEX
8
0
10
326.000000
20
403.000000
0
VERTEX
8
0
10
327.000000
20
402.000000
0
VERTEX
8
0
10
331.800000
20
403.400000
0
VERTEX
8
0
10
353.000000
20
419.000000
0
VERTEX
8
0
10
356.000000
20
416.000000
0
VERTEX
8
0
10
359.000000
20
406.000000
0
SEQEND
0
POLYLINE
8
0
6
CONTINUOUS
66
1
62
7
10
0.0
20
0.0
30
0.000000
0
VERTEX
8
0
10
314.000000
20
385.000000
0
VERTEX
8
0
10
313.000000
20
386.000000
0
SEQEND
0
POLYLINE
8
0
6
CONTINUOUS
66
1
62
7
10
0.0
20
0.0
30
0.000000
0
VERTEX
8
0
10
314.000000
20
385.000000
0
VERTEX
8
0
10
315.000000
20
386.000000
0
VERTEX
8
0
10
314.000000
20
387.000000
0
VERTEX
8
0
10
313.000000
20
386.000000
0
SEQEND
0
POLYLINE
8
0
6
CONTINUOUS
66
1
62
7
10
0.0
20
0.0
30
0.000000
0
VERTEX
8
0
10
328.000000
20
381.000000
0
VERTEX
8
0
10
332.000000
20
384.000000
0
VERTEX
8
0
10
332.000000
20
386.000000
0
VERTEX
8
0
10
329.754098
20
388.795082
0
VERTEX
8
0
10
319.000000
20
401.000000
0
VERTEX
8
0
10
318.180000
20
401.240000
0
VERTEX
8
0
10
311.000000
20
406.000000
0
VERTEX
8
0
10
310.000000
20
405.000000
0
VERTEX
8
0
10
310.700000
20
402.900000
0
VERTEX
8
0
10
311.300000
20
401.100000
0
VERTEX
8
0
10
315.245902
20
395.204918
0
VERTEX
8
0
10
328.000000
20
381.000000
0
SEQEND
0
POLYLINE
8
0
6
CONTINUOUS
66
1
62
7
10
0.0
20
0.0
30
0.000000
0
VERTEX
8
0
10
296.000000
20
379.000000
0
VERTEX
8
0
10
298.000000
20
381.000000
0
VERTEX
8
0
10
298.000000
20
384.000000
0
VERTEX
8
0
10
293.800000
20
393.900000
0
VERTEX
8
0
10
292.800000
20
395.900000
0
VERTEX
8
0
10
289.384615
20
403.076923
0
VERTEX
8
0
10
288.000000
20
408.000000
0
VERTEX
8
0
10
288.000000
20
415.000000
0
VERTEX
8
0
10
289.000000
20
417.000000
0
VERTEX
8
0
10
290.000000
20
418.000000
0
VERTEX
8
0
10
298.000000
20
418.000000
0
VERTEX
8
0
10
300.000000
20
420.000000
0
VERTEX
8
0
10
299.000000
20
422.000000
0
VERTEX
8
0
10
297.000000
20
424.000000
0
VERTEX
8
0
10
292.911765
20
425.647059
0
VERTEX
8
0
10
289.000000
20
427.000000
0
VERTEX
8
0
10
284.000000
20
427.000000
0
VERTEX
8
0
10
282.800000
20
425.100000
0
VERTEX
8
0
10
282.000000
20
424.000000
0
VERTEX
8
0
10
282.000000
20
416.000000
0
VERTEX
8
0
10
284.384615
20
405.076923
0
VERTEX
8
0
10
284.594595
20
403.932432
0
VERTEX
8
0
10
287.200000
20
393.100000
0
VERTEX
8
0
10
288.300000
20
390.100000
0
VERTEX
8
0
10
293.000000
20
380.000000
0
VERTEX
8
0
10
296.000000
20
379.000000
0
SEQEND
0
POLYLINE
8
0
6
CONTINUOUS
66
1
62
7
10
0.0
20
0.0
30
0.000000
0
VERTEX
8
0
10
327.000000
20
358.000000
0
VERTEX
8
0
10
329.000000
20
359.000000
0
VERTEX
8
0
10
333.247059
20
363.788235
0
VERTEX
8
0
10
338.752941
20
370.211765
0
VERTEX
8
0
10
345.800000
20
382.100000
0
VERTEX
8
0
10
347.000000
20
386.000000
0
VERTEX
8
0
10
345.000000
20
388.000000
0
VERTEX
8
0
10
342.000000
20
387.000000
0
VERTEX
8
0
10
333.240000
20
375.820000
0
VERTEX
8
0
10
327.352941
20
364.911765
0
VERTEX
8
0
10
326.000000
20
359.000000
0
VERTEX
8
0
10
327.000000
20
358.000000
0
SEQEND
0
POLYLINE
8
0
6
CONTINUOUS
66
1
62
7
10
0.0
20
0.0
30
0.000000
0
VERTEX
8
0
10
313.000000
20
386.000000
0
VERTEX
8
0
10
310.000000
20
385.000000
0
VERTEX
8
0
10
301.000000
20
376.000000
0
VERTEX
8
0
10
291.200000
20
360.900000
0
VERTEX
8
0
10
290.000000
20
357.000000
0
VERTEX
8
0
10
291.900000
20
355.800000
0
VERTEX
8
0
10
293.000000
20
355.000000
0
VERTEX
8
0
10
300.243902
20
362.804878
0
VERTEX
8
0
10
303.756098
20
367.195122
0
VERTEX
8
0
10
312.800000
20
381.100000
0
VERTEX
8
0
10
314.000000
20
385.000000
0
SEQEND
0
POLYLINE
8
0
6
CONTINUOUS
66
1
62
7
10
0.0
20
0.0
30
0.000000
0
VERTEX
8
0
10
359.000000
20
354.000000
0
VERTEX
8
0
10
361.352941
20
360.911765
0
VERTEX
8
0
10
362.000000
20
362.000000
0
VERTEX
8
0
10
362.000000
20
376.000000
0
VERTEX
8
0
10
359.647059
20
384.911765
0
VERTEX
8
0
10
354.800000
20
394.900000
0
VERTEX
8
0
10
349.000000
20
406.000000
0
VERTEX
8
0
10
348.000000
20
407.000000
0
VERTEX
8
0
10
345.000000
20
407.000000
0
VERTEX
8
0
10
344.000000
20
406.000000
0
VERTEX
8
0
10
345.800000
20
400.900000
0
VERTEX
8
0
10
347.200000
20
398.100000
0
VERTEX
8
0
10
352.569231
20
385.946154
0
VERTEX
8
0
10
354.450820
20
368.040984
0
VERTEX
8
0
10
356.300000
20
358.100000
0
VERTEX
8
0
10
359.000000
20
354.000000
0
SEQEND
0
POLYLINE
8
0
6
CONTINUOUS
66
1
62
7
10
0.0
20
0.0
30
0.000000
0
VERTEX
8
0
10
347.000000
20
336.000000
0
VERTEX
8
0
10
346.000000
20
337.000000
0
SEQEND
0
POLYLINE
8
0
6
CONTINUOUS
66
1
62
7
10
0.0
20
0.0
30
0.000000
0
VERTEX
8
0
10
347.000000
20
336.000000
0
VERTEX
8
0
10
348.000000
20
337.000000
0
VERTEX
8
0
10
347.000000
20
338.000000
0
VERTEX
8
0
10
346.000000
20
337.000000
0
SEQEND
0
POLYLINE
8
0
6
CONTINUOUS
66
1
62
7
10
0.0
20
0.0
30
0.000000
0
VERTEX
8
0
10
331.000000
20
333.000000
0
VERTEX
8
0
10
332.000000
20
334.000000
0
VERTEX
8
0
10
330.200000
20
340.100000
0
VERTEX
8
0
10
321.756098
20
353.804878
0
VERTEX
8
0
10
312.000000
20
366.000000
0
VERTEX
8
0
10
309.000000
20
367.000000
0
VERTEX
8
0
10
308.000000
20
366.000000
0
VERTEX
8
0
10
310.200000
20
359.100000
0
VERTEX
8
0
10
310.800000
20
357.900000
0
VERTEX
8
0
10
318.243902
20
347.195122
0
VERTEX
8
0
10
322.243902
20
342.195122
0
VERTEX
8
0
10
329.000000
20
334.000000
0
VERTEX
8
0
10
331.000000
20
333.000000
0
SEQEND
0
POLYLINE
8
0
6
CONTINUOUS
66
1
62
7
10
0.0
20
0.0
30
0.000000
0
VERTEX
8
0
10
294.000000
20
329.000000
0
VERTEX
8
0
10
296.000000
20
331.000000
0
VERTEX
8
0
10
296.000000
20
333.000000
0
VERTEX
8
0
10
293.800000
20
336.900000
0
VERTEX
8
0
10
293.200000
20
338.100000
0
VERTEX
8
0
10
287.300000
20
353.100000
0
VERTEX
8
0
10
286.700000
20
354.900000
0
VERTEX
8
0
10
284.535398
20
377.969027
0
VERTEX
8
0
10
284.420000
20
379.060000
0
VERTEX
8
0
10
284.000000
20
385.000000
0
VERTEX
8
0
10
283.000000
20
386.000000
0
VERTEX
8
0
10
281.000000
20
384.000000
0
VERTEX
8
0
10
280.000000
20
381.000000
0
VERTEX
8
0
10
280.000000
20
364.000000
0
VERTEX
8
0
10
282.405405
20
352.067568
0
VERTEX
8
0
10
286.200000
20
340.100000
0
VERTEX
8
0
10
287.800000
20
335.900000
0
VERTEX
8
0
10
289.000000
20
333.000000
0
VERTEX
8
0
10
294.000000
20
329.000000
0
SEQEND
0
POLYLINE
8
0
6
CONTINUOUS
66
1
62
7
10
0.0
20
0.0
30
0.000000
0
VERTEX
8
0
10
292.000000
20
306.000000
0
VERTEX
8
0
10
294.000000
20
307.000000
0
VERTEX
8
0
10
297.240000
20
310.820000
0
VERTEX
8
0
10
300.240000
20
314.820000
0
VERTEX
8
0
10
311.800000
20
332.100000
0
VERTEX
8
0
10
315.000000
20
340.000000
0
VERTEX
8
0
10
314.000000
20
341.000000
0
VERTEX
8
0
10
312.000000
20
341.000000
0
VERTEX
8
0
10
301.760000
20
329.180000
0
VERTEX
8
0
10
299.240000
20
325.820000
0
VERTEX
8
0
10
291.200000
20
311.900000
0
VERTEX
8
0
10
290.800000
20
311.100000
0
VERTEX
8
0
10
290.250000
20
306.250000
0
VERTEX
8
0
10
292.000000
20
306.000000
0
SEQEND
0
POLYLINE
8
0
6
CONTINUOUS
66
1
62
7
10
0.0
20
0.0
30
0.000000
0
VERTEX
8
0
10
346.000000
20
337.000000
0
VERTEX
8
0
10
343.000000
20
336.000000
0
VERTEX
8
0
10
341.000000
20
334.000000
0
VERTEX
8
0
10
325.200000
20
311.900000
0
VERTEX
8
0
10
324.800000
20
311.100000
0
VERTEX
8
0
10
324.000000
20
310.000000
0
VERTEX
8
0
10
324.000000
20
307.000000
0
VERTEX
8
0
10
325.900000
20
305.800000
0
VERTEX
8
0
10
327.000000
20
305.000000
0
VERTEX
8
0
10
330.000000
20
308.000000
0
VERTEX
8
0
10
346.200000
20
331.900000
0
VERTEX
8
0
10
347.000000
20
336.000000
0
SEQEND
0
POLYLINE
8
0
6
CONTINUOUS
66
1
62
7
10
0.0
20
0.0
30
0.000000
0
VERTEX
8
0
10
363.000000
20
303.000000
0
VERTEX
8
0
10
366.000000
20
307.000000
0
VERTEX
8
0
10
366.000000
20
313.000000
0
VERTEX
8
0
10
363.700000
20
323.900000
0
VERTEX
8
0
10
362.300000
20
328.100000
0
VERTEX
8
0
10
353.800000
20
349.900000
0
VERTEX
8
0
10
352.769231
20
351.846154
0
VERTEX
8
0
10
344.000000
20
364.000000
0
VERTEX
8
0
10
343.000000
20
364.000000
0
VERTEX
8
0
10
341.000000
20
362.000000
0
VERTEX
8
0
10
342.200000
20
358.100000
0
VERTEX
8
0
10
349.200000
20
345.100000
0
VERTEX
8
0
10
356.647059
20
329.911765
0
VERTEX
8
0
10
362.200000
20
304.100000
0
VERTEX
8
0
10
363.000000
20
303.000000
0
SEQEND
0
POLYLINE
8
0
6
CONTINUOUS
66
1
62
7
10
0.0
20
0.0
30
0.000000
0
VERTEX
8
0
10
292.000000
20
279.000000
0
VERTEX
8
0
10
293.000000
20
280.000000
0
VERTEX
8
0
10
291.300000
20
287.100000
0
VERTEX
8
0
10
290.700000
20
288.900000
0
VERTEX
8
0
10
284.439024
20
309.048780
0
VERTEX
8
0
10
283.461929
20
318.032995
0
VERTEX
8
0
10
282.000000
20
339.000000
0
VERTEX
8
0
10
280.000000
20
340.000000
0
VERTEX
8
0
10
277.405405
20
334.932432
0
VERTEX
8
0
10
276.594595
20
330.067568
0
VERTEX
8
0
10
276.000000
20
329.000000
0
VERTEX
8
0
10
276.000000
20
318.000000
0
VERTEX
8
0
10
277.439024
20
309.048780
0
VERTEX
8
0
10
278.405405
20
303.067568
0
VERTEX
8
0
10
284.200000
20
290.100000
0
VERTEX
8
0
10
284.800000
20
288.900000
0
VERTEX
8
0
10
287.245902
20
284.204918
0
VERTEX
8
0
10
292.000000
20
279.000000
0
SEQEND
0
POLYLINE
8
0
6
CONTINUOUS
66
1
62
7
10
0.0
20
0.0
30
0.000000
0
VERTEX
8
0
10
331.000000
20
278.000000
0
VERTEX
8
0
10
332.000000
20
279.000000
0
VERTEX
8
0
10
330.200000
20
285.100000
0
VERTEX
8
0
10
322.756098
20
297.804878
0
VERTEX
8
0
10
309.000000
20
314.000000
0
VERTEX
8
0
10
308.100000
20
314.200000
0
VERTEX
8
0
10
307.000000
20
315.000000
0
VERTEX
8
0
10
305.000000
20
313.000000
0
VERTEX
8
0
10
305.800000
20
310.900000
0
VERTEX
8
0
10
324.245902
20
285.204918
0
VERTEX
8
0
10
330.000000
20
278.000000
0
VERTEX
8
0
10
331.000000
20
278.000000
0
SEQEND
0
POLYLINE
8
0
6
CONTINUOUS
66
1
62
7
10
0.0
20
0.0
30
0.000000
0
VERTEX
8
0
10
306.000000
20
261.000000
0
VERTEX
8
0
10
305.000000
20
262.000000
0
VERTEX
8
0
10
306.000000
20
263.000000
0
VERTEX
8
0
10
307.000000
20
262.000000
0
SEQEND
0
POLYLINE
8
0
6
CONTINUOUS
66
1
62
7
10
0.0
20
0.0
30
0.000000
0
VERTEX
8
0
10
306.000000
20
261.000000
0
VERTEX
8
0
10
307.000000
20
262.000000
0
SEQEND
0
POLYLINE
8
0
6
CONTINUOUS
66
1
62
7
10
0.0
20
0.0
30
0.000000
0
VERTEX
8
0
10
325.000000
20
254.000000
0
VERTEX
8
0
10
330.000000
20
257.000000
0
VERTEX
8
0
10
344.240000
20
273.820000
0
VERTEX
8
0
10
348.200000
20
279.900000
0
VERTEX
8
0
10
351.000000
20
285.000000
0
VERTEX
8
0
10
351.000000
20
287.000000
0
VERTEX
8
0
10
350.000000
20
288.000000
0
VERTEX
8
0
10
348.000000
20
287.000000
0
VERTEX
8
0
10
335.000000
20
274.000000
0
VERTEX
8
0
10
324.400000
20
259.800000
0
VERTEX
8
0
10
323.000000
20
256.000000
0
VERTEX
8
0
10
325.000000
20
254.000000
0
SEQEND
0
POLYLINE
8
0
6
CONTINUOUS
66
1
62
7
10
0.0
20
0.0
30
0.000000
0
VERTEX
8
0
10
287.000000
20
253.000000
0
VERTEX
8
0
10
290.000000
20
255.000000
0
VERTEX
8
0
10
294.245902
20
259.795082
0
VERTEX
8
0
10
298.754098
20
265.204918
0
VERTEX
8
0
10
312.200000
20
283.900000
0
VERTEX
8
0
10
312.800000
20
285.100000
0
VERTEX
8
0
10
314.000000
20
288.000000
0
VERTEX
8
0
10
312.000000
20
290.000000
0
VERTEX
8
0
10
309.900000
20
289.200000
0
VERTEX
8
0
10
309.000000
20
289.000000
0
VERTEX
8
0
10
305.752941
20
285.211765
0
VERTEX
8
0
10
300.247059
20
278.788235
0
VERTEX
8
0
10
286.800000
20
260.100000
0
VERTEX
8
0
10
286.200000
20
258.900000
0
VERTEX
8
0
10
285.000000
20
255.000000
0
VERTEX
8
0
10
287.000000
20
253.000000
0
SEQEND
0
POLYLINE
8
0
6
CONTINUOUS
66
1
62
7
10
0.0
20
0.0
30
0.000000
0
VERTEX
8
0
10
365.000000
20
253.000000
0
VERTEX
8
0
10
367.000000
20
256.000000
0
VERTEX
8
0
10
367.000000
20
273.000000
0
VERTEX
8
0
10
364.800000
20
277.900000
0
VERTEX
8
0
10
362.700000
20
283.900000
0
VERTEX
8
0
10
353.800000
20
304.900000
0
VERTEX
8
0
10
352.200000
20
308.100000
0
VERTEX
8
0
10
345.000000
20
318.000000
0
VERTEX
8
0
10
343.000000
20
317.000000
0
VERTEX
8
0
10
343.000000
20
313.000000
0
VERTEX
8
0
10
351.200000
20
297.100000
0
VERTEX
8
0
10
355.647059
20
287.911765
0
VERTEX
8
0
10
363.600000
20
255.200000
0
VERTEX
8
0
10
365.000000
20
253.000000
0
SEQEND
0
POLYLINE
8
0
6
CONTINUOUS
66
1
62
7
10
0.0
20
0.0
30
0.000000
0
VERTEX
8
0
10
306.000000
20
261.000000
0
VERTEX
8
0
10
306.800000
20
257.900000
0
VERTEX
8
0
10
314.247059
20
247.211765
0
VERTEX
8
0
10
327.000000
20
233.000000
0
VERTEX
8
0
10
332.100000
20
230.800000
0
VERTEX
8
0
10
333.000000
20
231.000000
0
VERTEX
8
0
10
334.000000
20
233.000000
0
VERTEX
8
0
10
333.300000
20
234.100000
0
VERTEX
8
0
10
323.000000
20
248.000000
0
VERTEX
8
0
10
310.000000
20
261.000000
0
VERTEX
8
0
10
307.900000
20
261.800000
0
VERTEX
8
0
10
307.000000
20
262.000000
0
SEQEND
0
POLYLINE
8
0
6
CONTINUOUS
66
1
62
7
10
0.0
20
0.0
30
0.000000
0
VERTEX
8
0
10
286.000000
20
225.000000
0
VERTEX
8
0
10
289.000000
20
230.000000
0
VERTEX
8
0
10
288.352941
20
233.088235
0
VERTEX
8
0
10
286.700000
20
238.900000
0
VERTEX
8
0
10
280.430769
20
257.053846
0
VERTEX
8
0
10
279.458824
20
265.035294
0
VERTEX
8
0
10
277.000000
20
287.000000
0
VERTEX
8
0
10
276.000000
20
288.000000
0
VERTEX
8
0
10
274.000000
20
286.000000
0
VERTEX
8
0
10
271.430769
20
274.946154
0
VERTEX
8
0
10
270.000000
20
262.000000
0
VERTEX
8
0
10
272.300000
20
256.100000
0
VERTEX
8
0
10
273.352941
20
252.088235
0
VERTEX
8
0
10
279.200000
20
236.100000
0
VERTEX
8
0
10
279.800000
20
234.900000
0
VERTEX
8
0
10
284.230769
20
227.153846
0
VERTEX
8
0
10
286.000000
20
225.000000
0
SEQEND
0
POLYLINE
8
0
6
CONTINUOUS
66
1
62
7
10
0.0
20
0.0
30
0.000000
0
VERTEX
8
0
10
324.000000
20
207.000000
0
VERTEX
8
0
10
325.100000
20
207.800000
0
VERTEX
8
0
10
328.000000
20
209.000000
0
VERTEX
8
0
10
344.000000
20
225.000000
0
VERTEX
8
0
10
348.754098
20
231.204918
0
VERTEX
8
0
10
350.700000
20
235.100000
0
VERTEX
8
0
10
352.000000
20
239.000000
0
VERTEX
8
0
10
351.000000
20
240.000000
0
VERTEX
8
0
10
348.000000
20
239.000000
0
VERTEX
8
0
10
331.000000
20
222.000000
0
VERTEX
8
0
10
324.247788
20
213.783186
0
VERTEX
8
0
10
323.756098
20
213.195122
0
VERTEX
8
0
10
320.000000
20
209.000000
0
VERTEX
8
0
10
322.000000
20
207.000000
0
VERTEX
8
0
10
324.000000
20
207.000000
0
SEQEND
0
POLYLINE
8
0
6
CONTINUOUS
66
1
62
7
10
0.0
20
0.0
30
0.000000
0
VERTEX
8
0
10
367.000000
20
207.000000
0
VERTEX
8
0
10
368.000000
20
208.000000
0
VERTEX
8
0
10
368.000000
20
221.000000
0
VERTEX
8
0
10
365.594595
20
231.932432
0
VERTEX
8
0
10
364.647059
20
235.911765
0
VERTEX
8
0
10
354.800000
20
254.900000
0
VERTEX
8
0
10
353.769231
20
256.846154
0
VERTEX
8
0
10
349.000000
20
263.000000
0
VERTEX
8
0
10
348.000000
20
263.000000
0
VERTEX
8
0
10
347.000000
20
262.000000
0
VERTEX
8
0
10
347.000000
20
258.000000
0
VERTEX
8
0
10
349.200000
20
254.100000
0
VERTEX
8
0
10
355.200000
20
241.100000
0
VERTEX
8
0
10
359.647059
20
231.911765
0
VERTEX
8
0
10
365.400000
20
209.200000
0
VERTEX
8
0
10
367.000000
20
207.000000
0
SEQEND
0
POLYLINE
8
0
6
CONTINUOUS
66
1
62
7
10
0.0
20
0.0
30
0.000000
0
VERTEX
8
0
10
281.000000
20
205.000000
0
VERTEX
8
0
10
282.100000
20
205.800000
0
VERTEX
8
0
10
303.000000
20
226.000000
0
VERTEX
8
0
10
309.752212
20
234.216814
0
VERTEX
8
0
10
314.000000
20
239.000000
0
VERTEX
8
0
10
312.000000
20
241.000000
0
VERTEX
8
0
10
309.900000
20
240.200000
0
VERTEX
8
0
10
307.000000
20
239.000000
0
VERTEX
8
0
10
279.000000
20
211.000000
0
VERTEX
8
0
10
279.000000
20
207.000000
0
VERTEX
8
0
10
281.000000
20
205.000000
0
SEQEND
0
POLYLINE
8
0
6
CONTINUOUS
66
1
62
7
10
0.0
20
0.0
30
0.000000
0
VERTEX
8
0
10
286.000000
20
178.000000
0
VERTEX
8
0
10
287.200000
20
179.900000
0
VERTEX
8
0
10
286.800000
20
182.900000
0
VERTEX
8
0
10
285.769231
20
184.846154
0
VERTEX
8
0
10
276.384615
20
203.076923
0
VERTEX
8
0
10
275.615385
20
206.923077
0
VERTEX
8
0
10
273.445545
20
228.044554
0
VERTEX
8
0
10
273.000000
20
237.000000
0
VERTEX
8
0
10
272.000000
20
238.000000
0
VERTEX
8
0
10
269.700000
20
233.100000
0
VERTEX
8
0
10
268.000000
20
227.000000
0
VERTEX
8
0
10
268.000000
20
212.000000
0
VERTEX
8
0
10
269.405405
20
206.067568
0
VERTEX
8
0
10
269.647059
20
204.911765
0
VERTEX
8
0
10
274.200000
20
193.100000
0
VERTEX
8
0
10
275.230769
20
191.153846
0
VERTEX
8
0
10
284.000000
20
179.000000
0
VERTEX
8
0
10
286.000000
20
178.000000
0
SEQEND
0
POLYLINE
8
0
6
CONTINUOUS
66
1
62
7
10
0.0
20
0.0
30
0.000000
0
VERTEX
8
0
10
330.000000
20
176.000000
0
VERTEX
8
0
10
334.000000
20
179.000000
0
VERTEX
8
0
10
334.000000
20
182.000000
0
VERTEX
8
0
10
323.000000
20
197.000000
0
VERTEX
8
0
10
305.000000
20
215.000000
0
VERTEX
8
0
10
303.000000
20
216.000000
0
VERTEX
8
0
10
300.900000
20
215.200000
0
VERTEX
8
0
10
300.000000
20
215.000000
0
VERTEX
8
0
10
299.000000
20
214.000000
0
VERTEX
8
0
10
299.000000
20
212.000000
0
VERTEX
8
0
10
318.248276
20
189.220690
0
VERTEX
8
0
10
330.000000
20
176.000000
0
SEQEND
0
POLYLINE
8
0
6
CONTINUOUS
66
1
62
7
10
0.0
20
0.0
30
0.000000
0
VERTEX
8
0
10
368.000000
20
158.000000
0
VERTEX
8
0
10
369.000000
20
159.000000
0
VERTEX
8
0
10
369.000000
20
177.000000
0
VERTEX
8
0
10
366.594595
20
191.932432
0
VERTEX
8
0
10
365.700000
20
194.900000
0
VERTEX
8
0
10
358.769231
20
206.846154
0
VERTEX
8
0
10
356.200000
20
211.100000
0
VERTEX
8
0
10
348.000000
20
220.000000
0
VERTEX
8
0
10
347.000000
20
220.000000
0
VERTEX
8
0
10
345.000000
20
218.000000
0
VERTEX
8
0
10
345.000000
20
214.000000
0
VERTEX
8
0
10
349.230769
20
208.153846
0
VERTEX
8
0
10
358.200000
20
195.100000
0
VERTEX
8
0
10
362.647059
20
185.911765
0
VERTEX
8
0
10
363.700000
20
181.900000
0
VERTEX
8
0
10
366.000000
20
159.000000
0
VERTEX
8
0
10
368.000000
20
158.000000
0
SEQEND
0
POLYLINE
8
0
6
CONTINUOUS
66
1
62
7
10
0.0
20
0.0
30
0.000000
0
VERTEX
8
0
10
325.000000
20
157.000000
0
VERTEX
8
0
10
326.900000
20
158.200000
0
VERTEX
8
0
10
338.000000
20
166.000000
0
VERTEX
8
0
10
346.000000
20
174.000000
0
VERTEX
8
0
10
356.000000
20
188.000000
0
VERTEX
8
0
10
354.000000
20
190.000000
0
VERTEX
8
0
10
350.900000
20
189.200000
0
VERTEX
8
0
10
329.000000
20
168.000000
0
VERTEX
8
0
10
328.752212
20
167.216814
0
VERTEX
8
0
10
322.000000
20
160.000000
0
VERTEX
8
0
10
325.000000
20
157.000000
0
SEQEND
0
POLYLINE
8
0
6
CONTINUOUS
66
1
62
7
10
0.0
20
0.0
30
0.000000
0
VERTEX
8
0
10
367.000000
20
156.000000
0
VERTEX
8
0
10
368.000000
20
158.000000
0
SEQEND
0
POLYLINE
8
0
6
CONTINUOUS
66
1
62
7
10
0.0
20
0.0
30
0.000000
0
VERTEX
8
0
10
278.000000
20
154.000000
0
VERTEX
8
0
10
281.000000
20
155.000000
0
VERTEX
8
0
10
312.000000
20
187.000000
0
VERTEX
8
0
10
309.000000
20
190.000000
0
VERTEX
8
0
10
306.000000
20
190.000000
0
VERTEX
8
0
10
297.000000
20
183.000000
0
VERTEX
8
0
10
286.752212
20
172.216814
0
VERTEX
8
0
10
276.000000
20
160.000000
0
VERTEX
8
0
10
276.000000
20
156.000000
0
VERTEX
8
0
10
278.000000
20
154.000000
0
SEQEND
0
POLYLINE
8
0
6
CONTINUOUS
66
1
62
7
10
0.0
20
0.0
30
0.000000
0
VERTEX
8
0
10
284.000000
20
130.000000
0
VERTEX
8
0
10
286.000000
20
132.000000
0
VERTEX
8
0
10
286.000000
20
134.000000
0
VERTEX
8
0
10
278.800000
20
143.900000
0
VERTEX
8
0
10
278.200000
20
145.100000
0
VERTEX
8
0
10
272.300000
20
160.100000
0
VERTEX
8
0
10
271.420000
20
163.060000
0
VERTEX
8
0
10
269.000000
20
187.000000
0
VERTEX
8
0
10
267.000000
20
189.000000
0
VERTEX
8
0
10
265.000000
20
187.000000
0
VERTEX
8
0
10
263.000000
20
182.000000
0
VERTEX
8
0
10
263.000000
20
168.000000
0
VERTEX
8
0
10
266.300000
20
157.100000
0
VERTEX
8
0
10
274.243902
20
139.195122
0
VERTEX
8
0
10
278.000000
20
134.000000
0
VERTEX
8
0
10
281.900000
20
130.800000
0
VERTEX
8
0
10
284.000000
20
130.000000
0
SEQEND
0
POLYLINE
8
0
6
CONTINUOUS
66
1
62
7
10
0.0
20
0.0
30
0.000000
0
VERTEX
8
0
10
336.000000
20
128.000000
0
VERTEX
8
0
10
337.500000
20
131.000000
0
VERTEX
8
0
10
334.751724
20
136.779310
0
VERTEX
8
0
10
327.000000
20
146.000000
0
VERTEX
8
0
10
303.000000
20
170.000000
0
VERTEX
8
0
10
301.500000
20
167.000000
0
VERTEX
8
0
10
304.247788
20
161.216814
0
VERTEX
8
0
10
310.752212
20
153.783186
0
VERTEX
8
0
10
336.000000
20
128.000000
0
SEQEND
0
POLYLINE
8
0
6
CONTINUOUS
66
1
62
7
10
0.0
20
0.0
30
0.000000
0
VERTEX
8
0
10
370.000000
20
110.000000
0
VERTEX
8
0
10
372.000000
20
112.000000
0
VERTEX
8
0
10
372.000000
20
124.000000
0
VERTEX
8
0
10
367.800000
20
138.900000
0
VERTEX
8
0
10
367.200000
20
140.100000
0
VERTEX
8
0
10
359.769231
20
155.846154
0
VERTEX
8
0
10
357.200000
20
160.100000
0
VERTEX
8
0
10
353.000000
20
167.000000
0
VERTEX
8
0
10
350.900000
20
167.800000
0
VERTEX
8
0
10
348.000000
20
169.000000
0
VERTEX
8
0
10
346.000000
20
168.000000
0
VERTEX
8
0
10
344.800000
20
166.100000
0
VERTEX
8
0
10
344.600000
20
165.200000
0
VERTEX
8
0
10
349.230769
20
158.153846
0
VERTEX
8
0
10
355.769231
20
148.846154
0
VERTEX
8
0
10
362.700000
20
136.900000
0
VERTEX
8
0
10
363.800000
20
133.900000
0
VERTEX
8
0
10
368.000000
20
111.000000
0
VERTEX
8
0
10
370.000000
20
110.000000
0
SEQEND
0
POLYLINE
8
0
6
CONTINUOUS
66
1
62
7
10
0.0
20
0.0
30
0.000000
0
VERTEX
8
0
10
278.000000
20
108.000000
0
VERTEX
8
0
10
281.100000
20
109.800000
0
VERTEX
8
0
10
292.769968
20
119.249201
0
VERTEX
8
0
10
315.000000
20
140.000000
0
VERTEX
8
0
10
311.000000
20
144.000000
0
VERTEX
8
0
10
308.195122
20
142.756098
0
VERTEX
8
0
10
303.804878
20
139.243902
0
VERTEX
8
0
10
296.000000
20
133.000000
0
VERTEX
8
0
10
276.000000
20
113.000000
0
VERTEX
8
0
10
277.200000
20
109.100000
0
VERTEX
8
0
10
278.000000
20
108.000000
0
SEQEND
0
POLYLINE
8
0
6
CONTINUOUS
66
1
62
7
10
0.0
20
0.0
30
0.000000
0
VERTEX
8
0
10
329.000000
20
105.000000
0
VERTEX
8
0
10
330.100000
20
105.800000
0
VERTEX
8
0
10
333.000000
20
107.000000
0
VERTEX
8
0
10
345.000000
20
119.000000
0
VERTEX
8
0
10
353.760000
20
131.180000
0
VERTEX
8
0
10
355.800000
20
135.100000
0
VERTEX
8
0
10
357.000000
20
138.000000
0
VERTEX
8
0
10
355.000000
20
140.000000
0
VERTEX
8
0
10
353.000000
20
139.000000
0
VERTEX
8
0
10
346.000000
20
132.000000
0
VERTEX
8
0
10
330.769231
20
113.153846
0
VERTEX
8
0
10
329.400000
20
110.800000
0
VERTEX
8
0
10
328.000000
20
106.000000
0
VERTEX
8
0
10
329.000000
20
105.000000
0
SEQEND
0
POLYLINE
8
0
6
CONTINUOUS
66
1
62
7
10
0.0
20
0.0
30
0.000000
0
VERTEX
8
0
10
336.000000
20
79.000000
0
VERTEX
8
0
10
339.000000
20
85.000000
0
VERTEX
8
0
10
339.000000
20
86.000000
0
VERTEX
8
0
10
330.000000
20
95.000000
0
VERTEX
8
0
10
302.000000
20
121.000000
0
VERTEX
8
0
10
300.000000
20
120.000000
0
VERTEX
8
0
10
298.800000
20
118.100000
0
VERTEX
8
0
10
298.000000
20
117.000000
0
VERTEX
8
0
10
298.800000
20
113.900000
0
VERTEX
8
0
10
299.000000
20
113.000000
0
VERTEX
8
0
10
314.769968
20
98.750799
0
VERTEX
8
0
10
336.000000
20
79.000000
0
SEQEND
0
POLYLINE
8
0
6
CONTINUOUS
66
1
62
7
10
0.0
20
0.0
30
0.000000
0
VERTEX
8
0
10
281.000000
20
75.000000
0
VERTEX
8
0
10
285.000000
20
78.000000
0
VERTEX
8
0
10
285.000000
20
82.000000
0
VERTEX
8
0
10
282.800000
20
85.900000
0
VERTEX
8
0
10
280.800000
20
89.900000
0
VERTEX
8
0
10
271.352941
20
108.088235
0
VERTEX
8
0
10
266.000000
20
138.000000
0
VERTEX
8
0
10
265.000000
20
139.000000
0
VERTEX
8
0
10
263.000000
20
137.000000
0
VERTEX
8
0
10
260.700000
20
129.100000
0
VERTEX
8
0
10
259.000000
20
125.000000
0
VERTEX
8
0
10
259.000000
20
113.000000
0
VERTEX
8
0
10
261.352941
20
105.088235
0
VERTEX
8
0
10
270.200000
20
88.100000
0
VERTEX
8
0
10
271.200000
20
86.100000
0
VERTEX
8
0
10
277.000000
20
77.000000
0
VERTEX
8
0
10
281.000000
20
75.000000
0
SEQEND
0
POLYLINE
8
0
6
CONTINUOUS
66
1
62
7
10
0.0
20
0.0
30
0.000000
0
VERTEX
8
0
10
319.000000
20
59.000000
0
VERTEX
8
0
10
327.100000
20
60.800000
0
VERTEX
8
0
10
335.795082
20
65.245902
0
VERTEX
8
0
10
346.195122
20
73.756098
0
VERTEX
8
0
10
353.000000
20
80.000000
0
VERTEX
8
0
10
358.800000
20
88.100000
0
VERTEX
8
0
10
360.000000
20
92.000000
0
VERTEX
8
0
10
359.000000
20
93.000000
0
VERTEX
8
0
10
353.804878
20
89.243902
0
VERTEX
8
0
10
353.231507
20
88.750685
0
VERTEX
8
0
10
337.900000
20
75.200000
0
VERTEX
8
0
10
329.900000
20
71.300000
0
VERTEX
8
0
10
304.000000
20
66.000000
0
VERTEX
8
0
10
302.000000
20
63.000000
0
VERTEX
8
0
10
304.000000
20
61.000000
0
VERTEX
8
0
10
306.076923
20
60.384615
0
VERTEX
8
0
10
319.000000
20
59.000000
0
SEQEND
0
POLYLINE
8
0
6
CONTINUOUS
66
1
62
7
10
0.0
20
0.0
30
0.000000
0
VERTEX
8
0
10
373.000000
20
56.000000
0
VERTEX
8
0
10
376.000000
20
61.000000
0
VERTEX
8
0
10
376.000000
20
65.000000
0
VERTEX
8
0
10
370.647059
20
90.911765
0
VERTEX
8
0
10
369.200000
20
96.100000
0
VERTEX
8
0
10
362.230769
20
110.153846
0
VERTEX
8
0
10
359.000000
20
115.000000
0
VERTEX
8
0
10
355.100000
20
118.200000
0
VERTEX
8
0
10
353.000000
20
119.000000
0
VERTEX
8
0
10
351.000000
20
117.000000
0
VERTEX
8
0
10
351.000000
20
115.000000
0
VERTEX
8
0
10
355.230769
20
108.153846
0
VERTEX
8
0
10
356.769231
20
105.846154
0
VERTEX
8
0
10
366.700000
20
84.900000
0
VERTEX
8
0
10
367.647059
20
81.911765
0
VERTEX
8
0
10
370.000000
20
71.000000
0
VERTEX
8
0
10
367.000000
20
66.000000
0
VERTEX
8
0
10
363.900000
20
66.800000
0
VERTEX
8
0
10
353.000000
20
71.000000
0
VERTEX
8
0
10
351.000000
20
69.000000
0
VERTEX
8
0
10
351.000000
20
68.000000
0
VERTEX
8
0
10
371.900000
20
56.800000
0
VERTEX
8
0
10
373.000000
20
56.000000
0
SEQEND
0
POLYLINE
8
0
6
CONTINUOUS
66
1
62
7
10
0.0
20
0.0
30
0.000000
0
VERTEX
8
0
10
264.000000
20
53.000000
0
VERTEX
8
0
10
273.911765
20
55.352941
0
VERTEX
8
0
10
285.900000
20
61.200000
0
VERTEX
8
0
10
290.153846
20
63.769231
0
VERTEX
8
0
10
302.000000
20
72.000000
0
VERTEX
8
0
10
308.000000
20
78.000000
0
VERTEX
8
0
10
311.756098
20
83.195122
0
VERTEX
8
0
10
314.800000
20
89.100000
0
VERTEX
8
0
10
314.750000
20
90.750000
0
VERTEX
8
0
10
313.100000
20
90.800000
0
VERTEX
8
0
10
310.200000
20
89.600000
0
VERTEX
8
0
10
297.204918
20
79.754098
0
VERTEX
8
0
10
291.795082
20
75.245902
0
VERTEX
8
0
10
283.900000
20
70.200000
0
VERTEX
8
0
10
273.000000
20
66.000000
0
VERTEX
8
0
10
268.000000
20
69.000000
0
VERTEX
8
0
10
264.800000
20
72.900000
0
VERTEX
8
0
10
262.000000
20
80.000000
0
VERTEX
8
0
10
262.000000
20
85.000000
0
VERTEX
8
0
10
263.000000
20
86.000000
0
VERTEX
8
0
10
260.000000
20
92.000000
0
VERTEX
8
0
10
257.352941
20
84.911765
0
VERTEX
8
0
10
256.647059
20
82.088235
0
VERTEX
8
0
10
253.000000
20
67.000000
0
VERTEX
8
0
10
253.000000
20
58.000000
0
VERTEX
8
0
10
254.000000
20
56.000000
0
VERTEX
8
0
10
256.000000
20
54.000000
0
VERTEX
8
0
10
264.000000
20
53.000000
0
SEQEND
0
POLYLINE
8
0
6
CONTINUOUS
66
1
62
7
10
0.0
20
0.0
30
0.000000
0
VERTEX
8
0
10
357.000000
20
438.000000
0
VERTEX
8
0
10
352.900000
20
435.300000
0
VERTEX
8
0
10
333.946154
20
431.430769
0
VERTEX
8
0
10
327.053846
20
430.569231
0
VERTEX
8
0
10
314.000000
20
430.000000
0
VERTEX
8
0
10
299.088235
20
432.352941
0
VERTEX
8
0
10
297.911765
20
432.647059
0
VERTEX
8
0
10
278.000000
20
438.000000
0
VERTEX
8
0
10
276.000000
20
436.000000
0
VERTEX
8
0
10
265.458824
20
304.964706
0
VERTEX
8
0
10
250.461929
20
104.967005
0
VERTEX
8
0
10
247.000000
20
49.000000
0
VERTEX
8
0
10
247.250000
20
48.250000
0
VERTEX
8
0
10
383.000000
20
48.000000
0
VERTEX
8
0
10
383.750000
20
48.250000
0
VERTEX
8
0
10
367.521664
20
430.980069
0
VERTEX
8
0
10
367.000000
20
432.000000
0
VERTEX
8
0
10
367.000000
20
443.000000
0
VERTEX
8
0
10
385.750329
20
462.237188
0
VERTEX
8
0
10
389.756098
20
467.195122
0
VERTEX
8
0
10
393.230769
20
471.846154
0
VERTEX
8
0
10
400.800000
20
484.100000
0
VERTEX
8
0
10
402.800000
20
488.100000
0
VERTEX
8
0
10
406.352941
20
497.911765
0
VERTEX
8
0
10
410.000000
20
514.000000
0
VERTEX
8
0
10
410.000000
20
536.000000
0
VERTEX
8
0
10
408.569231
20
543.946154
0
VERTEX
8
0
10
405.300000
20
555.100000
0
VERTEX
8
0
10
396.760000
20
572.820000
0
VERTEX
8
0
10
387.000000
20
585.000000
0
VERTEX
8
0
10
375.195122
20
595.243902
0
VERTEX
8
0
10
366.100000
20
602.200000
0
VERTEX
8
0
10
352.911765
20
608.647059
0
VERTEX
8
0
10
341.076923
20
611.384615
0
VERTEX
8
0
10
336.000000
20
613.000000
0
VERTEX
8
0
10
311.000000
20
613.000000
0
VERTEX
8
0
10
299.067568
20
610.594595
0
VERTEX
8
0
10
290.100000
20
607.700000
0
VERTEX
8
0
10
288.900000
20
607.200000
0
VERTEX
8
0
10
272.153846
20
598.769231
0
VERTEX
8
0
10
269.846154
20
597.230769
0
VERTEX
8
0
10
255.000000
20
584.000000
0
VERTEX
8
0
10
247.240000
20
573.820000
0
VERTEX
8
0
10
241.200000
20
562.900000
0
VERTEX
8
0
10
239.800000
20
560.100000
0
VERTEX
8
0
10
234.615385
20
544.076923
0
VERTEX
8
0
10
232.000000
20
527.000000
0
VERTEX
8
0
10
233.569231
20
510.946154
0
VERTEX
8
0
10
235.700000
20
497.900000
0
VERTEX
8
0
10
242.800000
20
480.900000
0
VERTEX
8
0
10
255.000000
20
463.000000
0
VERTEX
8
0
10
263.000000
20
455.000000
0
VERTEX
8
0
10
272.153846
20
448.230769
0
VERTEX
8
0
10
277.153846
20
445.230769
0
VERTEX
8
0
10
286.100000
20
441.200000
0
VERTEX
8
0
10
291.100000
20
439.200000
0
VERTEX
8
0
10
304.067568
20
436.405405
0
VERTEX
8
0
10
308.932432
20
435.594595
0
VERTEX
8
0
10
331.000000
20
434.000000
0
VERTEX
8
0
10
347.923077
20
437.384615
0
VERTEX
8
0
10
349.076923
20
437.615385
0
VERTEX
8
0
10
356.000000
20
439.000000
0
VERTEX
8
0
10
357.000000
20
438.000000
0
SEQEND
0
POLYLINE
8
0
6
CONTINUOUS
66
1
62
7
10
0.0
20
0.0
30
0.000000
0
VERTEX
8
0
10
277.000000
20
39.000000
0
VERTEX
8
0
10
362.017808
20
41.519178
0
VERTEX
8
0
10
388.000000
20
42.000000
0
VERTEX
8
0
10
389.000000
20
43.000000
0
VERTEX
8
0
10
386.481529
20
126.017197
0
VERTEX
8
0
10
374.000000
20
446.000000
0
VERTEX
8
0
10
391.216814
20
460.752212
0
VERTEX
8
0
10
397.088235
20
464.647059
0
VERTEX
8
0
10
399.911765
20
465.352941
0
VERTEX
8
0
10
405.000000
20
467.000000
0
VERTEX
8
0
10
489.000000
20
467.000000
0
VERTEX
8
0
10
524.986507
20
465.514264
0
VERTEX
8
0
10
542.750000
20
465.250000
0
VERTEX
8
0
10
543.000000
20
569.000000
0
VERTEX
8
0
10
542.750000
20
569.750000
0
VERTEX
8
0
10
407.000000
20
570.000000
0
VERTEX
8
0
10
374.769231
20
604.846154
0
VERTEX
8
0
10
372.800000
20
607.900000
0
VERTEX
8
0
10
371.450820
20
613.040984
0
VERTEX
8
0
10
370.549180
20
622.959016
0
VERTEX
8
0
10
370.000000
20
641.000000
0
VERTEX
8
0
10
373.529231
20
694.026154
0
VERTEX
8
0
10
375.533074
20
730.029183
0
VERTEX
8
0
10
377.000000
20
753.000000
0
VERTEX
8
0
10
376.000000
20
754.000000
0
VERTEX
8
0
10
291.982803
20
754.518471
0
VERTEX
8
0
10
265.000000
20
755.000000
0
VERTEX
8
0
10
264.000000
20
754.000000
0
VERTEX
8
0
10
268.000000
20
604.000000
0
VERTEX
8
0
10
260.248276
20
595.779310
0
VERTEX
8
0
10
246.211765
20
581.752941
0
VERTEX
8
0
10
237.100000
20
574.800000
0
VERTEX
8
0
10
229.964706
20
572.458824
0
VERTEX
8
0
10
217.000000
20
571.000000
0
VERTEX
8
0
10
185.987197
20
571.513495
0
VERTEX
8
0
10
149.012803
20
572.486505
0
VERTEX
8
0
10
96.250000
20
573.750000
0
VERTEX
8
0
10
96.250000
20
466.250000
0
VERTEX
8
0
10
243.000000
20
469.000000
0
VERTEX
8
0
10
271.000000
20
442.000000
0
VERTEX
8
0
10
250.455172
20
193.962069
0
VERTEX
8
0
10
247.544828
20
158.037931
0
VERTEX
8
0
10
238.250000
20
41.250000
0
VERTEX
8
0
10
252.018464
20
39.480059
0
VERTEX
8
0
10
277.000000
20
39.000000
0
SEQEND
0
POLYLINE
8
0
6
CONTINUOUS
66
1
62
7
10
0.0
20
0.0
30
0.000000
0
VERTEX
8
0
10
254.000000
20
23.000000
0
VERTEX
8
0
10
391.984407
20
26.483368
0
VERTEX
8
0
10
399.000000
20
29.000000
0
VERTEX
8
0
10
401.000000
20
31.000000
0
VERTEX
8
0
10
405.000000
20
39.000000
0
VERTEX
8
0
10
405.000000
20
67.000000
0
VERTEX
8
0
10
391.519941
20
424.981536
0
VERTEX
8
0
10
391.000000
20
439.000000
0
VERTEX
8
0
10
403.900000
20
450.200000
0
VERTEX
8
0
10
411.946154
20
451.430769
0
VERTEX
8
0
10
413.000000
20
452.000000
0
VERTEX
8
0
10
451.012484
20
451.486859
0
VERTEX
8
0
10
545.000000
20
449.000000
0
VERTEX
8
0
10
548.911765
20
450.352941
0
VERTEX
8
0
10
555.000000
20
454.000000
0
VERTEX
8
0
10
557.000000
20
456.000000
0
VERTEX
8
0
10
559.000000
20
463.000000
0
VERTEX
8
0
10
559.000000
20
573.000000
0
VERTEX
8
0
10
556.000000
20
579.000000
0
VERTEX
8
0
10
550.000000
20
585.000000
0
VERTEX
8
0
10
545.996297
20
585.503759
0
VERTEX
8
0
10
413.000000
20
586.000000
0
VERTEX
8
0
10
391.249480
20
609.233888
0
VERTEX
8
0
10
388.441176
20
613.264706
0
VERTEX
8
0
10
387.700000
20
614.900000
0
VERTEX
8
0
10
386.000000
20
621.000000
0
VERTEX
8
0
10
386.000000
20
639.000000
0
VERTEX
8
0
10
390.529231
20
711.026154
0
VERTEX
8
0
10
393.000000
20
756.000000
0
VERTEX
8
0
10
391.800000
20
757.900000
0
VERTEX
8
0
10
390.000000
20
763.000000
0
VERTEX
8
0
10
383.100000
20
768.200000
0
VERTEX
8
0
10
381.900000
20
768.800000
0
VERTEX
8
0
10
292.000000
20
771.000000
0
VERTEX
8
0
10
263.000000
20
771.000000
0
VERTEX
8
0
10
255.900000
20
768.200000
0
VERTEX
8
0
10
251.000000
20
764.000000
0
VERTEX
8
0
10
248.647059
20
758.088235
0
VERTEX
8
0
10
248.000000
20
757.000000
0
VERTEX
8
0
10
249.514264
20
698.986507
0
VERTEX
8
0
10
252.000000
20
610.000000
0
VERTEX
8
0
10
231.000000
20
589.000000
0
VERTEX
8
0
10
227.911765
20
588.352941
0
VERTEX
8
0
10
225.088235
20
587.647059
0
VERTEX
8
0
10
224.000000
20
587.000000
0
VERTEX
8
0
10
178.000000
20
587.000000
0
VERTEX
8
0
10
149.016627
20
588.482185
0
VERTEX
8
0
10
147.986134
20
588.514682
0
VERTEX
8
0
10
93.000000
20
590.000000
0
VERTEX
8
0
10
91.911765
20
589.352941
0
VERTEX
8
0
10
89.000000
20
589.000000
0
VERTEX
8
0
10
81.000000
20
581.000000
0
VERTEX
8
0
10
80.647059
20
578.088235
0
VERTEX
8
0
10
80.000000
20
577.000000
0
VERTEX
8
0
10
80.000000
20
463.000000
0
VERTEX
8
0
10
80.647059
20
461.911765
0
VERTEX
8
0
10
81.000000
20
459.000000
0
VERTEX
8
0
10
88.900000
20
451.800000
0
VERTEX
8
0
10
94.000000
20
450.000000
0
VERTEX
8
0
10
120.010628
20
450.511101
0
VERTEX
8
0
10
236.000000
20
453.000000
0
VERTEX
8
0
10
254.000000
20
436.000000
0
VERTEX
8
0
10
238.458824
20
245.964706
0
VERTEX
8
0
10
230.544828
20
149.037931
0
VERTEX
8
0
10
222.000000
20
50.000000
0
VERTEX
8
0
10
222.000000
20
37.000000
0
VERTEX
8
0
10
228.000000
20
28.000000
0
VERTEX
8
0
10
230.000000
20
26.000000
0
VERTEX
8
0
10
254.000000
20
23.000000
0
SEQEND
0
POLYLINE
8
0
6
CONTINUOUS
66
1
62
7
10
0.0
20
0.0
30
0.000000
0
VERTEX
8
0
10
255.000000
20
7.000000
0
VERTEX
8
0
10
298.007572
20
8.507809
0
VERTEX
8
0
10
361.992428
20
9.492191
0
VERTEX
8
0
10
397.088235
20
10.647059
0
VERTEX
8
0
10
403.846154
20
13.230769
0
VERTEX
8
0
10
413.000000
20
20.000000
0
VERTEX
8
0
10
415.760000
20
24.180000
0
VERTEX
8
0
10
421.000000
20
36.000000
0
VERTEX
8
0
10
421.000000
20
67.000000
0
VERTEX
8
0
10
408.520767
20
393.980831
0
VERTEX
8
0
10
408.479233
20
395.019169
0
VERTEX
8
0
10
407.000000
20
433.000000
0
VERTEX
8
0
10
409.000000
20
435.000000
0
VERTEX
8
0
10
412.923077
20
435.384615
0
VERTEX
8
0
10
414.000000
20
436.000000
0
VERTEX
8
0
10
548.000000
20
433.000000
0
VERTEX
8
0
10
550.900000
20
434.300000
0
VERTEX
8
0
10
565.000000
20
441.000000
0
VERTEX
8
0
10
573.200000
20
454.900000
0
VERTEX
8
0
10
575.000000
20
459.000000
0
VERTEX
8
0
10
575.000000
20
577.000000
0
VERTEX
8
0
10
569.760000
20
587.820000
0
VERTEX
8
0
10
564.000000
20
595.000000
0
VERTEX
8
0
10
556.900000
20
598.800000
0
VERTEX
8
0
10
556.100000
20
599.200000
0
VERTEX
8
0
10
549.996213
20
601.503846
0
VERTEX
8
0
10
420.000000
20
602.000000
0
VERTEX
8
0
10
408.000000
20
615.000000
0
VERTEX
8
0
10
407.000000
20
615.000000
0
VERTEX
8
0
10
402.000000
20
622.000000
0
VERTEX
8
0
10
402.000000
20
639.000000
0
VERTEX
8
0
10
404.470769
20
672.973846
0
VERTEX
8
0
10
407.470769
20
726.973846
0
VERTEX
8
0
10
409.000000
20
741.000000
0
VERTEX
8
0
10
409.000000
20
756.000000
0
VERTEX
8
0
10
406.700000
20
763.900000
0
VERTEX
8
0
10
406.200000
20
765.100000
0
VERTEX
8
0
10
401.000000
20
775.000000
0
VERTEX
8
0
10
394.846154
20
779.769231
0
VERTEX
8
0
10
383.994567
20
785.505554
0
VERTEX
8
0
10
263.000000
20
787.000000
0
VERTEX
8
0
10
250.088235
20
783.647059
0
VERTEX
8
0
10
248.900000
20
783.200000
0
VERTEX
8
0
10
245.000000
20
781.000000
0
VERTEX
8
0
10
241.000000
20
777.000000
0
VERTEX
8
0
10
234.200000
20
765.900000
0
VERTEX
8
0
10
232.000000
20
760.000000
0
VERTEX
8
0
10
235.484875
20
634.014261
0
VERTEX
8
0
10
236.000000
20
633.000000
0
VERTEX
8
0
10
236.000000
20
616.000000
0
VERTEX
8
0
10
223.000000
20
603.000000
0
VERTEX
8
0
10
177.983373
20
603.517815
0
VERTEX
8
0
10
148.986134
20
604.514682
0
VERTEX
8
0
10
91.000000
20
606.000000
0
VERTEX
8
0
10
81.900000
20
602.200000
0
VERTEX
8
0
10
74.000000
20
597.000000
0
VERTEX
8
0
10
70.000000
20
593.000000
0
VERTEX
8
0
10
66.200000
20
585.900000
0
VERTEX
8
0
10
65.800000
20
585.100000
0
VERTEX
8
0
10
64.000000
20
580.000000
0
VERTEX
8
0
10
64.000000
20
460.000000
0
VERTEX
8
0
10
67.200000
20
452.100000
0
VERTEX
8
0
10
67.800000
20
450.900000
0
VERTEX
8
0
10
70.000000
20
447.000000
0
VERTEX
8
0
10
76.000000
20
441.000000
0
VERTEX
8
0
10
81.100000
20
438.200000
0
VERTEX
8
0
10
81.900000
20
437.800000
0
VERTEX
8
0
10
91.000000
20
434.000000
0
VERTEX
8
0
10
230.000000
20
437.000000
0
VERTEX
8
0
10
238.000000
20
429.000000
0
VERTEX
8
0
10
225.544828
20
279.037931
0
VERTEX
8
0
10
206.000000
20
50.000000
0
VERTEX
8
0
10
206.000000
20
39.000000
0
VERTEX
8
0
10
207.384615
20
34.076923
0
VERTEX
8
0
10
210.200000
20
26.100000
0
VERTEX
8
0
10
213.760000
20
20.820000
0
VERTEX
8
0
10
222.000000
20
12.000000
0
VERTEX
8
0
10
226.911765
20
10.647059
0
VERTEX
8
0
10
238.048780
20
8.439024
0
VERTEX
8
0
10
255.000000
20
7.000000
0
SEQEND
0
ENDSEC
0
EOF
