  0
SECTION
  2
HEADER
  9
$ACADVER
  1
AC1015
  9
$ACADMAINTVER
 70
     6
  9
$DWGCODEPAGE
  3
DOS850
  9
$INSBASE
 10
0.0
 20
0.0
 30
0.0
  9
$EXTMIN
 10
-83.0082
 20
25.3516
 30
1.000000E+20
  9
$EXTMAX
 10
57.1382
 20
105.3882
 30
-1.000000E+20
  9
$LIMMIN
 10
0.0
 20
0.0
  9
$LIMMAX
 10
0.0
 20
0.0
  9
$ORTHOMODE
 70
     0
  9
$REGENMODE
 70
     1
  9
$FILLMODE
 70
     1
  9
$QTEXTMODE
 70
     0
  9
$MIRRTEXT
 70
     1
  9
$LTSCALE
 40
1.0
  9
$ATTMODE
 70
     1
  9
$TEXTSIZE
 40
0.2
  9
$TRACEWID
 40
0.05
  9
$TEXTSTYLE
  7
Standard
  9
$CLAYER
  8
0
  9
$CELTYPE
  6
Continuous
  9
$CECOLOR
 62
   256
  9
$CELTSCALE
 40
1.0
  9
$DISPSILH
 70
     0
  9
$DIMSCALE
 40
1.0
  9
$DIMASZ
 40
0.18
  9
$DIMEXO
 40
0.0625
  9
$DIMDLI
 40
0.38
  9
$DIMRND
 40
0.0
  9
$DIMDLE
 40
0.0
  9
$DIMEXE
 40
0.18
  9
$DIMTP
 40
0.0
  9
$DIMTM
 40
0.0
  9
$DIMTXT
 40
0.18
  9
$DIMCEN
 40
0.09
  9
$DIMTSZ
 40
0.0
  9
$DIMTOL
 70
     0
  9
$DIMLIM
 70
     0
  9
$DIMTIH
 70
     1
  9
$DIMTOH
 70
     1
  9
$DIMSE1
 70
     0
  9
$DIMSE2
 70
     0
  9
$DIMTAD
 70
     0
  9
$DIMZIN
 70
     0
  9
$DIMBLK
  1

  9
$DIMASO
 70
     1
  9
$DIMSHO
 70
     1
  9
$DIMPOST
  1

  9
$DIMAPOST
  1

  9
$DIMALT
 70
     0
  9
$DIMALTD
 70
     2
  9
$DIMALTF
 40
25.4
  9
$DIMLFAC
 40
1.0
  9
$DIMTOFL
 70
     0
  9
$DIMTVP
 40
0.0
  9
$DIMTIX
 70
     0
  9
$DIMSOXD
 70
     0
  9
$DIMSAH
 70
     0
  9
$DIMBLK1
  1

  9
$DIMBLK2
  1

  9
$DIMSTYLE
  2
Standard
  9
$DIMCLRD
 70
     0
  9
$DIMCLRE
 70
     0
  9
$DIMCLRT
 70
     0
  9
$DIMTFAC
 40
1.0
  9
$DIMGAP
 40
0.09
  9
$DIMJUST
 70
     0
  9
$DIMSD1
 70
     0
  9
$DIMSD2
 70
     0
  9
$DIMTOLJ
 70
     1
  9
$DIMTZIN
 70
     0
  9
$DIMALTZ
 70
     0
  9
$DIMALTTZ
 70
     0
  9
$DIMUPT
 70
     0
  9
$DIMDEC
 70
     4
  9
$DIMTDEC
 70
     4
  9
$DIMALTU
 70
     2
  9
$DIMALTTD
 70
     2
  9
$DIMTXSTY
  7
Standard
  9
$DIMAUNIT
 70
     0
  9
$DIMADEC
 70
     0
  9
$DIMALTRND
 40
0.0
  9
$DIMAZIN
 70
     0
  9
$DIMDSEP
 70
     0
  9
$DIMATFIT
 70
     3
  9
$DIMFRAC
 70
     0
  9
$DIMLDRBLK
  1

  9
$DIMLUNIT
 70
     2
  9
$DIMLWD
 70
     0
  9
$DIMLWE
 70
     0
  9
$DIMTMOVE
 70
     0
  9
$LUNITS
 70
     2
  9
$LUPREC
 70
     4
  9
$SKETCHINC
 40
0.1
  9
$FILLETRAD
 40
0.0
  9
$AUNITS
 70
     0
  9
$AUPREC
 70
     0
  9
$MENU
  1
acad
  9
$ELEVATION
 40
0.0
  9
$PELEVATION
 40
0.0
  9
$THICKNESS
 40
0.0
  9
$LIMCHECK
 70
     0
  9
$CHAMFERA
 40
0.0
  9
$CHAMFERB
 40
0.0
  9
$CHAMFERC
 40
0.0
  9
$CHAMFERD
 40
0.0
  9
$SKPOLY
 70
     0
  9
$TDCREATE
 40
0.000000000
  9
$TDUCREATE
 40
0.000000000
  9
$TDUPDATE
 40
0.000000000
  9
$TDUUPDATE
 40
0.000000000
  9
$TDINDWG
 40
0.0000000000
  9
$TDUSRTIMER
 40
0.0000000000
  9
$USRTIMER
 70
     1
  9
$ANGBASE
 50
0.0
  9
$ANGDIR
 70
     0
  9
$PDMODE
 70
     0
  9
$PDSIZE
 40
0.0
  9
$PLINEWID
 40
0.0
  9
$SPLFRAME
 70
     0
  9
$SPLINETYPE
 70
     6
  9
$SPLINESEGS
 70
     8
  9
$HANDSEED
  5
35
  9
$SURFTAB1
 70
     6
  9
$SURFTAB2
 70
     6
  9
$SURFTYPE
 70
     6
  9
$SURFU
 70
     6
  9
$SURFV
 70
     6
  9
$UCSBASE
  2

  9
$UCSNAME
  2

  9
$UCSORG
 10
0.0
 20
0.0
 30
0.0
  9
$UCSXDIR
 10
1.0
 20
0.0
 30
0.0
  9
$UCSYDIR
 10
0.0
 20
1.0
 30
0.0
  9
$UCSORTHOREF
  2

  9
$UCSORTHOVIEW
 70
     0
  9
$UCSORGTOP
 10
0.0
 20
0.0
 30
0.0
  9
$UCSORGBOTTOM
 10
0.0
 20
0.0
 30
0.0
  9
$UCSORGLEFT
 10
0.0
 20
0.0
 30
0.0
  9
$UCSORGRIGHT
 10
0.0
 20
0.0
 30
0.0
  9
$UCSORGFRONT
 10
0.0
 20
0.0
 30
0.0
  9
$UCSORGBACK
 10
0.0
 20
0.0
 30
0.0
  9
$PUCSBASE
  2

  9
$PUCSNAME
  2

  9
$PUCSORG
 10
0.0
 20
0.0
 30
0.0
  9
$PUCSXDIR
 10
1.0
 20
0.0
 30
0.0
  9
$PUCSYDIR
 10
0.0
 20
1.0
 30
0.0
  9
$PUCSORTHOREF
  2

  9
$PUCSORTHOVIEW
 70
     0
  9
$PUCSORGTOP
 10
0.0
 20
0.0
 30
0.0
  9
$PUCSORGBOTTOM
 10
0.0
 20
0.0
 30
0.0
  9
$PUCSORGLEFT
 10
0.0
 20
0.0
 30
0.0
  9
$PUCSORGRIGHT
 10
0.0
 20
0.0
 30
0.0
  9
$PUCSORGFRONT
 10
0.0
 20
0.0
 30
0.0
  9
$PUCSORGBACK
 10
0.0
 20
0.0
 30
0.0
  9
$USERI1
 70
     0
  9
$USERI2
 70
     0
  9
$USERI3
 70
     0
  9
$USERI4
 70
     0
  9
$USERI5
 70
     0
  9
$USERR1
 40
0.0
  9
$USERR2
 40
0.0
  9
$USERR3
 40
0.0
  9
$USERR4
 40
0.0
  9
$USERR5
 40
0.0
  9
$WORLDVIEW
 70
     1
  9
$SHADEDGE
 70
     3
  9
$SHADEDIF
 70
    70
  9
$TILEMODE
 70
     1
  9
$MAXACTVP
 70
    16
  9
$PINSBASE
 10
0.0
 20
0.0
 30
0.0
  9
$PLIMCHECK
 70
     0
  9
$PEXTMIN
 10
1.000000E+20
 20
1.000000E+20
 30
1.000000E+20
  9
$PEXTMAX
 10
-1.000000E+20
 20
-1.000000E+20
 30
-1.000000E+20
  9
$PLIMMIN
 10
0.0
 20
0.0
  9
$PLIMMAX
 10
12.0
 20
9.0
  9
$UNITMODE
 70
     0
  9
$VISRETAIN
 70
     0
  9
$PLINEGEN
 70
     1
  9
$PSLTSCALE
 70
     0
  9
$TREEDEPTH
 70
  3020
  9
$CMLSTYLE
  2
Standard
  9
$CMLJUST
 70
     0
  9
$CMLSCALE
 40
1.0
  9
$PROXYGRAPHICS
 70
     0
  9
$MEASUREMENT
 70
     0
  9
$CELWEIGHT
370
     0
  9
$ENDCAPS
280
     0
  9
$JOINSTYLE
280
     0
  9
$LWDISPLAY
290
     0
  9
$INSUNITS
 70
     4
  9
$HYPERLINKBASE
  1

  9
$XEDIT
290
     1
  9
$CEPSNTYPE
380
     0
  9
$PSTYLEMODE
290
     1
  9
$FINGERPRINTGUID
  2

  9
$VERSIONGUID
  2

  9
$EXTNAMES
290
     1
  9
$PSVPSCALE
 40
0.0
  0
ENDSEC
  0
SECTION
  2
CLASSES
  0
CLASS
  1
LWPOLYLINE
  2
AcDbPolyline
  3
AutoCAD 2000
 90
    32768
280
     0
281
     1
  0
CLASS
  1
IMAGE
  2
AcDbRasterImage
  3
ISM
 90
    32895
280
     0
281
     1
  0
CLASS
  1
OLE2FRAME
  2
AcDbOle2Frame
  3
AutoCAD 2000
 90
    32768
280
     0
281
     1
  0
CLASS
  1
HATCH
  2
AcDbHatch
  3
AutoCAD 2000
 90
    32768
280
     0
281
     1
  0
CLASS
  1
DICTIONARYVAR
  2
AcDbDictionaryVar
  3
AutoCAD 2000
 90
    32768
280
     0
281
     0
  0
CLASS
  1
RASTERVARIABLES
  2
AcDbRasterVariables
  3
ISM
 90
    32768
280
     0
281
     0
  0
CLASS
  1
IMAGEDEF
  2
AcDbRasterImageDef
  3
ISM
 90
    32768
280
     0
281
     0
  0
CLASS
  1
IMAGEDEF_REACTOR
  2
AcDbRasterImageDefReactor
  3
ISM
 90
    32769
280
     0
281
     0
  0
CLASS
  1
IDBUFFER
  2
AcDbIdBuffer
  3
AutoCAD 2000
 90
    32768
280
     0
281
     0
  0
CLASS
  1
SPATIAL_FILTER
  2
AcDbSpatialFilter
  3
AutoCAD 2000
 90
    32768
280
     0
281
     0
  0
CLASS
  1
XRECORD
  2
AcDbXrecord
  3
AutoCAD 2000
 90
    32768
280
     0
281
     0
  0
CLASS
  1
SORTENTSTABLE
  2
AcDbSortentsTable
  3
AutoCAD 2000
 90
    32768
280
     0
281
     0
  0
CLASS
  1
LAYER_INDEX
  2
AcDbLayerIndex
  3
AutoCAD 2000
 90
    32768
280
     0
281
     0
  0
CLASS
  1
SPATIAL_INDEX
  2
AcDbSpatialIndex
  3
AutoCAD 2000
 90
    32768
280
     0
281
     0
  0
CLASS
  1
OBJECT_PTR
  2
CAseDLPNTableRecord
  3
"ASE-LPNTableRecord"
 90
    32769
280
     0
281
     0
  0
CLASS
  1
LAYOUT
  2
AcDbLayout
  3
AutoCAD 2000
 90
        0
280
     0
281
     0
  0
CLASS
  1
PLOTSETTINGS
  2
AcDbPlotSettings
  3
AutoCAD 2000
 90
    32768
280
     0
281
     0
  0
CLASS
  1
ACDBDICTIONARYWDFLT
  2
AcDbDictionaryWithDefault
  3
AutoCAD 2000
 90
        0
280
     0
281
     0
  0
CLASS
  1
ACDBPLACEHOLDER
  2
AcDbPlaceHolder
  3
AutoCAD 2000
 90
        0
280
     0
281
     0
  0
CLASS
  1
VBA_PROJECT
  2
AcDbVbaProject
  3
acadvba
 90
    32768
280
     0
281
     0
  0
CLASS
  1
WIPEOUT
  2
AcDbWipeout
  3
WipeOut|AutoCAD Express Tool|expresstools@autodesk.com
 90
    32895
280
     0
281
     1
  0
CLASS
  1
WIPEOUTVARIABLES
  2
AcDbWipeoutVariables
  3
WipeOut|AutoCAD Express Tool|expresstools@autodesk.com
 90
        0
280
     0
281
     0
  0
CLASS
  1
RTEXT
  2
RText
  3
RText|AutoCAD Express Tool|expresstools@autodesk.com
 90
    32768
280
     0
281
     1
  0
CLASS
  1
ARCALIGNEDTEXT
  2
AcDbArcAlignedText
  3
ATEXT|AutoCAD Express Tool|expresstools@autodesk.com
 90
    32768
280
     0
281
     1
  0
ENDSEC
  0
SECTION
  2
TABLES
  0
TABLE
  2
VPORT
  5
7
100
AcDbSymbolTable
 70
     1
  0
VPORT
  5
15
100
AcDbSymbolTableRecord
100
AcDbViewportTableRecord
  2
*ACTIVE
 70
     0
 10
0.0
 20
0.0
 11
1.0
 21
1.0
 12
6.591288
 22
4.579184
 13
0.0
 23
0.0
 14
1.0
 24
1.0
 15
0.0
 25
0.0
 16
0.0
 26
0.0
 36
1.0
 17
0.0
 27
0.0
 37
0.0
 40
9.158369
 41
0.688564
 42
50.0
 43
0.0
 44
0.0
 50
0.0
 51
0.0
 71
     0
 72
   100
 73
     1
 74
     1
 75
     0
 76
     0
 77
     0
 78
     0
281
     0
 65
     0
110
0.0
120
0.0
130
0.0
111
1.0
121
0.0
131
0.0
112
0.0
122
1.0
132
0.0
345
0
346
0
 79
     0
146
0.0
  0
ENDTAB
  0
TABLE
  2
LTYPE
  5
4
100
AcDbSymbolTable
 70
     3
  0
LTYPE
  5
11
100
AcDbSymbolTableRecord
100
AcDbLinetypeTableRecord
  2
ByBlock
 70
    64
  3

 72
    65
 73
     0
 40
0.0
  0
LTYPE
  5
12
100
AcDbSymbolTableRecord
100
AcDbLinetypeTableRecord
  2
ByLayer
 70
    64
  3

 72
    65
 73
     0
 40
0.0
  0
LTYPE
  5
13
100
AcDbSymbolTableRecord
100
AcDbLinetypeTableRecord
  2
Continuous
 70
    64
  3
Solid line
 72
    65
 73
     0
 40
0.0
  0
ENDTAB
  0
TABLE
  2
LAYER
  5
2
100
AcDbSymbolTable
 70
     2
  0
LAYER
  5
14
100
AcDbSymbolTableRecord
100
AcDbLayerTableRecord
  2
0
 70
     0
 62
     7
  6
Continuous
290
     1
370
    -3
390
1D
  0
LAYER
  5
24
100
AcDbSymbolTableRecord
100
AcDbLayerTableRecord
  2
RÚteg 1
 70
     0
 62
     7
  6
Continuous
290
     1
370
    -3
390
1F
  0
ENDTAB
  0
TABLE
  2
STYLE
  5
3
100
AcDbSymbolTable
 70
     1
  0
STYLE
  5
17
100
AcDbSymbolTableRecord
100
AcDbTextStyleTableRecord
  2
Standard
 70
     0
 40
0.0
 41
1.0
 50
0.0
 71
     0
 42
0.0
  3
txt
  4

  0
ENDTAB
  0
TABLE
  2
VIEW
  5
5
100
AcDbSymbolTable
 70
     0
  0
ENDTAB
  0
TABLE
  2
UCS
  5
6
100
AcDbSymbolTable
 70
     0
  0
ENDTAB
  0
TABLE
  2
APPID
  5
8
100
AcDbSymbolTable
 70
     1
  0
APPID
  5
16
100
AcDbSymbolTableRecord
100
AcDbRegAppTableRecord
  2
ACAD
 70
     0
  0
ENDTAB
  0
TABLE
  2
DIMSTYLE
  5
9
100
AcDbSymbolTable
 70
     1
100
AcDbDimStyleTable
 71
     0
  0
DIMSTYLE
105
18
100
AcDbSymbolTableRecord
100
AcDbDimStyleTableRecord
  2
Standard
 70
     0
  3

  4

 40
1.0
 41
0.18
 42
0.0625
 43
0.38
 44
0.18
 45
0.0
 46
0.0
 47
0.0
 48
0.0
 71
     0
 72
     0
 73
     1
 74
     1
 75
     0
 76
     0
 77
     0
 78
     0
 79
     0
140
0.18
141
0.09
142
0.0
143
25.4
144
1.0
145
0.0
146
1.0
147
0.09
148
0.0
170
     0
171
     2
172
     0
173
     0
174
     0
175
     0
176
     0
177
     0
178
     0
179
     0
271
     4
272
     4
273
     2
274
     2
275
     0
276
     0
277
     2
278
    46
279
     0
280
     0
281
     0
282
     0
283
     1
284
     0
285
     0
286
     0
288
     0
340
17
341
0
342
0
343
0
344
0
371
    -2
372
    -2
  0
ENDTAB
  0
TABLE
  2
BLOCK_RECORD
  5
1
100
AcDbSymbolTable
 70
     0
  0
BLOCK_RECORD
  5
A
100
AcDbSymbolTableRecord
100
AcDbBlockTableRecord
  2
*MODEL_SPACE
340
20
  0
BLOCK_RECORD
  5
B
100
AcDbSymbolTableRecord
100
AcDbBlockTableRecord
  2
*PAPER_SPACE
340
21
  0
ENDTAB
  0
ENDSEC
  0
SECTION
  2
BLOCKS
  0
BLOCK
  5
D
100
AcDbEntity
  8
0
100
AcDbBlockBegin
  2
*MODEL_SPACE
 70
     0
 10
0.0
 20
0.0
 30
0.0
  3
*MODEL_SPACE
  1

  0
ENDBLK
  5
E
100
AcDbEntity
  8
0
100
AcDbBlockEnd
  0
BLOCK
  5
F
100
AcDbEntity
 67
     1
  8
0
100
AcDbBlockBegin
  2
*PAPER_SPACE
 70
     0
 10
0.0
 20
0.0
 30
0.0
  3
*PAPER_SPACE
  1

  0
ENDBLK
  5
10
100
AcDbEntity
 67
     1
  8
0
100
AcDbBlockEnd
  0
ENDSEC
  0
SECTION
  2
ENTITIES
  0
SPLINE
  5
25
100
AcDbEntity
  8
RÚteg 1
 62
     7
100
AcDbSpline
210
0.0
220
0.0
230
1.0
 70
     1
 71
     3
 72
    52
 73
    48
 74
     0
 42
0.0000000001
 43
0.0000000001
 40
0.0
 40
0.0
 40
0.0
 40
0.0
 40
0.0833333333333333
 40
0.0833333333333333
 40
0.0833333333333333
 40
0.0833333333333333
 40
0.1666666666666667
 40
0.1666666666666667
 40
0.1666666666666667
 40
0.1666666666666667
 40
0.25
 40
0.25
 40
0.25
 40
0.25
 40
0.3333333333333333
 40
0.3333333333333333
 40
0.3333333333333333
 40
0.3333333333333333
 40
0.4166666666666666
 40
0.4166666666666666
 40
0.4166666666666666
 40
0.4166666666666666
 40
0.4999999999999999
 40
0.4999999999999999
 40
0.4999999999999999
 40
0.4999999999999999
 40
0.5833333333333333
 40
0.5833333333333333
 40
0.5833333333333333
 40
0.5833333333333333
 40
0.6666666666666666
 40
0.6666666666666666
 40
0.6666666666666666
 40
0.6666666666666666
 40
0.75
 40
0.75
 40
0.75
 40
0.75
 40
0.8333333333333334
 40
0.8333333333333334
 40
0.8333333333333334
 40
0.8333333333333334
 40
0.9166666666666667
 40
0.9166666666666667
 40
0.9166666666666667
 40
0.9166666666666667
 40
1.0
 40
1.0
 40
1.0
 40
1.0
 10
-44.785499999999999
 20
57.443100000000001
 30
0.0
 10
-44.723199999999999
 20
57.497900000000001
 30
0.0
 10
-39.9024
 20
56.396299999999997
 30
0.0
 10
-39.463099999999997
 20
56.266100000000002
 30
0.0
 10
-39.463099999999997
 20
56.266100000000002
 30
0.0
 10
-37.738300000000002
 20
55.755299999999998
 30
0.0
 10
-36.027799999999999
 20
55.269100000000002
 30
0.0
 10
-34.334600000000002
 20
54.808500000000002
 30
0.0
 10
-34.334600000000002
 20
54.808500000000002
 30
0.0
 10
-32.624000000000002
 20
54.343400000000003
 30
0.0
 10
-30.918500000000002
 20
53.808100000000003
 30
0.0
 10
-29.188400000000001
 20
53.380600000000001
 30
0.0
 10
-29.188400000000001
 20
53.380600000000001
 30
0.0
 10
-27.385000000000002
 20
52.934899999999999
 30
0.0
 10
-25.6022
 20
52.729599999999998
 30
0.0
 10
-23.829899999999999
 20
52.317900000000002
 30
0.0
 10
-23.829899999999999
 20
52.317900000000002
 30
0.0
 10
-23.623699999999999
 20
52.621600000000001
 30
0.0
 10
-23.084700000000002
 20
53.163400000000003
 30
0.0
 10
-22.361899999999999
 20
53.819299999999998
 30
0.0
 10
-22.361899999999999
 20
53.819299999999998
 30
0.0
 10
-23.595800000000001
 20
48.234699999999997
 30
0.0
 10
-26.554200000000002
 20
43.2971
 30
0.0
 10
-30.650700000000001
 20
39.594700000000003
 30
0.0
 10
-30.650700000000001
 20
39.594700000000003
 30
0.0
 10
-30.462700000000002
 20
40.305700000000002
 30
0.0
 10
-30.249300000000002
 20
40.990400000000001
 30
0.0
 10
-30.0763
 20
41.734000000000002
 30
0.0
 10
-30.0763
 20
41.734000000000002
 30
0.0
 10
-31.285599999999999
 20
43.0443
 30
0.0
 10
-32.319200000000002
 20
44.527200000000001
 30
0.0
 10
-33.616199999999999
 20
45.7682
 30
0.0
 10
-33.616199999999999
 20
45.7682
 30
0.0
 10
-34.925899999999999
 20
47.021599999999999
 30
0.0
 10
-36.139099999999999
 20
48.289700000000003
 30
0.0
 10
-37.403199999999998
 20
49.532600000000002
 30
0.0
 10
-37.403199999999998
 20
49.532600000000002
 30
0.0
 10
-38.6768
 20
50.784999999999997
 30
0.0
 10
-39.882399999999997
 20
52.032699999999998
 30
0.0
 10
-41.195
 20
53.288899999999998
 30
0.0
 10
-41.195
 20
53.288899999999998
 30
0.0
 10
-42.1006
 20
54.155999999999999
 30
0.0
 10
-44.191800000000001
 20
56.853299999999997
 30
0.0
 10
-44.863799999999998
 20
57.3078
 30
0.0
 10
-44.863799999999998
 20
57.3078
 30
0.0
 10
-44.863799999999998
 20
57.3078
 30
0.0
 10
-44.785499999999999
 20
57.443100000000001
 30
0.0
 10
-44.785499999999999
 20
57.443100000000001
 30
0.0
  0
SPLINE
  5
26
100
AcDbEntity
  8
RÚteg 1
 62
     7
100
AcDbSpline
210
0.0
220
0.0
230
1.0
 70
     1
 71
     3
 72
   128
 73
   124
 74
     0
 42
0.0000000001
 43
0.0000000001
 40
0.0
 40
0.0
 40
0.0
 40
0.0
 40
0.032258064516129
 40
0.032258064516129
 40
0.032258064516129
 40
0.032258064516129
 40
0.0645161290322581
 40
0.0645161290322581
 40
0.0645161290322581
 40
0.0645161290322581
 40
0.0967741935483871
 40
0.0967741935483871
 40
0.0967741935483871
 40
0.0967741935483871
 40
0.1290322580645161
 40
0.1290322580645161
 40
0.1290322580645161
 40
0.1290322580645161
 40
0.1612903225806452
 40
0.1612903225806452
 40
0.1612903225806452
 40
0.1612903225806452
 40
0.1935483870967742
 40
0.1935483870967742
 40
0.1935483870967742
 40
0.1935483870967742
 40
0.2258064516129032
 40
0.2258064516129032
 40
0.2258064516129032
 40
0.2258064516129032
 40
0.2580645161290323
 40
0.2580645161290323
 40
0.2580645161290323
 40
0.2580645161290323
 40
0.2903225806451613
 40
0.2903225806451613
 40
0.2903225806451613
 40
0.2903225806451613
 40
0.3225806451612903
 40
0.3225806451612903
 40
0.3225806451612903
 40
0.3225806451612903
 40
0.3548387096774193
 40
0.3548387096774193
 40
0.3548387096774193
 40
0.3548387096774193
 40
0.3870967741935483
 40
0.3870967741935483
 40
0.3870967741935483
 40
0.3870967741935483
 40
0.4193548387096773
 40
0.4193548387096773
 40
0.4193548387096773
 40
0.4193548387096773
 40
0.4516129032258063
 40
0.4516129032258063
 40
0.4516129032258063
 40
0.4516129032258063
 40
0.4838709677419353
 40
0.4838709677419353
 40
0.4838709677419353
 40
0.4838709677419353
 40
0.5161290322580643
 40
0.5161290322580643
 40
0.5161290322580643
 40
0.5161290322580643
 40
0.5483870967741933
 40
0.5483870967741933
 40
0.5483870967741933
 40
0.5483870967741933
 40
0.5806451612903223
 40
0.5806451612903223
 40
0.5806451612903223
 40
0.5806451612903223
 40
0.6129032258064513
 40
0.6129032258064513
 40
0.6129032258064513
 40
0.6129032258064513
 40
0.6451612903225803
 40
0.6451612903225803
 40
0.6451612903225803
 40
0.6451612903225803
 40
0.6774193548387093
 40
0.6774193548387093
 40
0.6774193548387093
 40
0.6774193548387093
 40
0.7096774193548383
 40
0.7096774193548383
 40
0.7096774193548383
 40
0.7096774193548383
 40
0.7419354838709673
 40
0.7419354838709673
 40
0.7419354838709673
 40
0.7419354838709673
 40
0.7741935483870963
 40
0.7741935483870963
 40
0.7741935483870963
 40
0.7741935483870963
 40
0.8064516129032253
 40
0.8064516129032253
 40
0.8064516129032253
 40
0.8064516129032253
 40
0.8387096774193543
 40
0.8387096774193543
 40
0.8387096774193543
 40
0.8387096774193543
 40
0.8709677419354833
 40
0.8709677419354833
 40
0.8709677419354833
 40
0.8709677419354833
 40
0.9032258064516123
 40
0.9032258064516123
 40
0.9032258064516123
 40
0.9032258064516123
 40
0.9354838709677413
 40
0.9354838709677413
 40
0.9354838709677413
 40
0.9354838709677413
 40
0.9677419354838703
 40
0.9677419354838703
 40
0.9677419354838703
 40
0.9677419354838703
 40
1.0
 40
1.0
 40
1.0
 40
1.0
 10
-48.793999999999997
 20
100.3
 30
0.0
 10
-46.739899999999999
 20
100.3
 30
0.0
 10
-45.073999999999998
 20
98.634100000000004
 30
0.0
 10
-45.073999999999998
 20
96.579899999999995
 30
0.0
 10
-45.073999999999998
 20
96.579899999999995
 30
0.0
 10
-45.073999999999998
 20
95.824200000000005
 30
0.0
 10
-45.299700000000001
 20
95.121200000000002
 30
0.0
 10
-45.686799999999998
 20
94.534199999999998
 30
0.0
 10
-45.686799999999998
 20
94.534199999999998
 30
0.0
 10
-45.401499999999999
 20
94.482399999999998
 30
0.0
 10
-45.183500000000002
 20
94.231099999999998
 30
0.0
 10
-45.183500000000002
 20
93.9315
 30
0.0
 10
-45.183500000000002
 20
93.9315
 30
0.0
 10
-45.183500000000002
 20
93.9315
 30
0.0
 10
-45.183500000000002
 20
89.465000000000003
 30
0.0
 10
-45.183500000000002
 20
89.465000000000003
 30
0.0
 10
-45.183500000000002
 20
89.465000000000003
 30
0.0
 10
-42.009599999999999
 20
89.083600000000004
 30
0.0
 10
-38.988
 20
88.206100000000006
 30
0.0
 10
-36.198300000000003
 20
86.912700000000001
 30
0.0
 10
-36.198300000000003
 20
86.912700000000001
 30
0.0
 10
-34.8491
 20
87.505099999999999
 30
0.0
 10
-32.309399999999997
 20
88.678899999999999
 30
0.0
 10
-31.556899999999999
 20
89.320599999999999
 30
0.0
 10
-31.556899999999999
 20
89.320599999999999
 30
0.0
 10
-31.2913
 20
87.823899999999995
 30
0.0
 10
-31.5198
 20
86.058599999999998
 30
0.0
 10
-31.267099999999999
 20
84.026499999999999
 30
0.0
 10
-31.267099999999999
 20
84.026499999999999
 30
0.0
 10
-24.429099999999998
 20
79.0929
 30
0.0
 10
-19.751899999999999
 20
71.349999999999994
 30
0.0
 10
-18.929600000000001
 20
62.489899999999999
 30
0.0
 10
-18.929600000000001
 20
62.489899999999999
 30
0.0
 10
-17.479900000000001
 20
61.388300000000001
 30
0.0
 10
-15.7659
 20
60.551900000000003
 30
0.0
 10
-14.638400000000001
 20
59.558700000000002
 30
0.0
 10
-14.638400000000001
 20
59.558700000000002
 30
0.0
 10
-15.426
 20
59.278599999999997
 30
0.0
 10
-17.1767
 20
58.052500000000002
 30
0.0
 10
-18.947900000000001
 20
56.669899999999998
 30
0.0
 10
-18.947900000000001
 20
56.669899999999998
 30
0.0
 10
-19.8292
 20
47.8459
 30
0.0
 10
-24.535399999999999
 20
40.147300000000001
 30
0.0
 10
-31.384599999999999
 20
35.256700000000002
 30
0.0
 10
-31.384599999999999
 20
35.256700000000002
 30
0.0
 10
-31.6129
 20
33.669699999999999
 30
0.0
 10
-31.834599999999998
 20
31.325500000000002
 30
0.0
 10
-31.797000000000001
 20
30.057500000000001
 30
0.0
 10
-31.797000000000001
 20
30.057500000000001
 30
0.0
 10
-32.646799999999999
 20
30.350100000000001
 30
0.0
 10
-33.624200000000002
 20
31.096800000000002
 30
0.0
 10
-34.432200000000002
 20
31.443100000000001
 30
0.0
 10
-34.432200000000002
 20
31.443100000000001
 30
0.0
 10
-35.186900000000001
 20
31.7666
 30
0.0
 10
-35.7607
 20
32.0364
 30
0.0
 10
-36.468499999999999
 20
32.330199999999998
 30
0.0
 10
-36.468499999999999
 20
32.330199999999998
 30
0.0
 10
-40.228900000000003
 20
30.6326
 30
0.0
 10
-44.401299999999999
 20
29.687899999999999
 30
0.0
 10
-48.793999999999997
 20
29.687899999999999
 30
0.0
 10
-48.793999999999997
 20
29.687899999999999
 30
0.0
 10
-53.284799999999997
 20
29.687899999999999
 30
0.0
 10
-57.544800000000002
 20
30.676500000000001
 30
0.0
 10
-61.369700000000002
 20
32.446399999999997
 30
0.0
 10
-61.369700000000002
 20
32.446399999999997
 30
0.0
 10
-63.381100000000004
 20
31.596
 30
0.0
 10
-65.346999999999994
 20
30.631799999999998
 30
0.0
 10
-66.031499999999994
 20
30.047999999999998
 30
0.0
 10
-66.031499999999994
 20
30.047999999999998
 30
0.0
 10
-66.2971
 20
31.544599999999999
 30
0.0
 10
-66.068600000000004
 20
33.310200000000002
 30
0.0
 10
-66.321299999999994
 20
35.342100000000002
 30
0.0
 10
-66.321299999999994
 20
35.342100000000002
 30
0.0
 10
-73.157899999999998
 20
40.2746
 30
0.0
 10
-77.834599999999995
 20
48.015099999999997
 30
0.0
 10
-78.658199999999994
 20
56.872900000000001
 30
0.0
 10
-78.658199999999994
 20
56.872900000000001
 30
0.0
 10
-79.264700000000005
 20
57.3508
 30
0.0
 10
-79.819500000000005
 20
57.767499999999998
 30
0.0
 10
-80.506100000000004
 20
58.251399999999997
 30
0.0
 10
-80.506100000000004
 20
58.251399999999997
 30
0.0
 10
-81.253
 20
58.777700000000003
 30
0.0
 10
-82.256299999999996
 20
59.198799999999999
 30
0.0
 10
-82.950000000000003
 20
59.809800000000003
 30
0.0
 10
-82.950000000000003
 20
59.809800000000003
 30
0.0
 10
-82.159800000000004
 20
60.090800000000002
 30
0.0
 10
-80.4101
 20
61.3157
 30
0.0
 10
-78.640500000000003
 20
62.697000000000003
 30
0.0
 10
-78.640500000000003
 20
62.697000000000003
 30
0.0
 10
-77.7607
 20
71.512500000000003
 30
0.0
 10
-73.062799999999996
 20
79.205200000000005
 30
0.0
 10
-66.224500000000006
 20
84.096999999999994
 30
0.0
 10
-66.224500000000006
 20
84.096999999999994
 30
0.0
 10
-66.015100000000004
 20
85.755799999999994
 30
0.0
 10
-65.746099999999998
 20
87.790599999999998
 30
0.0
 10
-65.791200000000003
 20
89.3108
 30
0.0
 10
-65.791200000000003
 20
89.3108
 30
0.0
 10
-64.941599999999994
 20
89.018299999999996
 30
0.0
 10
-63.964199999999998
 20
88.271900000000002
 30
0.0
 10
-63.156100000000002
 20
87.925600000000003
 30
0.0
 10
-63.156100000000002
 20
87.925600000000003
 30
0.0
 10
-62.401499999999999
 20
87.602000000000004
 30
0.0
 10
-61.8277
 20
87.331999999999994
 30
0.0
 10
-61.119700000000002
 20
87.038300000000007
 30
0.0
 10
-61.119700000000002
 20
87.038300000000007
 30
0.0
 10
-58.405200000000001
 20
88.263499999999993
 30
0.0
 10
-55.476599999999998
 20
89.096400000000003
 30
0.0
 10
-52.404899999999998
 20
89.465299999999999
 30
0.0
 10
-52.404899999999998
 20
89.465299999999999
 30
0.0
 10
-52.404899999999998
 20
89.465299999999999
 30
0.0
 10
-52.404899999999998
 20
93.9315
 30
0.0
 10
-52.404899999999998
 20
93.9315
 30
0.0
 10
-52.404899999999998
 20
93.9315
 30
0.0
 10
-52.404899999999998
 20
94.231099999999998
 30
0.0
 10
-52.186900000000001
 20
94.482399999999998
 30
0.0
 10
-51.901299999999999
 20
94.534199999999998
 30
0.0
 10
-51.901299999999999
 20
94.534199999999998
 30
0.0
 10
-52.288699999999999
 20
95.121200000000002
 30
0.0
 10
-52.514299999999999
 20
95.824200000000005
 30
0.0
 10
-52.514299999999999
 20
96.579899999999995
 30
0.0
 10
-52.514299999999999
 20
96.579899999999995
 30
0.0
 10
-52.514299999999999
 20
98.634100000000004
 30
0.0
 10
-50.848500000000001
 20
100.3
 30
0.0
 10
-48.793999999999997
 20
100.3
 30
0.0
  0
SPLINE
  5
27
100
AcDbEntity
  8
RÚteg 1
 62
     7
100
AcDbSpline
210
0.0
220
0.0
230
1.0
 70
     1
 71
     3
 72
    20
 73
    16
 74
     0
 42
0.0000000001
 43
0.0000000001
 40
0.0
 40
0.0
 40
0.0
 40
0.0
 40
0.25
 40
0.25
 40
0.25
 40
0.25
 40
0.5
 40
0.5
 40
0.5
 40
0.5
 40
0.75
 40
0.75
 40
0.75
 40
0.75
 40
1.0
 40
1.0
 40
1.0
 40
1.0
 10
-48.793999999999997
 20
98.575100000000006
 30
0.0
 10
-47.692399999999999
 20
98.575100000000006
 30
0.0
 10
-46.798699999999997
 20
97.681799999999996
 30
0.0
 10
-46.798699999999997
 20
96.579899999999995
 30
0.0
 10
-46.798699999999997
 20
96.579899999999995
 30
0.0
 10
-46.798699999999997
 20
95.478099999999998
 30
0.0
 10
-47.692399999999999
 20
94.584599999999995
 30
0.0
 10
-48.793999999999997
 20
94.584599999999995
 30
0.0
 10
-48.793999999999997
 20
94.584599999999995
 30
0.0
 10
-49.895800000000001
 20
94.584599999999995
 30
0.0
 10
-50.789400000000001
 20
95.478099999999998
 30
0.0
 10
-50.789400000000001
 20
96.579899999999995
 30
0.0
 10
-50.789400000000001
 20
96.579899999999995
 30
0.0
 10
-50.789400000000001
 20
97.681799999999996
 30
0.0
 10
-49.895800000000001
 20
98.575100000000006
 30
0.0
 10
-48.793999999999997
 20
98.575100000000006
 30
0.0
  0
SPLINE
  5
28
100
AcDbEntity
  8
RÚteg 1
 62
     7
100
AcDbSpline
210
0.0
220
0.0
230
1.0
 70
     1
 71
     3
 72
    44
 73
    40
 74
     0
 42
0.0000000001
 43
0.0000000001
 40
0.0
 40
0.0
 40
0.0
 40
0.0
 40
0.1
 40
0.1
 40
0.1
 40
0.1
 40
0.2
 40
0.2
 40
0.2
 40
0.2
 40
0.3
 40
0.3
 40
0.3
 40
0.3
 40
0.4
 40
0.4
 40
0.4
 40
0.4
 40
0.5
 40
0.5
 40
0.5
 40
0.5
 40
0.6
 40
0.6
 40
0.6
 40
0.6
 40
0.7
 40
0.7
 40
0.7
 40
0.7
 40
0.7999999999999999
 40
0.7999999999999999
 40
0.7999999999999999
 40
0.7999999999999999
 40
0.8999999999999999
 40
0.8999999999999999
 40
0.8999999999999999
 40
0.8999999999999999
 40
1.0
 40
1.0
 40
1.0
 40
1.0
 10
-22.343299999999999
 20
65.464399999999998
 30
0.0
 10
-22.82
 20
65.918300000000002
 30
0.0
 10
-23.3004
 20
66.399199999999993
 30
0.0
 10
-23.806799999999999
 20
66.936899999999994
 30
0.0
 10
-23.806799999999999
 20
66.936899999999994
 30
0.0
 10
-23.806799999999999
 20
66.936899999999994
 30
0.0
 10
-29.258500000000002
 20
65.911500000000004
 30
0.0
 10
-29.258500000000002
 20
65.911500000000004
 30
0.0
 10
-29.258500000000002
 20
65.911500000000004
 30
0.0
 10
-29.258500000000002
 20
65.911500000000004
 30
0.0
 10
-40.959899999999998
 20
62.5182
 30
0.0
 10
-40.959899999999998
 20
62.5182
 30
0.0
 10
-40.959899999999998
 20
62.5182
 30
0.0
 10
-40.959899999999998
 20
62.5182
 30
0.0
 10
-44.903799999999997
 20
61.858499999999999
 30
0.0
 10
-44.903799999999997
 20
61.858499999999999
 30
0.0
 10
-44.903799999999997
 20
61.858499999999999
 30
0.0
 10
-44.697899999999997
 20
62.382599999999996
 30
0.0
 10
-42.054900000000004
 20
65.364400000000003
 30
0.0
 10
-41.432499999999997
 20
65.906599999999997
 30
0.0
 10
-41.432499999999997
 20
65.906599999999997
 30
0.0
 10
-40.228299999999997
 20
66.955100000000002
 30
0.0
 10
-38.563400000000001
 20
68.530100000000004
 30
0.0
 10
-37.492199999999997
 20
69.681700000000006
 30
0.0
 10
-37.492199999999997
 20
69.681700000000006
 30
0.0
 10
-36.417200000000001
 20
70.837199999999996
 30
0.0
 10
-34.718299999999999
 20
72.407399999999996
 30
0.0
 10
-33.540500000000002
 20
73.450100000000006
 30
0.0
 10
-33.540500000000002
 20
73.450100000000006
 30
0.0
 10
-32.192300000000003
 20
74.644499999999994
 30
0.0
 10
-31.200500000000002
 20
76.318899999999999
 30
0.0
 10
-29.9191
 20
77.501499999999993
 30
0.0
 10
-29.9191
 20
77.501499999999993
 30
0.0
 10
-30.117999999999999
 20
78.253200000000007
 30
0.0
 10
-30.289200000000001
 20
78.934299999999993
 30
0.0
 10
-30.440000000000001
 20
79.580200000000005
 30
0.0
 10
-30.440000000000001
 20
79.580200000000005
 30
0.0
 10
-26.432600000000001
 20
75.880899999999997
 30
0.0
 10
-23.545200000000001
 20
70.987200000000001
 30
0.0
 10
-22.343299999999999
 20
65.464399999999998
 30
0.0
  0
SPLINE
  5
29
100
AcDbEntity
  8
RÚteg 1
 62
     7
100
AcDbSpline
210
0.0
220
0.0
230
1.0
 70
     1
 71
     3
 72
    44
 73
    40
 74
     0
 42
0.0000000001
 43
0.0000000001
 40
0.0
 40
0.0
 40
0.0
 40
0.0
 40
0.1
 40
0.1
 40
0.1
 40
0.1
 40
0.2
 40
0.2
 40
0.2
 40
0.2
 40
0.3
 40
0.3
 40
0.3
 40
0.3
 40
0.4
 40
0.4
 40
0.4
 40
0.4
 40
0.5
 40
0.5
 40
0.5
 40
0.5
 40
0.6
 40
0.6
 40
0.6
 40
0.6
 40
0.7
 40
0.7
 40
0.7
 40
0.7
 40
0.7999999999999999
 40
0.7999999999999999
 40
0.7999999999999999
 40
0.7999999999999999
 40
0.8999999999999999
 40
0.8999999999999999
 40
0.8999999999999999
 40
0.8999999999999999
 40
1.0
 40
1.0
 40
1.0
 40
1.0
 10
-40.508099999999999
 20
85.461699999999993
 30
0.0
 10
-41.207500000000003
 20
85.273300000000006
 30
0.0
 10
-41.920699999999997
 20
85.090699999999998
 30
0.0
 10
-42.639600000000002
 20
84.900300000000001
 30
0.0
 10
-42.639600000000002
 20
84.900300000000001
 30
0.0
 10
-43.023600000000002
 20
83.246099999999998
 30
0.0
 10
-43.924399999999999
 20
81.706699999999998
 30
0.0
 10
-44.333199999999998
 20
79.908799999999999
 30
0.0
 10
-44.333199999999998
 20
79.908799999999999
 30
0.0
 10
-44.7376
 20
78.130099999999999
 30
0.0
 10
-45.321100000000001
 20
76.4101
 30
0.0
 10
-45.687600000000003
 20
74.629599999999996
 30
0.0
 10
-45.687600000000003
 20
74.629599999999996
 30
0.0
 10
-46.070799999999998
 20
72.766999999999996
 30
0.0
 10
-47.883800000000001
 20
65.397800000000004
 30
0.0
 10
-48.777500000000003
 20
64.383399999999995
 30
0.0
 10
-48.777500000000003
 20
64.383399999999995
 30
0.0
 10
-50.511099999999999
 20
67.653000000000006
 30
0.0
 10
-51.592599999999997
 20
74.160399999999996
 30
0.0
 10
-52.728200000000001
 20
78.453199999999995
 30
0.0
 10
-52.728200000000001
 20
78.453199999999995
 30
0.0
 10
-52.728200000000001
 20
78.453199999999995
 30
0.0
 10
-53.0471
 20
79.861000000000004
 30
0.0
 10
-53.0471
 20
79.861000000000004
 30
0.0
 10
-53.0471
 20
79.861000000000004
 30
0.0
 10
-53.0471
 20
79.861000000000004
 30
0.0
 10
-54.804400000000001
 20
85.003200000000007
 30
0.0
 10
-54.804400000000001
 20
85.003200000000007
 30
0.0
 10
-54.804400000000001
 20
85.003200000000007
 30
0.0
 10
-55.25
 20
85.004199999999997
 30
0.0
 10
-56.064399999999999
 20
85.218599999999995
 30
0.0
 10
-56.953899999999997
 20
85.502899999999997
 30
0.0
 10
-56.953899999999997
 20
85.502899999999997
 30
0.0
 10
-54.378700000000002
 20
86.316199999999995
 30
0.0
 10
-51.637700000000002
 20
86.756100000000004
 30
0.0
 10
-48.793999999999997
 20
86.756100000000004
 30
0.0
 10
-48.793999999999997
 20
86.756100000000004
 30
0.0
 10
-45.903799999999997
 20
86.756100000000004
 30
0.0
 10
-43.119900000000001
 20
86.301199999999994
 30
0.0
 10
-40.508099999999999
 20
85.461699999999993
 30
0.0
  0
SPLINE
  5
2A
100
AcDbEntity
  8
RÚteg 1
 62
     7
100
AcDbSpline
210
0.0
220
0.0
230
1.0
 70
     1
 71
     3
 72
    52
 73
    48
 74
     0
 42
0.0000000001
 43
0.0000000001
 40
0.0
 40
0.0
 40
0.0
 40
0.0
 40
0.0833333333333333
 40
0.0833333333333333
 40
0.0833333333333333
 40
0.0833333333333333
 40
0.1666666666666667
 40
0.1666666666666667
 40
0.1666666666666667
 40
0.1666666666666667
 40
0.25
 40
0.25
 40
0.25
 40
0.25
 40
0.3333333333333333
 40
0.3333333333333333
 40
0.3333333333333333
 40
0.3333333333333333
 40
0.4166666666666666
 40
0.4166666666666666
 40
0.4166666666666666
 40
0.4166666666666666
 40
0.4999999999999999
 40
0.4999999999999999
 40
0.4999999999999999
 40
0.4999999999999999
 40
0.5833333333333333
 40
0.5833333333333333
 40
0.5833333333333333
 40
0.5833333333333333
 40
0.6666666666666666
 40
0.6666666666666666
 40
0.6666666666666666
 40
0.6666666666666666
 40
0.75
 40
0.75
 40
0.75
 40
0.75
 40
0.8333333333333334
 40
0.8333333333333334
 40
0.8333333333333334
 40
0.8333333333333334
 40
0.9166666666666667
 40
0.9166666666666667
 40
0.9166666666666667
 40
0.9166666666666667
 40
1.0
 40
1.0
 40
1.0
 40
1.0
 10
-67.000200000000007
 20
79.718100000000007
 30
0.0
 10
-67.162599999999998
 20
79.058400000000006
 30
0.0
 10
-67.336399999999998
 20
78.389799999999994
 30
0.0
 10
-67.512100000000004
 20
77.634200000000007
 30
0.0
 10
-67.512100000000004
 20
77.634200000000007
 30
0.0
 10
-66.309899999999999
 20
76.331699999999998
 30
0.0
 10
-65.182599999999994
 20
74.938999999999993
 30
0.0
 10
-63.966000000000001
 20
73.611000000000004
 30
0.0
 10
-63.966000000000001
 20
73.611000000000004
 30
0.0
 10
-62.784599999999998
 20
72.321299999999994
 30
0.0
 10
-61.414000000000001
 20
71.043800000000005
 30
0.0
 10
-60.185200000000002
 20
69.835899999999995
 30
0.0
 10
-60.185200000000002
 20
69.835899999999995
 30
0.0
 10
-58.9116
 20
68.5839
 30
0.0
 10
-57.706099999999999
 20
67.335899999999995
 30
0.0
 10
-56.3934
 20
66.079599999999999
 30
0.0
 10
-56.3934
 20
66.079599999999999
 30
0.0
 10
-55.507399999999997
 20
65.231300000000005
 30
0.0
 10
-53.366100000000003
 20
62.494599999999998
 30
0.0
 10
-52.724600000000002
 20
62.060899999999997
 30
0.0
 10
-52.724600000000002
 20
62.060899999999997
 30
0.0
 10
-52.724600000000002
 20
62.060899999999997
 30
0.0
 10
-52.825400000000002
 20
61.938600000000001
 30
0.0
 10
-52.825400000000002
 20
61.938600000000001
 30
0.0
 10
-52.825400000000002
 20
61.938600000000001
 30
0.0
 10
-52.863700000000001
 20
61.872599999999998
 30
0.0
 10
-57.685099999999998
 20
62.971299999999999
 30
0.0
 10
-58.125799999999998
 20
63.101300000000002
 30
0.0
 10
-58.125799999999998
 20
63.101300000000002
 30
0.0
 10
-59.863599999999998
 20
63.6143
 30
0.0
 10
-61.548499999999997
 20
64.075500000000005
 30
0.0
 10
-63.254899999999999
 20
64.558199999999999
 30
0.0
 10
-63.254899999999999
 20
64.558199999999999
 30
0.0
 10
-64.941400000000002
 20
65.035200000000003
 30
0.0
 10
-66.686899999999994
 20
65.564400000000006
 30
0.0
 10
-68.400000000000006
 20
65.988
 30
0.0
 10
-68.400000000000006
 20
65.988
 30
0.0
 10
-70.203400000000002
 20
66.433499999999995
 30
0.0
 10
-71.986199999999997
 20
66.639200000000002
 30
0.0
 10
-73.758399999999995
 20
67.0505
 30
0.0
 10
-73.758399999999995
 20
67.0505
 30
0.0
 10
-73.964799999999997
 20
66.746399999999994
 30
0.0
 10
-74.503900000000002
 20
66.204099999999997
 30
0.0
 10
-75.226900000000001
 20
65.548100000000005
 30
0.0
 10
-75.226900000000001
 20
65.548100000000005
 30
0.0
 10
-73.998900000000006
 20
71.1053
 30
0.0
 10
-71.064899999999994
 20
76.022300000000001
 30
0.0
 10
-67.000200000000007
 20
79.718100000000007
 30
0.0
  0
SPLINE
  5
2B
100
AcDbEntity
  8
RÚteg 1
 62
     7
100
AcDbSpline
210
0.0
220
0.0
230
1.0
 70
     1
 71
     3
 72
    52
 73
    48
 74
     0
 42
0.0000000001
 43
0.0000000001
 40
0.0
 40
0.0
 40
0.0
 40
0.0
 40
0.0833333333333333
 40
0.0833333333333333
 40
0.0833333333333333
 40
0.0833333333333333
 40
0.1666666666666667
 40
0.1666666666666667
 40
0.1666666666666667
 40
0.1666666666666667
 40
0.25
 40
0.25
 40
0.25
 40
0.25
 40
0.3333333333333333
 40
0.3333333333333333
 40
0.3333333333333333
 40
0.3333333333333333
 40
0.4166666666666666
 40
0.4166666666666666
 40
0.4166666666666666
 40
0.4166666666666666
 40
0.4999999999999999
 40
0.4999999999999999
 40
0.4999999999999999
 40
0.4999999999999999
 40
0.5833333333333333
 40
0.5833333333333333
 40
0.5833333333333333
 40
0.5833333333333333
 40
0.6666666666666666
 40
0.6666666666666666
 40
0.6666666666666666
 40
0.6666666666666666
 40
0.75
 40
0.75
 40
0.75
 40
0.75
 40
0.8333333333333334
 40
0.8333333333333334
 40
0.8333333333333334
 40
0.8333333333333334
 40
0.9166666666666667
 40
0.9166666666666667
 40
0.9166666666666667
 40
0.9166666666666667
 40
1.0
 40
1.0
 40
1.0
 40
1.0
 10
-75.248000000000005
 20
53.918100000000003
 30
0.0
 10
-74.765199999999993
 20
53.4495
 30
0.0
 10
-74.282600000000002
 20
52.956400000000002
 30
0.0
 10
-73.7791
 20
52.418199999999999
 30
0.0
 10
-73.7791
 20
52.418199999999999
 30
0.0
 10
-73.7791
 20
52.418199999999999
 30
0.0
 10
-69.222200000000001
 20
53.364800000000002
 30
0.0
 10
-69.222200000000001
 20
53.364800000000002
 30
0.0
 10
-69.222200000000001
 20
53.364800000000002
 30
0.0
 10
-69.222200000000001
 20
53.364800000000002
 30
0.0
 10
-65.797499999999999
 20
54.270699999999998
 30
0.0
 10
-65.797499999999999
 20
54.270699999999998
 30
0.0
 10
-65.797499999999999
 20
54.270699999999998
 30
0.0
 10
-63.523699999999998
 20
54.8718
 30
0.0
 10
-61.308500000000002
 20
55.572699999999998
 30
0.0
 10
-59.190899999999999
 20
56.1327
 30
0.0
 10
-59.190899999999999
 20
56.1327
 30
0.0
 10
-58.264200000000002
 20
56.378
 30
0.0
 10
-56.759999999999998
 20
56.8748
 30
0.0
 10
-55.878799999999998
 20
57.000500000000002
 30
0.0
 10
-55.878799999999998
 20
57.000500000000002
 30
0.0
 10
-54.852600000000002
 20
57.147500000000001
 30
0.0
 10
-53.806199999999997
 20
57.213500000000003
 30
0.0
 10
-52.684600000000003
 20
57.509999999999998
 30
0.0
 10
-52.684600000000003
 20
57.509999999999998
 30
0.0
 10
-52.890500000000003
 20
56.985999999999997
 30
0.0
 10
-55.5334
 20
54.004199999999997
 30
0.0
 10
-56.155900000000003
 20
53.4621
 30
0.0
 10
-56.155900000000003
 20
53.4621
 30
0.0
 10
-57.345100000000002
 20
52.426400000000001
 30
0.0
 10
-59.0366
 20
50.825499999999998
 30
0.0
 10
-60.096200000000003
 20
49.686700000000002
 30
0.0
 10
-60.096200000000003
 20
49.686700000000002
 30
0.0
 10
-61.170999999999999
 20
48.531199999999998
 30
0.0
 10
-62.870100000000001
 20
46.961300000000001
 30
0.0
 10
-64.047899999999998
 20
45.918100000000003
 30
0.0
 10
-64.047899999999998
 20
45.918100000000003
 30
0.0
 10
-65.395799999999994
 20
44.7239
 30
0.0
 10
-66.387900000000002
 20
43.049399999999999
 30
0.0
 10
-67.669300000000007
 20
41.866700000000002
 30
0.0
 10
-67.669300000000007
 20
41.866700000000002
 30
0.0
 10
-67.470500000000001
 20
41.115299999999998
 30
0.0
 10
-67.299400000000006
 20
40.434199999999997
 30
0.0
 10
-67.148499999999999
 20
39.788499999999999
 30
0.0
 10
-67.148499999999999
 20
39.788499999999999
 30
0.0
 10
-71.158900000000003
 20
43.490699999999997
 30
0.0
 10
-74.047899999999998
 20
48.389499999999998
 30
0.0
 10
-75.248000000000005
 20
53.918100000000003
 30
0.0
  0
SPLINE
  5
2C
100
AcDbEntity
  8
RÚteg 1
 62
     7
100
AcDbSpline
210
0.0
220
0.0
230
1.0
 70
     1
 71
     3
 72
    48
 73
    44
 74
     0
 42
0.0000000001
 43
0.0000000001
 40
0.0
 40
0.0
 40
0.0
 40
0.0
 40
0.0909090909090909
 40
0.0909090909090909
 40
0.0909090909090909
 40
0.0909090909090909
 40
0.1818181818181818
 40
0.1818181818181818
 40
0.1818181818181818
 40
0.1818181818181818
 40
0.2727272727272727
 40
0.2727272727272727
 40
0.2727272727272727
 40
0.2727272727272727
 40
0.3636363636363637
 40
0.3636363636363637
 40
0.3636363636363637
 40
0.3636363636363637
 40
0.4545454545454546
 40
0.4545454545454546
 40
0.4545454545454546
 40
0.4545454545454546
 40
0.5454545454545455
 40
0.5454545454545455
 40
0.5454545454545455
 40
0.5454545454545455
 40
0.6363636363636365
 40
0.6363636363636365
 40
0.6363636363636365
 40
0.6363636363636365
 40
0.7272727272727274
 40
0.7272727272727274
 40
0.7272727272727274
 40
0.7272727272727274
 40
0.8181818181818183
 40
0.8181818181818183
 40
0.8181818181818183
 40
0.8181818181818183
 40
0.9090909090909093
 40
0.9090909090909093
 40
0.9090909090909093
 40
0.9090909090909093
 40
1.0
 40
1.0
 40
1.0
 40
1.0
 10
-57.265099999999997
 20
33.966700000000003
 30
0.0
 10
-57.176600000000001
 20
33.992199999999997
 30
0.0
 10
-57.091200000000001
 20
34.015999999999998
 30
0.0
 10
-57.010399999999997
 20
34.037399999999998
 30
0.0
 10
-57.010399999999997
 20
34.037399999999998
 30
0.0
 10
-57.010399999999997
 20
34.037399999999998
 30
0.0
 10
-54.869999999999997
 20
34.603700000000003
 30
0.0
 10
-54.869999999999997
 20
34.603700000000003
 30
0.0
 10
-54.869999999999997
 20
34.603700000000003
 30
0.0
 10
-54.869399999999999
 20
34.9268
 30
0.0
 10
-53.453499999999998
 20
38.765900000000002
 30
0.0
 10
-53.217700000000001
 20
39.619
 30
0.0
 10
-53.217700000000001
 20
39.619
 30
0.0
 10
-52.769300000000001
 20
41.240900000000003
 30
0.0
 10
-52.2239
 20
43.146000000000001
 30
0.0
 10
-51.8857
 20
44.820599999999999
 30
0.0
 10
-51.8857
 20
44.820599999999999
 30
0.0
 10
-51.517299999999999
 20
46.645699999999998
 30
0.0
 10
-49.684100000000001
 20
53.993899999999996
 30
0.0
 10
-48.810899999999997
 20
54.985199999999999
 30
0.0
 10
-48.810899999999997
 20
54.985199999999999
 30
0.0
 10
-47.077300000000001
 20
51.715299999999999
 30
0.0
 10
-45.995699999999999
 20
45.207900000000002
 30
0.0
 10
-44.860199999999999
 20
40.915500000000002
 30
0.0
 10
-44.860199999999999
 20
40.915500000000002
 30
0.0
 10
-44.860199999999999
 20
40.915500000000002
 30
0.0
 10
-44.508099999999999
 20
39.402000000000001
 30
0.0
 10
-44.508099999999999
 20
39.402000000000001
 30
0.0
 10
-44.508099999999999
 20
39.402000000000001
 30
0.0
 10
-44.508099999999999
 20
39.402000000000001
 30
0.0
 10
-42.783999999999999
 20
34.365299999999998
 30
0.0
 10
-42.783999999999999
 20
34.365299999999998
 30
0.0
 10
-42.783999999999999
 20
34.365299999999998
 30
0.0
 10
-42.3384
 20
34.3643
 30
0.0
 10
-41.524000000000001
 20
34.150199999999998
 30
0.0
 10
-40.634500000000003
 20
33.865600000000001
 30
0.0
 10
-40.634500000000003
 20
33.865600000000001
 30
0.0
 10
-43.209699999999998
 20
33.052199999999999
 30
0.0
 10
-45.950699999999998
 20
32.612400000000001
 30
0.0
 10
-48.793999999999997
 20
32.612400000000001
 30
0.0
 10
-48.793999999999997
 20
32.612400000000001
 30
0.0
 10
-51.752899999999997
 20
32.612400000000001
 30
0.0
 10
-54.600099999999998
 20
33.088799999999999
 30
0.0
 10
-57.265099999999997
 20
33.966700000000003
 30
0.0
  0
SPLINE
  5
2D
100
AcDbEntity
  8
RÚteg 1
 62
     7
100
AcDbSpline
210
0.0
220
0.0
230
1.0
 70
     1
 71
     3
 72
    52
 73
    48
 74
     0
 42
0.0000000001
 43
0.0000000001
 40
0.0
 40
0.0
 40
0.0
 40
0.0
 40
0.0833333333333333
 40
0.0833333333333333
 40
0.0833333333333333
 40
0.0833333333333333
 40
0.1666666666666667
 40
0.1666666666666667
 40
0.1666666666666667
 40
0.1666666666666667
 40
0.25
 40
0.25
 40
0.25
 40
0.25
 40
0.3333333333333333
 40
0.3333333333333333
 40
0.3333333333333333
 40
0.3333333333333333
 40
0.4166666666666666
 40
0.4166666666666666
 40
0.4166666666666666
 40
0.4166666666666666
 40
0.4999999999999999
 40
0.4999999999999999
 40
0.4999999999999999
 40
0.4999999999999999
 40
0.5833333333333333
 40
0.5833333333333333
 40
0.5833333333333333
 40
0.5833333333333333
 40
0.6666666666666666
 40
0.6666666666666666
 40
0.6666666666666666
 40
0.6666666666666666
 40
0.75
 40
0.75
 40
0.75
 40
0.75
 40
0.8333333333333334
 40
0.8333333333333334
 40
0.8333333333333334
 40
0.8333333333333334
 40
0.9166666666666667
 40
0.9166666666666667
 40
0.9166666666666667
 40
0.9166666666666667
 40
1.0
 40
1.0
 40
1.0
 40
1.0
 10
27.2088
 20
93.044600000000003
 30
0.0
 10
44.0167
 20
91.026700000000005
 30
0.0
 10
57.049999999999997
 20
76.715900000000005
 30
0.0
 10
57.049999999999997
 20
59.365099999999998
 30
0.0
 10
57.049999999999997
 20
59.365099999999998
 30
0.0
 10
57.049999999999997
 20
40.631500000000003
 30
0.0
 10
41.8581
 20
25.439800000000002
 30
0.0
 10
23.1251
 20
25.439800000000002
 30
0.0
 10
23.1251
 20
25.439800000000002
 30
0.0
 10
4.3918999999999997
 20
25.439800000000002
 30
0.0
 10
-10.800000000000001
 20
40.631500000000003
 30
0.0
 10
-10.800000000000001
 20
59.365099999999998
 30
0.0
 10
-10.800000000000001
 20
59.365099999999998
 30
0.0
 10
-10.800000000000001
 20
76.715900000000005
 30
0.0
 10
2.2332999999999998
 20
91.026700000000005
 30
0.0
 10
19.0412
 20
93.044600000000003
 30
0.0
 10
19.0412
 20
93.044600000000003
 30
0.0
 10
19.0412
 20
93.044600000000003
 30
0.0
 10
19.0412
 20
98.097300000000004
 30
0.0
 10
19.0412
 20
98.097300000000004
 30
0.0
 10
19.0412
 20
98.097300000000004
 30
0.0
 10
19.0412
 20
98.436300000000003
 30
0.0
 10
19.2881
 20
98.720399999999998
 30
0.0
 10
19.611000000000001
 20
98.779300000000006
 30
0.0
 10
19.611000000000001
 20
98.779300000000006
 30
0.0
 10
19.172899999999998
 20
99.442999999999998
 30
0.0
 10
18.9176
 20
100.2381
 30
0.0
 10
18.9176
 20
101.0926
 30
0.0
 10
18.9176
 20
101.0926
 30
0.0
 10
18.9176
 20
103.4162
 30
0.0
 10
20.8017
 20
105.3
 30
0.0
 10
23.1251
 20
105.3
 30
0.0
 10
23.1251
 20
105.3
 30
0.0
 10
25.4483
 20
105.3
 30
0.0
 10
27.3324
 20
103.4162
 30
0.0
 10
27.3324
 20
101.0926
 30
0.0
 10
27.3324
 20
101.0926
 30
0.0
 10
27.3324
 20
100.2381
 30
0.0
 10
27.077100000000002
 20
99.442999999999998
 30
0.0
 10
26.639199999999999
 20
98.779300000000006
 30
0.0
 10
26.639199999999999
 20
98.779300000000006
 30
0.0
 10
26.9619
 20
98.720399999999998
 30
0.0
 10
27.2088
 20
98.436300000000003
 30
0.0
 10
27.2088
 20
98.097300000000004
 30
0.0
 10
27.2088
 20
98.097300000000004
 30
0.0
 10
27.2088
 20
98.097300000000004
 30
0.0
 10
27.2088
 20
93.044600000000003
 30
0.0
 10
27.2088
 20
93.044600000000003
 30
0.0
  0
SPLINE
  5
2E
100
AcDbEntity
  8
RÚteg 1
 62
     7
100
AcDbSpline
210
0.0
220
0.0
230
1.0
 70
     1
 71
     3
 72
    20
 73
    16
 74
     0
 42
0.0000000001
 43
0.0000000001
 40
0.0
 40
0.0
 40
0.0
 40
0.0
 40
0.25
 40
0.25
 40
0.25
 40
0.25
 40
0.5
 40
0.5
 40
0.5
 40
0.5
 40
0.75
 40
0.75
 40
0.75
 40
0.75
 40
1.0
 40
1.0
 40
1.0
 40
1.0
 10
23.1251
 20
103.349
 30
0.0
 10
24.371099999999998
 20
103.349
 30
0.0
 10
25.381699999999999
 20
102.33880000000001
 30
0.0
 10
25.381699999999999
 20
101.0926
 30
0.0
 10
25.381699999999999
 20
101.0926
 30
0.0
 10
25.381699999999999
 20
99.846800000000002
 30
0.0
 10
24.371099999999998
 20
98.836200000000005
 30
0.0
 10
23.1251
 20
98.836200000000005
 30
0.0
 10
23.1251
 20
98.836200000000005
 30
0.0
 10
21.878900000000002
 20
98.836200000000005
 30
0.0
 10
20.868300000000001
 20
99.846800000000002
 30
0.0
 10
20.868300000000001
 20
101.0926
 30
0.0
 10
20.868300000000001
 20
101.0926
 30
0.0
 10
20.868300000000001
 20
102.33880000000001
 30
0.0
 10
21.878900000000002
 20
103.349
 30
0.0
 10
23.1251
 20
103.349
 30
0.0
  0
SPLINE
  5
2F
100
AcDbEntity
  8
RÚteg 1
 62
     7
100
AcDbSpline
210
0.0
220
0.0
230
1.0
 70
     1
 71
     3
 72
    40
 73
    36
 74
     0
 42
0.0000000001
 43
0.0000000001
 40
0.0
 40
0.0
 40
0.0
 40
0.0
 40
0.1111111111111111
 40
0.1111111111111111
 40
0.1111111111111111
 40
0.1111111111111111
 40
0.2222222222222222
 40
0.2222222222222222
 40
0.2222222222222222
 40
0.2222222222222222
 40
0.3333333333333333
 40
0.3333333333333333
 40
0.3333333333333333
 40
0.3333333333333333
 40
0.4444444444444444
 40
0.4444444444444444
 40
0.4444444444444444
 40
0.4444444444444444
 40
0.5555555555555556
 40
0.5555555555555556
 40
0.5555555555555556
 40
0.5555555555555556
 40
0.6666666666666667
 40
0.6666666666666667
 40
0.6666666666666667
 40
0.6666666666666667
 40
0.7777777777777779
 40
0.7777777777777779
 40
0.7777777777777779
 40
0.7777777777777779
 40
0.8888888888888891
 40
0.8888888888888891
 40
0.8888888888888891
 40
0.8888888888888891
 40
1.0
 40
1.0
 40
1.0
 40
1.0
 10
49.620399999999997
 20
75.046599999999998
 30
0.0
 10
49.620399999999997
 20
75.046599999999998
 30
0.0
 10
32.642200000000003
 20
68.329800000000006
 30
0.0
 10
32.642200000000003
 20
68.329800000000006
 30
0.0
 10
32.642200000000003
 20
68.329800000000006
 30
0.0
 10
32.642200000000003
 20
68.329800000000006
 30
0.0
 10
38.504100000000001
 20
74.812600000000003
 30
0.0
 10
38.504100000000001
 20
74.812600000000003
 30
0.0
 10
38.504100000000001
 20
74.812600000000003
 30
0.0
 10
38.504100000000001
 20
74.812600000000003
 30
0.0
 10
37.701599999999999
 20
84.557900000000004
 30
0.0
 10
37.701599999999999
 20
84.557900000000004
 30
0.0
 10
37.701599999999999
 20
84.557900000000004
 30
0.0
 10
37.327199999999998
 20
84.526499999999999
 30
0.0
 10
30.3825
 20
81.200199999999995
 30
0.0
 10
29.4285
 20
80.748699999999999
 30
0.0
 10
29.4285
 20
80.748699999999999
 30
0.0
 10
28.562999999999999
 20
80.338300000000004
 30
0.0
 10
28.593499999999999
 20
79.827799999999996
 30
0.0
 10
28.308700000000002
 20
78.810000000000002
 30
0.0
 10
28.308700000000002
 20
78.810000000000002
 30
0.0
 10
28.091899999999999
 20
78.034899999999993
 30
0.0
 10
27.859500000000001
 20
77.308000000000007
 30
0.0
 10
27.602799999999998
 20
76.538200000000003
 30
0.0
 10
27.602799999999998
 20
76.538200000000003
 30
0.0
 10
27.383900000000001
 20
75.883399999999995
 30
0.0
 10
26.3645
 20
72.273300000000006
 30
0.0
 10
26.102900000000002
 20
72.081699999999998
 30
0.0
 10
26.102900000000002
 20
72.081699999999998
 30
0.0
 10
26.102900000000002
 20
72.081699999999998
 30
0.0
 10
23.4894
 20
90.147300000000001
 30
0.0
 10
23.4894
 20
90.147300000000001
 30
0.0
 10
23.4894
 20
90.147300000000001
 30
0.0
 10
34.610100000000003
 20
90.018100000000004
 30
0.0
 10
44.314300000000003
 20
83.990700000000004
 30
0.0
 10
49.620399999999997
 20
75.046599999999998
 30
0.0
  0
SPLINE
  5
30
100
AcDbEntity
  8
RÚteg 1
 62
     7
100
AcDbSpline
210
0.0
220
0.0
230
1.0
 70
     1
 71
     3
 72
    40
 73
    36
 74
     0
 42
0.0000000001
 43
0.0000000001
 40
0.0
 40
0.0
 40
0.0
 40
0.0
 40
0.1111111111111111
 40
0.1111111111111111
 40
0.1111111111111111
 40
0.1111111111111111
 40
0.2222222222222222
 40
0.2222222222222222
 40
0.2222222222222222
 40
0.2222222222222222
 40
0.3333333333333333
 40
0.3333333333333333
 40
0.3333333333333333
 40
0.3333333333333333
 40
0.4444444444444444
 40
0.4444444444444444
 40
0.4444444444444444
 40
0.4444444444444444
 40
0.5555555555555556
 40
0.5555555555555556
 40
0.5555555555555556
 40
0.5555555555555556
 40
0.6666666666666667
 40
0.6666666666666667
 40
0.6666666666666667
 40
0.6666666666666667
 40
0.7777777777777779
 40
0.7777777777777779
 40
0.7777777777777779
 40
0.7777777777777779
 40
0.8888888888888891
 40
0.8888888888888891
 40
0.8888888888888891
 40
0.8888888888888891
 40
1.0
 40
1.0
 40
1.0
 40
1.0
 10
22.745899999999999
 20
90.147099999999995
 30
0.0
 10
22.745899999999999
 20
90.147099999999995
 30
0.0
 10
20.1218
 20
72.085400000000007
 30
0.0
 10
20.1218
 20
72.085400000000007
 30
0.0
 10
20.1218
 20
72.085400000000007
 30
0.0
 10
19.8948
 20
72.266400000000004
 30
0.0
 10
18.824100000000001
 20
75.9923
 30
0.0
 10
18.626899999999999
 20
76.598200000000006
 30
0.0
 10
18.626899999999999
 20
76.598200000000006
 30
0.0
 10
18.368500000000001
 20
77.390900000000002
 30
0.0
 10
18.142800000000001
 20
78.166499999999999
 30
0.0
 10
17.904699999999998
 20
78.934600000000003
 30
0.0
 10
17.904699999999998
 20
78.934600000000003
 30
0.0
 10
17.575900000000001
 20
79.995999999999995
 30
0.0
 10
17.714500000000001
 20
80.348699999999994
 30
0.0
 10
16.7669
 20
80.775099999999995
 30
0.0
 10
16.7669
 20
80.775099999999995
 30
0.0
 10
15.7417
 20
81.236099999999993
 30
0.0
 10
8.9916999999999998
 20
84.521100000000004
 30
0.0
 10
8.5568000000000008
 20
84.557199999999995
 30
0.0
 10
8.5568000000000008
 20
84.557199999999995
 30
0.0
 10
8.5568000000000008
 20
84.557199999999995
 30
0.0
 10
7.7141999999999999
 20
74.821600000000004
 30
0.0
 10
7.7141999999999999
 20
74.821600000000004
 30
0.0
 10
7.7141999999999999
 20
74.821600000000004
 30
0.0
 10
7.7141999999999999
 20
74.821600000000004
 30
0.0
 10
13.639200000000001
 20
68.389899999999997
 30
0.0
 10
13.639200000000001
 20
68.389899999999997
 30
0.0
 10
13.639200000000001
 20
68.389899999999997
 30
0.0
 10
13.639200000000001
 20
68.389899999999997
 30
0.0
 10
-3.3496999999999999
 20
75.081599999999995
 30
0.0
 10
-3.3496999999999999
 20
75.081599999999995
 30
0.0
 10
-3.3496999999999999
 20
75.081599999999995
 30
0.0
 10
1.9585999999999999
 20
84.001599999999996
 30
0.0
 10
11.645799999999999
 20
90.0124
 30
0.0
 10
22.745899999999999
 20
90.147099999999995
 30
0.0
  0
SPLINE
  5
31
100
AcDbEntity
  8
RÚteg 1
 62
     7
100
AcDbSpline
210
0.0
220
0.0
230
1.0
 70
     1
 71
     3
 72
    56
 73
    52
 74
     0
 42
0.0000000001
 43
0.0000000001
 40
0.0
 40
0.0
 40
0.0
 40
0.0
 40
0.0769230769230769
 40
0.0769230769230769
 40
0.0769230769230769
 40
0.0769230769230769
 40
0.1538461538461539
 40
0.1538461538461539
 40
0.1538461538461539
 40
0.1538461538461539
 40
0.2307692307692308
 40
0.2307692307692308
 40
0.2307692307692308
 40
0.2307692307692308
 40
0.3076923076923077
 40
0.3076923076923077
 40
0.3076923076923077
 40
0.3076923076923077
 40
0.3846153846153846
 40
0.3846153846153846
 40
0.3846153846153846
 40
0.3846153846153846
 40
0.4615384615384616
 40
0.4615384615384616
 40
0.4615384615384616
 40
0.4615384615384616
 40
0.5384615384615386
 40
0.5384615384615386
 40
0.5384615384615386
 40
0.5384615384615386
 40
0.6153846153846154
 40
0.6153846153846154
 40
0.6153846153846154
 40
0.6153846153846154
 40
0.6923076923076923
 40
0.6923076923076923
 40
0.6923076923076923
 40
0.6923076923076923
 40
0.7692307692307692
 40
0.7692307692307692
 40
0.7692307692307692
 40
0.7692307692307692
 40
0.846153846153846
 40
0.846153846153846
 40
0.846153846153846
 40
0.846153846153846
 40
0.9230769230769229
 40
0.9230769230769229
 40
0.9230769230769229
 40
0.9230769230769229
 40
1.0
 40
1.0
 40
1.0
 40
1.0
 10
-3.7212000000000001
 20
74.439700000000002
 30
0.0
 10
-3.7212000000000001
 20
74.439700000000002
 30
0.0
 10
10.608000000000001
 20
63.116599999999998
 30
0.0
 10
10.608000000000001
 20
63.116599999999998
 30
0.0
 10
10.608000000000001
 20
63.116599999999998
 30
0.0
 10
9.1591000000000005
 20
63.395800000000001
 30
0.0
 10
7.6660000000000004
 20
63.678199999999997
 30
0.0
 10
6.2862
 20
64.016199999999998
 30
0.0
 10
6.2862
 20
64.016199999999998
 30
0.0
 10
5.4024000000000001
 20
64.232699999999994
 30
0.0
 10
2.7551000000000001
 20
64.918400000000005
 30
0.0
 10
1.9570000000000001
 20
64.918400000000005
 30
0.0
 10
1.9570000000000001
 20
64.918400000000005
 30
0.0
 10
1.8728
 20
64.918400000000005
 30
0.0
 10
-1.6185
 20
62.431399999999996
 30
0.0
 10
-2.0343
 20
62.148600000000002
 30
0.0
 10
-2.0343
 20
62.148600000000002
 30
0.0
 10
-2.6044
 20
61.7605
 30
0.0
 10
-5.6890999999999998
 20
59.531300000000002
 30
0.0
 10
-6.0113000000000003
 20
59.445399999999999
 30
0.0
 10
-6.0113000000000003
 20
59.445399999999999
 30
0.0
 10
-6.0113000000000003
 20
59.445399999999999
 30
0.0
 10
-6.0113000000000003
 20
59.284500000000001
 30
0.0
 10
-6.0113000000000003
 20
59.284500000000001
 30
0.0
 10
-6.0113000000000003
 20
59.284500000000001
 30
0.0
 10
-5.7243000000000004
 20
59.207700000000003
 30
0.0
 10
-2.4900000000000002
 20
56.902799999999999
 30
0.0
 10
-1.9858
 20
56.5488
 30
0.0
 10
-1.9858
 20
56.5488
 30
0.0
 10
-1.6155999999999999
 20
56.289299999999997
 30
0.0
 10
1.8818999999999999
 20
53.811300000000003
 30
0.0
 10
1.9570000000000001
 20
53.811300000000003
 30
0.0
 10
1.9570000000000001
 20
53.811300000000003
 30
0.0
 10
2.7320000000000002
 20
53.811300000000003
 30
0.0
 10
5.4188999999999998
 20
54.501300000000001
 30
0.0
 10
6.2862
 20
54.7136
 30
0.0
 10
6.2862
 20
54.7136
 30
0.0
 10
7.6677999999999997
 20
55.051900000000003
 30
0.0
 10
9.157
 20
55.333599999999997
 30
0.0
 10
10.569000000000001
 20
55.662500000000001
 30
0.0
 10
10.569000000000001
 20
55.662500000000001
 30
0.0
 10
10.569000000000001
 20
55.662500000000001
 30
0.0
 10
-3.7242999999999999
 20
44.295400000000001
 30
0.0
 10
-3.7242999999999999
 20
44.295400000000001
 30
0.0
 10
-3.7242999999999999
 20
44.295400000000001
 30
0.0
 10
-6.2305000000000001
 20
48.750399999999999
 30
0.0
 10
-7.6619000000000002
 20
53.8904
 30
0.0
 10
-7.6619000000000002
 20
59.365099999999998
 30
0.0
 10
-7.6619000000000002
 20
59.365099999999998
 30
0.0
 10
-7.6619000000000002
 20
64.8416
 30
0.0
 10
-6.2294999999999998
 20
69.983800000000002
 30
0.0
 10
-3.7212000000000001
 20
74.439700000000002
 30
0.0
  0
SPLINE
  5
32
100
AcDbEntity
  8
RÚteg 1
 62
     7
100
AcDbSpline
210
0.0
220
0.0
230
1.0
 70
     1
 71
     3
 72
    32
 73
    28
 74
     0
 42
0.0000000001
 43
0.0000000001
 40
0.0
 40
0.0
 40
0.0
 40
0.0
 40
0.1428571428571429
 40
0.1428571428571429
 40
0.1428571428571429
 40
0.1428571428571429
 40
0.2857142857142857
 40
0.2857142857142857
 40
0.2857142857142857
 40
0.2857142857142857
 40
0.4285714285714286
 40
0.4285714285714286
 40
0.4285714285714286
 40
0.4285714285714286
 40
0.5714285714285714
 40
0.5714285714285714
 40
0.5714285714285714
 40
0.5714285714285714
 40
0.7142857142857142
 40
0.7142857142857142
 40
0.7142857142857142
 40
0.7142857142857142
 40
0.857142857142857
 40
0.857142857142857
 40
0.857142857142857
 40
0.857142857142857
 40
1.0
 40
1.0
 40
1.0
 40
1.0
 10
-3.3532999999999999
 20
43.654000000000003
 30
0.0
 10
-3.3532999999999999
 20
43.654000000000003
 30
0.0
 10
13.608000000000001
 20
50.3996
 30
0.0
 10
13.608000000000001
 20
50.3996
 30
0.0
 10
13.608000000000001
 20
50.3996
 30
0.0
 10
13.608000000000001
 20
50.3996
 30
0.0
 10
7.7458
 20
43.917099999999998
 30
0.0
 10
7.7458
 20
43.917099999999998
 30
0.0
 10
7.7458
 20
43.917099999999998
 30
0.0
 10
7.7458
 20
43.917099999999998
 30
0.0
 10
8.5515000000000008
 20
34.172199999999997
 30
0.0
 10
8.5515000000000008
 20
34.172199999999997
 30
0.0
 10
8.5515000000000008
 20
34.172199999999997
 30
0.0
 10
8.5515000000000008
 20
34.172199999999997
 30
0.0
 10
17.479199999999999
 20
38.302300000000002
 30
0.0
 10
17.479199999999999
 20
38.302300000000002
 30
0.0
 10
17.479199999999999
 20
38.302300000000002
 30
0.0
 10
17.479199999999999
 20
38.302300000000002
 30
0.0
 10
20.063800000000001
 20
46.674100000000003
 30
0.0
 10
20.063800000000001
 20
46.674100000000003
 30
0.0
 10
20.063800000000001
 20
46.674100000000003
 30
0.0
 10
20.063800000000001
 20
46.674100000000003
 30
0.0
 10
22.752400000000002
 20
28.582599999999999
 30
0.0
 10
22.752400000000002
 20
28.582599999999999
 30
0.0
 10
22.752400000000002
 20
28.582599999999999
 30
0.0
 10
11.6473
 20
28.714400000000001
 30
0.0
 10
1.9555
 20
34.728299999999997
 30
0.0
 10
-3.3532999999999999
 20
43.654000000000003
 30
0.0
  0
SPLINE
  5
33
100
AcDbEntity
  8
RÚteg 1
 62
     7
100
AcDbSpline
210
0.0
220
0.0
230
1.0
 70
     1
 71
     3
 72
    40
 73
    36
 74
     0
 42
0.0000000001
 43
0.0000000001
 40
0.0
 40
0.0
 40
0.0
 40
0.0
 40
0.1111111111111111
 40
0.1111111111111111
 40
0.1111111111111111
 40
0.1111111111111111
 40
0.2222222222222222
 40
0.2222222222222222
 40
0.2222222222222222
 40
0.2222222222222222
 40
0.3333333333333333
 40
0.3333333333333333
 40
0.3333333333333333
 40
0.3333333333333333
 40
0.4444444444444444
 40
0.4444444444444444
 40
0.4444444444444444
 40
0.4444444444444444
 40
0.5555555555555556
 40
0.5555555555555556
 40
0.5555555555555556
 40
0.5555555555555556
 40
0.6666666666666667
 40
0.6666666666666667
 40
0.6666666666666667
 40
0.6666666666666667
 40
0.7777777777777779
 40
0.7777777777777779
 40
0.7777777777777779
 40
0.7777777777777779
 40
0.8888888888888891
 40
0.8888888888888891
 40
0.8888888888888891
 40
0.8888888888888891
 40
1.0
 40
1.0
 40
1.0
 40
1.0
 10
23.5352
 20
28.583100000000002
 30
0.0
 10
23.5352
 20
28.583100000000002
 30
0.0
 10
26.127199999999998
 20
46.644500000000001
 30
0.0
 10
26.127199999999998
 20
46.644500000000001
 30
0.0
 10
26.127199999999998
 20
46.644500000000001
 30
0.0
 10
26.3552
 20
46.4634
 30
0.0
 10
27.425899999999999
 20
42.737400000000001
 30
0.0
 10
27.623100000000001
 20
42.131599999999999
 30
0.0
 10
27.623100000000001
 20
42.131599999999999
 30
0.0
 10
27.881499999999999
 20
41.338799999999999
 30
0.0
 10
28.107199999999999
 20
40.563400000000001
 30
0.0
 10
28.345199999999998
 20
39.795200000000001
 30
0.0
 10
28.345199999999998
 20
39.795200000000001
 30
0.0
 10
28.674099999999999
 20
38.733699999999999
 30
0.0
 10
28.535499999999999
 20
38.381
 30
0.0
 10
29.482900000000001
 20
37.954900000000002
 30
0.0
 10
29.482900000000001
 20
37.954900000000002
 30
0.0
 10
30.508299999999998
 20
37.493600000000001
 30
0.0
 10
37.258200000000002
 20
34.208799999999997
 30
0.0
 10
37.692799999999998
 20
34.172499999999999
 30
0.0
 10
37.692799999999998
 20
34.172499999999999
 30
0.0
 10
37.692799999999998
 20
34.172499999999999
 30
0.0
 10
38.533499999999997
 20
43.908299999999997
 30
0.0
 10
38.533499999999997
 20
43.908299999999997
 30
0.0
 10
38.533499999999997
 20
43.908299999999997
 30
0.0
 10
38.533499999999997
 20
43.908299999999997
 30
0.0
 10
32.610799999999998
 20
50.3399
 30
0.0
 10
32.610799999999998
 20
50.3399
 30
0.0
 10
32.610799999999998
 20
50.3399
 30
0.0
 10
32.610799999999998
 20
50.3399
 30
0.0
 10
49.599299999999999
 20
43.647500000000001
 30
0.0
 10
49.599299999999999
 20
43.647500000000001
 30
0.0
 10
49.599299999999999
 20
43.647500000000001
 30
0.0
 10
44.2958
 20
34.736199999999997
 30
0.0
 10
34.6218
 20
28.728300000000001
 30
0.0
 10
23.5352
 20
28.583100000000002
 30
0.0
  0
SPLINE
  5
34
100
AcDbEntity
  8
RÚteg 1
 62
     7
100
AcDbSpline
210
0.0
220
0.0
230
1.0
 70
     1
 71
     3
 72
    56
 73
    52
 74
     0
 42
0.0000000001
 43
0.0000000001
 40
0.0
 40
0.0
 40
0.0
 40
0.0
 40
0.0769230769230769
 40
0.0769230769230769
 40
0.0769230769230769
 40
0.0769230769230769
 40
0.1538461538461539
 40
0.1538461538461539
 40
0.1538461538461539
 40
0.1538461538461539
 40
0.2307692307692308
 40
0.2307692307692308
 40
0.2307692307692308
 40
0.2307692307692308
 40
0.3076923076923077
 40
0.3076923076923077
 40
0.3076923076923077
 40
0.3076923076923077
 40
0.3846153846153846
 40
0.3846153846153846
 40
0.3846153846153846
 40
0.3846153846153846
 40
0.4615384615384616
 40
0.4615384615384616
 40
0.4615384615384616
 40
0.4615384615384616
 40
0.5384615384615386
 40
0.5384615384615386
 40
0.5384615384615386
 40
0.5384615384615386
 40
0.6153846153846154
 40
0.6153846153846154
 40
0.6153846153846154
 40
0.6153846153846154
 40
0.6923076923076923
 40
0.6923076923076923
 40
0.6923076923076923
 40
0.6923076923076923
 40
0.7692307692307692
 40
0.7692307692307692
 40
0.7692307692307692
 40
0.7692307692307692
 40
0.846153846153846
 40
0.846153846153846
 40
0.846153846153846
 40
0.846153846153846
 40
0.9230769230769229
 40
0.9230769230769229
 40
0.9230769230769229
 40
0.9230769230769229
 40
1.0
 40
1.0
 40
1.0
 40
1.0
 10
49.971600000000002
 20
44.289999999999999
 30
0.0
 10
49.971600000000002
 20
44.289999999999999
 30
0.0
 10
35.641800000000003
 20
55.613100000000003
 30
0.0
 10
35.641800000000003
 20
55.613100000000003
 30
0.0
 10
35.641800000000003
 20
55.613100000000003
 30
0.0
 10
37.092799999999997
 20
55.333599999999997
 30
0.0
 10
38.5824
 20
55.051900000000003
 30
0.0
 10
39.9636
 20
54.7136
 30
0.0
 10
39.9636
 20
54.7136
 30
0.0
 10
40.831299999999999
 20
54.501300000000001
 30
0.0
 10
43.518099999999997
 20
53.811300000000003
 30
0.0
 10
44.292999999999999
 20
53.811300000000003
 30
0.0
 10
44.292999999999999
 20
53.811300000000003
 30
0.0
 10
44.377099999999999
 20
53.811300000000003
 30
0.0
 10
47.868400000000001
 20
56.298299999999998
 30
0.0
 10
48.284100000000002
 20
56.581200000000003
 30
0.0
 10
48.284100000000002
 20
56.581200000000003
 30
0.0
 10
48.854399999999998
 20
56.969299999999997
 30
0.0
 10
51.939100000000003
 20
59.198399999999999
 30
0.0
 10
52.261299999999999
 20
59.284500000000001
 30
0.0
 10
52.261299999999999
 20
59.284500000000001
 30
0.0
 10
52.261299999999999
 20
59.284500000000001
 30
0.0
 10
52.261299999999999
 20
59.445399999999999
 30
0.0
 10
52.261299999999999
 20
59.445399999999999
 30
0.0
 10
52.261299999999999
 20
59.445399999999999
 30
0.0
 10
51.9741
 20
59.522199999999998
 30
0.0
 10
48.740000000000002
 20
61.826799999999999
 30
0.0
 10
48.235799999999998
 20
62.180999999999997
 30
0.0
 10
48.235799999999998
 20
62.180999999999997
 30
0.0
 10
47.865499999999997
 20
62.4405
 30
0.0
 10
44.368099999999998
 20
64.918400000000005
 30
0.0
 10
44.292999999999999
 20
64.918400000000005
 30
0.0
 10
44.292999999999999
 20
64.918400000000005
 30
0.0
 10
43.494700000000002
 20
64.918400000000005
 30
0.0
 10
40.8476
 20
64.232699999999994
 30
0.0
 10
39.9636
 20
64.016199999999998
 30
0.0
 10
39.9636
 20
64.016199999999998
 30
0.0
 10
38.584000000000003
 20
63.678199999999997
 30
0.0
 10
37.090899999999998
 20
63.395800000000001
 30
0.0
 10
35.641300000000001
 20
63.1173
 30
0.0
 10
35.641300000000001
 20
63.1173
 30
0.0
 10
35.641300000000001
 20
63.1173
 30
0.0
 10
49.971899999999998
 20
74.438500000000005
 30
0.0
 10
49.971899999999998
 20
74.438500000000005
 30
0.0
 10
49.971899999999998
 20
74.438500000000005
 30
0.0
 10
52.479799999999997
 20
69.982699999999994
 30
0.0
 10
53.911900000000003
 20
64.840999999999994
 30
0.0
 10
53.911900000000003
 20
59.365099999999998
 30
0.0
 10
53.911900000000003
 20
59.365099999999998
 30
0.0
 10
53.911900000000003
 20
53.888399999999997
 30
0.0
 10
52.479399999999998
 20
48.745800000000003
 30
0.0
 10
49.971600000000002
 20
44.289999999999999
 30
0.0
  0
ENDSEC
  0
SECTION
  2
OBJECTS
  0
DICTIONARY
  5
19
100
AcDbDictionary
280
     0
281
     1
  3
ACAD_GROUP
350
1A
  3
ACAD_MLINESTYLE
350
1B
  3
ACAD_LAYOUT
350
1E
  3
ACAD_PLOTSETTINGS
350
22
  3
ACAD_PLOTSTYLENAME
350
1F
  3
ACAD_WIPEOUT_VARS
350
23
  0
DICTIONARY
  5
1A
102
{ACAD_REACTORS
330
19
102
}
100
AcDbDictionary
280
     0
281
     1
  0
DICTIONARY
  5
1B
102
{ACAD_REACTORS
330
19
102
}
100
AcDbDictionary
280
     0
281
     1
  3
Standard
350
1C
  0
MLINESTYLE
  5
1C
102
{ACAD_REACTORS
330
1B
102
}
100
AcDbMlineStyle
  2
Standard
 70
     0
  3

 62
     0
 51
90.0
 52
90.0
 71
     2
 49
0.5
 62
   256
  6
BYLAYER
 49
-0.5
 62
   256
  6
BYLAYER
  0
ACDBDICTIONARYWDFLT
  5
1F
102
{ACAD_REACTORS
330
19
102
}
100
AcDbDictionary
281
     1
  3
Normal
350
1D
100
AcDbDictionaryWithDefault
340
1D
  0
ACDBPLACEHOLDER
  5
1D
102
{ACAD_REACTORS
330
1F
102
}
  0
LAYOUT
  5
20
102
{ACAD_REACTORS
330
1E
102
}
100
AcDbPlotSettings
  1

  2

  4

  6

 40
0.0
 41
0.0
 42
0.0
 43
0.0
 44
0.0
 45
0.0
 46
0.0
 47
0.0
 48
0.0
 49
0.0
140
0.0
141
0.0
142
1.0
143
1.0
 70
  1024
 72
     0
 73
     0
 74
     0
  7

 75
     0
147
1.0
148
0.0
149
0.0
100
AcDbLayout
  1
Model
 70
     0
 71
     0
 10
0.0
 20
0.0
 11
0.0
 21
0.0
 12
0.0
 22
0.0
 32
0.0
 14
0.0
 24
0.0
 34
0.0
 15
0.0
 25
0.0
 35
0.0
146
0.0
 13
0.0
 23
0.0
 33
0.0
 16
0.0
 26
0.0
 36
0.0
 17
0.0
 27
0.0
 37
0.0
 76
     0
330
A
331
0
345
0
346
0
  0
LAYOUT
  5
21
102
{ACAD_REACTORS
330
1E
102
}
100
AcDbPlotSettings
  1

  2

  4

  6

 40
0.0
 41
0.0
 42
0.0
 43
0.0
 44
0.0
 45
0.0
 46
0.0
 47
0.0
 48
0.0
 49
0.0
140
0.0
141
0.0
142
1.0
143
1.0
 70
     0
 72
     0
 73
     0
 74
     0
  7

 75
     0
147
1.0
148
0.0
149
0.0
100
AcDbLayout
  1
Layout1
 70
     0
 71
     0
 10
0.0
 20
0.0
 11
0.0
 21
0.0
 12
0.0
 22
0.0
 32
0.0
 14
0.0
 24
0.0
 34
0.0
 15
0.0
 25
0.0
 35
0.0
146
0.0
 13
0.0
 23
0.0
 33
0.0
 16
0.0
 26
0.0
 36
0.0
 17
0.0
 27
0.0
 37
0.0
 76
     0
330
B
331
0
345
0
346
0
  0
DICTIONARY
  5
1E
102
{ACAD_REACTORS
330
19
102
}
100
AcDbDictionary
280
     0
281
     1
  3
Layout1
350
21
  3
Model
350
20
  0
DICTIONARY
  5
22
102
{ACAD_REACTORS
330
19
102
}
100
AcDbDictionary
280
     0
281
     1
  0
WIPEOUTVARIABLES
  5
23
100
AcDbWipeoutVariables
 70
     1
  0
ENDSEC
  0
EOF
