  0
SECTION
  2
HEADER
  9
$ACADVER
  1
AC1015
  9
$ACADMAINTVER
 70
     6
  9
$DWGCODEPAGE
  3
DOS850
  9
$INSBASE
 10
0.0
 20
0.0
 30
0.0
  9
$EXTMIN
 10
-69.0098
 20
-9.7803
 30
1.000000E+20
  9
$EXTMAX
 10
10.9128
 20
86.1444
 30
-1.000000E+20
  9
$LIMMIN
 10
0.0
 20
0.0
  9
$LIMMAX
 10
0.0
 20
0.0
  9
$ORTHOMODE
 70
     0
  9
$REGENMODE
 70
     1
  9
$FILLMODE
 70
     1
  9
$QTEXTMODE
 70
     0
  9
$MIRRTEXT
 70
     1
  9
$LTSCALE
 40
1.0
  9
$ATTMODE
 70
     1
  9
$TEXTSIZE
 40
0.2
  9
$TRACEWID
 40
0.05
  9
$TEXTSTYLE
  7
Standard
  9
$CLAYER
  8
0
  9
$CELTYPE
  6
Continuous
  9
$CECOLOR
 62
   256
  9
$CELTSCALE
 40
1.0
  9
$DISPSILH
 70
     0
  9
$DIMSCALE
 40
1.0
  9
$DIMASZ
 40
0.18
  9
$DIMEXO
 40
0.0625
  9
$DIMDLI
 40
0.38
  9
$DIMRND
 40
0.0
  9
$DIMDLE
 40
0.0
  9
$DIMEXE
 40
0.18
  9
$DIMTP
 40
0.0
  9
$DIMTM
 40
0.0
  9
$DIMTXT
 40
0.18
  9
$DIMCEN
 40
0.09
  9
$DIMTSZ
 40
0.0
  9
$DIMTOL
 70
     0
  9
$DIMLIM
 70
     0
  9
$DIMTIH
 70
     1
  9
$DIMTOH
 70
     1
  9
$DIMSE1
 70
     0
  9
$DIMSE2
 70
     0
  9
$DIMTAD
 70
     0
  9
$DIMZIN
 70
     0
  9
$DIMBLK
  1

  9
$DIMASO
 70
     1
  9
$DIMSHO
 70
     1
  9
$DIMPOST
  1

  9
$DIMAPOST
  1

  9
$DIMALT
 70
     0
  9
$DIMALTD
 70
     2
  9
$DIMALTF
 40
25.4
  9
$DIMLFAC
 40
1.0
  9
$DIMTOFL
 70
     0
  9
$DIMTVP
 40
0.0
  9
$DIMTIX
 70
     0
  9
$DIMSOXD
 70
     0
  9
$DIMSAH
 70
     0
  9
$DIMBLK1
  1

  9
$DIMBLK2
  1

  9
$DIMSTYLE
  2
Standard
  9
$DIMCLRD
 70
     0
  9
$DIMCLRE
 70
     0
  9
$DIMCLRT
 70
     0
  9
$DIMTFAC
 40
1.0
  9
$DIMGAP
 40
0.09
  9
$DIMJUST
 70
     0
  9
$DIMSD1
 70
     0
  9
$DIMSD2
 70
     0
  9
$DIMTOLJ
 70
     1
  9
$DIMTZIN
 70
     0
  9
$DIMALTZ
 70
     0
  9
$DIMALTTZ
 70
     0
  9
$DIMUPT
 70
     0
  9
$DIMDEC
 70
     4
  9
$DIMTDEC
 70
     4
  9
$DIMALTU
 70
     2
  9
$DIMALTTD
 70
     2
  9
$DIMTXSTY
  7
Standard
  9
$DIMAUNIT
 70
     0
  9
$DIMADEC
 70
     0
  9
$DIMALTRND
 40
0.0
  9
$DIMAZIN
 70
     0
  9
$DIMDSEP
 70
     0
  9
$DIMATFIT
 70
     3
  9
$DIMFRAC
 70
     0
  9
$DIMLDRBLK
  1

  9
$DIMLUNIT
 70
     2
  9
$DIMLWD
 70
     0
  9
$DIMLWE
 70
     0
  9
$DIMTMOVE
 70
     0
  9
$LUNITS
 70
     2
  9
$LUPREC
 70
     4
  9
$SKETCHINC
 40
0.1
  9
$FILLETRAD
 40
0.0
  9
$AUNITS
 70
     0
  9
$AUPREC
 70
     0
  9
$MENU
  1
acad
  9
$ELEVATION
 40
0.0
  9
$PELEVATION
 40
0.0
  9
$THICKNESS
 40
0.0
  9
$LIMCHECK
 70
     0
  9
$CHAMFERA
 40
0.0
  9
$CHAMFERB
 40
0.0
  9
$CHAMFERC
 40
0.0
  9
$CHAMFERD
 40
0.0
  9
$SKPOLY
 70
     0
  9
$TDCREATE
 40
0.000000000
  9
$TDUCREATE
 40
0.000000000
  9
$TDUPDATE
 40
0.000000000
  9
$TDUUPDATE
 40
0.000000000
  9
$TDINDWG
 40
0.0000000000
  9
$TDUSRTIMER
 40
0.0000000000
  9
$USRTIMER
 70
     1
  9
$ANGBASE
 50
0.0
  9
$ANGDIR
 70
     0
  9
$PDMODE
 70
     0
  9
$PDSIZE
 40
0.0
  9
$PLINEWID
 40
0.0
  9
$SPLFRAME
 70
     0
  9
$SPLINETYPE
 70
     6
  9
$SPLINESEGS
 70
     8
  9
$HANDSEED
  5
69
  9
$SURFTAB1
 70
     6
  9
$SURFTAB2
 70
     6
  9
$SURFTYPE
 70
     6
  9
$SURFU
 70
     6
  9
$SURFV
 70
     6
  9
$UCSBASE
  2

  9
$UCSNAME
  2

  9
$UCSORG
 10
0.0
 20
0.0
 30
0.0
  9
$UCSXDIR
 10
1.0
 20
0.0
 30
0.0
  9
$UCSYDIR
 10
0.0
 20
1.0
 30
0.0
  9
$UCSORTHOREF
  2

  9
$UCSORTHOVIEW
 70
     0
  9
$UCSORGTOP
 10
0.0
 20
0.0
 30
0.0
  9
$UCSORGBOTTOM
 10
0.0
 20
0.0
 30
0.0
  9
$UCSORGLEFT
 10
0.0
 20
0.0
 30
0.0
  9
$UCSORGRIGHT
 10
0.0
 20
0.0
 30
0.0
  9
$UCSORGFRONT
 10
0.0
 20
0.0
 30
0.0
  9
$UCSORGBACK
 10
0.0
 20
0.0
 30
0.0
  9
$PUCSBASE
  2

  9
$PUCSNAME
  2

  9
$PUCSORG
 10
0.0
 20
0.0
 30
0.0
  9
$PUCSXDIR
 10
1.0
 20
0.0
 30
0.0
  9
$PUCSYDIR
 10
0.0
 20
1.0
 30
0.0
  9
$PUCSORTHOREF
  2

  9
$PUCSORTHOVIEW
 70
     0
  9
$PUCSORGTOP
 10
0.0
 20
0.0
 30
0.0
  9
$PUCSORGBOTTOM
 10
0.0
 20
0.0
 30
0.0
  9
$PUCSORGLEFT
 10
0.0
 20
0.0
 30
0.0
  9
$PUCSORGRIGHT
 10
0.0
 20
0.0
 30
0.0
  9
$PUCSORGFRONT
 10
0.0
 20
0.0
 30
0.0
  9
$PUCSORGBACK
 10
0.0
 20
0.0
 30
0.0
  9
$USERI1
 70
     0
  9
$USERI2
 70
     0
  9
$USERI3
 70
     0
  9
$USERI4
 70
     0
  9
$USERI5
 70
     0
  9
$USERR1
 40
0.0
  9
$USERR2
 40
0.0
  9
$USERR3
 40
0.0
  9
$USERR4
 40
0.0
  9
$USERR5
 40
0.0
  9
$WORLDVIEW
 70
     1
  9
$SHADEDGE
 70
     3
  9
$SHADEDIF
 70
    70
  9
$TILEMODE
 70
     1
  9
$MAXACTVP
 70
    16
  9
$PINSBASE
 10
0.0
 20
0.0
 30
0.0
  9
$PLIMCHECK
 70
     0
  9
$PEXTMIN
 10
1.000000E+20
 20
1.000000E+20
 30
1.000000E+20
  9
$PEXTMAX
 10
-1.000000E+20
 20
-1.000000E+20
 30
-1.000000E+20
  9
$PLIMMIN
 10
0.0
 20
0.0
  9
$PLIMMAX
 10
12.0
 20
9.0
  9
$UNITMODE
 70
     0
  9
$VISRETAIN
 70
     0
  9
$PLINEGEN
 70
     1
  9
$PSLTSCALE
 70
     0
  9
$TREEDEPTH
 70
  3020
  9
$CMLSTYLE
  2
Standard
  9
$CMLJUST
 70
     0
  9
$CMLSCALE
 40
1.0
  9
$PROXYGRAPHICS
 70
     0
  9
$MEASUREMENT
 70
     0
  9
$CELWEIGHT
370
     0
  9
$ENDCAPS
280
     0
  9
$JOINSTYLE
280
     0
  9
$LWDISPLAY
290
     0
  9
$INSUNITS
 70
     4
  9
$HYPERLINKBASE
  1

  9
$XEDIT
290
     1
  9
$CEPSNTYPE
380
     0
  9
$PSTYLEMODE
290
     1
  9
$FINGERPRINTGUID
  2

  9
$VERSIONGUID
  2

  9
$EXTNAMES
290
     1
  9
$PSVPSCALE
 40
0.0
  0
ENDSEC
  0
SECTION
  2
CLASSES
  0
CLASS
  1
LWPOLYLINE
  2
AcDbPolyline
  3
AutoCAD 2000
 90
    32768
280
     0
281
     1
  0
CLASS
  1
IMAGE
  2
AcDbRasterImage
  3
ISM
 90
    32895
280
     0
281
     1
  0
CLASS
  1
OLE2FRAME
  2
AcDbOle2Frame
  3
AutoCAD 2000
 90
    32768
280
     0
281
     1
  0
CLASS
  1
HATCH
  2
AcDbHatch
  3
AutoCAD 2000
 90
    32768
280
     0
281
     1
  0
CLASS
  1
DICTIONARYVAR
  2
AcDbDictionaryVar
  3
AutoCAD 2000
 90
    32768
280
     0
281
     0
  0
CLASS
  1
RASTERVARIABLES
  2
AcDbRasterVariables
  3
ISM
 90
    32768
280
     0
281
     0
  0
CLASS
  1
IMAGEDEF
  2
AcDbRasterImageDef
  3
ISM
 90
    32768
280
     0
281
     0
  0
CLASS
  1
IMAGEDEF_REACTOR
  2
AcDbRasterImageDefReactor
  3
ISM
 90
    32769
280
     0
281
     0
  0
CLASS
  1
IDBUFFER
  2
AcDbIdBuffer
  3
AutoCAD 2000
 90
    32768
280
     0
281
     0
  0
CLASS
  1
SPATIAL_FILTER
  2
AcDbSpatialFilter
  3
AutoCAD 2000
 90
    32768
280
     0
281
     0
  0
CLASS
  1
XRECORD
  2
AcDbXrecord
  3
AutoCAD 2000
 90
    32768
280
     0
281
     0
  0
CLASS
  1
SORTENTSTABLE
  2
AcDbSortentsTable
  3
AutoCAD 2000
 90
    32768
280
     0
281
     0
  0
CLASS
  1
LAYER_INDEX
  2
AcDbLayerIndex
  3
AutoCAD 2000
 90
    32768
280
     0
281
     0
  0
CLASS
  1
SPATIAL_INDEX
  2
AcDbSpatialIndex
  3
AutoCAD 2000
 90
    32768
280
     0
281
     0
  0
CLASS
  1
OBJECT_PTR
  2
CAseDLPNTableRecord
  3
"ASE-LPNTableRecord"
 90
    32769
280
     0
281
     0
  0
CLASS
  1
LAYOUT
  2
AcDbLayout
  3
AutoCAD 2000
 90
        0
280
     0
281
     0
  0
CLASS
  1
PLOTSETTINGS
  2
AcDbPlotSettings
  3
AutoCAD 2000
 90
    32768
280
     0
281
     0
  0
CLASS
  1
ACDBDICTIONARYWDFLT
  2
AcDbDictionaryWithDefault
  3
AutoCAD 2000
 90
        0
280
     0
281
     0
  0
CLASS
  1
ACDBPLACEHOLDER
  2
AcDbPlaceHolder
  3
AutoCAD 2000
 90
        0
280
     0
281
     0
  0
CLASS
  1
VBA_PROJECT
  2
AcDbVbaProject
  3
acadvba
 90
    32768
280
     0
281
     0
  0
CLASS
  1
WIPEOUT
  2
AcDbWipeout
  3
WipeOut|AutoCAD Express Tool|expresstools@autodesk.com
 90
    32895
280
     0
281
     1
  0
CLASS
  1
WIPEOUTVARIABLES
  2
AcDbWipeoutVariables
  3
WipeOut|AutoCAD Express Tool|expresstools@autodesk.com
 90
        0
280
     0
281
     0
  0
CLASS
  1
RTEXT
  2
RText
  3
RText|AutoCAD Express Tool|expresstools@autodesk.com
 90
    32768
280
     0
281
     1
  0
CLASS
  1
ARCALIGNEDTEXT
  2
AcDbArcAlignedText
  3
ATEXT|AutoCAD Express Tool|expresstools@autodesk.com
 90
    32768
280
     0
281
     1
  0
ENDSEC
  0
SECTION
  2
TABLES
  0
TABLE
  2
VPORT
  5
7
100
AcDbSymbolTable
 70
     1
  0
VPORT
  5
15
100
AcDbSymbolTableRecord
100
AcDbViewportTableRecord
  2
*ACTIVE
 70
     0
 10
0.0
 20
0.0
 11
1.0
 21
1.0
 12
6.591288
 22
4.579184
 13
0.0
 23
0.0
 14
1.0
 24
1.0
 15
0.0
 25
0.0
 16
0.0
 26
0.0
 36
1.0
 17
0.0
 27
0.0
 37
0.0
 40
9.158369
 41
0.688564
 42
50.0
 43
0.0
 44
0.0
 50
0.0
 51
0.0
 71
     0
 72
   100
 73
     1
 74
     1
 75
     0
 76
     0
 77
     0
 78
     0
281
     0
 65
     0
110
0.0
120
0.0
130
0.0
111
1.0
121
0.0
131
0.0
112
0.0
122
1.0
132
0.0
345
0
346
0
 79
     0
146
0.0
  0
ENDTAB
  0
TABLE
  2
LTYPE
  5
4
100
AcDbSymbolTable
 70
     3
  0
LTYPE
  5
11
100
AcDbSymbolTableRecord
100
AcDbLinetypeTableRecord
  2
ByBlock
 70
    64
  3

 72
    65
 73
     0
 40
0.0
  0
LTYPE
  5
12
100
AcDbSymbolTableRecord
100
AcDbLinetypeTableRecord
  2
ByLayer
 70
    64
  3

 72
    65
 73
     0
 40
0.0
  0
LTYPE
  5
13
100
AcDbSymbolTableRecord
100
AcDbLinetypeTableRecord
  2
Continuous
 70
    64
  3
Solid line
 72
    65
 73
     0
 40
0.0
  0
ENDTAB
  0
TABLE
  2
LAYER
  5
2
100
AcDbSymbolTable
 70
     2
  0
LAYER
  5
14
100
AcDbSymbolTableRecord
100
AcDbLayerTableRecord
  2
0
 70
     0
 62
     7
  6
Continuous
290
     1
370
    -3
390
1D
  0
LAYER
  5
24
100
AcDbSymbolTableRecord
100
AcDbLayerTableRecord
  2
RÚteg 1
 70
     0
 62
     7
  6
Continuous
290
     1
370
    -3
390
1F
  0
ENDTAB
  0
TABLE
  2
STYLE
  5
3
100
AcDbSymbolTable
 70
     1
  0
STYLE
  5
17
100
AcDbSymbolTableRecord
100
AcDbTextStyleTableRecord
  2
Standard
 70
     0
 40
0.0
 41
1.0
 50
0.0
 71
     0
 42
0.0
  3
txt
  4

  0
ENDTAB
  0
TABLE
  2
VIEW
  5
5
100
AcDbSymbolTable
 70
     0
  0
ENDTAB
  0
TABLE
  2
UCS
  5
6
100
AcDbSymbolTable
 70
     0
  0
ENDTAB
  0
TABLE
  2
APPID
  5
8
100
AcDbSymbolTable
 70
     1
  0
APPID
  5
16
100
AcDbSymbolTableRecord
100
AcDbRegAppTableRecord
  2
ACAD
 70
     0
  0
ENDTAB
  0
TABLE
  2
DIMSTYLE
  5
9
100
AcDbSymbolTable
 70
     1
100
AcDbDimStyleTable
 71
     0
  0
DIMSTYLE
105
18
100
AcDbSymbolTableRecord
100
AcDbDimStyleTableRecord
  2
Standard
 70
     0
  3

  4

 40
1.0
 41
0.18
 42
0.0625
 43
0.38
 44
0.18
 45
0.0
 46
0.0
 47
0.0
 48
0.0
 71
     0
 72
     0
 73
     1
 74
     1
 75
     0
 76
     0
 77
     0
 78
     0
 79
     0
140
0.18
141
0.09
142
0.0
143
25.4
144
1.0
145
0.0
146
1.0
147
0.09
148
0.0
170
     0
171
     2
172
     0
173
     0
174
     0
175
     0
176
     0
177
     0
178
     0
179
     0
271
     4
272
     4
273
     2
274
     2
275
     0
276
     0
277
     2
278
    46
279
     0
280
     0
281
     0
282
     0
283
     1
284
     0
285
     0
286
     0
288
     0
340
17
341
0
342
0
343
0
344
0
371
    -2
372
    -2
  0
ENDTAB
  0
TABLE
  2
BLOCK_RECORD
  5
1
100
AcDbSymbolTable
 70
     0
  0
BLOCK_RECORD
  5
A
100
AcDbSymbolTableRecord
100
AcDbBlockTableRecord
  2
*MODEL_SPACE
340
20
  0
BLOCK_RECORD
  5
B
100
AcDbSymbolTableRecord
100
AcDbBlockTableRecord
  2
*PAPER_SPACE
340
21
  0
ENDTAB
  0
ENDSEC
  0
SECTION
  2
BLOCKS
  0
BLOCK
  5
D
100
AcDbEntity
  8
0
100
AcDbBlockBegin
  2
*MODEL_SPACE
 70
     0
 10
0.0
 20
0.0
 30
0.0
  3
*MODEL_SPACE
  1

  0
ENDBLK
  5
E
100
AcDbEntity
  8
0
100
AcDbBlockEnd
  0
BLOCK
  5
F
100
AcDbEntity
 67
     1
  8
0
100
AcDbBlockBegin
  2
*PAPER_SPACE
 70
     0
 10
0.0
 20
0.0
 30
0.0
  3
*PAPER_SPACE
  1

  0
ENDBLK
  5
10
100
AcDbEntity
 67
     1
  8
0
100
AcDbBlockEnd
  0
ENDSEC
  0
SECTION
  2
ENTITIES
  0
SPLINE
  5
25
100
AcDbEntity
  8
RÚteg 1
 62
     7
100
AcDbSpline
210
0.0
220
0.0
230
1.0
 70
     1
 71
     3
 72
    36
 73
    32
 74
     0
 42
0.0000000001
 43
0.0000000001
 40
0.0
 40
0.0
 40
0.0
 40
0.0
 40
0.125
 40
0.125
 40
0.125
 40
0.125
 40
0.25
 40
0.25
 40
0.25
 40
0.25
 40
0.375
 40
0.375
 40
0.375
 40
0.375
 40
0.5
 40
0.5
 40
0.5
 40
0.5
 40
0.625
 40
0.625
 40
0.625
 40
0.625
 40
0.75
 40
0.75
 40
0.75
 40
0.75
 40
0.875
 40
0.875
 40
0.875
 40
0.875
 40
1.0
 40
1.0
 40
1.0
 40
1.0
 10
-65.422700000000006
 20
15.0107
 30
0.0
 10
-65.422700000000006
 20
15.0107
 30
0.0
 10
-60.228499999999997
 20
21.909600000000001
 30
0.0
 10
-60.228499999999997
 20
21.909600000000001
 30
0.0
 10
-60.228499999999997
 20
21.909600000000001
 30
0.0
 10
-59.993600000000001
 20
21.400300000000001
 30
0.0
 10
-59.746899999999997
 20
20.898
 30
0.0
 10
-59.487900000000003
 20
20.402899999999999
 30
0.0
 10
-59.487900000000003
 20
20.402899999999999
 30
0.0
 10
-59.487900000000003
 20
20.402899999999999
 30
0.0
 10
-62.104599999999998
 20
16.846299999999999
 30
0.0
 10
-62.104599999999998
 20
16.846299999999999
 30
0.0
 10
-62.104599999999998
 20
16.846299999999999
 30
0.0
 10
-62.104599999999998
 20
16.846299999999999
 30
0.0
 10
-57.729999999999997
 20
17.4146
 30
0.0
 10
-57.729999999999997
 20
17.4146
 30
0.0
 10
-57.729999999999997
 20
17.4146
 30
0.0
 10
-57.421399999999998
 20
16.945499999999999
 30
0.0
 10
-57.101100000000002
 20
16.484200000000001
 30
0.0
 10
-56.770800000000001
 20
16.0322
 30
0.0
 10
-56.770800000000001
 20
16.0322
 30
0.0
 10
-57.3797
 20
15.9472
 30
0.0
 10
-57.993400000000001
 20
15.8628
 30
0.0
 10
-58.616100000000003
 20
15.7812
 30
0.0
 10
-58.616100000000003
 20
15.7812
 30
0.0
 10
-59.978200000000001
 20
15.6037
 30
0.0
 10
-64.364099999999993
 20
15.186199999999999
 30
0.0
 10
-65.316000000000003
 20
14.8287
 30
0.0
 10
-65.316000000000003
 20
14.8287
 30
0.0
 10
-65.316000000000003
 20
14.8287
 30
0.0
 10
-65.422700000000006
 20
15.0107
 30
0.0
 10
-65.422700000000006
 20
15.0107
 30
0.0
  0
SPLINE
  5
26
100
AcDbEntity
  8
RÚteg 1
 62
     7
100
AcDbSpline
210
0.0
220
0.0
230
1.0
 70
     1
 71
     3
 72
    20
 73
    16
 74
     0
 42
0.0000000001
 43
0.0000000001
 40
0.0
 40
0.0
 40
0.0
 40
0.0
 40
0.25
 40
0.25
 40
0.25
 40
0.25
 40
0.5
 40
0.5
 40
0.5
 40
0.5
 40
0.75
 40
0.75
 40
0.75
 40
0.75
 40
1.0
 40
1.0
 40
1.0
 40
1.0
 10
-29.3659
 20
84.498599999999996
 30
0.0
 10
-28.224499999999999
 20
84.498599999999996
 30
0.0
 10
-27.297599999999999
 20
83.572400000000002
 30
0.0
 10
-27.297599999999999
 20
82.430300000000003
 30
0.0
 10
-27.297599999999999
 20
82.430300000000003
 30
0.0
 10
-27.297599999999999
 20
81.288600000000002
 30
0.0
 10
-28.224499999999999
 20
80.361999999999995
 30
0.0
 10
-29.3659
 20
80.361999999999995
 30
0.0
 10
-29.3659
 20
80.361999999999995
 30
0.0
 10
-30.507899999999999
 20
80.361999999999995
 30
0.0
 10
-31.4343
 20
81.288600000000002
 30
0.0
 10
-31.4343
 20
82.430300000000003
 30
0.0
 10
-31.4343
 20
82.430300000000003
 30
0.0
 10
-31.4343
 20
83.572400000000002
 30
0.0
 10
-30.507899999999999
 20
84.498599999999996
 30
0.0
 10
-29.3659
 20
84.498599999999996
 30
0.0
  0
SPLINE
  5
27
100
AcDbEntity
  8
RÚteg 1
 62
     7
100
AcDbSpline
210
0.0
220
0.0
230
1.0
 70
     1
 71
     3
 72
   104
 73
   100
 74
     0
 42
0.0000000001
 43
0.0000000001
 40
0.0
 40
0.0
 40
0.0
 40
0.0
 40
0.04
 40
0.04
 40
0.04
 40
0.04
 40
0.08
 40
0.08
 40
0.08
 40
0.08
 40
0.12
 40
0.12
 40
0.12
 40
0.12
 40
0.16
 40
0.16
 40
0.16
 40
0.16
 40
0.2
 40
0.2
 40
0.2
 40
0.2
 40
0.24
 40
0.24
 40
0.24
 40
0.24
 40
0.28
 40
0.28
 40
0.28
 40
0.28
 40
0.32
 40
0.32
 40
0.32
 40
0.32
 40
0.36
 40
0.36
 40
0.36
 40
0.36
 40
0.4
 40
0.4
 40
0.4
 40
0.4
 40
0.44
 40
0.44
 40
0.44
 40
0.44
 40
0.4799999999999999
 40
0.4799999999999999
 40
0.4799999999999999
 40
0.4799999999999999
 40
0.5199999999999999
 40
0.5199999999999999
 40
0.5199999999999999
 40
0.5199999999999999
 40
0.5599999999999999
 40
0.5599999999999999
 40
0.5599999999999999
 40
0.5599999999999999
 40
0.6
 40
0.6
 40
0.6
 40
0.6
 40
0.64
 40
0.64
 40
0.64
 40
0.64
 40
0.6800000000000001
 40
0.6800000000000001
 40
0.6800000000000001
 40
0.6800000000000001
 40
0.7200000000000001
 40
0.7200000000000001
 40
0.7200000000000001
 40
0.7200000000000001
 40
0.7600000000000001
 40
0.7600000000000001
 40
0.7600000000000001
 40
0.7600000000000001
 40
0.8000000000000002
 40
0.8000000000000002
 40
0.8000000000000002
 40
0.8000000000000002
 40
0.8400000000000002
 40
0.8400000000000002
 40
0.8400000000000002
 40
0.8400000000000002
 40
0.8800000000000002
 40
0.8800000000000002
 40
0.8800000000000002
 40
0.8800000000000002
 40
0.9200000000000003
 40
0.9200000000000003
 40
0.9200000000000003
 40
0.9200000000000003
 40
0.9600000000000003
 40
0.9600000000000003
 40
0.9600000000000003
 40
0.9600000000000003
 40
1.0
 40
1.0
 40
1.0
 40
1.0
 10
-29.3429
 20
86.056200000000004
 30
0.0
 10
-27.3293
 20
86.056200000000004
 30
0.0
 10
-25.696999999999999
 20
84.423500000000004
 30
0.0
 10
-25.696999999999999
 20
82.410799999999995
 30
0.0
 10
-25.696999999999999
 20
82.410799999999995
 30
0.0
 10
-25.696999999999999
 20
80.896000000000001
 30
0.0
 10
-26.620899999999999
 20
79.596500000000006
 30
0.0
 10
-27.936499999999999
 20
79.046300000000002
 30
0.0
 10
-27.936499999999999
 20
79.046300000000002
 30
0.0
 10
-27.936499999999999
 20
79.046300000000002
 30
0.0
 10
-24.1907
 20
70.235699999999994
 30
0.0
 10
-24.1907
 20
70.235699999999994
 30
0.0
 10
-24.1907
 20
70.235699999999994
 30
0.0
 10
-15.4125
 20
68.991100000000003
 30
0.0
 10
-7.7027000000000001
 20
64.424999999999997
 30
0.0
 10
-2.3738999999999999
 20
57.849299999999999
 30
0.0
 10
-2.3738999999999999
 20
57.849299999999999
 30
0.0
 10
-2.3738999999999999
 20
57.849299999999999
 30
0.0
 10
10.676600000000001
 20
59.509599999999999
 30
0.0
 10
10.676600000000001
 20
59.509599999999999
 30
0.0
 10
10.676600000000001
 20
59.509599999999999
 30
0.0
 10
10.676600000000001
 20
59.509599999999999
 30
0.0
 10
2.8426
 20
48.959099999999999
 30
0.0
 10
2.8426
 20
48.959099999999999
 30
0.0
 10
2.8426
 20
48.959099999999999
 30
0.0
 10
4.4089999999999998
 20
45.031100000000002
 30
0.0
 10
5.2705000000000002
 20
40.746099999999998
 30
0.0
 10
5.2705000000000002
 20
36.2605
 30
0.0
 10
5.2705000000000002
 20
36.2605
 30
0.0
 10
5.2705000000000002
 20
31.895600000000002
 30
0.0
 10
4.4550999999999998
 20
27.721699999999998
 30
0.0
 10
2.9676999999999998
 20
23.881599999999999
 30
0.0
 10
2.9676999999999998
 20
23.881599999999999
 30
0.0
 10
2.9676999999999998
 20
23.881599999999999
 30
0.0
 10
10.8432
 20
13.6318
 30
0.0
 10
10.8432
 20
13.6318
 30
0.0
 10
10.8432
 20
13.6318
 30
0.0
 10
10.8432
 20
13.6318
 30
0.0
 10
-2.0087999999999999
 20
15.1273
 30
0.0
 10
-2.0087999999999999
 20
15.1273
 30
0.0
 10
-2.0087999999999999
 20
15.1273
 30
0.0
 10
-7.2389999999999999
 20
8.4451999999999998
 30
0.0
 10
-14.8919
 20
3.7515999999999998
 30
0.0
 10
-23.644300000000001
 20
2.3662999999999998
 30
0.0
 10
-23.644300000000001
 20
2.3662999999999998
 30
0.0
 10
-23.644300000000001
 20
2.3662999999999998
 30
0.0
 10
-28.643999999999998
 20
-9.6241000000000003
 30
0.0
 10
-28.643999999999998
 20
-9.6241000000000003
 30
0.0
 10
-28.643999999999998
 20
-9.6241000000000003
 30
0.0
 10
-28.643999999999998
 20
-9.6241000000000003
 30
0.0
 10
-28.8108
 20
-9.6999999999999993
 30
0.0
 10
-28.8108
 20
-9.6999999999999993
 30
0.0
 10
-28.8108
 20
-9.6999999999999993
 30
0.0
 10
-28.8108
 20
-9.6999999999999993
 30
0.0
 10
-33.906599999999997
 20
2.2850999999999999
 30
0.0
 10
-33.906599999999997
 20
2.2850999999999999
 30
0.0
 10
-33.906599999999997
 20
2.2850999999999999
 30
0.0
 10
-42.683599999999998
 20
3.5297000000000001
 30
0.0
 10
-50.393999999999998
 20
8.0955999999999992
 30
0.0
 10
-55.722000000000001
 20
14.6706
 30
0.0
 10
-55.722000000000001
 20
14.6706
 30
0.0
 10
-55.722000000000001
 20
14.6706
 30
0.0
 10
-68.773300000000006
 20
13.011100000000001
 30
0.0
 10
-68.773300000000006
 20
13.011100000000001
 30
0.0
 10
-68.773300000000006
 20
13.011100000000001
 30
0.0
 10
-68.773300000000006
 20
13.011100000000001
 30
0.0
 10
-60.948
 20
23.584199999999999
 30
0.0
 10
-60.948
 20
23.584199999999999
 30
0.0
 10
-60.948
 20
23.584199999999999
 30
0.0
 10
-62.509
 20
27.506
 30
0.0
 10
-63.367199999999997
 20
31.783300000000001
 30
0.0
 10
-63.367199999999997
 20
36.2605
 30
0.0
 10
-63.367199999999997
 20
36.2605
 30
0.0
 10
-63.367199999999997
 20
40.612400000000001
 30
0.0
 10
-62.555799999999998
 20
44.775199999999998
 30
0.0
 10
-61.076900000000002
 20
48.606299999999997
 30
0.0
 10
-61.076900000000002
 20
48.606299999999997
 30
0.0
 10
-61.076900000000002
 20
48.606299999999997
 30
0.0
 10
-68.939899999999994
 20
58.8889
 30
0.0
 10
-68.939899999999994
 20
58.8889
 30
0.0
 10
-68.939899999999994
 20
58.8889
 30
0.0
 10
-68.939899999999994
 20
58.8889
 30
0.0
 10
-56.087899999999998
 20
57.393500000000003
 30
0.0
 10
-56.087899999999998
 20
57.393500000000003
 30
0.0
 10
-56.087899999999998
 20
57.393500000000003
 30
0.0
 10
-50.857599999999998
 20
64.075599999999994
 30
0.0
 10
-43.204599999999999
 20
68.769999999999996
 30
0.0
 10
-34.451599999999999
 20
70.155000000000001
 30
0.0
 10
-34.451599999999999
 20
70.155000000000001
 30
0.0
 10
-34.451599999999999
 20
70.155000000000001
 30
0.0
 10
-30.744499999999999
 20
79.044700000000006
 30
0.0
 10
-30.744499999999999
 20
79.044700000000006
 30
0.0
 10
-30.744499999999999
 20
79.044700000000006
 30
0.0
 10
-32.061500000000002
 20
79.594200000000001
 30
0.0
 10
-32.987900000000003
 20
80.8947
 30
0.0
 10
-32.987900000000003
 20
82.410799999999995
 30
0.0
 10
-32.987900000000003
 20
82.410799999999995
 30
0.0
 10
-32.987900000000003
 20
84.423500000000004
 30
0.0
 10
-31.3552
 20
86.056200000000004
 30
0.0
 10
-29.3429
 20
86.056200000000004
 30
0.0
  0
SPLINE
  5
28
100
AcDbEntity
  8
RÚteg 1
 62
     7
100
AcDbSpline
210
0.0
220
0.0
230
1.0
 70
     1
 71
     3
 72
    20
 73
    16
 74
     0
 42
0.0000000001
 43
0.0000000001
 40
0.0
 40
0.0
 40
0.0
 40
0.0
 40
0.25
 40
0.25
 40
0.25
 40
0.25
 40
0.5
 40
0.5
 40
0.5
 40
0.5
 40
0.75
 40
0.75
 40
0.75
 40
0.75
 40
1.0
 40
1.0
 40
1.0
 40
1.0
 10
-58.028399999999998
 20
24.831800000000001
 30
0.0
 10
-58.028399999999998
 20
24.831800000000001
 30
0.0
 10
-50.296599999999998
 20
35.1008
 30
0.0
 10
-50.296599999999998
 20
35.1008
 30
0.0
 10
-50.296599999999998
 20
35.1008
 30
0.0
 10
-50.296599999999998
 20
35.1008
 30
0.0
 10
-48.613900000000001
 20
35.185699999999997
 30
0.0
 10
-48.613900000000001
 20
35.185699999999997
 30
0.0
 10
-48.613900000000001
 20
35.185699999999997
 30
0.0
 10
-48.613900000000001
 20
35.185699999999997
 30
0.0
 10
-57.3673
 20
23.285900000000002
 30
0.0
 10
-57.3673
 20
23.285900000000002
 30
0.0
 10
-57.3673
 20
23.285900000000002
 30
0.0
 10
-57.600700000000003
 20
23.794699999999999
 30
0.0
 10
-57.821899999999999
 20
24.3095
 30
0.0
 10
-58.028399999999998
 20
24.831800000000001
 30
0.0
  0
SPLINE
  5
29
100
AcDbEntity
  8
RÚteg 1
 62
     7
100
AcDbSpline
210
0.0
220
0.0
230
1.0
 70
     1
 71
     3
 72
    48
 73
    44
 74
     0
 42
0.0000000001
 43
0.0000000001
 40
0.0
 40
0.0
 40
0.0
 40
0.0
 40
0.0909090909090909
 40
0.0909090909090909
 40
0.0909090909090909
 40
0.0909090909090909
 40
0.1818181818181818
 40
0.1818181818181818
 40
0.1818181818181818
 40
0.1818181818181818
 40
0.2727272727272727
 40
0.2727272727272727
 40
0.2727272727272727
 40
0.2727272727272727
 40
0.3636363636363637
 40
0.3636363636363637
 40
0.3636363636363637
 40
0.3636363636363637
 40
0.4545454545454546
 40
0.4545454545454546
 40
0.4545454545454546
 40
0.4545454545454546
 40
0.5454545454545455
 40
0.5454545454545455
 40
0.5454545454545455
 40
0.5454545454545455
 40
0.6363636363636365
 40
0.6363636363636365
 40
0.6363636363636365
 40
0.6363636363636365
 40
0.7272727272727274
 40
0.7272727272727274
 40
0.7272727272727274
 40
0.7272727272727274
 40
0.8181818181818183
 40
0.8181818181818183
 40
0.8181818181818183
 40
0.8181818181818183
 40
0.9090909090909093
 40
0.9090909090909093
 40
0.9090909090909093
 40
0.9090909090909093
 40
1.0
 40
1.0
 40
1.0
 40
1.0
 10
-54.185499999999998
 20
17.875299999999999
 30
0.0
 10
-54.185499999999998
 20
17.875299999999999
 30
0.0
 10
-39.627499999999998
 20
19.767199999999999
 30
0.0
 10
-39.627499999999998
 20
19.767199999999999
 30
0.0
 10
-39.627499999999998
 20
19.767199999999999
 30
0.0
 10
-39.627499999999998
 20
19.767199999999999
 30
0.0
 10
-39.550800000000002
 20
19.5672
 30
0.0
 10
-39.550800000000002
 20
19.5672
 30
0.0
 10
-39.550800000000002
 20
19.5672
 30
0.0
 10
-39.532499999999999
 20
19.5364
 30
0.0
 10
-39.612200000000001
 20
19.544
 30
0.0
 10
-39.631999999999998
 20
19.497
 30
0.0
 10
-39.631999999999998
 20
19.497
 30
0.0
 10
-39.672899999999998
 20
19.4011
 30
0.0
 10
-39.747300000000003
 20
19.3843
 30
0.0
 10
-39.783499999999997
 20
19.337399999999999
 30
0.0
 10
-39.783499999999997
 20
19.337399999999999
 30
0.0
 10
-39.912500000000001
 20
19.1706
 30
0.0
 10
-39.905900000000003
 20
19.160299999999999
 30
0.0
 10
-40.0413
 20
18.944600000000001
 30
0.0
 10
-40.0413
 20
18.944600000000001
 30
0.0
 10
-40.136200000000002
 20
18.793600000000001
 30
0.0
 10
-40.372900000000001
 20
18.378499999999999
 30
0.0
 10
-40.504600000000003
 20
18.274100000000001
 30
0.0
 10
-40.504600000000003
 20
18.274100000000001
 30
0.0
 10
-40.762500000000003
 20
18.068899999999999
 30
0.0
 10
-41.718800000000002
 20
18.040400000000002
 30
0.0
 10
-42.1678
 20
17.982099999999999
 30
0.0
 10
-42.1678
 20
17.982099999999999
 30
0.0
 10
-43.316099999999999
 20
17.831800000000001
 30
0.0
 10
-44.3431
 20
17.664999999999999
 30
0.0
 10
-45.452399999999997
 20
17.533100000000001
 30
0.0
 10
-45.452399999999997
 20
17.533100000000001
 30
0.0
 10
-47.625700000000002
 20
17.274699999999999
 30
0.0
 10
-49.872199999999999
 20
16.926400000000001
 30
0.0
 10
-52.040700000000001
 20
16.668399999999998
 30
0.0
 10
-52.040700000000001
 20
16.668399999999998
 30
0.0
 10
-52.410800000000002
 20
16.624500000000001
 30
0.0
 10
-52.778599999999997
 20
16.578499999999998
 30
0.0
 10
-53.1449
 20
16.530999999999999
 30
0.0
 10
-53.1449
 20
16.530999999999999
 30
0.0
 10
-53.504100000000001
 20
16.9694
 30
0.0
 10
-53.8504
 20
17.418199999999999
 30
0.0
 10
-54.185499999999998
 20
17.875299999999999
 30
0.0
  0
SPLINE
  5
2A
100
AcDbEntity
  8
RÚteg 1
 62
     7
100
AcDbSpline
210
0.0
220
0.0
230
1.0
 70
     1
 71
     3
 72
    28
 73
    24
 74
     0
 42
0.0000000001
 43
0.0000000001
 40
0.0
 40
0.0
 40
0.0
 40
0.0
 40
0.1666666666666667
 40
0.1666666666666667
 40
0.1666666666666667
 40
0.1666666666666667
 40
0.3333333333333333
 40
0.3333333333333333
 40
0.3333333333333333
 40
0.3333333333333333
 40
0.5
 40
0.5
 40
0.5
 40
0.5
 40
0.6666666666666666
 40
0.6666666666666666
 40
0.6666666666666666
 40
0.6666666666666666
 40
0.8333333333333333
 40
0.8333333333333333
 40
0.8333333333333333
 40
0.8333333333333333
 40
1.0
 40
1.0
 40
1.0
 40
1.0
 10
-27.482399999999998
 20
70.542699999999996
 30
0.0
 10
-26.971399999999999
 20
70.518699999999995
 30
0.0
 10
-26.464600000000001
 20
70.484499999999997
 30
0.0
 10
-25.9603
 20
70.439899999999994
 30
0.0
 10
-25.9603
 20
70.439899999999994
 30
0.0
 10
-25.9603
 20
70.439899999999994
 30
0.0
 10
-29.3719
 20
78.428600000000003
 30
0.0
 10
-29.3719
 20
78.428600000000003
 30
0.0
 10
-29.3719
 20
78.428600000000003
 30
0.0
 10
-29.3719
 20
78.428600000000003
 30
0.0
 10
-32.674700000000001
 20
70.388999999999996
 30
0.0
 10
-32.674700000000001
 20
70.388999999999996
 30
0.0
 10
-32.674700000000001
 20
70.388999999999996
 30
0.0
 10
-32.145800000000001
 20
70.444599999999994
 30
0.0
 10
-31.613
 20
70.486900000000006
 30
0.0
 10
-31.077000000000002
 20
70.518600000000006
 30
0.0
 10
-31.077000000000002
 20
70.518600000000006
 30
0.0
 10
-31.077000000000002
 20
70.518600000000006
 30
0.0
 10
-29.32
 20
74.755099999999999
 30
0.0
 10
-29.32
 20
74.755099999999999
 30
0.0
 10
-29.32
 20
74.755099999999999
 30
0.0
 10
-29.32
 20
74.755099999999999
 30
0.0
 10
-27.482399999999998
 20
70.542699999999996
 30
0.0
 10
-27.482399999999998
 20
70.542699999999996
 30
0.0
  0
SPLINE
  5
2B
100
AcDbEntity
  8
RÚteg 1
 62
     7
100
AcDbSpline
210
0.0
220
0.0
230
1.0
 70
     1
 71
     3
 72
    40
 73
    36
 74
     0
 42
0.0000000001
 43
0.0000000001
 40
0.0
 40
0.0
 40
0.0
 40
0.0
 40
0.1111111111111111
 40
0.1111111111111111
 40
0.1111111111111111
 40
0.1111111111111111
 40
0.2222222222222222
 40
0.2222222222222222
 40
0.2222222222222222
 40
0.2222222222222222
 40
0.3333333333333333
 40
0.3333333333333333
 40
0.3333333333333333
 40
0.3333333333333333
 40
0.4444444444444444
 40
0.4444444444444444
 40
0.4444444444444444
 40
0.4444444444444444
 40
0.5555555555555556
 40
0.5555555555555556
 40
0.5555555555555556
 40
0.5555555555555556
 40
0.6666666666666667
 40
0.6666666666666667
 40
0.6666666666666667
 40
0.6666666666666667
 40
0.7777777777777779
 40
0.7777777777777779
 40
0.7777777777777779
 40
0.7777777777777779
 40
0.8888888888888891
 40
0.8888888888888891
 40
0.8888888888888891
 40
0.8888888888888891
 40
1.0
 40
1.0
 40
1.0
 40
1.0
 10
-1.3259000000000001
 20
56.4893
 30
0.0
 10
-0.9999
 20
56.0426
 30
0.0
 10
-0.6835
 20
55.586599999999997
 30
0.0
 10
-0.3781
 20
55.123800000000003
 30
0.0
 10
-0.3781
 20
55.123800000000003
 30
0.0
 10
-0.3781
 20
55.123800000000003
 30
0.0
 10
4.0876999999999999
 20
55.691400000000002
 30
0.0
 10
4.0876999999999999
 20
55.691400000000002
 30
0.0
 10
4.0876999999999999
 20
55.691400000000002
 30
0.0
 10
4.0876999999999999
 20
55.691400000000002
 30
0.0
 10
1.4137999999999999
 20
52.077199999999998
 30
0.0
 10
1.4137999999999999
 20
52.077199999999998
 30
0.0
 10
1.4137999999999999
 20
52.077199999999998
 30
0.0
 10
1.6646000000000001
 20
51.594999999999999
 30
0.0
 10
1.9039999999999999
 20
51.105699999999999
 30
0.0
 10
2.1322000000000001
 20
50.610799999999998
 30
0.0
 10
2.1322000000000001
 20
50.610799999999998
 30
0.0
 10
2.1322000000000001
 20
50.610799999999998
 30
0.0
 10
7.3259999999999996
 20
57.509999999999998
 30
0.0
 10
7.3259999999999996
 20
57.509999999999998
 30
0.0
 10
7.3259999999999996
 20
57.509999999999998
 30
0.0
 10
7.3259999999999996
 20
57.509999999999998
 30
0.0
 10
7.1891999999999996
 20
57.673999999999999
 30
0.0
 10
7.1891999999999996
 20
57.673999999999999
 30
0.0
 10
7.1891999999999996
 20
57.673999999999999
 30
0.0
 10
7.1371000000000002
 20
57.762799999999999
 30
0.0
 10
4.3040000000000003
 20
57.247700000000002
 30
0.0
 10
3.9192
 20
57.200200000000002
 30
0.0
 10
3.9192
 20
57.200200000000002
 30
0.0
 10
2.7711000000000001
 20
57.058799999999998
 30
0.0
 10
1.7408999999999999
 20
56.904699999999998
 30
0.0
 10
0.6313
 20
56.757199999999997
 30
0.0
 10
0.6313
 20
56.757199999999997
 30
0.0
 10
-0.0173
 20
56.671700000000001
 30
0.0
 10
-0.6715
 20
56.5809
 30
0.0
 10
-1.3259000000000001
 20
56.4893
 30
0.0
  0
SPLINE
  5
2C
100
AcDbEntity
  8
RÚteg 1
 62
     7
100
AcDbSpline
210
0.0
220
0.0
230
1.0
 70
     1
 71
     3
 72
    28
 73
    24
 74
     0
 42
0.0000000001
 43
0.0000000001
 40
0.0
 40
0.0
 40
0.0
 40
0.0
 40
0.1666666666666667
 40
0.1666666666666667
 40
0.1666666666666667
 40
0.1666666666666667
 40
0.3333333333333333
 40
0.3333333333333333
 40
0.3333333333333333
 40
0.3333333333333333
 40
0.5
 40
0.5
 40
0.5
 40
0.5
 40
0.6666666666666666
 40
0.6666666666666666
 40
0.6666666666666666
 40
0.6666666666666666
 40
0.8333333333333333
 40
0.8333333333333333
 40
0.8333333333333333
 40
0.8333333333333333
 40
1.0
 40
1.0
 40
1.0
 40
1.0
 10
2.3618000000000001
 20
22.419899999999998
 30
0.0
 10
2.1400999999999999
 20
21.916599999999999
 30
0.0
 10
1.9060999999999999
 20
21.419799999999999
 30
0.0
 10
1.6612
 20
20.9297
 30
0.0
 10
1.6612
 20
20.9297
 30
0.0
 10
1.6612
 20
20.9297
 30
0.0
 10
4.4008000000000003
 20
17.310700000000001
 30
0.0
 10
4.4008000000000003
 20
17.310700000000001
 30
0.0
 10
4.4008000000000003
 20
17.310700000000001
 30
0.0
 10
4.4008000000000003
 20
17.310700000000001
 30
0.0
 10
-0.0845
 20
17.8475
 30
0.0
 10
-0.0845
 20
17.8475
 30
0.0
 10
-0.0845
 20
17.8475
 30
0.0
 10
-0.4018
 20
17.348299999999998
 30
0.0
 10
-0.7321
 20
16.8582
 30
0.0
 10
-1.0741000000000001
 20
16.377400000000002
 30
0.0
 10
-1.0741000000000001
 20
16.377400000000002
 30
0.0
 10
-1.0741000000000001
 20
16.377400000000002
 30
0.0
 10
7.7400000000000002
 20
15.296099999999999
 30
0.0
 10
7.7400000000000002
 20
15.296099999999999
 30
0.0
 10
7.7400000000000002
 20
15.296099999999999
 30
0.0
 10
7.5045000000000002
 20
15.8881
 30
0.0
 10
4.6524000000000001
 20
19.5319
 30
0.0
 10
2.3618000000000001
 20
22.419899999999998
 30
0.0
  0
SPLINE
  5
2D
100
AcDbEntity
  8
RÚteg 1
 62
     7
100
AcDbSpline
210
0.0
220
0.0
230
1.0
 70
     1
 71
     3
 72
    32
 73
    28
 74
     0
 42
0.0000000001
 43
0.0000000001
 40
0.0
 40
0.0
 40
0.0
 40
0.0
 40
0.1428571428571429
 40
0.1428571428571429
 40
0.1428571428571429
 40
0.1428571428571429
 40
0.2857142857142857
 40
0.2857142857142857
 40
0.2857142857142857
 40
0.2857142857142857
 40
0.4285714285714286
 40
0.4285714285714286
 40
0.4285714285714286
 40
0.4285714285714286
 40
0.5714285714285714
 40
0.5714285714285714
 40
0.5714285714285714
 40
0.5714285714285714
 40
0.7142857142857142
 40
0.7142857142857142
 40
0.7142857142857142
 40
0.7142857142857142
 40
0.857142857142857
 40
0.857142857142857
 40
0.857142857142857
 40
0.857142857142857
 40
1.0
 40
1.0
 40
1.0
 40
1.0
 10
-25.421900000000001
 20
2.1313
 30
0.0
 10
-25.936399999999999
 20
2.0777000000000001
 30
0.0
 10
-26.4542
 20
2.0363000000000002
 30
0.0
 10
-26.975100000000001
 20
2.0053999999999998
 30
0.0
 10
-26.975100000000001
 20
2.0053999999999998
 30
0.0
 10
-26.975100000000001
 20
2.0053999999999998
 30
0.0
 10
-28.669
 20
-2.0665
 30
0.0
 10
-28.669
 20
-2.0665
 30
0.0
 10
-28.669
 20
-2.0665
 30
0.0
 10
-28.669
 20
-2.0665
 30
0.0
 10
-28.821400000000001
 20
-2.1257000000000001
 30
0.0
 10
-28.821400000000001
 20
-2.1257000000000001
 30
0.0
 10
-28.821400000000001
 20
-2.1257000000000001
 30
0.0
 10
-28.821400000000001
 20
-2.1257000000000001
 30
0.0
 10
-30.6143
 20
1.9782999999999999
 30
0.0
 10
-30.6143
 20
1.9782999999999999
 30
0.0
 10
-30.6143
 20
1.9782999999999999
 30
0.0
 10
-31.118400000000001
 20
2.0019
 30
0.0
 10
-31.619399999999999
 20
2.0354999999999999
 30
0.0
 10
-32.117699999999999
 20
2.0794000000000001
 30
0.0
 10
-32.117699999999999
 20
2.0794000000000001
 30
0.0
 10
-32.117699999999999
 20
2.0794000000000001
 30
0.0
 10
-28.724799999999998
 20
-5.9077000000000002
 30
0.0
 10
-28.724799999999998
 20
-5.9077000000000002
 30
0.0
 10
-28.724799999999998
 20
-5.9077000000000002
 30
0.0
 10
-28.724799999999998
 20
-5.9077000000000002
 30
0.0
 10
-25.421900000000001
 20
2.1313
 30
0.0
 10
-25.421900000000001
 20
2.1313
 30
0.0
  0
SPLINE
  5
2E
100
AcDbEntity
  8
RÚteg 1
 62
     7
100
AcDbSpline
210
0.0
220
0.0
230
1.0
 70
     1
 71
     3
 72
    28
 73
    24
 74
     0
 42
0.0000000001
 43
0.0000000001
 40
0.0
 40
0.0
 40
0.0
 40
0.0
 40
0.1666666666666667
 40
0.1666666666666667
 40
0.1666666666666667
 40
0.1666666666666667
 40
0.3333333333333333
 40
0.3333333333333333
 40
0.3333333333333333
 40
0.3333333333333333
 40
0.5
 40
0.5
 40
0.5
 40
0.5
 40
0.6666666666666666
 40
0.6666666666666666
 40
0.6666666666666666
 40
0.6666666666666666
 40
0.8333333333333333
 40
0.8333333333333333
 40
0.8333333333333333
 40
0.8333333333333333
 40
1.0
 40
1.0
 40
1.0
 40
1.0
 10
-60.449800000000003
 20
50.121299999999998
 30
0.0
 10
-60.228499999999997
 20
50.621600000000001
 30
0.0
 10
-59.995699999999999
 20
51.115299999999998
 30
0.0
 10
-59.7517
 20
51.602600000000002
 30
0.0
 10
-59.7517
 20
51.602600000000002
 30
0.0
 10
-59.7517
 20
51.602600000000002
 30
0.0
 10
-62.497500000000002
 20
55.210099999999997
 30
0.0
 10
-62.497500000000002
 20
55.210099999999997
 30
0.0
 10
-62.497500000000002
 20
55.210099999999997
 30
0.0
 10
-62.497500000000002
 20
55.210099999999997
 30
0.0
 10
-58.0122
 20
54.673299999999998
 30
0.0
 10
-58.0122
 20
54.673299999999998
 30
0.0
 10
-58.0122
 20
54.673299999999998
 30
0.0
 10
-57.703499999999998
 20
55.158099999999997
 30
0.0
 10
-57.383499999999998
 20
55.634599999999999
 30
0.0
 10
-57.051099999999998
 20
56.102200000000003
 30
0.0
 10
-57.051099999999998
 20
56.102200000000003
 30
0.0
 10
-57.051099999999998
 20
56.102200000000003
 30
0.0
 10
-65.844899999999996
 20
57.156599999999997
 30
0.0
 10
-65.844899999999996
 20
57.156599999999997
 30
0.0
 10
-65.844899999999996
 20
57.156599999999997
 30
0.0
 10
-65.500699999999995
 20
56.348799999999997
 30
0.0
 10
-62.715299999999999
 20
52.925899999999999
 30
0.0
 10
-60.449800000000003
 20
50.121299999999998
 30
0.0
  0
SPLINE
  5
2F
100
AcDbEntity
  8
RÚteg 1
 62
     7
100
AcDbSpline
210
0.0
220
0.0
230
1.0
 70
     1
 71
     3
 72
    24
 73
    20
 74
     0
 42
0.0000000001
 43
0.0000000001
 40
0.0
 40
0.0
 40
0.0
 40
0.0
 40
0.2
 40
0.2
 40
0.2
 40
0.2
 40
0.4
 40
0.4
 40
0.4
 40
0.4
 40
0.6000000000000001
 40
0.6000000000000001
 40
0.6000000000000001
 40
0.6000000000000001
 40
0.8
 40
0.8
 40
0.8
 40
0.8
 40
1.0
 40
1.0
 40
1.0
 40
1.0
 10
-28.992699999999999
 20
67.404300000000006
 30
0.0
 10
-28.550999999999998
 20
67.403400000000005
 30
0.0
 10
-28.112100000000002
 20
67.392399999999995
 30
0.0
 10
-27.675000000000001
 20
67.373000000000005
 30
0.0
 10
-27.675000000000001
 20
67.373000000000005
 30
0.0
 10
-27.675000000000001
 20
67.373000000000005
 30
0.0
 10
-21.037800000000001
 20
52.707099999999997
 30
0.0
 10
-21.037800000000001
 20
52.707099999999997
 30
0.0
 10
-21.037800000000001
 20
52.707099999999997
 30
0.0
 10
-21.037800000000001
 20
52.707099999999997
 30
0.0
 10
-21.789400000000001
 20
51.341500000000003
 30
0.0
 10
-21.789400000000001
 20
51.341500000000003
 30
0.0
 10
-21.789400000000001
 20
51.341500000000003
 30
0.0
 10
-21.789400000000001
 20
51.341500000000003
 30
0.0
 10
-22.033899999999999
 20
51.393500000000003
 30
0.0
 10
-22.033899999999999
 20
51.393500000000003
 30
0.0
 10
-22.033899999999999
 20
51.393500000000003
 30
0.0
 10
-22.033899999999999
 20
51.393500000000003
 30
0.0
 10
-28.992699999999999
 20
67.404300000000006
 30
0.0
 10
-28.992699999999999
 20
67.404300000000006
 30
0.0
  0
SPLINE
  5
30
100
AcDbEntity
  8
RÚteg 1
 62
     7
100
AcDbSpline
210
0.0
220
0.0
230
1.0
 70
     1
 71
     3
 72
    20
 73
    16
 74
     0
 42
0.0000000001
 43
0.0000000001
 40
0.0
 40
0.0
 40
0.0
 40
0.0
 40
0.25
 40
0.25
 40
0.25
 40
0.25
 40
0.5
 40
0.5
 40
0.5
 40
0.5
 40
0.75
 40
0.75
 40
0.75
 40
0.75
 40
1.0
 40
1.0
 40
1.0
 40
1.0
 10
-26.049800000000001
 20
67.2607
 30
0.0
 10
-25.536799999999999
 20
67.212400000000002
 30
0.0
 10
-25.028700000000001
 20
67.150099999999995
 30
0.0
 10
-24.5243
 20
67.076899999999995
 30
0.0
 10
-24.5243
 20
67.076899999999995
 30
0.0
 10
-24.5243
 20
67.076899999999995
 30
0.0
 10
-19.461500000000001
 20
55.223199999999999
 30
0.0
 10
-19.461500000000001
 20
55.223199999999999
 30
0.0
 10
-19.461500000000001
 20
55.223199999999999
 30
0.0
 10
-19.461500000000001
 20
55.223199999999999
 30
0.0
 10
-20.180399999999999
 20
53.808100000000003
 30
0.0
 10
-20.180399999999999
 20
53.808100000000003
 30
0.0
 10
-20.180399999999999
 20
53.808100000000003
 30
0.0
 10
-20.180399999999999
 20
53.808100000000003
 30
0.0
 10
-26.049800000000001
 20
67.2607
 30
0.0
 10
-26.049800000000001
 20
67.2607
 30
0.0
  0
SPLINE
  5
31
100
AcDbEntity
  8
RÚteg 1
 62
     7
100
AcDbSpline
210
0.0
220
0.0
230
1.0
 70
     1
 71
     3
 72
    16
 73
    12
 74
     0
 42
0.0000000001
 43
0.0000000001
 40
0.0
 40
0.0
 40
0.0
 40
0.0
 40
0.3333333333333333
 40
0.3333333333333333
 40
0.3333333333333333
 40
0.3333333333333333
 40
0.6666666666666666
 40
0.6666666666666666
 40
0.6666666666666666
 40
0.6666666666666666
 40
1.0
 40
1.0
 40
1.0
 40
1.0
 10
-22.712900000000001
 20
66.759299999999996
 30
0.0
 10
-16.226900000000001
 20
65.418499999999995
 30
0.0
 10
-10.479200000000001
 20
62.059100000000001
 30
0.0
 10
-6.1524999999999999
 20
57.368899999999996
 30
0.0
 10
-6.1524999999999999
 20
57.368899999999996
 30
0.0
 10
-6.1524999999999999
 20
57.368899999999996
 30
0.0
 10
-18.075900000000001
 20
55.851700000000001
 30
0.0
 10
-18.075900000000001
 20
55.851700000000001
 30
0.0
 10
-18.075900000000001
 20
55.851700000000001
 30
0.0
 10
-18.075900000000001
 20
55.851700000000001
 30
0.0
 10
-22.712900000000001
 20
66.759299999999996
 30
0.0
 10
-22.712900000000001
 20
66.759299999999996
 30
0.0
  0
SPLINE
  5
32
100
AcDbEntity
  8
RÚteg 1
 62
     7
100
AcDbSpline
210
0.0
220
0.0
230
1.0
 70
     1
 71
     3
 72
    32
 73
    28
 74
     0
 42
0.0000000001
 43
0.0000000001
 40
0.0
 40
0.0
 40
0.0
 40
0.0
 40
0.1428571428571429
 40
0.1428571428571429
 40
0.1428571428571429
 40
0.1428571428571429
 40
0.2857142857142857
 40
0.2857142857142857
 40
0.2857142857142857
 40
0.2857142857142857
 40
0.4285714285714286
 40
0.4285714285714286
 40
0.4285714285714286
 40
0.4285714285714286
 40
0.5714285714285714
 40
0.5714285714285714
 40
0.5714285714285714
 40
0.5714285714285714
 40
0.7142857142857142
 40
0.7142857142857142
 40
0.7142857142857142
 40
0.7142857142857142
 40
0.857142857142857
 40
0.857142857142857
 40
0.857142857142857
 40
0.857142857142857
 40
1.0
 40
1.0
 40
1.0
 40
1.0
 10
-4.9526000000000003
 20
55.9908
 30
0.0
 10
-4.6001000000000003
 20
55.561
 30
0.0
 10
-4.2595999999999998
 20
55.120600000000003
 30
0.0
 10
-3.9306999999999999
 20
54.671700000000001
 30
0.0
 10
-3.9306999999999999
 20
54.671700000000001
 30
0.0
 10
-3.9306999999999999
 20
54.671700000000001
 30
0.0
 10
-18.445699999999999
 20
52.8264
 30
0.0
 10
-18.445699999999999
 20
52.8264
 30
0.0
 10
-18.445699999999999
 20
52.8264
 30
0.0
 10
-18.445699999999999
 20
52.8264
 30
0.0
 10
-18.5458
 20
52.953200000000002
 30
0.0
 10
-18.5458
 20
52.953200000000002
 30
0.0
 10
-18.5458
 20
52.953200000000002
 30
0.0
 10
-16.9224
 20
54.3476
 30
0.0
 10
-18.790199999999999
 20
54.1631
 30
0.0
 10
-15.8171
 20
54.556899999999999
 30
0.0
 10
-15.8171
 20
54.556899999999999
 30
0.0
 10
-14.7075
 20
54.704000000000001
 30
0.0
 10
-13.6774
 20
54.858199999999997
 30
0.0
 10
-12.5291
 20
54.999400000000001
 30
0.0
 10
-12.5291
 20
54.999400000000001
 30
0.0
 10
-10.2502
 20
55.280200000000001
 30
0.0
 10
-8.1912000000000003
 20
55.592799999999997
 30
0.0
 10
-5.9419000000000004
 20
55.866100000000003
 30
0.0
 10
-5.9419000000000004
 20
55.866100000000003
 30
0.0
 10
-5.6136999999999997
 20
55.905799999999999
 30
0.0
 10
-5.2839999999999998
 20
55.947600000000001
 30
0.0
 10
-4.9526000000000003
 20
55.9908
 30
0.0
  0
SPLINE
  5
33
100
AcDbEntity
  8
RÚteg 1
 62
     7
100
AcDbSpline
210
0.0
220
0.0
230
1.0
 70
     1
 71
     3
 72
    20
 73
    16
 74
     0
 42
0.0000000001
 43
0.0000000001
 40
0.0
 40
0.0
 40
0.0
 40
0.0
 40
0.25
 40
0.25
 40
0.25
 40
0.25
 40
0.5
 40
0.5
 40
0.5
 40
0.5
 40
0.75
 40
0.75
 40
0.75
 40
0.75
 40
1.0
 40
1.0
 40
1.0
 40
1.0
 10
-3.1177999999999999
 20
53.511699999999998
 30
0.0
 10
-2.8504
 20
53.1113
 30
0.0
 10
-2.5920999999999998
 20
52.703600000000002
 30
0.0
 10
-2.343
 20
52.289999999999999
 30
0.0
 10
-2.343
 20
52.289999999999999
 30
0.0
 10
-2.343
 20
52.289999999999999
 30
0.0
 10
-19.871300000000002
 20
50.197400000000002
 30
0.0
 10
-19.871300000000002
 20
50.197400000000002
 30
0.0
 10
-19.871300000000002
 20
50.197400000000002
 30
0.0
 10
-19.871300000000002
 20
50.197400000000002
 30
0.0
 10
-19.019600000000001
 20
51.622199999999999
 30
0.0
 10
-19.019600000000001
 20
51.622199999999999
 30
0.0
 10
-19.019600000000001
 20
51.622199999999999
 30
0.0
 10
-19.019600000000001
 20
51.622199999999999
 30
0.0
 10
-3.1177999999999999
 20
53.511699999999998
 30
0.0
 10
-3.1177999999999999
 20
53.511699999999998
 30
0.0
  0
SPLINE
  5
34
100
AcDbEntity
  8
RÚteg 1
 62
     7
100
AcDbSpline
210
0.0
220
0.0
230
1.0
 70
     1
 71
     3
 72
    20
 73
    16
 74
     0
 42
0.0000000001
 43
0.0000000001
 40
0.0
 40
0.0
 40
0.0
 40
0.0
 40
0.25
 40
0.25
 40
0.25
 40
0.25
 40
0.5
 40
0.5
 40
0.5
 40
0.5
 40
0.75
 40
0.75
 40
0.75
 40
0.75
 40
1.0
 40
1.0
 40
1.0
 40
1.0
 10
-2.0219999999999998
 20
51.745800000000003
 30
0.0
 10
-1.7949999999999999
 20
51.351799999999997
 30
0.0
 10
-1.5786
 20
50.952100000000002
 30
0.0
 10
-1.3695999999999999
 20
50.547600000000003
 30
0.0
 10
-1.3695999999999999
 20
50.547600000000003
 30
0.0
 10
-1.3695999999999999
 20
50.547600000000003
 30
0.0
 10
-10.8934
 20
37.410400000000003
 30
0.0
 10
-10.8934
 20
37.410400000000003
 30
0.0
 10
-10.8934
 20
37.410400000000003
 30
0.0
 10
-10.8934
 20
37.410400000000003
 30
0.0
 10
-12.392300000000001
 20
37.455399999999997
 30
0.0
 10
-12.392300000000001
 20
37.455399999999997
 30
0.0
 10
-12.392300000000001
 20
37.455399999999997
 30
0.0
 10
-12.392300000000001
 20
37.455399999999997
 30
0.0
 10
-2.0219999999999998
 20
51.745800000000003
 30
0.0
 10
-2.0219999999999998
 20
51.745800000000003
 30
0.0
  0
SPLINE
  5
35
100
AcDbEntity
  8
RÚteg 1
 62
     7
100
AcDbSpline
210
0.0
220
0.0
230
1.0
 70
     1
 71
     3
 72
    20
 73
    16
 74
     0
 42
0.0000000001
 43
0.0000000001
 40
0.0
 40
0.0
 40
0.0
 40
0.0
 40
0.25
 40
0.25
 40
0.25
 40
0.25
 40
0.5
 40
0.5
 40
0.5
 40
0.5
 40
0.75
 40
0.75
 40
0.75
 40
0.75
 40
1.0
 40
1.0
 40
1.0
 40
1.0
 10
-0.7141
 20
49.201900000000002
 30
0.0
 10
-0.4862
 20
48.704000000000001
 30
0.0
 10
-0.2696
 20
48.1995
 30
0.0
 10
-0.0676
 20
47.6873
 30
0.0
 10
-0.0676
 20
47.6873
 30
0.0
 10
-0.0676
 20
47.6873
 30
0.0
 10
-7.8224
 20
37.385800000000003
 30
0.0
 10
-7.8224
 20
37.385800000000003
 30
0.0
 10
-7.8224
 20
37.385800000000003
 30
0.0
 10
-7.8224
 20
37.385800000000003
 30
0.0
 10
-9.4977999999999998
 20
37.332299999999996
 30
0.0
 10
-9.4977999999999998
 20
37.332299999999996
 30
0.0
 10
-9.4977999999999998
 20
37.332299999999996
 30
0.0
 10
-9.4977999999999998
 20
37.332299999999996
 30
0.0
 10
-0.7141
 20
49.201900000000002
 30
0.0
 10
-0.7141
 20
49.201900000000002
 30
0.0
  0
SPLINE
  5
36
100
AcDbEntity
  8
RÚteg 1
 62
     7
100
AcDbSpline
210
0.0
220
0.0
230
1.0
 70
     1
 71
     3
 72
    20
 73
    16
 74
     0
 42
0.0000000001
 43
0.0000000001
 40
0.0
 40
0.0
 40
0.0
 40
0.0
 40
0.25
 40
0.25
 40
0.25
 40
0.25
 40
0.5
 40
0.5
 40
0.5
 40
0.5
 40
0.75
 40
0.75
 40
0.75
 40
0.75
 40
1.0
 40
1.0
 40
1.0
 40
1.0
 10
0.5723
 20
45.901299999999999
 30
0.0
 10
1.5602
 20
42.865400000000001
 30
0.0
 10
2.0966999999999998
 20
39.625500000000002
 30
0.0
 10
2.0966999999999998
 20
36.2605
 30
0.0
 10
2.0966999999999998
 20
36.2605
 30
0.0
 10
2.0966999999999998
 20
32.993600000000001
 30
0.0
 10
1.5928
 20
29.8447
 30
0.0
 10
0.6592
 20
26.886299999999999
 30
0.0
 10
0.6592
 20
26.886299999999999
 30
0.0
 10
0.6592
 20
26.886299999999999
 30
0.0
 10
-6.5651000000000002
 20
36.2881
 30
0.0
 10
-6.5651000000000002
 20
36.2881
 30
0.0
 10
-6.5651000000000002
 20
36.2881
 30
0.0
 10
-6.5651000000000002
 20
36.2881
 30
0.0
 10
0.5723
 20
45.901299999999999
 30
0.0
 10
0.5723
 20
45.901299999999999
 30
0.0
  0
SPLINE
  5
37
100
AcDbEntity
  8
RÚteg 1
 62
     7
100
AcDbSpline
210
0.0
220
0.0
230
1.0
 70
     1
 71
     3
 72
    28
 73
    24
 74
     0
 42
0.0000000001
 43
0.0000000001
 40
0.0
 40
0.0
 40
0.0
 40
0.0
 40
0.1666666666666667
 40
0.1666666666666667
 40
0.1666666666666667
 40
0.1666666666666667
 40
0.3333333333333333
 40
0.3333333333333333
 40
0.3333333333333333
 40
0.3333333333333333
 40
0.5
 40
0.5
 40
0.5
 40
0.5
 40
0.6666666666666666
 40
0.6666666666666666
 40
0.6666666666666666
 40
0.6666666666666666
 40
0.8333333333333333
 40
0.8333333333333333
 40
0.8333333333333333
 40
0.8333333333333333
 40
1.0
 40
1.0
 40
1.0
 40
1.0
 10
0.0971
 20
25.265599999999999
 30
0.0
 10
-0.0912
 20
24.768000000000001
 30
0.0
 10
-0.2917
 20
24.2758
 30
0.0
 10
-0.504
 20
23.790199999999999
 30
0.0
 10
-0.504
 20
23.790199999999999
 30
0.0
 10
-0.504
 20
23.790199999999999
 30
0.0
 10
-9.4779
 20
35.646099999999997
 30
0.0
 10
-9.4779
 20
35.646099999999997
 30
0.0
 10
-9.4779
 20
35.646099999999997
 30
0.0
 10
-6.8872999999999998
 20
34.973399999999998
 30
0.0
 10
-8.0378000000000007
 20
35.6432
 30
0.0
 10
-6.4943
 20
33.728499999999997
 30
0.0
 10
-6.4943
 20
33.728499999999997
 30
0.0
 10
-5.7877999999999998
 20
32.8521
 30
0.0
 10
-5.1219000000000001
 20
32.016399999999997
 30
0.0
 10
-4.4572000000000003
 20
31.1328
 30
0.0
 10
-4.4572000000000003
 20
31.1328
 30
0.0
 10
-3.0920000000000001
 20
29.318000000000001
 30
0.0
 10
-1.7692000000000001
 20
27.632200000000001
 30
0.0
 10
-0.3546
 20
25.834800000000001
 30
0.0
 10
-0.3546
 20
25.834800000000001
 30
0.0
 10
-0.2465
 20
25.6981
 30
0.0
 10
-0.093
 20
25.5045
 30
0.0
 10
0.0971
 20
25.265599999999999
 30
0.0
  0
SPLINE
  5
38
100
AcDbEntity
  8
RÚteg 1
 62
     7
100
AcDbSpline
210
0.0
220
0.0
230
1.0
 70
     1
 71
     3
 72
    20
 73
    16
 74
     0
 42
0.0000000001
 43
0.0000000001
 40
0.0
 40
0.0
 40
0.0
 40
0.0
 40
0.25
 40
0.25
 40
0.25
 40
0.25
 40
0.5
 40
0.5
 40
0.5
 40
0.5
 40
0.75
 40
0.75
 40
0.75
 40
0.75
 40
1.0
 40
1.0
 40
1.0
 40
1.0
 10
-1.1779999999999999
 20
22.351600000000001
 30
0.0
 10
-1.3848
 20
21.9373
 30
0.0
 10
-1.6020000000000001
 20
21.528099999999998
 30
0.0
 10
-1.8272999999999999
 20
21.1235
 30
0.0
 10
-1.8272999999999999
 20
21.1235
 30
0.0
 10
-1.8272999999999999
 20
21.1235
 30
0.0
 10
-12.4857
 20
35.3018
 30
0.0
 10
-12.4857
 20
35.3018
 30
0.0
 10
-12.4857
 20
35.3018
 30
0.0
 10
-12.4857
 20
35.3018
 30
0.0
 10
-10.819900000000001
 20
35.245100000000001
 30
0.0
 10
-10.819900000000001
 20
35.245100000000001
 30
0.0
 10
-10.819900000000001
 20
35.245100000000001
 30
0.0
 10
-10.819900000000001
 20
35.245100000000001
 30
0.0
 10
-1.1779999999999999
 20
22.351600000000001
 30
0.0
 10
-1.1779999999999999
 20
22.351600000000001
 30
0.0
  0
SPLINE
  5
39
100
AcDbEntity
  8
RÚteg 1
 62
     7
100
AcDbSpline
210
0.0
220
0.0
230
1.0
 70
     1
 71
     3
 72
    20
 73
    16
 74
     0
 42
0.0000000001
 43
0.0000000001
 40
0.0
 40
0.0
 40
0.0
 40
0.0
 40
0.25
 40
0.25
 40
0.25
 40
0.25
 40
0.5
 40
0.5
 40
0.5
 40
0.5
 40
0.75
 40
0.75
 40
0.75
 40
0.75
 40
1.0
 40
1.0
 40
1.0
 40
1.0
 10
-2.0371999999999999
 20
20.7484
 30
0.0
 10
-2.3172999999999999
 20
20.261199999999999
 30
0.0
 10
-2.6120000000000001
 20
19.783000000000001
 30
0.0
 10
-2.9176000000000002
 20
19.312899999999999
 30
0.0
 10
-2.9176000000000002
 20
19.312899999999999
 30
0.0
 10
-2.9176000000000002
 20
19.312899999999999
 30
0.0
 10
-18.808
 20
21.0627
 30
0.0
 10
-18.808
 20
21.0627
 30
0.0
 10
-18.808
 20
21.0627
 30
0.0
 10
-18.808
 20
21.0627
 30
0.0
 10
-19.700500000000002
 20
22.543399999999998
 30
0.0
 10
-19.700500000000002
 20
22.543399999999998
 30
0.0
 10
-19.700500000000002
 20
22.543399999999998
 30
0.0
 10
-19.700500000000002
 20
22.543399999999998
 30
0.0
 10
-2.0371999999999999
 20
20.7484
 30
0.0
 10
-2.0371999999999999
 20
20.7484
 30
0.0
  0
SPLINE
  5
3A
100
AcDbEntity
  8
RÚteg 1
 62
     7
100
AcDbSpline
210
0.0
220
0.0
230
1.0
 70
     1
 71
     3
 72
    20
 73
    16
 74
     0
 42
0.0000000001
 43
0.0000000001
 40
0.0
 40
0.0
 40
0.0
 40
0.0
 40
0.25
 40
0.25
 40
0.25
 40
0.25
 40
0.5
 40
0.5
 40
0.5
 40
0.5
 40
0.75
 40
0.75
 40
0.75
 40
0.75
 40
1.0
 40
1.0
 40
1.0
 40
1.0
 10
-3.6236000000000002
 20
18.2715
 30
0.0
 10
-3.9735
 20
17.7776
 30
0.0
 10
-4.3385999999999996
 20
17.295200000000001
 30
0.0
 10
-4.7159000000000004
 20
16.824100000000001
 30
0.0
 10
-4.7159000000000004
 20
16.824100000000001
 30
0.0
 10
-4.7159000000000004
 20
16.824100000000001
 30
0.0
 10
-17.349900000000002
 20
18.374099999999999
 30
0.0
 10
-17.349900000000002
 20
18.374099999999999
 30
0.0
 10
-17.349900000000002
 20
18.374099999999999
 30
0.0
 10
-17.349900000000002
 20
18.374099999999999
 30
0.0
 10
-18.3489
 20
20.033799999999999
 30
0.0
 10
-18.3489
 20
20.033799999999999
 30
0.0
 10
-18.3489
 20
20.033799999999999
 30
0.0
 10
-18.3489
 20
20.033799999999999
 30
0.0
 10
-3.6236000000000002
 20
18.2715
 30
0.0
 10
-3.6236000000000002
 20
18.2715
 30
0.0
  0
SPLINE
  5
3B
100
AcDbEntity
  8
RÚteg 1
 62
     7
100
AcDbSpline
210
0.0
220
0.0
230
1.0
 70
     1
 71
     3
 72
    16
 73
    12
 74
     0
 42
0.0000000001
 43
0.0000000001
 40
0.0
 40
0.0
 40
0.0
 40
0.0
 40
0.3333333333333333
 40
0.3333333333333333
 40
0.3333333333333333
 40
0.3333333333333333
 40
0.6666666666666666
 40
0.6666666666666666
 40
0.6666666666666666
 40
0.6666666666666666
 40
1.0
 40
1.0
 40
1.0
 40
1.0
 10
-5.7778
 20
15.565899999999999
 30
0.0
 10
-10.0274
 20
10.7911
 30
0.0
 10
-15.724500000000001
 20
7.3312999999999997
 30
0.0
 10
-22.180199999999999
 20
5.8776000000000002
 30
0.0
 10
-22.180199999999999
 20
5.8776000000000002
 30
0.0
 10
-22.180199999999999
 20
5.8776000000000002
 30
0.0
 10
-17.5686
 20
16.937999999999999
 30
0.0
 10
-17.5686
 20
16.937999999999999
 30
0.0
 10
-17.5686
 20
16.937999999999999
 30
0.0
 10
-17.5686
 20
16.937999999999999
 30
0.0
 10
-5.7778
 20
15.565899999999999
 30
0.0
 10
-5.7778
 20
15.565899999999999
 30
0.0
  0
SPLINE
  5
3C
100
AcDbEntity
  8
RÚteg 1
 62
     7
100
AcDbSpline
210
0.0
220
0.0
230
1.0
 70
     1
 71
     3
 72
    20
 73
    16
 74
     0
 42
0.0000000001
 43
0.0000000001
 40
0.0
 40
0.0
 40
0.0
 40
0.0
 40
0.25
 40
0.25
 40
0.25
 40
0.25
 40
0.5
 40
0.5
 40
0.5
 40
0.5
 40
0.75
 40
0.75
 40
0.75
 40
0.75
 40
1.0
 40
1.0
 40
1.0
 40
1.0
 10
-24.030100000000001
 20
5.5204000000000004
 30
0.0
 10
-24.549499999999998
 20
5.4360999999999997
 30
0.0
 10
-25.074200000000001
 20
5.3644999999999996
 30
0.0
 10
-25.6021
 20
5.3066000000000004
 30
0.0
 10
-25.6021
 20
5.3066000000000004
 30
0.0
 10
-25.6021
 20
5.3066000000000004
 30
0.0
 10
-19.975000000000001
 20
18.8337
 30
0.0
 10
-19.975000000000001
 20
18.8337
 30
0.0
 10
-19.975000000000001
 20
18.8337
 30
0.0
 10
-19.975000000000001
 20
18.8337
 30
0.0
 10
-19.168700000000001
 20
17.355899999999998
 30
0.0
 10
-19.168700000000001
 20
17.355899999999998
 30
0.0
 10
-19.168700000000001
 20
17.355899999999998
 30
0.0
 10
-19.168700000000001
 20
17.355899999999998
 30
0.0
 10
-24.030100000000001
 20
5.5204000000000004
 30
0.0
 10
-24.030100000000001
 20
5.5204000000000004
 30
0.0
  0
SPLINE
  5
3D
100
AcDbEntity
  8
RÚteg 1
 62
     7
100
AcDbSpline
210
0.0
220
0.0
230
1.0
 70
     1
 71
     3
 72
    20
 73
    16
 74
     0
 42
0.0000000001
 43
0.0000000001
 40
0.0
 40
0.0
 40
0.0
 40
0.0
 40
0.25
 40
0.25
 40
0.25
 40
0.25
 40
0.5
 40
0.5
 40
0.5
 40
0.5
 40
0.75
 40
0.75
 40
0.75
 40
0.75
 40
1.0
 40
1.0
 40
1.0
 40
1.0
 10
-27.056999999999999
 20
5.1805000000000003
 30
0.0
 10
-27.5624
 20
5.1493000000000002
 30
0.0
 10
-28.070799999999998
 20
5.1295000000000002
 30
0.0
 10
-28.583100000000002
 20
5.1215000000000002
 30
0.0
 10
-28.583100000000002
 20
5.1215000000000002
 30
0.0
 10
-28.583100000000002
 20
5.1215000000000002
 30
0.0
 10
-21.509599999999999
 20
21.235800000000001
 30
0.0
 10
-21.509599999999999
 20
21.235800000000001
 30
0.0
 10
-21.509599999999999
 20
21.235800000000001
 30
0.0
 10
-21.509599999999999
 20
21.235800000000001
 30
0.0
 10
-20.809100000000001
 20
19.939599999999999
 30
0.0
 10
-20.809100000000001
 20
19.939599999999999
 30
0.0
 10
-20.809100000000001
 20
19.939599999999999
 30
0.0
 10
-20.809100000000001
 20
19.939599999999999
 30
0.0
 10
-27.056999999999999
 20
5.1805000000000003
 30
0.0
 10
-27.056999999999999
 20
5.1805000000000003
 30
0.0
  0
SPLINE
  5
3E
100
AcDbEntity
  8
RÚteg 1
 62
     7
100
AcDbSpline
210
0.0
220
0.0
230
1.0
 70
     1
 71
     3
 72
    20
 73
    16
 74
     0
 42
0.0000000001
 43
0.0000000001
 40
0.0
 40
0.0
 40
0.0
 40
0.0
 40
0.25
 40
0.25
 40
0.25
 40
0.25
 40
0.5
 40
0.5
 40
0.5
 40
0.5
 40
0.75
 40
0.75
 40
0.75
 40
0.75
 40
1.0
 40
1.0
 40
1.0
 40
1.0
 10
-29.099299999999999
 20
5.1165000000000003
 30
0.0
 10
-29.537600000000001
 20
5.1173999999999999
 30
0.0
 10
-29.973199999999999
 20
5.1280000000000001
 30
0.0
 10
-30.4072
 20
5.1475999999999997
 30
0.0
 10
-30.4072
 20
5.1475999999999997
 30
0.0
 10
-30.4072
 20
5.1475999999999997
 30
0.0
 10
-37.006500000000003
 20
19.828099999999999
 30
0.0
 10
-37.006500000000003
 20
19.828099999999999
 30
0.0
 10
-37.006500000000003
 20
19.828099999999999
 30
0.0
 10
-37.006500000000003
 20
19.828099999999999
 30
0.0
 10
-36.147199999999998
 20
21.09
 30
0.0
 10
-36.147199999999998
 20
21.09
 30
0.0
 10
-36.147199999999998
 20
21.09
 30
0.0
 10
-36.147199999999998
 20
21.09
 30
0.0
 10
-29.099299999999999
 20
5.1165000000000003
 30
0.0
 10
-29.099299999999999
 20
5.1165000000000003
 30
0.0
  0
SPLINE
  5
3F
100
AcDbEntity
  8
RÚteg 1
 62
     7
100
AcDbSpline
210
0.0
220
0.0
230
1.0
 70
     1
 71
     3
 72
    20
 73
    16
 74
     0
 42
0.0000000001
 43
0.0000000001
 40
0.0
 40
0.0
 40
0.0
 40
0.0
 40
0.25
 40
0.25
 40
0.25
 40
0.25
 40
0.5
 40
0.5
 40
0.5
 40
0.5
 40
0.75
 40
0.75
 40
0.75
 40
0.75
 40
1.0
 40
1.0
 40
1.0
 40
1.0
 10
-32.0488
 20
5.2603
 30
0.0
 10
-32.550899999999999
 20
5.3087999999999997
 30
0.0
 10
-33.049700000000001
 20
5.3685999999999998
 30
0.0
 10
-33.545200000000001
 20
5.4404000000000003
 30
0.0
 10
-33.545200000000001
 20
5.4404000000000003
 30
0.0
 10
-33.545200000000001
 20
5.4404000000000003
 30
0.0
 10
-38.587699999999998
 20
17.311599999999999
 30
0.0
 10
-38.587699999999998
 20
17.311599999999999
 30
0.0
 10
-38.587699999999998
 20
17.311599999999999
 30
0.0
 10
-38.587699999999998
 20
17.311599999999999
 30
0.0
 10
-37.9163
 20
18.690200000000001
 30
0.0
 10
-37.9163
 20
18.690200000000001
 30
0.0
 10
-37.9163
 20
18.690200000000001
 30
0.0
 10
-37.9163
 20
18.690200000000001
 30
0.0
 10
-32.0488
 20
5.2603
 30
0.0
 10
-32.0488
 20
5.2603
 30
0.0
  0
SPLINE
  5
40
100
AcDbEntity
  8
RÚteg 1
 62
     7
100
AcDbSpline
210
0.0
220
0.0
230
1.0
 70
     1
 71
     3
 72
    16
 73
    12
 74
     0
 42
0.0000000001
 43
0.0000000001
 40
0.0
 40
0.0
 40
0.0
 40
0.0
 40
0.3333333333333333
 40
0.3333333333333333
 40
0.3333333333333333
 40
0.3333333333333333
 40
0.6666666666666666
 40
0.6666666666666666
 40
0.6666666666666666
 40
0.6666666666666666
 40
1.0
 40
1.0
 40
1.0
 40
1.0
 10
-35.383800000000001
 20
5.7618
 30
0.0
 10
-41.869500000000002
 20
7.1024000000000003
 30
0.0
 10
-47.6175
 20
10.4613
 30
0.0
 10
-51.943399999999997
 20
15.151199999999999
 30
0.0
 10
-51.943399999999997
 20
15.151199999999999
 30
0.0
 10
-51.943399999999997
 20
15.151199999999999
 30
0.0
 10
-40.020499999999998
 20
16.667400000000001
 30
0.0
 10
-40.020499999999998
 20
16.667400000000001
 30
0.0
 10
-40.020499999999998
 20
16.667400000000001
 30
0.0
 10
-40.020499999999998
 20
16.667400000000001
 30
0.0
 10
-35.383800000000001
 20
5.7618
 30
0.0
 10
-35.383800000000001
 20
5.7618
 30
0.0
  0
SPLINE
  5
41
100
AcDbEntity
  8
RÚteg 1
 62
     7
100
AcDbSpline
210
0.0
220
0.0
230
1.0
 70
     1
 71
     3
 72
    20
 73
    16
 74
     0
 42
0.0000000001
 43
0.0000000001
 40
0.0
 40
0.0
 40
0.0
 40
0.0
 40
0.25
 40
0.25
 40
0.25
 40
0.25
 40
0.5
 40
0.5
 40
0.5
 40
0.5
 40
0.75
 40
0.75
 40
0.75
 40
0.75
 40
1.0
 40
1.0
 40
1.0
 40
1.0
 10
-54.977400000000003
 20
19.0062
 30
0.0
 10
-55.265000000000001
 20
19.4377
 30
0.0
 10
-55.541800000000002
 20
19.877199999999998
 30
0.0
 10
-55.808199999999999
 20
20.324000000000002
 30
0.0
 10
-55.808199999999999
 20
20.324000000000002
 30
0.0
 10
-55.808199999999999
 20
20.324000000000002
 30
0.0
 10
-38.246899999999997
 20
22.318000000000001
 30
0.0
 10
-38.246899999999997
 20
22.318000000000001
 30
0.0
 10
-38.246899999999997
 20
22.318000000000001
 30
0.0
 10
-38.246899999999997
 20
22.318000000000001
 30
0.0
 10
-39.077199999999998
 20
20.898
 30
0.0
 10
-39.077199999999998
 20
20.898
 30
0.0
 10
-39.077199999999998
 20
20.898
 30
0.0
 10
-39.077199999999998
 20
20.898
 30
0.0
 10
-54.977400000000003
 20
19.0062
 30
0.0
 10
-54.977400000000003
 20
19.0062
 30
0.0
  0
SPLINE
  5
42
100
AcDbEntity
  8
RÚteg 1
 62
     7
100
AcDbSpline
210
0.0
220
0.0
230
1.0
 70
     1
 71
     3
 72
    20
 73
    16
 74
     0
 42
0.0000000001
 43
0.0000000001
 40
0.0
 40
0.0
 40
0.0
 40
0.0
 40
0.25
 40
0.25
 40
0.25
 40
0.25
 40
0.5
 40
0.5
 40
0.5
 40
0.5
 40
0.75
 40
0.75
 40
0.75
 40
0.75
 40
1.0
 40
1.0
 40
1.0
 40
1.0
 10
-56.075699999999998
 20
20.776499999999999
 30
0.0
 10
-56.2986
 20
21.164999999999999
 30
0.0
 10
-56.512599999999999
 20
21.558900000000001
 30
0.0
 10
-56.7194
 20
21.957799999999999
 30
0.0
 10
-56.7194
 20
21.957799999999999
 30
0.0
 10
-56.7194
 20
21.957799999999999
 30
0.0
 10
-47.223799999999997
 20
35.070700000000002
 30
0.0
 10
-47.223799999999997
 20
35.070700000000002
 30
0.0
 10
-47.223799999999997
 20
35.070700000000002
 30
0.0
 10
-47.223799999999997
 20
35.070700000000002
 30
0.0
 10
-45.726599999999998
 20
35.054699999999997
 30
0.0
 10
-45.726599999999998
 20
35.054699999999997
 30
0.0
 10
-45.726599999999998
 20
35.054699999999997
 30
0.0
 10
-45.726599999999998
 20
35.054699999999997
 30
0.0
 10
-56.075699999999998
 20
20.776499999999999
 30
0.0
 10
-56.075699999999998
 20
20.776499999999999
 30
0.0
  0
SPLINE
  5
43
100
AcDbEntity
  8
RÚteg 1
 62
     7
100
AcDbSpline
210
0.0
220
0.0
230
1.0
 70
     1
 71
     3
 72
    20
 73
    16
 74
     0
 42
0.0000000001
 43
0.0000000001
 40
0.0
 40
0.0
 40
0.0
 40
0.0
 40
0.25
 40
0.25
 40
0.25
 40
0.25
 40
0.5
 40
0.5
 40
0.5
 40
0.5
 40
0.75
 40
0.75
 40
0.75
 40
0.75
 40
1.0
 40
1.0
 40
1.0
 40
1.0
 10
-58.679400000000001
 20
26.650400000000001
 30
0.0
 10
-59.660699999999999
 20
29.677700000000002
 30
0.0
 10
-60.193399999999997
 20
32.906999999999996
 30
0.0
 10
-60.193399999999997
 20
36.2605
 30
0.0
 10
-60.193399999999997
 20
36.2605
 30
0.0
 10
-60.193399999999997
 20
39.510399999999997
 30
0.0
 10
-59.695
 20
42.644399999999997
 30
0.0
 10
-58.7697
 20
45.589700000000001
 30
0.0
 10
-58.7697
 20
45.589700000000001
 30
0.0
 10
-58.7697
 20
45.589700000000001
 30
0.0
 10
-51.601599999999998
 20
36.215200000000003
 30
0.0
 10
-51.601599999999998
 20
36.215200000000003
 30
0.0
 10
-51.601599999999998
 20
36.215200000000003
 30
0.0
 10
-51.601599999999998
 20
36.215200000000003
 30
0.0
 10
-58.679400000000001
 20
26.650400000000001
 30
0.0
 10
-58.679400000000001
 20
26.650400000000001
 30
0.0
  0
SPLINE
  5
44
100
AcDbEntity
  8
RÚteg 1
 62
     7
100
AcDbSpline
210
0.0
220
0.0
230
1.0
 70
     1
 71
     3
 72
    28
 73
    24
 74
     0
 42
0.0000000001
 43
0.0000000001
 40
0.0
 40
0.0
 40
0.0
 40
0.0
 40
0.1666666666666667
 40
0.1666666666666667
 40
0.1666666666666667
 40
0.1666666666666667
 40
0.3333333333333333
 40
0.3333333333333333
 40
0.3333333333333333
 40
0.3333333333333333
 40
0.5
 40
0.5
 40
0.5
 40
0.5
 40
0.6666666666666666
 40
0.6666666666666666
 40
0.6666666666666666
 40
0.6666666666666666
 40
0.8333333333333333
 40
0.8333333333333333
 40
0.8333333333333333
 40
0.8333333333333333
 40
1.0
 40
1.0
 40
1.0
 40
1.0
 10
-58.184800000000003
 20
47.278100000000002
 30
0.0
 10
-57.996200000000002
 20
47.775799999999997
 30
0.0
 10
-57.7958
 20
48.267600000000002
 30
0.0
 10
-57.582599999999999
 20
48.752600000000001
 30
0.0
 10
-57.582599999999999
 20
48.752600000000001
 30
0.0
 10
-57.582599999999999
 20
48.752600000000001
 30
0.0
 10
-48.571399999999997
 20
36.911000000000001
 30
0.0
 10
-48.571399999999997
 20
36.911000000000001
 30
0.0
 10
-48.571399999999997
 20
36.911000000000001
 30
0.0
 10
-51.209400000000002
 20
37.547699999999999
 30
0.0
 10
-50.058900000000001
 20
36.877699999999997
 30
0.0
 10
-51.602400000000003
 20
38.792499999999997
 30
0.0
 10
-51.602400000000003
 20
38.792499999999997
 30
0.0
 10
-52.308900000000001
 20
39.668900000000001
 30
0.0
 10
-52.974800000000002
 20
40.504399999999997
 30
0.0
 10
-53.639499999999998
 20
41.388199999999998
 30
0.0
 10
-53.639499999999998
 20
41.388199999999998
 30
0.0
 10
-54.985900000000001
 20
43.177799999999998
 30
0.0
 10
-56.448099999999997
 20
44.874899999999997
 30
0.0
 10
-57.742100000000001
 20
46.686
 30
0.0
 10
-57.742100000000001
 20
46.686
 30
0.0
 10
-57.857900000000001
 20
46.847999999999999
 30
0.0
 10
-58.007899999999999
 20
47.048099999999998
 30
0.0
 10
-58.184800000000003
 20
47.278100000000002
 30
0.0
  0
SPLINE
  5
45
100
AcDbEntity
  8
RÚteg 1
 62
     7
100
AcDbSpline
210
0.0
220
0.0
230
1.0
 70
     1
 71
     3
 72
    20
 73
    16
 74
     0
 42
0.0000000001
 43
0.0000000001
 40
0.0
 40
0.0
 40
0.0
 40
0.0
 40
0.25
 40
0.25
 40
0.25
 40
0.25
 40
0.5
 40
0.5
 40
0.5
 40
0.5
 40
0.75
 40
0.75
 40
0.75
 40
0.75
 40
1.0
 40
1.0
 40
1.0
 40
1.0
 10
-56.912799999999997
 20
50.181899999999999
 30
0.0
 10
-56.707000000000001
 20
50.592399999999998
 30
0.0
 10
-56.492600000000003
 20
50.997999999999998
 30
0.0
 10
-56.269399999999997
 20
51.398099999999999
 30
0.0
 10
-56.269399999999997
 20
51.398099999999999
 30
0.0
 10
-56.269399999999997
 20
51.398099999999999
 30
0.0
 10
-45.568100000000001
 20
37.206400000000002
 30
0.0
 10
-45.568100000000001
 20
37.206400000000002
 30
0.0
 10
-45.568100000000001
 20
37.206400000000002
 30
0.0
 10
-45.568100000000001
 20
37.206400000000002
 30
0.0
 10
-47.276800000000001
 20
37.275599999999997
 30
0.0
 10
-47.276800000000001
 20
37.275599999999997
 30
0.0
 10
-47.276800000000001
 20
37.275599999999997
 30
0.0
 10
-47.276800000000001
 20
37.275599999999997
 30
0.0
 10
-56.912799999999997
 20
50.181899999999999
 30
0.0
 10
-56.912799999999997
 20
50.181899999999999
 30
0.0
  0
SPLINE
  5
46
100
AcDbEntity
  8
RÚteg 1
 62
     7
100
AcDbSpline
210
0.0
220
0.0
230
1.0
 70
     1
 71
     3
 72
    20
 73
    16
 74
     0
 42
0.0000000001
 43
0.0000000001
 40
0.0
 40
0.0
 40
0.0
 40
0.0
 40
0.25
 40
0.25
 40
0.25
 40
0.25
 40
0.5
 40
0.5
 40
0.5
 40
0.5
 40
0.75
 40
0.75
 40
0.75
 40
0.75
 40
1.0
 40
1.0
 40
1.0
 40
1.0
 10
-56.0595
 20
51.773000000000003
 30
0.0
 10
-55.782699999999998
 20
52.252699999999997
 30
0.0
 10
-55.492699999999999
 20
52.724499999999999
 30
0.0
 10
-55.192
 20
53.188299999999998
 30
0.0
 10
-55.192
 20
53.188299999999998
 30
0.0
 10
-55.192
 20
53.188299999999998
 30
0.0
 10
-39.288699999999999
 20
51.457900000000002
 30
0.0
 10
-39.288699999999999
 20
51.457900000000002
 30
0.0
 10
-39.288699999999999
 20
51.457900000000002
 30
0.0
 10
-39.288699999999999
 20
51.457900000000002
 30
0.0
 10
-38.3962
 20
49.977699999999999
 30
0.0
 10
-38.3962
 20
49.977699999999999
 30
0.0
 10
-38.3962
 20
49.977699999999999
 30
0.0
 10
-38.3962
 20
49.977699999999999
 30
0.0
 10
-56.0595
 20
51.773000000000003
 30
0.0
 10
-56.0595
 20
51.773000000000003
 30
0.0
  0
SPLINE
  5
47
100
AcDbEntity
  8
RÚteg 1
 62
     7
100
AcDbSpline
210
0.0
220
0.0
230
1.0
 70
     1
 71
     3
 72
    20
 73
    16
 74
     0
 42
0.0000000001
 43
0.0000000001
 40
0.0
 40
0.0
 40
0.0
 40
0.0
 40
0.25
 40
0.25
 40
0.25
 40
0.25
 40
0.5
 40
0.5
 40
0.5
 40
0.5
 40
0.75
 40
0.75
 40
0.75
 40
0.75
 40
1.0
 40
1.0
 40
1.0
 40
1.0
 10
-54.473100000000002
 20
54.249499999999998
 30
0.0
 10
-54.1312
 20
54.732500000000002
 30
0.0
 10
-53.774299999999997
 20
55.203699999999998
 30
0.0
 10
-53.406300000000002
 20
55.665399999999998
 30
0.0
 10
-53.406300000000002
 20
55.665399999999998
 30
0.0
 10
-53.406300000000002
 20
55.665399999999998
 30
0.0
 10
-40.7468
 20
54.147399999999998
 30
0.0
 10
-40.7468
 20
54.147399999999998
 30
0.0
 10
-40.7468
 20
54.147399999999998
 30
0.0
 10
-40.7468
 20
54.147399999999998
 30
0.0
 10
-39.747700000000002
 20
52.4876
 30
0.0
 10
-39.747700000000002
 20
52.4876
 30
0.0
 10
-39.747700000000002
 20
52.4876
 30
0.0
 10
-39.747700000000002
 20
52.4876
 30
0.0
 10
-54.473100000000002
 20
54.249499999999998
 30
0.0
 10
-54.473100000000002
 20
54.249499999999998
 30
0.0
  0
SPLINE
  5
48
100
AcDbEntity
  8
RÚteg 1
 62
     7
100
AcDbSpline
210
0.0
220
0.0
230
1.0
 70
     1
 71
     3
 72
    16
 73
    12
 74
     0
 42
0.0000000001
 43
0.0000000001
 40
0.0
 40
0.0
 40
0.0
 40
0.0
 40
0.3333333333333333
 40
0.3333333333333333
 40
0.3333333333333333
 40
0.3333333333333333
 40
0.6666666666666666
 40
0.6666666666666666
 40
0.6666666666666666
 40
0.6666666666666666
 40
1.0
 40
1.0
 40
1.0
 40
1.0
 10
-52.319000000000003
 20
56.954799999999999
 30
0.0
 10
-48.069299999999998
 20
61.730800000000002
 30
0.0
 10
-42.371699999999997
 20
65.190700000000007
 30
0.0
 10
-35.915199999999999
 20
66.643600000000006
 30
0.0
 10
-35.915199999999999
 20
66.643600000000006
 30
0.0
 10
-35.915199999999999
 20
66.643600000000006
 30
0.0
 10
-40.5276
 20
55.582700000000003
 30
0.0
 10
-40.5276
 20
55.582700000000003
 30
0.0
 10
-40.5276
 20
55.582700000000003
 30
0.0
 10
-40.5276
 20
55.582700000000003
 30
0.0
 10
-52.319000000000003
 20
56.954799999999999
 30
0.0
 10
-52.319000000000003
 20
56.954799999999999
 30
0.0
  0
SPLINE
  5
49
100
AcDbEntity
  8
RÚteg 1
 62
     7
100
AcDbSpline
210
0.0
220
0.0
230
1.0
 70
     1
 71
     3
 72
    20
 73
    16
 74
     0
 42
0.0000000001
 43
0.0000000001
 40
0.0
 40
0.0
 40
0.0
 40
0.0
 40
0.25
 40
0.25
 40
0.25
 40
0.25
 40
0.5
 40
0.5
 40
0.5
 40
0.5
 40
0.75
 40
0.75
 40
0.75
 40
0.75
 40
1.0
 40
1.0
 40
1.0
 40
1.0
 10
-34.066699999999997
 20
67.000200000000007
 30
0.0
 10
-33.530500000000004
 20
67.087900000000005
 30
0.0
 10
-32.989899999999999
 20
67.161199999999994
 30
0.0
 10
-32.444899999999997
 20
67.220399999999998
 30
0.0
 10
-32.444899999999997
 20
67.220399999999998
 30
0.0
 10
-32.444899999999997
 20
67.220399999999998
 30
0.0
 10
-38.051299999999998
 20
53.701000000000001
 30
0.0
 10
-38.051299999999998
 20
53.701000000000001
 30
0.0
 10
-38.051299999999998
 20
53.701000000000001
 30
0.0
 10
-38.051299999999998
 20
53.701000000000001
 30
0.0
 10
-38.927999999999997
 20
55.165100000000002
 30
0.0
 10
-38.927999999999997
 20
55.165100000000002
 30
0.0
 10
-38.927999999999997
 20
55.165100000000002
 30
0.0
 10
-38.927999999999997
 20
55.165100000000002
 30
0.0
 10
-34.066699999999997
 20
67.000200000000007
 30
0.0
 10
-34.066699999999997
 20
67.000200000000007
 30
0.0
  0
SPLINE
  5
4A
100
AcDbEntity
  8
RÚteg 1
 62
     7
100
AcDbSpline
210
0.0
220
0.0
230
1.0
 70
     1
 71
     3
 72
    20
 73
    16
 74
     0
 42
0.0000000001
 43
0.0000000001
 40
0.0
 40
0.0
 40
0.0
 40
0.0
 40
0.25
 40
0.25
 40
0.25
 40
0.25
 40
0.5
 40
0.5
 40
0.5
 40
0.5
 40
0.75
 40
0.75
 40
0.75
 40
0.75
 40
1.0
 40
1.0
 40
1.0
 40
1.0
 10
-31.034700000000001
 20
67.340299999999999
 30
0.0
 10
-30.517800000000001
 20
67.373000000000005
 30
0.0
 10
-29.997800000000002
 20
67.392399999999995
 30
0.0
 10
-29.474499999999999
 20
67.399699999999996
 30
0.0
 10
-29.474499999999999
 20
67.399699999999996
 30
0.0
 10
-29.474499999999999
 20
67.399699999999996
 30
0.0
 10
-36.515599999999999
 20
51.297400000000003
 30
0.0
 10
-36.515599999999999
 20
51.297400000000003
 30
0.0
 10
-36.515599999999999
 20
51.297400000000003
 30
0.0
 10
-36.515599999999999
 20
51.297400000000003
 30
0.0
 10
-37.283900000000003
 20
52.579500000000003
 30
0.0
 10
-37.283900000000003
 20
52.579500000000003
 30
0.0
 10
-37.283900000000003
 20
52.579500000000003
 30
0.0
 10
-37.283900000000003
 20
52.579500000000003
 30
0.0
 10
-31.034700000000001
 20
67.340299999999999
 30
0.0
 10
-31.034700000000001
 20
67.340299999999999
 30
0.0
  0
SPLINE
  5
4B
100
AcDbEntity
  8
RÚteg 1
 62
     7
100
AcDbSpline
210
0.0
220
0.0
230
1.0
 70
     1
 71
     3
 72
    32
 73
    28
 74
     0
 42
0.0000000001
 43
0.0000000001
 40
0.0
 40
0.0
 40
0.0
 40
0.0
 40
0.1428571428571429
 40
0.1428571428571429
 40
0.1428571428571429
 40
0.1428571428571429
 40
0.2857142857142857
 40
0.2857142857142857
 40
0.2857142857142857
 40
0.2857142857142857
 40
0.4285714285714286
 40
0.4285714285714286
 40
0.4285714285714286
 40
0.4285714285714286
 40
0.5714285714285714
 40
0.5714285714285714
 40
0.5714285714285714
 40
0.5714285714285714
 40
0.7142857142857142
 40
0.7142857142857142
 40
0.7142857142857142
 40
0.7142857142857142
 40
0.857142857142857
 40
0.857142857142857
 40
0.857142857142857
 40
0.857142857142857
 40
1.0
 40
1.0
 40
1.0
 40
1.0
 10
-28.769500000000001
 20
8.1287000000000003
 30
0.0
 10
-28.769500000000001
 20
8.1287000000000003
 30
0.0
 10
-35.609200000000001
 20
22.857199999999999
 30
0.0
 10
-35.609200000000001
 20
22.857199999999999
 30
0.0
 10
-35.609200000000001
 20
22.857199999999999
 30
0.0
 10
-35.609200000000001
 20
22.857199999999999
 30
0.0
 10
-34.784199999999998
 20
23.821000000000002
 30
0.0
 10
-34.784199999999998
 20
23.821000000000002
 30
0.0
 10
-34.784199999999998
 20
23.821000000000002
 30
0.0
 10
-34.784199999999998
 20
23.821000000000002
 30
0.0
 10
-28.7347
 20
11.3621
 30
0.0
 10
-28.7347
 20
11.3621
 30
0.0
 10
-28.7347
 20
11.3621
 30
0.0
 10
-27.673400000000001
 20
13.385400000000001
 30
0.0
 10
-26.548999999999999
 20
16.080500000000001
 30
0.0
 10
-25.622800000000002
 20
18.143699999999999
 30
0.0
 10
-25.622800000000002
 20
18.143699999999999
 30
0.0
 10
-25.083400000000001
 20
19.344000000000001
 30
0.0
 10
-24.569700000000001
 20
20.427199999999999
 30
0.0
 10
-24.081499999999998
 20
21.559699999999999
 30
0.0
 10
-24.081499999999998
 20
21.559699999999999
 30
0.0
 10
-23.5869
 20
22.7056
 30
0.0
 10
-23.072299999999998
 20
24.8245
 30
0.0
 10
-22.378
 20
22.814299999999999
 30
0.0
 10
-22.378
 20
22.814299999999999
 30
0.0
 10
-22.378
 20
22.814299999999999
 30
0.0
 10
-28.769500000000001
 20
8.1287000000000003
 30
0.0
 10
-28.769500000000001
 20
8.1287000000000003
 30
0.0
  0
SPLINE
  5
4C
100
AcDbEntity
  8
RÚteg 1
 62
     7
100
AcDbSpline
210
0.0
220
0.0
230
1.0
 70
     1
 71
     3
 72
    28
 73
    24
 74
     0
 42
0.0000000001
 43
0.0000000001
 40
0.0
 40
0.0
 40
0.0
 40
0.0
 40
0.1666666666666667
 40
0.1666666666666667
 40
0.1666666666666667
 40
0.1666666666666667
 40
0.3333333333333333
 40
0.3333333333333333
 40
0.3333333333333333
 40
0.3333333333333333
 40
0.5
 40
0.5
 40
0.5
 40
0.5
 40
0.6666666666666666
 40
0.6666666666666666
 40
0.6666666666666666
 40
0.6666666666666666
 40
0.8333333333333333
 40
0.8333333333333333
 40
0.8333333333333333
 40
0.8333333333333333
 40
1.0
 40
1.0
 40
1.0
 40
1.0
 10
-24.546399999999998
 20
26.468800000000002
 30
0.0
 10
-24.546399999999998
 20
26.468800000000002
 30
0.0
 10
-23.823699999999999
 20
25.381900000000002
 30
0.0
 10
-23.823699999999999
 20
25.381900000000002
 30
0.0
 10
-23.823699999999999
 20
25.381900000000002
 30
0.0
 10
-23.823699999999999
 20
25.381900000000002
 30
0.0
 10
-28.8413
 20
14.9262
 30
0.0
 10
-28.8413
 20
14.9262
 30
0.0
 10
-28.8413
 20
14.9262
 30
0.0
 10
-28.8413
 20
14.9262
 30
0.0
 10
-34.075099999999999
 20
25.357700000000001
 30
0.0
 10
-34.075099999999999
 20
25.357700000000001
 30
0.0
 10
-34.075099999999999
 20
25.357700000000001
 30
0.0
 10
-34.075099999999999
 20
25.357700000000001
 30
0.0
 10
-33.502200000000002
 20
26.325700000000001
 30
0.0
 10
-33.502200000000002
 20
26.325700000000001
 30
0.0
 10
-33.502200000000002
 20
26.325700000000001
 30
0.0
 10
-33.502200000000002
 20
26.325700000000001
 30
0.0
 10
-28.84
 20
18.013999999999999
 30
0.0
 10
-28.84
 20
18.013999999999999
 30
0.0
 10
-28.84
 20
18.013999999999999
 30
0.0
 10
-28.84
 20
18.013999999999999
 30
0.0
 10
-24.546399999999998
 20
26.468800000000002
 30
0.0
 10
-24.546399999999998
 20
26.468800000000002
 30
0.0
  0
SPLINE
  5
4D
100
AcDbEntity
  8
RÚteg 1
 62
     7
100
AcDbSpline
210
0.0
220
0.0
230
1.0
 70
     1
 71
     3
 72
    32
 73
    28
 74
     0
 42
0.0000000001
 43
0.0000000001
 40
0.0
 40
0.0
 40
0.0
 40
0.0
 40
0.1428571428571429
 40
0.1428571428571429
 40
0.1428571428571429
 40
0.1428571428571429
 40
0.2857142857142857
 40
0.2857142857142857
 40
0.2857142857142857
 40
0.2857142857142857
 40
0.4285714285714286
 40
0.4285714285714286
 40
0.4285714285714286
 40
0.4285714285714286
 40
0.5714285714285714
 40
0.5714285714285714
 40
0.5714285714285714
 40
0.5714285714285714
 40
0.7142857142857142
 40
0.7142857142857142
 40
0.7142857142857142
 40
0.7142857142857142
 40
0.857142857142857
 40
0.857142857142857
 40
0.857142857142857
 40
0.857142857142857
 40
1.0
 40
1.0
 40
1.0
 40
1.0
 10
-25.775500000000001
 20
28.451699999999999
 30
0.0
 10
-25.775500000000001
 20
28.451699999999999
 30
0.0
 10
-25.2514
 20
27.597899999999999
 30
0.0
 10
-25.2514
 20
27.597899999999999
 30
0.0
 10
-25.2514
 20
27.597899999999999
 30
0.0
 10
-25.2514
 20
27.597899999999999
 30
0.0
 10
-28.936
 20
20.498799999999999
 30
0.0
 10
-28.936
 20
20.498799999999999
 30
0.0
 10
-28.936
 20
20.498799999999999
 30
0.0
 10
-28.936
 20
20.498799999999999
 30
0.0
 10
-32.747999999999998
 20
27.4815
 30
0.0
 10
-32.747999999999998
 20
27.4815
 30
0.0
 10
-32.747999999999998
 20
27.4815
 30
0.0
 10
-32.247399999999999
 20
28.0502
 30
0.0
 10
-32.297499999999999
 20
28.717300000000002
 30
0.0
 10
-31.684999999999999
 20
27.740200000000002
 30
0.0
 10
-31.684999999999999
 20
27.740200000000002
 30
0.0
 10
-31.399899999999999
 20
27.286200000000001
 30
0.0
 10
-31.107700000000001
 20
26.869199999999999
 30
0.0
 10
-30.766500000000001
 20
26.441099999999999
 30
0.0
 10
-30.766500000000001
 20
26.441099999999999
 30
0.0
 10
-30.266999999999999
 20
25.814499999999999
 30
0.0
 10
-29.424499999999998
 20
24.361599999999999
 30
0.0
 10
-28.813099999999999
 20
24.013000000000002
 30
0.0
 10
-28.813099999999999
 20
24.013000000000002
 30
0.0
 10
-28.813099999999999
 20
24.013000000000002
 30
0.0
 10
-25.775500000000001
 20
28.451699999999999
 30
0.0
 10
-25.775500000000001
 20
28.451699999999999
 30
0.0
  0
SPLINE
  5
4E
100
AcDbEntity
  8
RÚteg 1
 62
     7
100
AcDbSpline
210
0.0
220
0.0
230
1.0
 70
     1
 71
     3
 72
    28
 73
    24
 74
     0
 42
0.0000000001
 43
0.0000000001
 40
0.0
 40
0.0
 40
0.0
 40
0.0
 40
0.1666666666666667
 40
0.1666666666666667
 40
0.1666666666666667
 40
0.1666666666666667
 40
0.3333333333333333
 40
0.3333333333333333
 40
0.3333333333333333
 40
0.3333333333333333
 40
0.5
 40
0.5
 40
0.5
 40
0.5
 40
0.6666666666666666
 40
0.6666666666666666
 40
0.6666666666666666
 40
0.6666666666666666
 40
0.8333333333333333
 40
0.8333333333333333
 40
0.8333333333333333
 40
0.8333333333333333
 40
1.0
 40
1.0
 40
1.0
 40
1.0
 10
-26.954599999999999
 20
30.808700000000002
 30
0.0
 10
-26.954599999999999
 20
30.808700000000002
 30
0.0
 10
-26.582699999999999
 20
29.6265
 30
0.0
 10
-26.582699999999999
 20
29.6265
 30
0.0
 10
-26.582699999999999
 20
29.6265
 30
0.0
 10
-26.582699999999999
 20
29.6265
 30
0.0
 10
-28.952400000000001
 20
26.6965
 30
0.0
 10
-28.952400000000001
 20
26.6965
 30
0.0
 10
-28.952400000000001
 20
26.6965
 30
0.0
 10
-28.952400000000001
 20
26.6965
 30
0.0
 10
-31.415800000000001
 20
29.7194
 30
0.0
 10
-31.415800000000001
 20
29.7194
 30
0.0
 10
-31.415800000000001
 20
29.7194
 30
0.0
 10
-31.415800000000001
 20
29.7194
 30
0.0
 10
-30.914899999999999
 20
30.727799999999998
 30
0.0
 10
-30.914899999999999
 20
30.727799999999998
 30
0.0
 10
-30.914899999999999
 20
30.727799999999998
 30
0.0
 10
-30.914899999999999
 20
30.727799999999998
 30
0.0
 10
-28.763300000000001
 20
29.295400000000001
 30
0.0
 10
-28.763300000000001
 20
29.295400000000001
 30
0.0
 10
-28.763300000000001
 20
29.295400000000001
 30
0.0
 10
-28.763300000000001
 20
29.295400000000001
 30
0.0
 10
-26.954599999999999
 20
30.808700000000002
 30
0.0
 10
-26.954599999999999
 20
30.808700000000002
 30
0.0
  0
SPLINE
  5
4F
100
AcDbEntity
  8
RÚteg 1
 62
     7
100
AcDbSpline
210
0.0
220
0.0
230
1.0
 70
     1
 71
     3
 72
    28
 73
    24
 74
     0
 42
0.0000000001
 43
0.0000000001
 40
0.0
 40
0.0
 40
0.0
 40
0.0
 40
0.1666666666666667
 40
0.1666666666666667
 40
0.1666666666666667
 40
0.1666666666666667
 40
0.3333333333333333
 40
0.3333333333333333
 40
0.3333333333333333
 40
0.3333333333333333
 40
0.5
 40
0.5
 40
0.5
 40
0.5
 40
0.6666666666666666
 40
0.6666666666666666
 40
0.6666666666666666
 40
0.6666666666666666
 40
0.8333333333333333
 40
0.8333333333333333
 40
0.8333333333333333
 40
0.8333333333333333
 40
1.0
 40
1.0
 40
1.0
 40
1.0
 10
-34.883099999999999
 20
35.141300000000001
 30
0.0
 10
-34.883099999999999
 20
35.141300000000001
 30
0.0
 10
-35.205300000000001
 20
32.623199999999997
 30
0.0
 10
-35.205300000000001
 20
32.623199999999997
 30
0.0
 10
-35.205300000000001
 20
32.623199999999997
 30
0.0
 10
-35.205300000000001
 20
32.623199999999997
 30
0.0
 10
-32.824800000000003
 20
31.8187
 30
0.0
 10
-32.824800000000003
 20
31.8187
 30
0.0
 10
-32.824800000000003
 20
31.8187
 30
0.0
 10
-32.824800000000003
 20
31.8187
 30
0.0
 10
-33.581400000000002
 20
30.8277
 30
0.0
 10
-33.581400000000002
 20
30.8277
 30
0.0
 10
-33.581400000000002
 20
30.8277
 30
0.0
 10
-33.581400000000002
 20
30.8277
 30
0.0
 10
-37.421199999999999
 20
31.299600000000002
 30
0.0
 10
-37.421199999999999
 20
31.299600000000002
 30
0.0
 10
-37.421199999999999
 20
31.299600000000002
 30
0.0
 10
-37.421199999999999
 20
31.299600000000002
 30
0.0
 10
-35.823399999999999
 20
35.064900000000002
 30
0.0
 10
-35.823399999999999
 20
35.064900000000002
 30
0.0
 10
-35.823399999999999
 20
35.064900000000002
 30
0.0
 10
-35.823399999999999
 20
35.064900000000002
 30
0.0
 10
-34.883099999999999
 20
35.141300000000001
 30
0.0
 10
-34.883099999999999
 20
35.141300000000001
 30
0.0
  0
SPLINE
  5
50
100
AcDbEntity
  8
RÚteg 1
 62
     7
100
AcDbSpline
210
0.0
220
0.0
230
1.0
 70
     1
 71
     3
 72
    28
 73
    24
 74
     0
 42
0.0000000001
 43
0.0000000001
 40
0.0
 40
0.0
 40
0.0
 40
0.0
 40
0.1666666666666667
 40
0.1666666666666667
 40
0.1666666666666667
 40
0.1666666666666667
 40
0.3333333333333333
 40
0.3333333333333333
 40
0.3333333333333333
 40
0.3333333333333333
 40
0.5
 40
0.5
 40
0.5
 40
0.5
 40
0.6666666666666666
 40
0.6666666666666666
 40
0.6666666666666666
 40
0.6666666666666666
 40
0.8333333333333333
 40
0.8333333333333333
 40
0.8333333333333333
 40
0.8333333333333333
 40
1.0
 40
1.0
 40
1.0
 40
1.0
 10
-50.456299999999999
 20
23.779299999999999
 30
0.0
 10
-50.456299999999999
 20
23.779299999999999
 30
0.0
 10
-36.725200000000001
 20
24.994499999999999
 30
0.0
 10
-36.725200000000001
 20
24.994499999999999
 30
0.0
 10
-36.725200000000001
 20
24.994499999999999
 30
0.0
 10
-36.725200000000001
 20
24.994499999999999
 30
0.0
 10
-37.278100000000002
 20
23.666899999999998
 30
0.0
 10
-37.278100000000002
 20
23.666899999999998
 30
0.0
 10
-37.278100000000002
 20
23.666899999999998
 30
0.0
 10
-37.278100000000002
 20
23.666899999999998
 30
0.0
 10
-53.402299999999997
 20
21.922599999999999
 30
0.0
 10
-53.402299999999997
 20
21.922599999999999
 30
0.0
 10
-53.402299999999997
 20
21.922599999999999
 30
0.0
 10
-53.402299999999997
 20
21.922599999999999
 30
0.0
 10
-43.929000000000002
 20
35.348100000000002
 30
0.0
 10
-43.929000000000002
 20
35.348100000000002
 30
0.0
 10
-43.929000000000002
 20
35.348100000000002
 30
0.0
 10
-43.929000000000002
 20
35.348100000000002
 30
0.0
 10
-42.6492
 20
35.024700000000003
 30
0.0
 10
-42.6492
 20
35.024700000000003
 30
0.0
 10
-42.6492
 20
35.024700000000003
 30
0.0
 10
-42.6492
 20
35.024700000000003
 30
0.0
 10
-50.456299999999999
 20
23.779299999999999
 30
0.0
 10
-50.456299999999999
 20
23.779299999999999
 30
0.0
  0
SPLINE
  5
51
100
AcDbEntity
  8
RÚteg 1
 62
     7
100
AcDbSpline
210
0.0
220
0.0
230
1.0
 70
     1
 71
     3
 72
    28
 73
    24
 74
     0
 42
0.0000000001
 43
0.0000000001
 40
0.0
 40
0.0
 40
0.0
 40
0.0
 40
0.1666666666666667
 40
0.1666666666666667
 40
0.1666666666666667
 40
0.1666666666666667
 40
0.3333333333333333
 40
0.3333333333333333
 40
0.3333333333333333
 40
0.3333333333333333
 40
0.5
 40
0.5
 40
0.5
 40
0.5
 40
0.6666666666666666
 40
0.6666666666666666
 40
0.6666666666666666
 40
0.6666666666666666
 40
0.8333333333333333
 40
0.8333333333333333
 40
0.8333333333333333
 40
0.8333333333333333
 40
1.0
 40
1.0
 40
1.0
 40
1.0
 10
-39.660600000000002
 20
35.168100000000003
 30
0.0
 10
-39.660600000000002
 20
35.168100000000003
 30
0.0
 10
-44.814100000000003
 20
27.091699999999999
 30
0.0
 10
-44.814100000000003
 20
27.091699999999999
 30
0.0
 10
-44.814100000000003
 20
27.091699999999999
 30
0.0
 10
-44.814100000000003
 20
27.091699999999999
 30
0.0
 10
-35.172199999999997
 20
27.5365
 30
0.0
 10
-35.172199999999997
 20
27.5365
 30
0.0
 10
-35.172199999999997
 20
27.5365
 30
0.0
 10
-35.172199999999997
 20
27.5365
 30
0.0
 10
-35.989400000000003
 20
26.1982
 30
0.0
 10
-35.989400000000003
 20
26.1982
 30
0.0
 10
-35.989400000000003
 20
26.1982
 30
0.0
 10
-35.989400000000003
 20
26.1982
 30
0.0
 10
-47.6008
 20
25.3322
 30
0.0
 10
-47.6008
 20
25.3322
 30
0.0
 10
-47.6008
 20
25.3322
 30
0.0
 10
-47.6008
 20
25.3322
 30
0.0
 10
-41.036000000000001
 20
35.1785
 30
0.0
 10
-41.036000000000001
 20
35.1785
 30
0.0
 10
-41.036000000000001
 20
35.1785
 30
0.0
 10
-41.036000000000001
 20
35.1785
 30
0.0
 10
-39.660600000000002
 20
35.168100000000003
 30
0.0
 10
-39.660600000000002
 20
35.168100000000003
 30
0.0
  0
SPLINE
  5
52
100
AcDbEntity
  8
RÚteg 1
 62
     7
100
AcDbSpline
210
0.0
220
0.0
230
1.0
 70
     1
 71
     3
 72
    24
 73
    20
 74
     0
 42
0.0000000001
 43
0.0000000001
 40
0.0
 40
0.0
 40
0.0
 40
0.0
 40
0.2
 40
0.2
 40
0.2
 40
0.2
 40
0.4
 40
0.4
 40
0.4
 40
0.4
 40
0.6000000000000001
 40
0.6000000000000001
 40
0.6000000000000001
 40
0.6000000000000001
 40
0.8
 40
0.8
 40
0.8
 40
0.8
 40
1.0
 40
1.0
 40
1.0
 40
1.0
 10
-28.1021
 20
32.661200000000001
 30
0.0
 10
-28.1021
 20
32.661200000000001
 30
0.0
 10
-27.648800000000001
 20
32.186100000000003
 30
0.0
 10
-27.648800000000001
 20
32.186100000000003
 30
0.0
 10
-27.648800000000001
 20
32.186100000000003
 30
0.0
 10
-27.648800000000001
 20
32.186100000000003
 30
0.0
 10
-28.959299999999999
 20
30.873899999999999
 30
0.0
 10
-28.959299999999999
 20
30.873899999999999
 30
0.0
 10
-28.959299999999999
 20
30.873899999999999
 30
0.0
 10
-28.959299999999999
 20
30.873899999999999
 30
0.0
 10
-30.271699999999999
 20
32.016300000000001
 30
0.0
 10
-30.271699999999999
 20
32.016300000000001
 30
0.0
 10
-30.271699999999999
 20
32.016300000000001
 30
0.0
 10
-30.271699999999999
 20
32.016300000000001
 30
0.0
 10
-29.802800000000001
 20
32.642099999999999
 30
0.0
 10
-29.802800000000001
 20
32.642099999999999
 30
0.0
 10
-29.802800000000001
 20
32.642099999999999
 30
0.0
 10
-29.802800000000001
 20
32.642099999999999
 30
0.0
 10
-28.1021
 20
32.661200000000001
 30
0.0
 10
-28.1021
 20
32.661200000000001
 30
0.0
  0
SPLINE
  5
53
100
AcDbEntity
  8
RÚteg 1
 62
     7
100
AcDbSpline
210
0.0
220
0.0
230
1.0
 70
     1
 71
     3
 72
    28
 73
    24
 74
     0
 42
0.0000000001
 43
0.0000000001
 40
0.0
 40
0.0
 40
0.0
 40
0.0
 40
0.1666666666666667
 40
0.1666666666666667
 40
0.1666666666666667
 40
0.1666666666666667
 40
0.3333333333333333
 40
0.3333333333333333
 40
0.3333333333333333
 40
0.3333333333333333
 40
0.5
 40
0.5
 40
0.5
 40
0.5
 40
0.6666666666666666
 40
0.6666666666666666
 40
0.6666666666666666
 40
0.6666666666666666
 40
0.8333333333333333
 40
0.8333333333333333
 40
0.8333333333333333
 40
0.8333333333333333
 40
1.0
 40
1.0
 40
1.0
 40
1.0
 10
-37.346899999999998
 20
35.1967
 30
0.0
 10
-37.346899999999998
 20
35.1967
 30
0.0
 10
-39.733800000000002
 20
30.094200000000001
 30
0.0
 10
-39.733800000000002
 20
30.094200000000001
 30
0.0
 10
-39.733800000000002
 20
30.094200000000001
 30
0.0
 10
-39.733800000000002
 20
30.094200000000001
 30
0.0
 10
-34.029000000000003
 20
29.567900000000002
 30
0.0
 10
-34.029000000000003
 20
29.567900000000002
 30
0.0
 10
-34.029000000000003
 20
29.567900000000002
 30
0.0
 10
-34.029000000000003
 20
29.567900000000002
 30
0.0
 10
-34.789099999999998
 20
28.514800000000001
 30
0.0
 10
-34.789099999999998
 20
28.514800000000001
 30
0.0
 10
-34.789099999999998
 20
28.514800000000001
 30
0.0
 10
-34.789099999999998
 20
28.514800000000001
 30
0.0
 10
-42.690300000000001
 20
28.216200000000001
 30
0.0
 10
-42.690300000000001
 20
28.216200000000001
 30
0.0
 10
-42.690300000000001
 20
28.216200000000001
 30
0.0
 10
-42.690300000000001
 20
28.216200000000001
 30
0.0
 10
-38.4251
 20
35.096499999999999
 30
0.0
 10
-38.4251
 20
35.096499999999999
 30
0.0
 10
-38.4251
 20
35.096499999999999
 30
0.0
 10
-38.4251
 20
35.096499999999999
 30
0.0
 10
-37.346899999999998
 20
35.1967
 30
0.0
 10
-37.346899999999998
 20
35.1967
 30
0.0
  0
SPLINE
  5
54
100
AcDbEntity
  8
RÚteg 1
 62
     7
100
AcDbSpline
210
0.0
220
0.0
230
1.0
 70
     1
 71
     3
 72
    24
 73
    20
 74
     0
 42
0.0000000001
 43
0.0000000001
 40
0.0
 40
0.0
 40
0.0
 40
0.0
 40
0.2
 40
0.2
 40
0.2
 40
0.2
 40
0.4
 40
0.4
 40
0.4
 40
0.4
 40
0.6000000000000001
 40
0.6000000000000001
 40
0.6000000000000001
 40
0.6000000000000001
 40
0.8
 40
0.8
 40
0.8
 40
0.8
 40
1.0
 40
1.0
 40
1.0
 40
1.0
 10
-32.3855
 20
35.301099999999998
 30
0.0
 10
-32.407200000000003
 20
34.455100000000002
 30
0.0
 10
-32.260199999999998
 20
34.204999999999998
 30
0.0
 10
-31.531500000000001
 20
33.822499999999998
 30
0.0
 10
-31.531500000000001
 20
33.822499999999998
 30
0.0
 10
-31.745999999999999
 20
33.4131
 30
0.0
 10
-31.839700000000001
 20
32.977899999999998
 30
0.0
 10
-32.334200000000003
 20
33.106299999999997
 30
0.0
 10
-32.334200000000003
 20
33.106299999999997
 30
0.0
 10
-32.334200000000003
 20
33.106299999999997
 30
0.0
 10
-33.633899999999997
 20
33.444000000000003
 30
0.0
 10
-33.633899999999997
 20
33.444000000000003
 30
0.0
 10
-33.633899999999997
 20
33.444000000000003
 30
0.0
 10
-33.633899999999997
 20
33.444000000000003
 30
0.0
 10
-33.2911
 20
35.335299999999997
 30
0.0
 10
-33.2911
 20
35.335299999999997
 30
0.0
 10
-33.2911
 20
35.335299999999997
 30
0.0
 10
-33.2911
 20
35.335299999999997
 30
0.0
 10
-32.3855
 20
35.301099999999998
 30
0.0
 10
-32.3855
 20
35.301099999999998
 30
0.0
  0
SPLINE
  5
55
100
AcDbEntity
  8
RÚteg 1
 62
     7
100
AcDbSpline
210
0.0
220
0.0
230
1.0
 70
     1
 71
     3
 72
    28
 73
    24
 74
     0
 42
0.0000000001
 43
0.0000000001
 40
0.0
 40
0.0
 40
0.0
 40
0.0
 40
0.1666666666666667
 40
0.1666666666666667
 40
0.1666666666666667
 40
0.1666666666666667
 40
0.3333333333333333
 40
0.3333333333333333
 40
0.3333333333333333
 40
0.3333333333333333
 40
0.5
 40
0.5
 40
0.5
 40
0.5
 40
0.6666666666666666
 40
0.6666666666666666
 40
0.6666666666666666
 40
0.6666666666666666
 40
0.8333333333333333
 40
0.8333333333333333
 40
0.8333333333333333
 40
0.8333333333333333
 40
1.0
 40
1.0
 40
1.0
 40
1.0
 10
-26.411899999999999
 20
33.762099999999997
 30
0.0
 10
-26.384
 20
33.813099999999999
 30
0.0
 10
-25.669
 20
34.435499999999998
 30
0.0
 10
-25.663499999999999
 20
34.456099999999999
 30
0.0
 10
-25.663499999999999
 20
34.456099999999999
 30
0.0
 10
-25.5228
 20
35.000100000000003
 30
0.0
 10
-25.6875
 20
34.753700000000002
 30
0.0
 10
-25.5837
 20
35.337200000000003
 30
0.0
 10
-25.5837
 20
35.337200000000003
 30
0.0
 10
-25.5837
 20
35.337200000000003
 30
0.0
 10
-24.6782
 20
35.302500000000002
 30
0.0
 10
-24.6782
 20
35.302500000000002
 30
0.0
 10
-24.6782
 20
35.302500000000002
 30
0.0
 10
-24.6782
 20
35.302500000000002
 30
0.0
 10
-24.372399999999999
 20
33.502800000000001
 30
0.0
 10
-24.372399999999999
 20
33.502800000000001
 30
0.0
 10
-24.372399999999999
 20
33.502800000000001
 30
0.0
 10
-24.372399999999999
 20
33.502800000000001
 30
0.0
 10
-26.037800000000001
 20
33.010399999999997
 30
0.0
 10
-26.037800000000001
 20
33.010399999999997
 30
0.0
 10
-26.037800000000001
 20
33.010399999999997
 30
0.0
 10
-26.037800000000001
 20
33.010399999999997
 30
0.0
 10
-26.411899999999999
 20
33.762099999999997
 30
0.0
 10
-26.411899999999999
 20
33.762099999999997
 30
0.0
  0
SPLINE
  5
56
100
AcDbEntity
  8
RÚteg 1
 62
     7
100
AcDbSpline
210
0.0
220
0.0
230
1.0
 70
     1
 71
     3
 72
    28
 73
    24
 74
     0
 42
0.0000000001
 43
0.0000000001
 40
0.0
 40
0.0
 40
0.0
 40
0.0
 40
0.1666666666666667
 40
0.1666666666666667
 40
0.1666666666666667
 40
0.1666666666666667
 40
0.3333333333333333
 40
0.3333333333333333
 40
0.3333333333333333
 40
0.3333333333333333
 40
0.5
 40
0.5
 40
0.5
 40
0.5
 40
0.6666666666666666
 40
0.6666666666666666
 40
0.6666666666666666
 40
0.6666666666666666
 40
0.8333333333333333
 40
0.8333333333333333
 40
0.8333333333333333
 40
0.8333333333333333
 40
1.0
 40
1.0
 40
1.0
 40
1.0
 10
-22.851299999999998
 20
32.6648
 30
0.0
 10
-22.851299999999998
 20
32.6648
 30
0.0
 10
-23.301400000000001
 20
35.369399999999999
 30
0.0
 10
-23.301400000000001
 20
35.369399999999999
 30
0.0
 10
-23.301400000000001
 20
35.369399999999999
 30
0.0
 10
-23.301400000000001
 20
35.369399999999999
 30
0.0
 10
-22.400200000000002
 20
35.149999999999999
 30
0.0
 10
-22.400200000000002
 20
35.149999999999999
 30
0.0
 10
-22.400200000000002
 20
35.149999999999999
 30
0.0
 10
-22.029399999999999
 20
35.053600000000003
 30
0.0
 10
-20.764299999999999
 20
31.943100000000001
 30
0.0
 10
-20.588799999999999
 20
31.442499999999999
 30
0.0
 10
-20.588799999999999
 20
31.442499999999999
 30
0.0
 10
-20.588799999999999
 20
31.442499999999999
 30
0.0
 10
-24.4285
 20
30.8904
 30
0.0
 10
-24.4285
 20
30.8904
 30
0.0
 10
-24.4285
 20
30.8904
 30
0.0
 10
-24.4285
 20
30.8904
 30
0.0
 10
-25.275500000000001
 20
31.7531
 30
0.0
 10
-25.275500000000001
 20
31.7531
 30
0.0
 10
-25.275500000000001
 20
31.7531
 30
0.0
 10
-25.275500000000001
 20
31.7531
 30
0.0
 10
-22.851299999999998
 20
32.6648
 30
0.0
 10
-22.851299999999998
 20
32.6648
 30
0.0
  0
SPLINE
  5
57
100
AcDbEntity
  8
RÚteg 1
 62
     7
100
AcDbSpline
210
0.0
220
0.0
230
1.0
 70
     1
 71
     3
 72
    28
 73
    24
 74
     0
 42
0.0000000001
 43
0.0000000001
 40
0.0
 40
0.0
 40
0.0
 40
0.0
 40
0.1666666666666667
 40
0.1666666666666667
 40
0.1666666666666667
 40
0.1666666666666667
 40
0.3333333333333333
 40
0.3333333333333333
 40
0.3333333333333333
 40
0.3333333333333333
 40
0.5
 40
0.5
 40
0.5
 40
0.5
 40
0.6666666666666666
 40
0.6666666666666666
 40
0.6666666666666666
 40
0.6666666666666666
 40
0.8333333333333333
 40
0.8333333333333333
 40
0.8333333333333333
 40
0.8333333333333333
 40
1.0
 40
1.0
 40
1.0
 40
1.0
 10
-23.291899999999998
 20
28.753399999999999
 30
0.0
 10
-23.454499999999999
 20
28.7956
 30
0.0
 10
-23.895
 20
29.485900000000001
 30
0.0
 10
-23.970400000000001
 20
29.6997
 30
0.0
 10
-23.970400000000001
 20
29.6997
 30
0.0
 10
-23.970400000000001
 20
29.6997
 30
0.0
 10
-18.328399999999998
 20
30.152799999999999
 30
0.0
 10
-18.328399999999998
 20
30.152799999999999
 30
0.0
 10
-18.328399999999998
 20
30.152799999999999
 30
0.0
 10
-18.328399999999998
 20
30.152799999999999
 30
0.0
 10
-20.664300000000001
 20
35.282299999999999
 30
0.0
 10
-20.664300000000001
 20
35.282299999999999
 30
0.0
 10
-20.664300000000001
 20
35.282299999999999
 30
0.0
 10
-20.664300000000001
 20
35.282299999999999
 30
0.0
 10
-19.6129
 20
35.209800000000001
 30
0.0
 10
-19.6129
 20
35.209800000000001
 30
0.0
 10
-19.6129
 20
35.209800000000001
 30
0.0
 10
-19.6129
 20
35.209800000000001
 30
0.0
 10
-15.170500000000001
 20
28.389600000000002
 30
0.0
 10
-15.170500000000001
 20
28.389600000000002
 30
0.0
 10
-15.170500000000001
 20
28.389600000000002
 30
0.0
 10
-17.366599999999998
 20
28.859300000000001
 30
0.0
 10
-21.314399999999999
 20
28.2395
 30
0.0
 10
-23.291899999999998
 20
28.753399999999999
 30
0.0
  0
SPLINE
  5
58
100
AcDbEntity
  8
RÚteg 1
 62
     7
100
AcDbSpline
210
0.0
220
0.0
230
1.0
 70
     1
 71
     3
 72
    28
 73
    24
 74
     0
 42
0.0000000001
 43
0.0000000001
 40
0.0
 40
0.0
 40
0.0
 40
0.0
 40
0.1666666666666667
 40
0.1666666666666667
 40
0.1666666666666667
 40
0.1666666666666667
 40
0.3333333333333333
 40
0.3333333333333333
 40
0.3333333333333333
 40
0.3333333333333333
 40
0.5
 40
0.5
 40
0.5
 40
0.5
 40
0.6666666666666666
 40
0.6666666666666666
 40
0.6666666666666666
 40
0.6666666666666666
 40
0.8333333333333333
 40
0.8333333333333333
 40
0.8333333333333333
 40
0.8333333333333333
 40
1.0
 40
1.0
 40
1.0
 40
1.0
 10
-32.058500000000002
 20
39.510100000000001
 30
0.0
 10
-32.058500000000002
 20
39.510100000000001
 30
0.0
 10
-31.684799999999999
 20
38.758400000000002
 30
0.0
 10
-31.684799999999999
 20
38.758400000000002
 30
0.0
 10
-31.684799999999999
 20
38.758400000000002
 30
0.0
 10
-31.684799999999999
 20
38.758400000000002
 30
0.0
 10
-32.443600000000004
 20
38.076799999999999
 30
0.0
 10
-32.443600000000004
 20
38.076799999999999
 30
0.0
 10
-32.443600000000004
 20
38.076799999999999
 30
0.0
 10
-32.443600000000004
 20
38.076799999999999
 30
0.0
 10
-32.518700000000003
 20
37.0139
 30
0.0
 10
-32.518700000000003
 20
37.0139
 30
0.0
 10
-32.518700000000003
 20
37.0139
 30
0.0
 10
-32.518700000000003
 20
37.0139
 30
0.0
 10
-33.417700000000004
 20
37.241300000000003
 30
0.0
 10
-33.417700000000004
 20
37.241300000000003
 30
0.0
 10
-33.417700000000004
 20
37.241300000000003
 30
0.0
 10
-33.417700000000004
 20
37.241300000000003
 30
0.0
 10
-33.702599999999997
 20
38.9465
 30
0.0
 10
-33.702599999999997
 20
38.9465
 30
0.0
 10
-33.702599999999997
 20
38.9465
 30
0.0
 10
-33.702599999999997
 20
38.9465
 30
0.0
 10
-32.058500000000002
 20
39.510100000000001
 30
0.0
 10
-32.058500000000002
 20
39.510100000000001
 30
0.0
  0
SPLINE
  5
59
100
AcDbEntity
  8
RÚteg 1
 62
     7
100
AcDbSpline
210
0.0
220
0.0
230
1.0
 70
     1
 71
     3
 72
    28
 73
    24
 74
     0
 42
0.0000000001
 43
0.0000000001
 40
0.0
 40
0.0
 40
0.0
 40
0.0
 40
0.1666666666666667
 40
0.1666666666666667
 40
0.1666666666666667
 40
0.1666666666666667
 40
0.3333333333333333
 40
0.3333333333333333
 40
0.3333333333333333
 40
0.3333333333333333
 40
0.5
 40
0.5
 40
0.5
 40
0.5
 40
0.6666666666666666
 40
0.6666666666666666
 40
0.6666666666666666
 40
0.6666666666666666
 40
0.8333333333333333
 40
0.8333333333333333
 40
0.8333333333333333
 40
0.8333333333333333
 40
1.0
 40
1.0
 40
1.0
 40
1.0
 10
-17.115500000000001
 20
35.3217
 30
0.0
 10
-17.115500000000001
 20
35.3217
 30
0.0
 10
-10.3531
 20
25.5932
 30
0.0
 10
-10.3531
 20
25.5932
 30
0.0
 10
-10.3531
 20
25.5932
 30
0.0
 10
-10.3531
 20
25.5932
 30
0.0
 10
-22.049399999999999
 20
26.387
 30
0.0
 10
-22.049399999999999
 20
26.387
 30
0.0
 10
-22.049399999999999
 20
26.387
 30
0.0
 10
-22.049399999999999
 20
26.387
 30
0.0
 10
-22.837299999999999
 20
27.675000000000001
 30
0.0
 10
-22.837299999999999
 20
27.675000000000001
 30
0.0
 10
-22.837299999999999
 20
27.675000000000001
 30
0.0
 10
-22.837299999999999
 20
27.675000000000001
 30
0.0
 10
-13.0631
 20
27.245200000000001
 30
0.0
 10
-13.0631
 20
27.245200000000001
 30
0.0
 10
-13.0631
 20
27.245200000000001
 30
0.0
 10
-13.0631
 20
27.245200000000001
 30
0.0
 10
-18.3123
 20
35.436100000000003
 30
0.0
 10
-18.3123
 20
35.436100000000003
 30
0.0
 10
-18.3123
 20
35.436100000000003
 30
0.0
 10
-18.3123
 20
35.436100000000003
 30
0.0
 10
-17.115500000000001
 20
35.3217
 30
0.0
 10
-17.115500000000001
 20
35.3217
 30
0.0
  0
SPLINE
  5
5A
100
AcDbEntity
  8
RÚteg 1
 62
     7
100
AcDbSpline
210
0.0
220
0.0
230
1.0
 70
     1
 71
     3
 72
    28
 73
    24
 74
     0
 42
0.0000000001
 43
0.0000000001
 40
0.0
 40
0.0
 40
0.0
 40
0.0
 40
0.1666666666666667
 40
0.1666666666666667
 40
0.1666666666666667
 40
0.1666666666666667
 40
0.3333333333333333
 40
0.3333333333333333
 40
0.3333333333333333
 40
0.3333333333333333
 40
0.5
 40
0.5
 40
0.5
 40
0.5
 40
0.6666666666666666
 40
0.6666666666666666
 40
0.6666666666666666
 40
0.6666666666666666
 40
0.8333333333333333
 40
0.8333333333333333
 40
0.8333333333333333
 40
0.8333333333333333
 40
1.0
 40
1.0
 40
1.0
 40
1.0
 10
-14.144600000000001
 20
35.4499
 30
0.0
 10
-14.144600000000001
 20
35.4499
 30
0.0
 10
-4.4490999999999996
 20
22.212599999999998
 30
0.0
 10
-4.4490999999999996
 20
22.212599999999998
 30
0.0
 10
-4.4490999999999996
 20
22.212599999999998
 30
0.0
 10
-4.4490999999999996
 20
22.212599999999998
 30
0.0
 10
-20.7011
 20
23.851500000000001
 30
0.0
 10
-20.7011
 20
23.851500000000001
 30
0.0
 10
-20.7011
 20
23.851500000000001
 30
0.0
 10
-20.7011
 20
23.851500000000001
 30
0.0
 10
-21.164899999999999
 20
25.111000000000001
 30
0.0
 10
-21.164899999999999
 20
25.111000000000001
 30
0.0
 10
-21.164899999999999
 20
25.111000000000001
 30
0.0
 10
-21.164899999999999
 20
25.111000000000001
 30
0.0
 10
-7.3015999999999996
 20
23.895199999999999
 30
0.0
 10
-7.3015999999999996
 20
23.895199999999999
 30
0.0
 10
-7.3015999999999996
 20
23.895199999999999
 30
0.0
 10
-7.3015999999999996
 20
23.895199999999999
 30
0.0
 10
-15.409800000000001
 20
35.2971
 30
0.0
 10
-15.409800000000001
 20
35.2971
 30
0.0
 10
-15.409800000000001
 20
35.2971
 30
0.0
 10
-15.409800000000001
 20
35.2971
 30
0.0
 10
-14.144600000000001
 20
35.4499
 30
0.0
 10
-14.144600000000001
 20
35.4499
 30
0.0
  0
SPLINE
  5
5B
100
AcDbEntity
  8
RÚteg 1
 62
     7
100
AcDbSpline
210
0.0
220
0.0
230
1.0
 70
     1
 71
     3
 72
    28
 73
    24
 74
     0
 42
0.0000000001
 43
0.0000000001
 40
0.0
 40
0.0
 40
0.0
 40
0.0
 40
0.1666666666666667
 40
0.1666666666666667
 40
0.1666666666666667
 40
0.1666666666666667
 40
0.3333333333333333
 40
0.3333333333333333
 40
0.3333333333333333
 40
0.3333333333333333
 40
0.5
 40
0.5
 40
0.5
 40
0.5
 40
0.6666666666666666
 40
0.6666666666666666
 40
0.6666666666666666
 40
0.6666666666666666
 40
0.8333333333333333
 40
0.8333333333333333
 40
0.8333333333333333
 40
0.8333333333333333
 40
1.0
 40
1.0
 40
1.0
 40
1.0
 10
-26.565200000000001
 20
38.697600000000001
 30
0.0
 10
-26.3507
 20
39.107500000000002
 30
0.0
 10
-26.257000000000001
 20
39.542900000000003
 30
0.0
 10
-25.762499999999999
 20
39.4146
 30
0.0
 10
-25.762499999999999
 20
39.4146
 30
0.0
 10
-25.762499999999999
 20
39.4146
 30
0.0
 10
-24.462800000000001
 20
39.076900000000002
 30
0.0
 10
-24.462800000000001
 20
39.076900000000002
 30
0.0
 10
-24.462800000000001
 20
39.076900000000002
 30
0.0
 10
-24.462800000000001
 20
39.076900000000002
 30
0.0
 10
-24.772500000000001
 20
37.156999999999996
 30
0.0
 10
-24.772500000000001
 20
37.156999999999996
 30
0.0
 10
-24.772500000000001
 20
37.156999999999996
 30
0.0
 10
-24.772500000000001
 20
37.156999999999996
 30
0.0
 10
-25.566099999999999
 20
37.199800000000003
 30
0.0
 10
-25.566099999999999
 20
37.199800000000003
 30
0.0
 10
-25.566099999999999
 20
37.199800000000003
 30
0.0
 10
-25.566099999999999
 20
37.199800000000003
 30
0.0
 10
-25.431000000000001
 20
37.292200000000001
 30
0.0
 10
-25.431000000000001
 20
37.292200000000001
 30
0.0
 10
-25.431000000000001
 20
37.292200000000001
 30
0.0
 10
-25.431000000000001
 20
37.292200000000001
 30
0.0
 10
-26.565200000000001
 20
38.697600000000001
 30
0.0
 10
-26.565200000000001
 20
38.697600000000001
 30
0.0
  0
SPLINE
  5
5C
100
AcDbEntity
  8
RÚteg 1
 62
     7
100
AcDbSpline
210
0.0
220
0.0
230
1.0
 70
     1
 71
     3
 72
    28
 73
    24
 74
     0
 42
0.0000000001
 43
0.0000000001
 40
0.0
 40
0.0
 40
0.0
 40
0.0
 40
0.1666666666666667
 40
0.1666666666666667
 40
0.1666666666666667
 40
0.1666666666666667
 40
0.3333333333333333
 40
0.3333333333333333
 40
0.3333333333333333
 40
0.3333333333333333
 40
0.5
 40
0.5
 40
0.5
 40
0.5
 40
0.6666666666666666
 40
0.6666666666666666
 40
0.6666666666666666
 40
0.6666666666666666
 40
0.8333333333333333
 40
0.8333333333333333
 40
0.8333333333333333
 40
0.8333333333333333
 40
1.0
 40
1.0
 40
1.0
 40
1.0
 10
-33.668199999999999
 20
41.630400000000002
 30
0.0
 10
-33.668199999999999
 20
41.630400000000002
 30
0.0
 10
-32.821199999999997
 20
40.767499999999998
 30
0.0
 10
-32.821199999999997
 20
40.767499999999998
 30
0.0
 10
-32.821199999999997
 20
40.767499999999998
 30
0.0
 10
-32.821199999999997
 20
40.767499999999998
 30
0.0
 10
-35.186599999999999
 20
39.819899999999997
 30
0.0
 10
-35.186599999999999
 20
39.819899999999997
 30
0.0
 10
-35.186599999999999
 20
39.819899999999997
 30
0.0
 10
-35.186599999999999
 20
39.819899999999997
 30
0.0
 10
-34.787300000000002
 20
37.152799999999999
 30
0.0
 10
-34.787300000000002
 20
37.152799999999999
 30
0.0
 10
-34.787300000000002
 20
37.152799999999999
 30
0.0
 10
-34.787300000000002
 20
37.152799999999999
 30
0.0
 10
-35.696399999999997
 20
37.371000000000002
 30
0.0
 10
-35.696399999999997
 20
37.371000000000002
 30
0.0
 10
-35.696399999999997
 20
37.371000000000002
 30
0.0
 10
-36.067300000000003
 20
37.467300000000002
 30
0.0
 10
-37.3324
 20
40.577100000000002
 30
0.0
 10
-37.497199999999999
 20
41.014899999999997
 30
0.0
 10
-37.497199999999999
 20
41.014899999999997
 30
0.0
 10
-37.497199999999999
 20
41.014899999999997
 30
0.0
 10
-33.668199999999999
 20
41.630400000000002
 30
0.0
 10
-33.668199999999999
 20
41.630400000000002
 30
0.0
  0
SPLINE
  5
5D
100
AcDbEntity
  8
RÚteg 1
 62
     7
100
AcDbSpline
210
0.0
220
0.0
230
1.0
 70
     1
 71
     3
 72
    32
 73
    28
 74
     0
 42
0.0000000001
 43
0.0000000001
 40
0.0
 40
0.0
 40
0.0
 40
0.0
 40
0.1428571428571429
 40
0.1428571428571429
 40
0.1428571428571429
 40
0.1428571428571429
 40
0.2857142857142857
 40
0.2857142857142857
 40
0.2857142857142857
 40
0.2857142857142857
 40
0.4285714285714286
 40
0.4285714285714286
 40
0.4285714285714286
 40
0.4285714285714286
 40
0.5714285714285714
 40
0.5714285714285714
 40
0.5714285714285714
 40
0.5714285714285714
 40
0.7142857142857142
 40
0.7142857142857142
 40
0.7142857142857142
 40
0.7142857142857142
 40
0.857142857142857
 40
0.857142857142857
 40
0.857142857142857
 40
0.857142857142857
 40
1.0
 40
1.0
 40
1.0
 40
1.0
 10
-29.1371
 20
41.646700000000003
 30
0.0
 10
-29.1371
 20
41.646700000000003
 30
0.0
 10
-27.8169
 20
40.513599999999997
 30
0.0
 10
-27.8169
 20
40.513599999999997
 30
0.0
 10
-27.8169
 20
40.513599999999997
 30
0.0
 10
-27.8169
 20
40.513599999999997
 30
0.0
 10
-28.140999999999998
 20
39.7224
 30
0.0
 10
-28.140999999999998
 20
39.7224
 30
0.0
 10
-28.140999999999998
 20
39.7224
 30
0.0
 10
-28.140999999999998
 20
39.7224
 30
0.0
 10
-28.7254
 20
39.875900000000001
 30
0.0
 10
-28.7254
 20
39.875900000000001
 30
0.0
 10
-28.7254
 20
39.875900000000001
 30
0.0
 10
-29.004799999999999
 20
39.948300000000003
 30
0.0
 10
-28.9711
 20
39.988199999999999
 30
0.0
 10
-29.121300000000002
 20
40.132800000000003
 30
0.0
 10
-29.121300000000002
 20
40.132800000000003
 30
0.0
 10
-29.121300000000002
 20
40.132800000000003
 30
0.0
 10
-29.857600000000001
 20
39.7241
 30
0.0
 10
-29.857600000000001
 20
39.7241
 30
0.0
 10
-29.857600000000001
 20
39.7241
 30
0.0
 10
-29.857600000000001
 20
39.7241
 30
0.0
 10
-30.468299999999999
 20
40.336399999999998
 30
0.0
 10
-30.468299999999999
 20
40.336399999999998
 30
0.0
 10
-30.468299999999999
 20
40.336399999999998
 30
0.0
 10
-30.468299999999999
 20
40.336399999999998
 30
0.0
 10
-29.1371
 20
41.646700000000003
 30
0.0
 10
-29.1371
 20
41.646700000000003
 30
0.0
  0
SPLINE
  5
5E
100
AcDbEntity
  8
RÚteg 1
 62
     7
100
AcDbSpline
210
0.0
220
0.0
230
1.0
 70
     1
 71
     3
 72
    28
 73
    24
 74
     0
 42
0.0000000001
 43
0.0000000001
 40
0.0
 40
0.0
 40
0.0
 40
0.0
 40
0.1666666666666667
 40
0.1666666666666667
 40
0.1666666666666667
 40
0.1666666666666667
 40
0.3333333333333333
 40
0.3333333333333333
 40
0.3333333333333333
 40
0.3333333333333333
 40
0.5
 40
0.5
 40
0.5
 40
0.5
 40
0.6666666666666666
 40
0.6666666666666666
 40
0.6666666666666666
 40
0.6666666666666666
 40
0.8333333333333333
 40
0.8333333333333333
 40
0.8333333333333333
 40
0.8333333333333333
 40
1.0
 40
1.0
 40
1.0
 40
1.0
 10
-34.804200000000002
 20
43.795299999999997
 30
0.0
 10
-34.804200000000002
 20
43.795299999999997
 30
0.0
 10
-34.067700000000002
 20
42.866
 30
0.0
 10
-34.067700000000002
 20
42.866
 30
0.0
 10
-34.067700000000002
 20
42.866
 30
0.0
 10
-34.067700000000002
 20
42.866
 30
0.0
 10
-39.7682
 20
42.367699999999999
 30
0.0
 10
-39.7682
 20
42.367699999999999
 30
0.0
 10
-39.7682
 20
42.367699999999999
 30
0.0
 10
-39.7682
 20
42.367699999999999
 30
0.0
 10
-37.3904
 20
37.226399999999998
 30
0.0
 10
-37.3904
 20
37.226399999999998
 30
0.0
 10
-37.3904
 20
37.226399999999998
 30
0.0
 10
-37.3904
 20
37.226399999999998
 30
0.0
 10
-38.483800000000002
 20
37.311300000000003
 30
0.0
 10
-38.483800000000002
 20
37.311300000000003
 30
0.0
 10
-38.483800000000002
 20
37.311300000000003
 30
0.0
 10
-38.483800000000002
 20
37.311300000000003
 30
0.0
 10
-42.873399999999997
 20
44.093200000000003
 30
0.0
 10
-42.873399999999997
 20
44.093200000000003
 30
0.0
 10
-42.873399999999997
 20
44.093200000000003
 30
0.0
 10
-42.873399999999997
 20
44.093200000000003
 30
0.0
 10
-34.804200000000002
 20
43.795299999999997
 30
0.0
 10
-34.804200000000002
 20
43.795299999999997
 30
0.0
  0
SPLINE
  5
5F
100
AcDbEntity
  8
RÚteg 1
 62
     7
100
AcDbSpline
210
0.0
220
0.0
230
1.0
 70
     1
 71
     3
 72
    28
 73
    24
 74
     0
 42
0.0000000001
 43
0.0000000001
 40
0.0
 40
0.0
 40
0.0
 40
0.0
 40
0.1666666666666667
 40
0.1666666666666667
 40
0.1666666666666667
 40
0.1666666666666667
 40
0.3333333333333333
 40
0.3333333333333333
 40
0.3333333333333333
 40
0.3333333333333333
 40
0.5
 40
0.5
 40
0.5
 40
0.5
 40
0.6666666666666666
 40
0.6666666666666666
 40
0.6666666666666666
 40
0.6666666666666666
 40
0.8333333333333333
 40
0.8333333333333333
 40
0.8333333333333333
 40
0.8333333333333333
 40
1.0
 40
1.0
 40
1.0
 40
1.0
 10
-20.676300000000001
 20
41.215299999999999
 30
0.0
 10
-20.676300000000001
 20
41.215299999999999
 30
0.0
 10
-22.291899999999998
 20
37.437199999999997
 30
0.0
 10
-22.291899999999998
 20
37.437199999999997
 30
0.0
 10
-22.291899999999998
 20
37.437199999999997
 30
0.0
 10
-22.291899999999998
 20
37.437199999999997
 30
0.0
 10
-23.2136
 20
37.3795
 30
0.0
 10
-23.2136
 20
37.3795
 30
0.0
 10
-23.2136
 20
37.3795
 30
0.0
 10
-23.2136
 20
37.3795
 30
0.0
 10
-22.891400000000001
 20
39.898000000000003
 30
0.0
 10
-22.891400000000001
 20
39.898000000000003
 30
0.0
 10
-22.891400000000001
 20
39.898000000000003
 30
0.0
 10
-22.891400000000001
 20
39.898000000000003
 30
0.0
 10
-25.268899999999999
 20
40.709499999999998
 30
0.0
 10
-25.268899999999999
 20
40.709499999999998
 30
0.0
 10
-25.268899999999999
 20
40.709499999999998
 30
0.0
 10
-25.268899999999999
 20
40.709499999999998
 30
0.0
 10
-24.554400000000001
 20
41.6586
 30
0.0
 10
-24.554400000000001
 20
41.6586
 30
0.0
 10
-24.554400000000001
 20
41.6586
 30
0.0
 10
-24.554400000000001
 20
41.6586
 30
0.0
 10
-20.676300000000001
 20
41.215299999999999
 30
0.0
 10
-20.676300000000001
 20
41.215299999999999
 30
0.0
  0
SPLINE
  5
60
100
AcDbEntity
  8
RÚteg 1
 62
     7
100
AcDbSpline
210
0.0
220
0.0
230
1.0
 70
     1
 71
     3
 72
    28
 73
    24
 74
     0
 42
0.0000000001
 43
0.0000000001
 40
0.0
 40
0.0
 40
0.0
 40
0.0
 40
0.1666666666666667
 40
0.1666666666666667
 40
0.1666666666666667
 40
0.1666666666666667
 40
0.3333333333333333
 40
0.3333333333333333
 40
0.3333333333333333
 40
0.3333333333333333
 40
0.5
 40
0.5
 40
0.5
 40
0.5
 40
0.6666666666666666
 40
0.6666666666666666
 40
0.6666666666666666
 40
0.6666666666666666
 40
0.8333333333333333
 40
0.8333333333333333
 40
0.8333333333333333
 40
0.8333333333333333
 40
1.0
 40
1.0
 40
1.0
 40
1.0
 10
-36.047699999999999
 20
46.133899999999997
 30
0.0
 10
-36.047699999999999
 20
46.133899999999997
 30
0.0
 10
-35.259399999999999
 20
44.846299999999999
 30
0.0
 10
-35.259399999999999
 20
44.846299999999999
 30
0.0
 10
-35.259399999999999
 20
44.846299999999999
 30
0.0
 10
-35.259399999999999
 20
44.846299999999999
 30
0.0
 10
-45.0336
 20
45.275700000000001
 30
0.0
 10
-45.0336
 20
45.275700000000001
 30
0.0
 10
-45.0336
 20
45.275700000000001
 30
0.0
 10
-45.0336
 20
45.275700000000001
 30
0.0
 10
-39.738100000000003
 20
37.079300000000003
 30
0.0
 10
-39.738100000000003
 20
37.079300000000003
 30
0.0
 10
-39.738100000000003
 20
37.079300000000003
 30
0.0
 10
-39.738100000000003
 20
37.079300000000003
 30
0.0
 10
-40.983199999999997
 20
37.176699999999997
 30
0.0
 10
-40.983199999999997
 20
37.176699999999997
 30
0.0
 10
-40.983199999999997
 20
37.176699999999997
 30
0.0
 10
-41.018500000000003
 20
37.205500000000001
 30
0.0
 10
-47.456200000000003
 20
46.280900000000003
 30
0.0
 10
-47.697499999999998
 20
46.8962
 30
0.0
 10
-47.697499999999998
 20
46.8962
 30
0.0
 10
-47.697499999999998
 20
46.8962
 30
0.0
 10
-36.047699999999999
 20
46.133899999999997
 30
0.0
 10
-36.047699999999999
 20
46.133899999999997
 30
0.0
  0
SPLINE
  5
61
100
AcDbEntity
  8
RÚteg 1
 62
     7
100
AcDbSpline
210
0.0
220
0.0
230
1.0
 70
     1
 71
     3
 72
    28
 73
    24
 74
     0
 42
0.0000000001
 43
0.0000000001
 40
0.0
 40
0.0
 40
0.0
 40
0.0
 40
0.1666666666666667
 40
0.1666666666666667
 40
0.1666666666666667
 40
0.1666666666666667
 40
0.3333333333333333
 40
0.3333333333333333
 40
0.3333333333333333
 40
0.3333333333333333
 40
0.5
 40
0.5
 40
0.5
 40
0.5
 40
0.6666666666666666
 40
0.6666666666666666
 40
0.6666666666666666
 40
0.6666666666666666
 40
0.8333333333333333
 40
0.8333333333333333
 40
0.8333333333333333
 40
0.8333333333333333
 40
1.0
 40
1.0
 40
1.0
 40
1.0
 10
-29.144400000000001
 20
45.8245
 30
0.0
 10
-28.711200000000002
 20
45.606299999999997
 30
0.0
 10
-26.677600000000002
 20
43.012500000000003
 30
0.0
 10
-26.782699999999998
 20
42.608499999999999
 30
0.0
 10
-26.782699999999998
 20
42.608499999999999
 30
0.0
 10
-26.9239
 20
42.064399999999999
 30
0.0
 10
-26.948799999999999
 20
42.359400000000001
 30
0.0
 10
-27.152200000000001
 20
41.7791
 30
0.0
 10
-27.152200000000001
 20
41.7791
 30
0.0
 10
-27.152200000000001
 20
41.7791
 30
0.0
 10
-29.203499999999998
 20
43.3857
 30
0.0
 10
-29.203499999999998
 20
43.3857
 30
0.0
 10
-29.203499999999998
 20
43.3857
 30
0.0
 10
-29.203499999999998
 20
43.3857
 30
0.0
 10
-31.1419
 20
41.711599999999997
 30
0.0
 10
-31.1419
 20
41.711599999999997
 30
0.0
 10
-31.1419
 20
41.711599999999997
 30
0.0
 10
-31.1419
 20
41.711599999999997
 30
0.0
 10
-31.462499999999999
 20
42.887700000000002
 30
0.0
 10
-31.462499999999999
 20
42.887700000000002
 30
0.0
 10
-31.462499999999999
 20
42.887700000000002
 30
0.0
 10
-31.462499999999999
 20
42.887700000000002
 30
0.0
 10
-29.144400000000001
 20
45.8245
 30
0.0
 10
-29.144400000000001
 20
45.8245
 30
0.0
  0
SPLINE
  5
62
100
AcDbEntity
  8
RÚteg 1
 62
     7
100
AcDbSpline
210
0.0
220
0.0
230
1.0
 70
     1
 71
     3
 72
    28
 73
    24
 74
     0
 42
0.0000000001
 43
0.0000000001
 40
0.0
 40
0.0
 40
0.0
 40
0.0
 40
0.1666666666666667
 40
0.1666666666666667
 40
0.1666666666666667
 40
0.1666666666666667
 40
0.3333333333333333
 40
0.3333333333333333
 40
0.3333333333333333
 40
0.3333333333333333
 40
0.5
 40
0.5
 40
0.5
 40
0.5
 40
0.6666666666666666
 40
0.6666666666666666
 40
0.6666666666666666
 40
0.6666666666666666
 40
0.8333333333333333
 40
0.8333333333333333
 40
0.8333333333333333
 40
0.8333333333333333
 40
1.0
 40
1.0
 40
1.0
 40
1.0
 10
-37.395800000000001
 20
48.6691
 30
0.0
 10
-37.395800000000001
 20
48.6691
 30
0.0
 10
-36.931800000000003
 20
47.410499999999999
 30
0.0
 10
-36.931800000000003
 20
47.410499999999999
 30
0.0
 10
-36.931800000000003
 20
47.410499999999999
 30
0.0
 10
-36.931800000000003
 20
47.410499999999999
 30
0.0
 10
-50.795699999999997
 20
48.619300000000003
 30
0.0
 10
-50.795699999999997
 20
48.619300000000003
 30
0.0
 10
-50.795699999999997
 20
48.619300000000003
 30
0.0
 10
-50.795699999999997
 20
48.619300000000003
 30
0.0
 10
-42.634399999999999
 20
37.215800000000002
 30
0.0
 10
-42.634399999999999
 20
37.215800000000002
 30
0.0
 10
-42.634399999999999
 20
37.215800000000002
 30
0.0
 10
-42.634399999999999
 20
37.215800000000002
 30
0.0
 10
-43.949800000000003
 20
37.050699999999999
 30
0.0
 10
-43.949800000000003
 20
37.050699999999999
 30
0.0
 10
-43.949800000000003
 20
37.050699999999999
 30
0.0
 10
-43.949800000000003
 20
37.050699999999999
 30
0.0
 10
-53.602899999999998
 20
50.280200000000001
 30
0.0
 10
-53.602899999999998
 20
50.280200000000001
 30
0.0
 10
-53.602899999999998
 20
50.280200000000001
 30
0.0
 10
-53.602899999999998
 20
50.280200000000001
 30
0.0
 10
-37.395800000000001
 20
48.6691
 30
0.0
 10
-37.395800000000001
 20
48.6691
 30
0.0
  0
SPLINE
  5
63
100
AcDbEntity
  8
RÚteg 1
 62
     7
100
AcDbSpline
210
0.0
220
0.0
230
1.0
 70
     1
 71
     3
 72
    28
 73
    24
 74
     0
 42
0.0000000001
 43
0.0000000001
 40
0.0
 40
0.0
 40
0.0
 40
0.0
 40
0.1666666666666667
 40
0.1666666666666667
 40
0.1666666666666667
 40
0.1666666666666667
 40
0.3333333333333333
 40
0.3333333333333333
 40
0.3333333333333333
 40
0.3333333333333333
 40
0.5
 40
0.5
 40
0.5
 40
0.5
 40
0.6666666666666666
 40
0.6666666666666666
 40
0.6666666666666666
 40
0.6666666666666666
 40
0.8333333333333333
 40
0.8333333333333333
 40
0.8333333333333333
 40
0.8333333333333333
 40
1.0
 40
1.0
 40
1.0
 40
1.0
 10
-15.405900000000001
 20
44.293500000000002
 30
0.0
 10
-15.405900000000001
 20
44.293500000000002
 30
0.0
 10
-19.682600000000001
 20
37.378500000000003
 30
0.0
 10
-19.682600000000001
 20
37.378500000000003
 30
0.0
 10
-19.682600000000001
 20
37.378500000000003
 30
0.0
 10
-19.682600000000001
 20
37.378500000000003
 30
0.0
 10
-20.7498
 20
37.323700000000002
 30
0.0
 10
-20.7498
 20
37.323700000000002
 30
0.0
 10
-20.7498
 20
37.323700000000002
 30
0.0
 10
-20.7498
 20
37.323700000000002
 30
0.0
 10
-18.2988
 20
42.558700000000002
 30
0.0
 10
-18.2988
 20
42.558700000000002
 30
0.0
 10
-18.2988
 20
42.558700000000002
 30
0.0
 10
-18.2988
 20
42.558700000000002
 30
0.0
 10
-24.068100000000001
 20
42.943600000000004
 30
0.0
 10
-24.068100000000001
 20
42.943600000000004
 30
0.0
 10
-24.068100000000001
 20
42.943600000000004
 30
0.0
 10
-24.068100000000001
 20
42.943600000000004
 30
0.0
 10
-23.328499999999998
 20
43.954300000000003
 30
0.0
 10
-23.328499999999998
 20
43.954300000000003
 30
0.0
 10
-23.328499999999998
 20
43.954300000000003
 30
0.0
 10
-23.328499999999998
 20
43.954300000000003
 30
0.0
 10
-15.405900000000001
 20
44.293500000000002
 30
0.0
 10
-15.405900000000001
 20
44.293500000000002
 30
0.0
  0
SPLINE
  5
64
100
AcDbEntity
  8
RÚteg 1
 62
     7
100
AcDbSpline
210
0.0
220
0.0
230
1.0
 70
     1
 71
     3
 72
    32
 73
    28
 74
     0
 42
0.0000000001
 43
0.0000000001
 40
0.0
 40
0.0
 40
0.0
 40
0.0
 40
0.1428571428571429
 40
0.1428571428571429
 40
0.1428571428571429
 40
0.1428571428571429
 40
0.2857142857142857
 40
0.2857142857142857
 40
0.2857142857142857
 40
0.2857142857142857
 40
0.4285714285714286
 40
0.4285714285714286
 40
0.4285714285714286
 40
0.4285714285714286
 40
0.5714285714285714
 40
0.5714285714285714
 40
0.5714285714285714
 40
0.5714285714285714
 40
0.7142857142857142
 40
0.7142857142857142
 40
0.7142857142857142
 40
0.7142857142857142
 40
0.857142857142857
 40
0.857142857142857
 40
0.857142857142857
 40
0.857142857142857
 40
1.0
 40
1.0
 40
1.0
 40
1.0
 10
-29.160699999999999
 20
52.021900000000002
 30
0.0
 10
-29.160699999999999
 20
52.021900000000002
 30
0.0
 10
-25.3461
 20
45.040700000000001
 30
0.0
 10
-25.3461
 20
45.040700000000001
 30
0.0
 10
-25.3461
 20
45.040700000000001
 30
0.0
 10
-25.3461
 20
45.040700000000001
 30
0.0
 10
-25.787800000000001
 20
44.206899999999997
 30
0.0
 10
-25.787800000000001
 20
44.206899999999997
 30
0.0
 10
-25.787800000000001
 20
44.206899999999997
 30
0.0
 10
-25.787800000000001
 20
44.206899999999997
 30
0.0
 10
-29.205300000000001
 20
48.650799999999997
 30
0.0
 10
-29.205300000000001
 20
48.650799999999997
 30
0.0
 10
-29.205300000000001
 20
48.650799999999997
 30
0.0
 10
-29.205300000000001
 20
48.650799999999997
 30
0.0
 10
-32.316899999999997
 20
44.0657
 30
0.0
 10
-32.316899999999997
 20
44.0657
 30
0.0
 10
-32.316899999999997
 20
44.0657
 30
0.0
 10
-32.316899999999997
 20
44.0657
 30
0.0
 10
-32.558300000000003
 20
44.108899999999998
 30
0.0
 10
-32.558300000000003
 20
44.108899999999998
 30
0.0
 10
-32.558300000000003
 20
44.108899999999998
 30
0.0
 10
-32.558300000000003
 20
44.108899999999998
 30
0.0
 10
-32.793500000000002
 20
44.937800000000003
 30
0.0
 10
-32.793500000000002
 20
44.937800000000003
 30
0.0
 10
-32.793500000000002
 20
44.937800000000003
 30
0.0
 10
-32.793500000000002
 20
44.937800000000003
 30
0.0
 10
-29.160699999999999
 20
52.021900000000002
 30
0.0
 10
-29.160699999999999
 20
52.021900000000002
 30
0.0
  0
SPLINE
  5
65
100
AcDbEntity
  8
RÚteg 1
 62
     7
100
AcDbSpline
210
0.0
220
0.0
230
1.0
 70
     1
 71
     3
 72
    28
 73
    24
 74
     0
 42
0.0000000001
 43
0.0000000001
 40
0.0
 40
0.0
 40
0.0
 40
0.0
 40
0.1666666666666667
 40
0.1666666666666667
 40
0.1666666666666667
 40
0.1666666666666667
 40
0.3333333333333333
 40
0.3333333333333333
 40
0.3333333333333333
 40
0.3333333333333333
 40
0.5
 40
0.5
 40
0.5
 40
0.5
 40
0.6666666666666666
 40
0.6666666666666666
 40
0.6666666666666666
 40
0.6666666666666666
 40
0.8333333333333333
 40
0.8333333333333333
 40
0.8333333333333333
 40
0.8333333333333333
 40
1.0
 40
1.0
 40
1.0
 40
1.0
 10
-10.4955
 20
47.186799999999998
 30
0.0
 10
-10.4955
 20
47.186799999999998
 30
0.0
 10
-17.083500000000001
 20
37.322400000000002
 30
0.0
 10
-17.083500000000001
 20
37.322400000000002
 30
0.0
 10
-17.083500000000001
 20
37.322400000000002
 30
0.0
 10
-17.083500000000001
 20
37.322400000000002
 30
0.0
 10
-18.4361
 20
37.352899999999998
 30
0.0
 10
-18.4361
 20
37.352899999999998
 30
0.0
 10
-18.4361
 20
37.352899999999998
 30
0.0
 10
-18.4361
 20
37.352899999999998
 30
0.0
 10
-13.207700000000001
 20
45.549900000000001
 30
0.0
 10
-13.207700000000001
 20
45.549900000000001
 30
0.0
 10
-13.207700000000001
 20
45.549900000000001
 30
0.0
 10
-13.207700000000001
 20
45.549900000000001
 30
0.0
 10
-22.9236
 20
44.974400000000003
 30
0.0
 10
-22.9236
 20
44.974400000000003
 30
0.0
 10
-22.9236
 20
44.974400000000003
 30
0.0
 10
-22.9236
 20
44.974400000000003
 30
0.0
 10
-22.110800000000001
 20
46.255099999999999
 30
0.0
 10
-22.110800000000001
 20
46.255099999999999
 30
0.0
 10
-22.110800000000001
 20
46.255099999999999
 30
0.0
 10
-22.110800000000001
 20
46.255099999999999
 30
0.0
 10
-10.4955
 20
47.186799999999998
 30
0.0
 10
-10.4955
 20
47.186799999999998
 30
0.0
  0
SPLINE
  5
66
100
AcDbEntity
  8
RÚteg 1
 62
     7
100
AcDbSpline
210
0.0
220
0.0
230
1.0
 70
     1
 71
     3
 72
    28
 73
    24
 74
     0
 42
0.0000000001
 43
0.0000000001
 40
0.0
 40
0.0
 40
0.0
 40
0.0
 40
0.1666666666666667
 40
0.1666666666666667
 40
0.1666666666666667
 40
0.1666666666666667
 40
0.3333333333333333
 40
0.3333333333333333
 40
0.3333333333333333
 40
0.3333333333333333
 40
0.5
 40
0.5
 40
0.5
 40
0.5
 40
0.6666666666666666
 40
0.6666666666666666
 40
0.6666666666666666
 40
0.6666666666666666
 40
0.8333333333333333
 40
0.8333333333333333
 40
0.8333333333333333
 40
0.8333333333333333
 40
1.0
 40
1.0
 40
1.0
 40
1.0
 10
-29.2501
 20
57.592199999999998
 30
0.0
 10
-29.2501
 20
57.592199999999998
 30
0.0
 10
-24.0215
 20
47.1631
 30
0.0
 10
-24.0215
 20
47.1631
 30
0.0
 10
-24.0215
 20
47.1631
 30
0.0
 10
-24.0215
 20
47.1631
 30
0.0
 10
-24.5945
 20
46.195300000000003
 30
0.0
 10
-24.5945
 20
46.195300000000003
 30
0.0
 10
-24.5945
 20
46.195300000000003
 30
0.0
 10
-24.5945
 20
46.195300000000003
 30
0.0
 10
-29.144600000000001
 20
54.675400000000003
 30
0.0
 10
-29.144600000000001
 20
54.675400000000003
 30
0.0
 10
-29.144600000000001
 20
54.675400000000003
 30
0.0
 10
-29.144600000000001
 20
54.675400000000003
 30
0.0
 10
-33.5458
 20
46.0501
 30
0.0
 10
-33.5458
 20
46.0501
 30
0.0
 10
-33.5458
 20
46.0501
 30
0.0
 10
-33.5458
 20
46.0501
 30
0.0
 10
-34.215499999999999
 20
47.156100000000002
 30
0.0
 10
-34.215499999999999
 20
47.156100000000002
 30
0.0
 10
-34.215499999999999
 20
47.156100000000002
 30
0.0
 10
-34.215499999999999
 20
47.156100000000002
 30
0.0
 10
-29.2501
 20
57.592199999999998
 30
0.0
 10
-29.2501
 20
57.592199999999998
 30
0.0
  0
SPLINE
  5
67
100
AcDbEntity
  8
RÚteg 1
 62
     7
100
AcDbSpline
210
0.0
220
0.0
230
1.0
 70
     1
 71
     3
 72
    28
 73
    24
 74
     0
 42
0.0000000001
 43
0.0000000001
 40
0.0
 40
0.0
 40
0.0
 40
0.0
 40
0.1666666666666667
 40
0.1666666666666667
 40
0.1666666666666667
 40
0.1666666666666667
 40
0.3333333333333333
 40
0.3333333333333333
 40
0.3333333333333333
 40
0.3333333333333333
 40
0.5
 40
0.5
 40
0.5
 40
0.5
 40
0.6666666666666666
 40
0.6666666666666666
 40
0.6666666666666666
 40
0.6666666666666666
 40
0.8333333333333333
 40
0.8333333333333333
 40
0.8333333333333333
 40
0.8333333333333333
 40
1.0
 40
1.0
 40
1.0
 40
1.0
 10
-4.6740000000000004
 20
50.5989
 30
0.0
 10
-4.6740000000000004
 20
50.5989
 30
0.0
 10
-14.188599999999999
 20
37.187600000000003
 30
0.0
 10
-14.188599999999999
 20
37.187600000000003
 30
0.0
 10
-14.188599999999999
 20
37.187600000000003
 30
0.0
 10
-14.188599999999999
 20
37.187600000000003
 30
0.0
 10
-15.4672
 20
37.510399999999997
 30
0.0
 10
-15.4672
 20
37.510399999999997
 30
0.0
 10
-15.4672
 20
37.510399999999997
 30
0.0
 10
-15.4672
 20
37.510399999999997
 30
0.0
 10
-7.5610999999999997
 20
48.856999999999999
 30
0.0
 10
-7.5610999999999997
 20
48.856999999999999
 30
0.0
 10
-7.5610999999999997
 20
48.856999999999999
 30
0.0
 10
-7.5610999999999997
 20
48.856999999999999
 30
0.0
 10
-21.344000000000001
 20
47.497399999999999
 30
0.0
 10
-21.344000000000001
 20
47.497399999999999
 30
0.0
 10
-21.344000000000001
 20
47.497399999999999
 30
0.0
 10
-21.344000000000001
 20
47.497399999999999
 30
0.0
 10
-20.8186
 20
48.8538
 30
0.0
 10
-20.8186
 20
48.8538
 30
0.0
 10
-20.8186
 20
48.8538
 30
0.0
 10
-20.8186
 20
48.8538
 30
0.0
 10
-4.6740000000000004
 20
50.5989
 30
0.0
 10
-4.6740000000000004
 20
50.5989
 30
0.0
  0
SPLINE
  5
68
100
AcDbEntity
  8
RÚteg 1
 62
     7
100
AcDbSpline
210
0.0
220
0.0
230
1.0
 70
     1
 71
     3
 72
    32
 73
    28
 74
     0
 42
0.0000000001
 43
0.0000000001
 40
0.0
 40
0.0
 40
0.0
 40
0.0
 40
0.1428571428571429
 40
0.1428571428571429
 40
0.1428571428571429
 40
0.1428571428571429
 40
0.2857142857142857
 40
0.2857142857142857
 40
0.2857142857142857
 40
0.2857142857142857
 40
0.4285714285714286
 40
0.4285714285714286
 40
0.4285714285714286
 40
0.4285714285714286
 40
0.5714285714285714
 40
0.5714285714285714
 40
0.5714285714285714
 40
0.5714285714285714
 40
0.7142857142857142
 40
0.7142857142857142
 40
0.7142857142857142
 40
0.7142857142857142
 40
0.857142857142857
 40
0.857142857142857
 40
0.857142857142857
 40
0.857142857142857
 40
1.0
 40
1.0
 40
1.0
 40
1.0
 10
-29.326000000000001
 20
64.391400000000004
 30
0.0
 10
-29.326000000000001
 20
64.391400000000004
 30
0.0
 10
-22.441400000000002
 20
49.680500000000002
 30
0.0
 10
-22.441400000000002
 20
49.680500000000002
 30
0.0
 10
-22.441400000000002
 20
49.680500000000002
 30
0.0
 10
-22.441400000000002
 20
49.680500000000002
 30
0.0
 10
-23.2181
 20
48.794699999999999
 30
0.0
 10
-23.2181
 20
48.794699999999999
 30
0.0
 10
-23.2181
 20
48.794699999999999
 30
0.0
 10
-23.2181
 20
48.794699999999999
 30
0.0
 10
-23.468699999999998
 20
48.838000000000001
 30
0.0
 10
-23.468699999999998
 20
48.838000000000001
 30
0.0
 10
-23.468699999999998
 20
48.838000000000001
 30
0.0
 10
-23.468699999999998
 20
48.838000000000001
 30
0.0
 10
-29.255600000000001
 20
61.335500000000003
 30
0.0
 10
-29.255600000000001
 20
61.335500000000003
 30
0.0
 10
-29.255600000000001
 20
61.335500000000003
 30
0.0
 10
-29.255600000000001
 20
61.335500000000003
 30
0.0
 10
-35.011800000000001
 20
48.7468
 30
0.0
 10
-35.011800000000001
 20
48.7468
 30
0.0
 10
-35.011800000000001
 20
48.7468
 30
0.0
 10
-35.011800000000001
 20
48.7468
 30
0.0
 10
-35.717700000000001
 20
49.706000000000003
 30
0.0
 10
-35.717700000000001
 20
49.706000000000003
 30
0.0
 10
-35.717700000000001
 20
49.706000000000003
 30
0.0
 10
-35.717700000000001
 20
49.706000000000003
 30
0.0
 10
-29.326000000000001
 20
64.391400000000004
 30
0.0
 10
-29.326000000000001
 20
64.391400000000004
 30
0.0
  0
ENDSEC
  0
SECTION
  2
OBJECTS
  0
DICTIONARY
  5
19
100
AcDbDictionary
280
     0
281
     1
  3
ACAD_GROUP
350
1A
  3
ACAD_MLINESTYLE
350
1B
  3
ACAD_LAYOUT
350
1E
  3
ACAD_PLOTSETTINGS
350
22
  3
ACAD_PLOTSTYLENAME
350
1F
  3
ACAD_WIPEOUT_VARS
350
23
  0
DICTIONARY
  5
1A
102
{ACAD_REACTORS
330
19
102
}
100
AcDbDictionary
280
     0
281
     1
  0
DICTIONARY
  5
1B
102
{ACAD_REACTORS
330
19
102
}
100
AcDbDictionary
280
     0
281
     1
  3
Standard
350
1C
  0
MLINESTYLE
  5
1C
102
{ACAD_REACTORS
330
1B
102
}
100
AcDbMlineStyle
  2
Standard
 70
     0
  3

 62
     0
 51
90.0
 52
90.0
 71
     2
 49
0.5
 62
   256
  6
BYLAYER
 49
-0.5
 62
   256
  6
BYLAYER
  0
ACDBDICTIONARYWDFLT
  5
1F
102
{ACAD_REACTORS
330
19
102
}
100
AcDbDictionary
281
     1
  3
Normal
350
1D
100
AcDbDictionaryWithDefault
340
1D
  0
ACDBPLACEHOLDER
  5
1D
102
{ACAD_REACTORS
330
1F
102
}
  0
LAYOUT
  5
20
102
{ACAD_REACTORS
330
1E
102
}
100
AcDbPlotSettings
  1

  2

  4

  6

 40
0.0
 41
0.0
 42
0.0
 43
0.0
 44
0.0
 45
0.0
 46
0.0
 47
0.0
 48
0.0
 49
0.0
140
0.0
141
0.0
142
1.0
143
1.0
 70
  1024
 72
     0
 73
     0
 74
     0
  7

 75
     0
147
1.0
148
0.0
149
0.0
100
AcDbLayout
  1
Model
 70
     0
 71
     0
 10
0.0
 20
0.0
 11
0.0
 21
0.0
 12
0.0
 22
0.0
 32
0.0
 14
0.0
 24
0.0
 34
0.0
 15
0.0
 25
0.0
 35
0.0
146
0.0
 13
0.0
 23
0.0
 33
0.0
 16
0.0
 26
0.0
 36
0.0
 17
0.0
 27
0.0
 37
0.0
 76
     0
330
A
331
0
345
0
346
0
  0
LAYOUT
  5
21
102
{ACAD_REACTORS
330
1E
102
}
100
AcDbPlotSettings
  1

  2

  4

  6

 40
0.0
 41
0.0
 42
0.0
 43
0.0
 44
0.0
 45
0.0
 46
0.0
 47
0.0
 48
0.0
 49
0.0
140
0.0
141
0.0
142
1.0
143
1.0
 70
     0
 72
     0
 73
     0
 74
     0
  7

 75
     0
147
1.0
148
0.0
149
0.0
100
AcDbLayout
  1
Layout1
 70
     0
 71
     0
 10
0.0
 20
0.0
 11
0.0
 21
0.0
 12
0.0
 22
0.0
 32
0.0
 14
0.0
 24
0.0
 34
0.0
 15
0.0
 25
0.0
 35
0.0
146
0.0
 13
0.0
 23
0.0
 33
0.0
 16
0.0
 26
0.0
 36
0.0
 17
0.0
 27
0.0
 37
0.0
 76
     0
330
B
331
0
345
0
346
0
  0
DICTIONARY
  5
1E
102
{ACAD_REACTORS
330
19
102
}
100
AcDbDictionary
280
     0
281
     1
  3
Layout1
350
21
  3
Model
350
20
  0
DICTIONARY
  5
22
102
{ACAD_REACTORS
330
19
102
}
100
AcDbDictionary
280
     0
281
     1
  0
WIPEOUTVARIABLES
  5
23
100
AcDbWipeoutVariables
 70
     1
  0
ENDSEC
  0
EOF
