  0
SECTION
  2
HEADER
  9
$ACADVER
  1
AC1015
  9
$ACADMAINTVER
 70
     6
  9
$DWGCODEPAGE
  3
DOS850
  9
$INSBASE
 10
0.0
 20
0.0
 30
0.0
  9
$EXTMIN
 10
-98.0382
 20
19.8065
 30
1.000000E+20
  9
$EXTMAX
 10
38.5119
 20
100.3882
 30
-1.000000E+20
  9
$LIMMIN
 10
0.0
 20
0.0
  9
$LIMMAX
 10
0.0
 20
0.0
  9
$ORTHOMODE
 70
     0
  9
$REGENMODE
 70
     1
  9
$FILLMODE
 70
     1
  9
$QTEXTMODE
 70
     0
  9
$MIRRTEXT
 70
     1
  9
$LTSCALE
 40
1.0
  9
$ATTMODE
 70
     1
  9
$TEXTSIZE
 40
0.2
  9
$TRACEWID
 40
0.05
  9
$TEXTSTYLE
  7
Standard
  9
$CLAYER
  8
0
  9
$CELTYPE
  6
Continuous
  9
$CECOLOR
 62
   256
  9
$CELTSCALE
 40
1.0
  9
$DISPSILH
 70
     0
  9
$DIMSCALE
 40
1.0
  9
$DIMASZ
 40
0.18
  9
$DIMEXO
 40
0.0625
  9
$DIMDLI
 40
0.38
  9
$DIMRND
 40
0.0
  9
$DIMDLE
 40
0.0
  9
$DIMEXE
 40
0.18
  9
$DIMTP
 40
0.0
  9
$DIMTM
 40
0.0
  9
$DIMTXT
 40
0.18
  9
$DIMCEN
 40
0.09
  9
$DIMTSZ
 40
0.0
  9
$DIMTOL
 70
     0
  9
$DIMLIM
 70
     0
  9
$DIMTIH
 70
     1
  9
$DIMTOH
 70
     1
  9
$DIMSE1
 70
     0
  9
$DIMSE2
 70
     0
  9
$DIMTAD
 70
     0
  9
$DIMZIN
 70
     0
  9
$DIMBLK
  1

  9
$DIMASO
 70
     1
  9
$DIMSHO
 70
     1
  9
$DIMPOST
  1

  9
$DIMAPOST
  1

  9
$DIMALT
 70
     0
  9
$DIMALTD
 70
     2
  9
$DIMALTF
 40
25.4
  9
$DIMLFAC
 40
1.0
  9
$DIMTOFL
 70
     0
  9
$DIMTVP
 40
0.0
  9
$DIMTIX
 70
     0
  9
$DIMSOXD
 70
     0
  9
$DIMSAH
 70
     0
  9
$DIMBLK1
  1

  9
$DIMBLK2
  1

  9
$DIMSTYLE
  2
Standard
  9
$DIMCLRD
 70
     0
  9
$DIMCLRE
 70
     0
  9
$DIMCLRT
 70
     0
  9
$DIMTFAC
 40
1.0
  9
$DIMGAP
 40
0.09
  9
$DIMJUST
 70
     0
  9
$DIMSD1
 70
     0
  9
$DIMSD2
 70
     0
  9
$DIMTOLJ
 70
     1
  9
$DIMTZIN
 70
     0
  9
$DIMALTZ
 70
     0
  9
$DIMALTTZ
 70
     0
  9
$DIMUPT
 70
     0
  9
$DIMDEC
 70
     4
  9
$DIMTDEC
 70
     4
  9
$DIMALTU
 70
     2
  9
$DIMALTTD
 70
     2
  9
$DIMTXSTY
  7
Standard
  9
$DIMAUNIT
 70
     0
  9
$DIMADEC
 70
     0
  9
$DIMALTRND
 40
0.0
  9
$DIMAZIN
 70
     0
  9
$DIMDSEP
 70
     0
  9
$DIMATFIT
 70
     3
  9
$DIMFRAC
 70
     0
  9
$DIMLDRBLK
  1

  9
$DIMLUNIT
 70
     2
  9
$DIMLWD
 70
     0
  9
$DIMLWE
 70
     0
  9
$DIMTMOVE
 70
     0
  9
$LUNITS
 70
     2
  9
$LUPREC
 70
     4
  9
$SKETCHINC
 40
0.1
  9
$FILLETRAD
 40
0.0
  9
$AUNITS
 70
     0
  9
$AUPREC
 70
     0
  9
$MENU
  1
acad
  9
$ELEVATION
 40
0.0
  9
$PELEVATION
 40
0.0
  9
$THICKNESS
 40
0.0
  9
$LIMCHECK
 70
     0
  9
$CHAMFERA
 40
0.0
  9
$CHAMFERB
 40
0.0
  9
$CHAMFERC
 40
0.0
  9
$CHAMFERD
 40
0.0
  9
$SKPOLY
 70
     0
  9
$TDCREATE
 40
0.000000000
  9
$TDUCREATE
 40
0.000000000
  9
$TDUPDATE
 40
0.000000000
  9
$TDUUPDATE
 40
0.000000000
  9
$TDINDWG
 40
0.0000000000
  9
$TDUSRTIMER
 40
0.0000000000
  9
$USRTIMER
 70
     1
  9
$ANGBASE
 50
0.0
  9
$ANGDIR
 70
     0
  9
$PDMODE
 70
     0
  9
$PDSIZE
 40
0.0
  9
$PLINEWID
 40
0.0
  9
$SPLFRAME
 70
     0
  9
$SPLINETYPE
 70
     6
  9
$SPLINESEGS
 70
     8
  9
$HANDSEED
  5
5E
  9
$SURFTAB1
 70
     6
  9
$SURFTAB2
 70
     6
  9
$SURFTYPE
 70
     6
  9
$SURFU
 70
     6
  9
$SURFV
 70
     6
  9
$UCSBASE
  2

  9
$UCSNAME
  2

  9
$UCSORG
 10
0.0
 20
0.0
 30
0.0
  9
$UCSXDIR
 10
1.0
 20
0.0
 30
0.0
  9
$UCSYDIR
 10
0.0
 20
1.0
 30
0.0
  9
$UCSORTHOREF
  2

  9
$UCSORTHOVIEW
 70
     0
  9
$UCSORGTOP
 10
0.0
 20
0.0
 30
0.0
  9
$UCSORGBOTTOM
 10
0.0
 20
0.0
 30
0.0
  9
$UCSORGLEFT
 10
0.0
 20
0.0
 30
0.0
  9
$UCSORGRIGHT
 10
0.0
 20
0.0
 30
0.0
  9
$UCSORGFRONT
 10
0.0
 20
0.0
 30
0.0
  9
$UCSORGBACK
 10
0.0
 20
0.0
 30
0.0
  9
$PUCSBASE
  2

  9
$PUCSNAME
  2

  9
$PUCSORG
 10
0.0
 20
0.0
 30
0.0
  9
$PUCSXDIR
 10
1.0
 20
0.0
 30
0.0
  9
$PUCSYDIR
 10
0.0
 20
1.0
 30
0.0
  9
$PUCSORTHOREF
  2

  9
$PUCSORTHOVIEW
 70
     0
  9
$PUCSORGTOP
 10
0.0
 20
0.0
 30
0.0
  9
$PUCSORGBOTTOM
 10
0.0
 20
0.0
 30
0.0
  9
$PUCSORGLEFT
 10
0.0
 20
0.0
 30
0.0
  9
$PUCSORGRIGHT
 10
0.0
 20
0.0
 30
0.0
  9
$PUCSORGFRONT
 10
0.0
 20
0.0
 30
0.0
  9
$PUCSORGBACK
 10
0.0
 20
0.0
 30
0.0
  9
$USERI1
 70
     0
  9
$USERI2
 70
     0
  9
$USERI3
 70
     0
  9
$USERI4
 70
     0
  9
$USERI5
 70
     0
  9
$USERR1
 40
0.0
  9
$USERR2
 40
0.0
  9
$USERR3
 40
0.0
  9
$USERR4
 40
0.0
  9
$USERR5
 40
0.0
  9
$WORLDVIEW
 70
     1
  9
$SHADEDGE
 70
     3
  9
$SHADEDIF
 70
    70
  9
$TILEMODE
 70
     1
  9
$MAXACTVP
 70
    16
  9
$PINSBASE
 10
0.0
 20
0.0
 30
0.0
  9
$PLIMCHECK
 70
     0
  9
$PEXTMIN
 10
1.000000E+20
 20
1.000000E+20
 30
1.000000E+20
  9
$PEXTMAX
 10
-1.000000E+20
 20
-1.000000E+20
 30
-1.000000E+20
  9
$PLIMMIN
 10
0.0
 20
0.0
  9
$PLIMMAX
 10
12.0
 20
9.0
  9
$UNITMODE
 70
     0
  9
$VISRETAIN
 70
     0
  9
$PLINEGEN
 70
     1
  9
$PSLTSCALE
 70
     0
  9
$TREEDEPTH
 70
  3020
  9
$CMLSTYLE
  2
Standard
  9
$CMLJUST
 70
     0
  9
$CMLSCALE
 40
1.0
  9
$PROXYGRAPHICS
 70
     0
  9
$MEASUREMENT
 70
     0
  9
$CELWEIGHT
370
     0
  9
$ENDCAPS
280
     0
  9
$JOINSTYLE
280
     0
  9
$LWDISPLAY
290
     0
  9
$INSUNITS
 70
     4
  9
$HYPERLINKBASE
  1

  9
$XEDIT
290
     1
  9
$CEPSNTYPE
380
     0
  9
$PSTYLEMODE
290
     1
  9
$FINGERPRINTGUID
  2

  9
$VERSIONGUID
  2

  9
$EXTNAMES
290
     1
  9
$PSVPSCALE
 40
0.0
  0
ENDSEC
  0
SECTION
  2
CLASSES
  0
CLASS
  1
LWPOLYLINE
  2
AcDbPolyline
  3
AutoCAD 2000
 90
    32768
280
     0
281
     1
  0
CLASS
  1
IMAGE
  2
AcDbRasterImage
  3
ISM
 90
    32895
280
     0
281
     1
  0
CLASS
  1
OLE2FRAME
  2
AcDbOle2Frame
  3
AutoCAD 2000
 90
    32768
280
     0
281
     1
  0
CLASS
  1
HATCH
  2
AcDbHatch
  3
AutoCAD 2000
 90
    32768
280
     0
281
     1
  0
CLASS
  1
DICTIONARYVAR
  2
AcDbDictionaryVar
  3
AutoCAD 2000
 90
    32768
280
     0
281
     0
  0
CLASS
  1
RASTERVARIABLES
  2
AcDbRasterVariables
  3
ISM
 90
    32768
280
     0
281
     0
  0
CLASS
  1
IMAGEDEF
  2
AcDbRasterImageDef
  3
ISM
 90
    32768
280
     0
281
     0
  0
CLASS
  1
IMAGEDEF_REACTOR
  2
AcDbRasterImageDefReactor
  3
ISM
 90
    32769
280
     0
281
     0
  0
CLASS
  1
IDBUFFER
  2
AcDbIdBuffer
  3
AutoCAD 2000
 90
    32768
280
     0
281
     0
  0
CLASS
  1
SPATIAL_FILTER
  2
AcDbSpatialFilter
  3
AutoCAD 2000
 90
    32768
280
     0
281
     0
  0
CLASS
  1
XRECORD
  2
AcDbXrecord
  3
AutoCAD 2000
 90
    32768
280
     0
281
     0
  0
CLASS
  1
SORTENTSTABLE
  2
AcDbSortentsTable
  3
AutoCAD 2000
 90
    32768
280
     0
281
     0
  0
CLASS
  1
LAYER_INDEX
  2
AcDbLayerIndex
  3
AutoCAD 2000
 90
    32768
280
     0
281
     0
  0
CLASS
  1
SPATIAL_INDEX
  2
AcDbSpatialIndex
  3
AutoCAD 2000
 90
    32768
280
     0
281
     0
  0
CLASS
  1
OBJECT_PTR
  2
CAseDLPNTableRecord
  3
"ASE-LPNTableRecord"
 90
    32769
280
     0
281
     0
  0
CLASS
  1
LAYOUT
  2
AcDbLayout
  3
AutoCAD 2000
 90
        0
280
     0
281
     0
  0
CLASS
  1
PLOTSETTINGS
  2
AcDbPlotSettings
  3
AutoCAD 2000
 90
    32768
280
     0
281
     0
  0
CLASS
  1
ACDBDICTIONARYWDFLT
  2
AcDbDictionaryWithDefault
  3
AutoCAD 2000
 90
        0
280
     0
281
     0
  0
CLASS
  1
ACDBPLACEHOLDER
  2
AcDbPlaceHolder
  3
AutoCAD 2000
 90
        0
280
     0
281
     0
  0
CLASS
  1
VBA_PROJECT
  2
AcDbVbaProject
  3
acadvba
 90
    32768
280
     0
281
     0
  0
CLASS
  1
WIPEOUT
  2
AcDbWipeout
  3
WipeOut|AutoCAD Express Tool|expresstools@autodesk.com
 90
    32895
280
     0
281
     1
  0
CLASS
  1
WIPEOUTVARIABLES
  2
AcDbWipeoutVariables
  3
WipeOut|AutoCAD Express Tool|expresstools@autodesk.com
 90
        0
280
     0
281
     0
  0
CLASS
  1
RTEXT
  2
RText
  3
RText|AutoCAD Express Tool|expresstools@autodesk.com
 90
    32768
280
     0
281
     1
  0
CLASS
  1
ARCALIGNEDTEXT
  2
AcDbArcAlignedText
  3
ATEXT|AutoCAD Express Tool|expresstools@autodesk.com
 90
    32768
280
     0
281
     1
  0
ENDSEC
  0
SECTION
  2
TABLES
  0
TABLE
  2
VPORT
  5
7
100
AcDbSymbolTable
 70
     1
  0
VPORT
  5
15
100
AcDbSymbolTableRecord
100
AcDbViewportTableRecord
  2
*ACTIVE
 70
     0
 10
0.0
 20
0.0
 11
1.0
 21
1.0
 12
6.591288
 22
4.579184
 13
0.0
 23
0.0
 14
1.0
 24
1.0
 15
0.0
 25
0.0
 16
0.0
 26
0.0
 36
1.0
 17
0.0
 27
0.0
 37
0.0
 40
9.158369
 41
0.688564
 42
50.0
 43
0.0
 44
0.0
 50
0.0
 51
0.0
 71
     0
 72
   100
 73
     1
 74
     1
 75
     0
 76
     0
 77
     0
 78
     0
281
     0
 65
     0
110
0.0
120
0.0
130
0.0
111
1.0
121
0.0
131
0.0
112
0.0
122
1.0
132
0.0
345
0
346
0
 79
     0
146
0.0
  0
ENDTAB
  0
TABLE
  2
LTYPE
  5
4
100
AcDbSymbolTable
 70
     3
  0
LTYPE
  5
11
100
AcDbSymbolTableRecord
100
AcDbLinetypeTableRecord
  2
ByBlock
 70
    64
  3

 72
    65
 73
     0
 40
0.0
  0
LTYPE
  5
12
100
AcDbSymbolTableRecord
100
AcDbLinetypeTableRecord
  2
ByLayer
 70
    64
  3

 72
    65
 73
     0
 40
0.0
  0
LTYPE
  5
13
100
AcDbSymbolTableRecord
100
AcDbLinetypeTableRecord
  2
Continuous
 70
    64
  3
Solid line
 72
    65
 73
     0
 40
0.0
  0
ENDTAB
  0
TABLE
  2
LAYER
  5
2
100
AcDbSymbolTable
 70
     2
  0
LAYER
  5
14
100
AcDbSymbolTableRecord
100
AcDbLayerTableRecord
  2
0
 70
     0
 62
     7
  6
Continuous
290
     1
370
    -3
390
1D
  0
LAYER
  5
24
100
AcDbSymbolTableRecord
100
AcDbLayerTableRecord
  2
RÚteg 1
 70
     0
 62
     7
  6
Continuous
290
     1
370
    -3
390
1F
  0
ENDTAB
  0
TABLE
  2
STYLE
  5
3
100
AcDbSymbolTable
 70
     1
  0
STYLE
  5
17
100
AcDbSymbolTableRecord
100
AcDbTextStyleTableRecord
  2
Standard
 70
     0
 40
0.0
 41
1.0
 50
0.0
 71
     0
 42
0.0
  3
txt
  4

  0
ENDTAB
  0
TABLE
  2
VIEW
  5
5
100
AcDbSymbolTable
 70
     0
  0
ENDTAB
  0
TABLE
  2
UCS
  5
6
100
AcDbSymbolTable
 70
     0
  0
ENDTAB
  0
TABLE
  2
APPID
  5
8
100
AcDbSymbolTable
 70
     1
  0
APPID
  5
16
100
AcDbSymbolTableRecord
100
AcDbRegAppTableRecord
  2
ACAD
 70
     0
  0
ENDTAB
  0
TABLE
  2
DIMSTYLE
  5
9
100
AcDbSymbolTable
 70
     1
100
AcDbDimStyleTable
 71
     0
  0
DIMSTYLE
105
18
100
AcDbSymbolTableRecord
100
AcDbDimStyleTableRecord
  2
Standard
 70
     0
  3

  4

 40
1.0
 41
0.18
 42
0.0625
 43
0.38
 44
0.18
 45
0.0
 46
0.0
 47
0.0
 48
0.0
 71
     0
 72
     0
 73
     1
 74
     1
 75
     0
 76
     0
 77
     0
 78
     0
 79
     0
140
0.18
141
0.09
142
0.0
143
25.4
144
1.0
145
0.0
146
1.0
147
0.09
148
0.0
170
     0
171
     2
172
     0
173
     0
174
     0
175
     0
176
     0
177
     0
178
     0
179
     0
271
     4
272
     4
273
     2
274
     2
275
     0
276
     0
277
     2
278
    46
279
     0
280
     0
281
     0
282
     0
283
     1
284
     0
285
     0
286
     0
288
     0
340
17
341
0
342
0
343
0
344
0
371
    -2
372
    -2
  0
ENDTAB
  0
TABLE
  2
BLOCK_RECORD
  5
1
100
AcDbSymbolTable
 70
     0
  0
BLOCK_RECORD
  5
A
100
AcDbSymbolTableRecord
100
AcDbBlockTableRecord
  2
*MODEL_SPACE
340
20
  0
BLOCK_RECORD
  5
B
100
AcDbSymbolTableRecord
100
AcDbBlockTableRecord
  2
*PAPER_SPACE
340
21
  0
ENDTAB
  0
ENDSEC
  0
SECTION
  2
BLOCKS
  0
BLOCK
  5
D
100
AcDbEntity
  8
0
100
AcDbBlockBegin
  2
*MODEL_SPACE
 70
     0
 10
0.0
 20
0.0
 30
0.0
  3
*MODEL_SPACE
  1

  0
ENDBLK
  5
E
100
AcDbEntity
  8
0
100
AcDbBlockEnd
  0
BLOCK
  5
F
100
AcDbEntity
 67
     1
  8
0
100
AcDbBlockBegin
  2
*PAPER_SPACE
 70
     0
 10
0.0
 20
0.0
 30
0.0
  3
*PAPER_SPACE
  1

  0
ENDBLK
  5
10
100
AcDbEntity
 67
     1
  8
0
100
AcDbBlockEnd
  0
ENDSEC
  0
SECTION
  2
ENTITIES
  0
SPLINE
  5
25
100
AcDbEntity
  8
RÚteg 1
 62
     7
100
AcDbSpline
210
0.0
220
0.0
230
1.0
 70
     1
 71
     3
 72
    60
 73
    56
 74
     0
 42
0.0000000001
 43
0.0000000001
 40
0.0
 40
0.0
 40
0.0
 40
0.0
 40
0.0714285714285714
 40
0.0714285714285714
 40
0.0714285714285714
 40
0.0714285714285714
 40
0.1428571428571429
 40
0.1428571428571429
 40
0.1428571428571429
 40
0.1428571428571429
 40
0.2142857142857143
 40
0.2142857142857143
 40
0.2142857142857143
 40
0.2142857142857143
 40
0.2857142857142857
 40
0.2857142857142857
 40
0.2857142857142857
 40
0.2857142857142857
 40
0.3571428571428571
 40
0.3571428571428571
 40
0.3571428571428571
 40
0.3571428571428571
 40
0.4285714285714285
 40
0.4285714285714285
 40
0.4285714285714285
 40
0.4285714285714285
 40
0.4999999999999999
 40
0.4999999999999999
 40
0.4999999999999999
 40
0.4999999999999999
 40
0.5714285714285713
 40
0.5714285714285713
 40
0.5714285714285713
 40
0.5714285714285713
 40
0.6428571428571427
 40
0.6428571428571427
 40
0.6428571428571427
 40
0.6428571428571427
 40
0.7142857142857141
 40
0.7142857142857141
 40
0.7142857142857141
 40
0.7142857142857141
 40
0.7857142857142855
 40
0.7857142857142855
 40
0.7857142857142855
 40
0.7857142857142855
 40
0.8571428571428569
 40
0.8571428571428569
 40
0.8571428571428569
 40
0.8571428571428569
 40
0.9285714285714283
 40
0.9285714285714283
 40
0.9285714285714283
 40
0.9285714285714283
 40
1.0
 40
1.0
 40
1.0
 40
1.0
 10
-59.941200000000002
 20
87.499300000000005
 30
0.0
 10
-43.133499999999998
 20
85.481300000000005
 30
0.0
 10
-30.099900000000002
 20
71.170500000000004
 30
0.0
 10
-30.099900000000002
 20
53.819699999999997
 30
0.0
 10
-30.099900000000002
 20
53.819699999999997
 30
0.0
 10
-30.099900000000002
 20
35.086799999999997
 30
0.0
 10
-45.292000000000002
 20
19.8947
 30
0.0
 10
-64.025099999999995
 20
19.8947
 30
0.0
 10
-64.025099999999995
 20
19.8947
 30
0.0
 10
-82.758099999999999
 20
19.8947
 30
0.0
 10
-97.950000000000003
 20
35.086799999999997
 30
0.0
 10
-97.950000000000003
 20
53.819699999999997
 30
0.0
 10
-97.950000000000003
 20
53.819699999999997
 30
0.0
 10
-97.950000000000003
 20
71.170500000000004
 30
0.0
 10
-84.916600000000003
 20
85.481300000000005
 30
0.0
 10
-68.108800000000002
 20
87.499300000000005
 30
0.0
 10
-68.108800000000002
 20
87.499300000000005
 30
0.0
 10
-68.108800000000002
 20
87.499300000000005
 30
0.0
 10
-68.108800000000002
 20
92.891499999999994
 30
0.0
 10
-68.108800000000002
 20
92.891499999999994
 30
0.0
 10
-68.108800000000002
 20
92.891499999999994
 30
0.0
 10
-68.108800000000002
 20
93.272900000000007
 30
0.0
 10
-67.796800000000005
 20
93.584500000000006
 30
0.0
 10
-67.415700000000001
 20
93.584500000000006
 30
0.0
 10
-67.415700000000001
 20
93.584500000000006
 30
0.0
 10
-67.415700000000001
 20
93.584500000000006
 30
0.0
 10
-67.402900000000002
 20
93.584500000000006
 30
0.0
 10
-67.402900000000002
 20
93.584500000000006
 30
0.0
 10
-67.402900000000002
 20
93.584500000000006
 30
0.0
 10
-67.924000000000007
 20
94.284899999999993
 30
0.0
 10
-68.232399999999998
 20
95.152799999999999
 30
0.0
 10
-68.232399999999998
 20
96.092600000000004
 30
0.0
 10
-68.232399999999998
 20
96.092600000000004
 30
0.0
 10
-68.232399999999998
 20
98.415999999999997
 30
0.0
 10
-66.348299999999995
 20
100.3
 30
0.0
 10
-64.025099999999995
 20
100.3
 30
0.0
 10
-64.025099999999995
 20
100.3
 30
0.0
 10
-61.701700000000002
 20
100.3
 30
0.0
 10
-59.817399999999999
 20
98.415999999999997
 30
0.0
 10
-59.817399999999999
 20
96.092600000000004
 30
0.0
 10
-59.817399999999999
 20
96.092600000000004
 30
0.0
 10
-59.817399999999999
 20
95.152799999999999
 30
0.0
 10
-60.125999999999998
 20
94.284899999999993
 30
0.0
 10
-60.646999999999998
 20
93.584500000000006
 30
0.0
 10
-60.646999999999998
 20
93.584500000000006
 30
0.0
 10
-60.646999999999998
 20
93.584500000000006
 30
0.0
 10
-60.634399999999999
 20
93.584500000000006
 30
0.0
 10
-60.634399999999999
 20
93.584500000000006
 30
0.0
 10
-60.634399999999999
 20
93.584500000000006
 30
0.0
 10
-60.253300000000003
 20
93.584500000000006
 30
0.0
 10
-59.941200000000002
 20
93.272900000000007
 30
0.0
 10
-59.941200000000002
 20
92.891499999999994
 30
0.0
 10
-59.941200000000002
 20
92.891499999999994
 30
0.0
 10
-59.941200000000002
 20
92.891499999999994
 30
0.0
 10
-59.941200000000002
 20
87.499300000000005
 30
0.0
 10
-59.941200000000002
 20
87.499300000000005
 30
0.0
  0
SPLINE
  5
26
100
AcDbEntity
  8
RÚteg 1
 62
     7
100
AcDbSpline
210
0.0
220
0.0
230
1.0
 70
     1
 71
     3
 72
    20
 73
    16
 74
     0
 42
0.0000000001
 43
0.0000000001
 40
0.0
 40
0.0
 40
0.0
 40
0.0
 40
0.25
 40
0.25
 40
0.25
 40
0.25
 40
0.5
 40
0.5
 40
0.5
 40
0.5
 40
0.75
 40
0.75
 40
0.75
 40
0.75
 40
1.0
 40
1.0
 40
1.0
 40
1.0
 10
-64.025099999999995
 20
98.349400000000003
 30
0.0
 10
-62.7789
 20
98.349400000000003
 30
0.0
 10
-61.7684
 20
97.338899999999995
 30
0.0
 10
-61.7684
 20
96.092600000000004
 30
0.0
 10
-61.7684
 20
96.092600000000004
 30
0.0
 10
-61.7684
 20
94.846400000000003
 30
0.0
 10
-62.7789
 20
93.835999999999999
 30
0.0
 10
-64.025099999999995
 20
93.835999999999999
 30
0.0
 10
-64.025099999999995
 20
93.835999999999999
 30
0.0
 10
-65.271100000000004
 20
93.835999999999999
 30
0.0
 10
-66.281800000000004
 20
94.846400000000003
 30
0.0
 10
-66.281800000000004
 20
96.092600000000004
 30
0.0
 10
-66.281800000000004
 20
96.092600000000004
 30
0.0
 10
-66.281800000000004
 20
97.338899999999995
 30
0.0
 10
-65.271100000000004
 20
98.349400000000003
 30
0.0
 10
-64.025099999999995
 20
98.349400000000003
 30
0.0
  0
SPLINE
  5
27
100
AcDbEntity
  8
RÚteg 1
 62
     7
100
AcDbSpline
210
0.0
220
0.0
230
1.0
 70
     1
 71
     3
 72
    96
 73
    92
 74
     0
 42
0.0000000001
 43
0.0000000001
 40
0.0
 40
0.0
 40
0.0
 40
0.0
 40
0.0434782608695652
 40
0.0434782608695652
 40
0.0434782608695652
 40
0.0434782608695652
 40
0.0869565217391304
 40
0.0869565217391304
 40
0.0869565217391304
 40
0.0869565217391304
 40
0.1304347826086957
 40
0.1304347826086957
 40
0.1304347826086957
 40
0.1304347826086957
 40
0.1739130434782609
 40
0.1739130434782609
 40
0.1739130434782609
 40
0.1739130434782609
 40
0.2173913043478261
 40
0.2173913043478261
 40
0.2173913043478261
 40
0.2173913043478261
 40
0.2608695652173913
 40
0.2608695652173913
 40
0.2608695652173913
 40
0.2608695652173913
 40
0.3043478260869565
 40
0.3043478260869565
 40
0.3043478260869565
 40
0.3043478260869565
 40
0.3478260869565217
 40
0.3478260869565217
 40
0.3478260869565217
 40
0.3478260869565217
 40
0.3913043478260869
 40
0.3913043478260869
 40
0.3913043478260869
 40
0.3913043478260869
 40
0.4347826086956521
 40
0.4347826086956521
 40
0.4347826086956521
 40
0.4347826086956521
 40
0.4782608695652173
 40
0.4782608695652173
 40
0.4782608695652173
 40
0.4782608695652173
 40
0.5217391304347825
 40
0.5217391304347825
 40
0.5217391304347825
 40
0.5217391304347825
 40
0.5652173913043477
 40
0.5652173913043477
 40
0.5652173913043477
 40
0.5652173913043477
 40
0.6086956521739129
 40
0.6086956521739129
 40
0.6086956521739129
 40
0.6086956521739129
 40
0.6521739130434781
 40
0.6521739130434781
 40
0.6521739130434781
 40
0.6521739130434781
 40
0.6956521739130432
 40
0.6956521739130432
 40
0.6956521739130432
 40
0.6956521739130432
 40
0.7391304347826084
 40
0.7391304347826084
 40
0.7391304347826084
 40
0.7391304347826084
 40
0.7826086956521736
 40
0.7826086956521736
 40
0.7826086956521736
 40
0.7826086956521736
 40
0.8260869565217388
 40
0.8260869565217388
 40
0.8260869565217388
 40
0.8260869565217388
 40
0.869565217391304
 40
0.869565217391304
 40
0.869565217391304
 40
0.869565217391304
 40
0.9130434782608692
 40
0.9130434782608692
 40
0.9130434782608692
 40
0.9130434782608692
 40
0.9565217391304344
 40
0.9565217391304344
 40
0.9565217391304344
 40
0.9565217391304344
 40
1.0
 40
1.0
 40
1.0
 40
1.0
 10
-46.200699999999998
 20
69.993399999999994
 30
0.0
 10
-46.200699999999998
 20
69.993399999999994
 30
0.0
 10
-46.200699999999998
 20
66.692899999999995
 30
0.0
 10
-46.200699999999998
 20
66.692899999999995
 30
0.0
 10
-46.200699999999998
 20
66.692899999999995
 30
0.0
 10
-49.127200000000002
 20
67.474199999999996
 30
0.0
 10
-46.8994
 20
72.304100000000005
 30
0.0
 10
-48.841200000000001
 20
72.304100000000005
 30
0.0
 10
-48.841200000000001
 20
72.304100000000005
 30
0.0
 10
-49.896999999999998
 20
72.304100000000005
 30
0.0
 10
-52.018000000000001
 20
70.867000000000004
 30
0.0
 10
-51.902999999999999
 20
69.647800000000004
 30
0.0
 10
-51.902999999999999
 20
69.647800000000004
 30
0.0
 10
-51.902999999999999
 20
69.647800000000004
 30
0.0
 10
-51.152099999999997
 20
64.712100000000007
 30
0.0
 10
-51.152099999999997
 20
64.712100000000007
 30
0.0
 10
-51.152099999999997
 20
64.712100000000007
 30
0.0
 10
-51.002699999999997
 20
63.838700000000003
 30
0.0
 10
-51.403199999999998
 20
64.021799999999999
 30
0.0
 10
-51.8339
 20
63.715800000000002
 30
0.0
 10
-51.8339
 20
63.715800000000002
 30
0.0
 10
-51.8339
 20
63.715800000000002
 30
0.0
 10
-52.802399999999999
 20
67.352800000000002
 30
0.0
 10
-52.802399999999999
 20
67.352800000000002
 30
0.0
 10
-52.802399999999999
 20
67.352800000000002
 30
0.0
 10
-54.0047
 20
67.252899999999997
 30
0.0
 10
-55.442799999999998
 20
66.555999999999997
 30
0.0
 10
-55.442799999999998
 20
65.372399999999999
 30
0.0
 10
-55.442799999999998
 20
65.372399999999999
 30
0.0
 10
-55.442799999999998
 20
65.372399999999999
 30
0.0
 10
-55.442799999999998
 20
62.7318
 30
0.0
 10
-55.442799999999998
 20
62.7318
 30
0.0
 10
-55.442799999999998
 20
62.7318
 30
0.0
 10
-55.442799999999998
 20
60.091299999999997
 30
0.0
 10
-51.846499999999999
 20
56.790300000000002
 30
0.0
 10
-49.501399999999997
 20
56.790300000000002
 30
0.0
 10
-49.501399999999997
 20
56.790300000000002
 30
0.0
 10
-48.4816
 20
56.790300000000002
 30
0.0
 10
-47.314
 20
57.764099999999999
 30
0.0
 10
-46.766800000000003
 20
58.564100000000003
 30
0.0
 10
-46.766800000000003
 20
58.564100000000003
 30
0.0
 10
-46.766800000000003
 20
58.564100000000003
 30
0.0
 10
-50.161799999999999
 20
61.411499999999997
 30
0.0
 10
-50.161799999999999
 20
61.411499999999997
 30
0.0
 10
-50.161799999999999
 20
61.411499999999997
 30
0.0
 10
-47.528399999999998
 20
61.352800000000002
 30
0.0
 10
-45.2012
 20
58.770899999999997
 30
0.0
 10
-44.220500000000001
 20
58.770899999999997
 30
0.0
 10
-44.220500000000001
 20
58.770899999999997
 30
0.0
 10
-44.220500000000001
 20
58.770899999999997
 30
0.0
 10
-43.560299999999998
 20
58.770899999999997
 30
0.0
 10
-43.560299999999998
 20
58.770899999999997
 30
0.0
 10
-43.560299999999998
 20
58.770899999999997
 30
0.0
 10
-42.093699999999998
 20
58.770899999999997
 30
0.0
 10
-41.504899999999999
 20
59.547499999999999
 30
0.0
 10
-40.821599999999997
 20
60.549300000000002
 30
0.0
 10
-40.821599999999997
 20
60.549300000000002
 30
0.0
 10
-40.821599999999997
 20
60.549300000000002
 30
0.0
 10
-45.438600000000001
 20
64.084500000000006
 30
0.0
 10
-45.438600000000001
 20
64.084500000000006
 30
0.0
 10
-45.438600000000001
 20
64.084500000000006
 30
0.0
 10
-45.438600000000001
 20
64.084500000000006
 30
0.0
 10
-45.2104
 20
64.382000000000005
 30
0.0
 10
-45.2104
 20
64.382000000000005
 30
0.0
 10
-45.2104
 20
64.382000000000005
 30
0.0
 10
-45.204300000000003
 20
64.3874
 30
0.0
 10
-44.594900000000003
 20
64.712100000000007
 30
0.0
 10
-44.550400000000003
 20
64.712100000000007
 30
0.0
 10
-44.550400000000003
 20
64.712100000000007
 30
0.0
 10
-43.108499999999999
 20
64.712100000000007
 30
0.0
 10
-43.351700000000001
 20
64.052199999999999
 30
0.0
 10
-41.909999999999997
 20
64.052199999999999
 30
0.0
 10
-41.909999999999997
 20
64.052199999999999
 30
0.0
 10
-41.909999999999997
 20
64.052199999999999
 30
0.0
 10
-41.249600000000001
 20
64.052199999999999
 30
0.0
 10
-41.249600000000001
 20
64.052199999999999
 30
0.0
 10
-41.249600000000001
 20
64.052199999999999
 30
0.0
 10
-39.749899999999997
 20
64.052199999999999
 30
0.0
 10
-36.628799999999998
 20
66.034599999999998
 30
0.0
 10
-36.628799999999998
 20
67.352800000000002
 30
0.0
 10
-36.628799999999998
 20
67.352800000000002
 30
0.0
 10
-36.628799999999998
 20
67.352800000000002
 30
0.0
 10
-36.628799999999998
 20
68.343199999999996
 30
0.0
 10
-36.628799999999998
 20
68.343199999999996
 30
0.0
 10
-36.628799999999998
 20
68.343199999999996
 30
0.0
 10
-36.628799999999998
 20
70.847499999999997
 30
0.0
 10
-39.323900000000002
 20
73.294300000000007
 30
0.0
 10
-41.909999999999997
 20
73.294300000000007
 30
0.0
 10
-41.909999999999997
 20
73.294300000000007
 30
0.0
 10
-42.8217
 20
73.294300000000007
 30
0.0
 10
-46.200699999999998
 20
71.158600000000007
 30
0.0
 10
-46.200699999999998
 20
69.993399999999994
 30
0.0
  0
SPLINE
  5
28
100
AcDbEntity
  8
RÚteg 1
 62
     7
100
AcDbSpline
210
0.0
220
0.0
230
1.0
 70
     1
 71
     3
 72
    80
 73
    76
 74
     0
 42
0.0000000001
 43
0.0000000001
 40
0.0
 40
0.0
 40
0.0
 40
0.0
 40
0.0526315789473684
 40
0.0526315789473684
 40
0.0526315789473684
 40
0.0526315789473684
 40
0.1052631578947368
 40
0.1052631578947368
 40
0.1052631578947368
 40
0.1052631578947368
 40
0.1578947368421053
 40
0.1578947368421053
 40
0.1578947368421053
 40
0.1578947368421053
 40
0.2105263157894737
 40
0.2105263157894737
 40
0.2105263157894737
 40
0.2105263157894737
 40
0.2631578947368421
 40
0.2631578947368421
 40
0.2631578947368421
 40
0.2631578947368421
 40
0.3157894736842105
 40
0.3157894736842105
 40
0.3157894736842105
 40
0.3157894736842105
 40
0.3684210526315789
 40
0.3684210526315789
 40
0.3684210526315789
 40
0.3684210526315789
 40
0.4210526315789474
 40
0.4210526315789474
 40
0.4210526315789474
 40
0.4210526315789474
 40
0.4736842105263158
 40
0.4736842105263158
 40
0.4736842105263158
 40
0.4736842105263158
 40
0.5263157894736842
 40
0.5263157894736842
 40
0.5263157894736842
 40
0.5263157894736842
 40
0.5789473684210527
 40
0.5789473684210527
 40
0.5789473684210527
 40
0.5789473684210527
 40
0.631578947368421
 40
0.631578947368421
 40
0.631578947368421
 40
0.631578947368421
 40
0.6842105263157894
 40
0.6842105263157894
 40
0.6842105263157894
 40
0.6842105263157894
 40
0.7368421052631577
 40
0.7368421052631577
 40
0.7368421052631577
 40
0.7368421052631577
 40
0.7894736842105261
 40
0.7894736842105261
 40
0.7894736842105261
 40
0.7894736842105261
 40
0.8421052631578945
 40
0.8421052631578945
 40
0.8421052631578945
 40
0.8421052631578945
 40
0.8947368421052628
 40
0.8947368421052628
 40
0.8947368421052628
 40
0.8947368421052628
 40
0.9473684210526312
 40
0.9473684210526312
 40
0.9473684210526312
 40
0.9473684210526312
 40
1.0
 40
1.0
 40
1.0
 40
1.0
 10
-46.5276
 20
51.506599999999999
 30
0.0
 10
-47.8611
 20
51.819299999999998
 30
0.0
 10
-48.180199999999999
 20
52.499499999999998
 30
0.0
 10
-49.501399999999997
 20
52.499499999999998
 30
0.0
 10
-49.501399999999997
 20
52.499499999999998
 30
0.0
 10
-51.098199999999999
 20
52.499499999999998
 30
0.0
 10
-54.122599999999998
 20
49.183599999999998
 30
0.0
 10
-54.122599999999998
 20
46.227800000000002
 30
0.0
 10
-54.122599999999998
 20
46.227800000000002
 30
0.0
 10
-54.122599999999998
 20
46.227800000000002
 30
0.0
 10
-54.122599999999998
 20
44.247500000000002
 30
0.0
 10
-54.122599999999998
 20
44.247500000000002
 30
0.0
 10
-54.122599999999998
 20
44.247500000000002
 30
0.0
 10
-54.122599999999998
 20
42.545999999999999
 30
0.0
 10
-53.220999999999997
 20
41.645699999999998
 30
0.0
 10
-51.481999999999999
 20
41.606900000000003
 30
0.0
 10
-51.481999999999999
 20
41.606900000000003
 30
0.0
 10
-51.481999999999999
 20
41.606900000000003
 30
0.0
 10
-50.353400000000001
 20
44.976700000000001
 30
0.0
 10
-50.353400000000001
 20
44.976700000000001
 30
0.0
 10
-50.353400000000001
 20
44.976700000000001
 30
0.0
 10
-50.161799999999999
 20
40.200899999999997
 30
0.0
 10
-50.142899999999997
 20
37.904200000000003
 30
0.0
 10
-46.200699999999998
 20
36.985999999999997
 30
0.0
 10
-46.200699999999998
 20
36.985999999999997
 30
0.0
 10
-46.200699999999998
 20
36.985999999999997
 30
0.0
 10
-45.633000000000003
 20
42.608699999999999
 30
0.0
 10
-45.633000000000003
 20
42.608699999999999
 30
0.0
 10
-45.633000000000003
 20
42.608699999999999
 30
0.0
 10
-45.633000000000003
 20
42.608699999999999
 30
0.0
 10
-44.880499999999998
 20
42.597000000000001
 30
0.0
 10
-44.880499999999998
 20
42.597000000000001
 30
0.0
 10
-44.880499999999998
 20
42.597000000000001
 30
0.0
 10
-44.634599999999999
 20
39.642800000000001
 30
0.0
 10
-41.679099999999998
 20
36.655799999999999
 30
0.0
 10
-39.269300000000001
 20
36.655799999999999
 30
0.0
 10
-39.269300000000001
 20
36.655799999999999
 30
0.0
 10
-38.378599999999999
 20
36.655799999999999
 30
0.0
 10
-35.308300000000003
 20
39.1858
 30
0.0
 10
-35.308300000000003
 20
41.606900000000003
 30
0.0
 10
-35.308300000000003
 20
41.606900000000003
 30
0.0
 10
-35.308300000000003
 20
41.606900000000003
 30
0.0
 10
-35.308300000000003
 20
42.927300000000002
 30
0.0
 10
-35.308300000000003
 20
42.927300000000002
 30
0.0
 10
-35.308300000000003
 20
42.927300000000002
 30
0.0
 10
-35.308300000000003
 20
44.826099999999997
 30
0.0
 10
-38.4756
 20
46.558300000000003
 30
0.0
 10
-40.259300000000003
 20
46.558300000000003
 30
0.0
 10
-40.259300000000003
 20
46.558300000000003
 30
0.0
 10
-42.265300000000003
 20
46.558300000000003
 30
0.0
 10
-41.990000000000002
 20
45.287500000000001
 30
0.0
 10
-44.220500000000001
 20
45.237699999999997
 30
0.0
 10
-44.220500000000001
 20
45.237699999999997
 30
0.0
 10
-44.220500000000001
 20
45.237699999999997
 30
0.0
 10
-44.465000000000003
 20
45.495800000000003
 30
0.0
 10
-44.465000000000003
 20
45.495800000000003
 30
0.0
 10
-44.465000000000003
 20
45.495800000000003
 30
0.0
 10
-44.465000000000003
 20
45.495800000000003
 30
0.0
 10
-40.237000000000002
 20
49.505299999999998
 30
0.0
 10
-40.237000000000002
 20
49.505299999999998
 30
0.0
 10
-40.237000000000002
 20
49.505299999999998
 30
0.0
 10
-40.645099999999999
 20
50.104599999999998
 30
0.0
 10
-41.327599999999997
 20
51.179200000000002
 30
0.0
 10
-42.240099999999998
 20
51.179200000000002
 30
0.0
 10
-42.240099999999998
 20
51.179200000000002
 30
0.0
 10
-42.240099999999998
 20
51.179200000000002
 30
0.0
 10
-42.900100000000002
 20
51.179200000000002
 30
0.0
 10
-42.900100000000002
 20
51.179200000000002
 30
0.0
 10
-42.900100000000002
 20
51.179200000000002
 30
0.0
 10
-45.180199999999999
 20
51.179200000000002
 30
0.0
 10
-46.424599999999998
 20
48.518599999999999
 30
0.0
 10
-49.423200000000001
 20
48.091900000000003
 30
0.0
 10
-49.423200000000001
 20
48.091900000000003
 30
0.0
 10
-49.423200000000001
 20
48.091900000000003
 30
0.0
 10
-46.5276
 20
51.506599999999999
 30
0.0
 10
-46.5276
 20
51.506599999999999
 30
0.0
  0
SPLINE
  5
29
100
AcDbEntity
  8
RÚteg 1
 62
     7
100
AcDbSpline
210
0.0
220
0.0
230
1.0
 70
     1
 71
     3
 72
    88
 73
    84
 74
     0
 42
0.0000000001
 43
0.0000000001
 40
0.0
 40
0.0
 40
0.0
 40
0.0
 40
0.0476190476190476
 40
0.0476190476190476
 40
0.0476190476190476
 40
0.0476190476190476
 40
0.0952380952380952
 40
0.0952380952380952
 40
0.0952380952380952
 40
0.0952380952380952
 40
0.1428571428571429
 40
0.1428571428571429
 40
0.1428571428571429
 40
0.1428571428571429
 40
0.1904761904761905
 40
0.1904761904761905
 40
0.1904761904761905
 40
0.1904761904761905
 40
0.2380952380952381
 40
0.2380952380952381
 40
0.2380952380952381
 40
0.2380952380952381
 40
0.2857142857142857
 40
0.2857142857142857
 40
0.2857142857142857
 40
0.2857142857142857
 40
0.3333333333333333
 40
0.3333333333333333
 40
0.3333333333333333
 40
0.3333333333333333
 40
0.3809523809523809
 40
0.3809523809523809
 40
0.3809523809523809
 40
0.3809523809523809
 40
0.4285714285714286
 40
0.4285714285714286
 40
0.4285714285714286
 40
0.4285714285714286
 40
0.4761904761904762
 40
0.4761904761904762
 40
0.4761904761904762
 40
0.4761904761904762
 40
0.5238095238095237
 40
0.5238095238095237
 40
0.5238095238095237
 40
0.5238095238095237
 40
0.5714285714285714
 40
0.5714285714285714
 40
0.5714285714285714
 40
0.5714285714285714
 40
0.6190476190476191
 40
0.6190476190476191
 40
0.6190476190476191
 40
0.6190476190476191
 40
0.6666666666666667
 40
0.6666666666666667
 40
0.6666666666666667
 40
0.6666666666666667
 40
0.7142857142857144
 40
0.7142857142857144
 40
0.7142857142857144
 40
0.7142857142857144
 40
0.7619047619047621
 40
0.7619047619047621
 40
0.7619047619047621
 40
0.7619047619047621
 40
0.8095238095238098
 40
0.8095238095238098
 40
0.8095238095238098
 40
0.8095238095238098
 40
0.8571428571428574
 40
0.8571428571428574
 40
0.8571428571428574
 40
0.8571428571428574
 40
0.9047619047619051
 40
0.9047619047619051
 40
0.9047619047619051
 40
0.9047619047619051
 40
0.9523809523809528
 40
0.9523809523809528
 40
0.9523809523809528
 40
0.9523809523809528
 40
1.0
 40
1.0
 40
1.0
 40
1.0
 10
-72.606999999999999
 20
44.577800000000003
 30
0.0
 10
-72.606999999999999
 20
47.641500000000001
 30
0.0
 10
-76.027900000000002
 20
50.518900000000002
 30
0.0
 10
-78.548500000000004
 20
50.518900000000002
 30
0.0
 10
-78.548500000000004
 20
50.518900000000002
 30
0.0
 10
-78.548500000000004
 20
50.518900000000002
 30
0.0
 10
-78.878500000000003
 20
50.518900000000002
 30
0.0
 10
-78.878500000000003
 20
50.518900000000002
 30
0.0
 10
-78.878500000000003
 20
50.518900000000002
 30
0.0
 10
-79.650999999999996
 20
50.518900000000002
 30
0.0
 10
-80.198800000000006
 20
49.971499999999999
 30
0.0
 10
-80.198800000000006
 20
49.198700000000002
 30
0.0
 10
-80.198800000000006
 20
49.198700000000002
 30
0.0
 10
-80.198800000000006
 20
48.1845
 30
0.0
 10
-78.424400000000006
 20
47.028500000000001
 30
0.0
 10
-77.888199999999998
 20
46.227800000000002
 30
0.0
 10
-77.888199999999998
 20
46.227800000000002
 30
0.0
 10
-80.740399999999994
 20
46.291600000000003
 30
0.0
 10
-81.648899999999998
 20
48.538699999999999
 30
0.0
 10
-83.829499999999996
 20
48.538699999999999
 30
0.0
 10
-83.829499999999996
 20
48.538699999999999
 30
0.0
 10
-83.829499999999996
 20
48.538699999999999
 30
0.0
 10
-85.150000000000006
 20
48.538699999999999
 30
0.0
 10
-85.150000000000006
 20
48.538699999999999
 30
0.0
 10
-85.150000000000006
 20
48.538699999999999
 30
0.0
 10
-85.762799999999999
 20
48.538699999999999
 30
0.0
 10
-87.130300000000005
 20
47.722099999999998
 30
0.0
 10
-87.130300000000005
 20
46.888199999999998
 30
0.0
 10
-87.130300000000005
 20
46.888199999999998
 30
0.0
 10
-87.130300000000005
 20
46.629899999999999
 30
0.0
 10
-83.115799999999993
 20
44.325499999999998
 30
0.0
 10
-82.179199999999994
 20
42.927300000000002
 30
0.0
 10
-82.179199999999994
 20
42.927300000000002
 30
0.0
 10
-84.928100000000001
 20
42.927300000000002
 30
0.0
 10
-84.952100000000002
 20
43.917499999999997
 30
0.0
 10
-86.800299999999993
 20
43.917499999999997
 30
0.0
 10
-86.800299999999993
 20
43.917499999999997
 30
0.0
 10
-87.778099999999995
 20
43.917499999999997
 30
0.0
 10
-90.761399999999995
 20
41.779200000000003
 30
0.0
 10
-90.761399999999995
 20
39.956600000000002
 30
0.0
 10
-90.761399999999995
 20
39.956600000000002
 30
0.0
 10
-90.761399999999995
 20
39.956600000000002
 30
0.0
 10
-90.761399999999995
 20
36.985999999999997
 30
0.0
 10
-90.761399999999995
 20
36.985999999999997
 30
0.0
 10
-90.761399999999995
 20
36.985999999999997
 30
0.0
 10
-90.761399999999995
 20
35.747300000000003
 30
0.0
 10
-88.063100000000006
 20
34.345399999999998
 30
0.0
 10
-86.800299999999993
 20
34.345399999999998
 30
0.0
 10
-86.800299999999993
 20
34.345399999999998
 30
0.0
 10
-86.800299999999993
 20
34.345399999999998
 30
0.0
 10
-86.140299999999996
 20
34.345399999999998
 30
0.0
 10
-86.140299999999996
 20
34.345399999999998
 30
0.0
 10
-86.140299999999996
 20
34.345399999999998
 30
0.0
 10
-84.307699999999997
 20
34.345399999999998
 30
0.0
 10
-81.519099999999995
 20
36.287799999999997
 30
0.0
 10
-81.519099999999995
 20
38.3063
 30
0.0
 10
-81.519099999999995
 20
38.3063
 30
0.0
 10
-81.519099999999995
 20
38.3063
 30
0.0
 10
-81.519099999999995
 20
40.616700000000002
 30
0.0
 10
-81.519099999999995
 20
40.616700000000002
 30
0.0
 10
-81.519099999999995
 20
40.616700000000002
 30
0.0
 10
-78.717299999999994
 20
40.310000000000002
 30
0.0
 10
-81.391999999999996
 20
35.335500000000003
 30
0.0
 10
-78.878500000000003
 20
35.335500000000003
 30
0.0
 10
-78.878500000000003
 20
35.335500000000003
 30
0.0
 10
-75.285300000000007
 20
35.335500000000003
 30
0.0
 10
-76.567999999999998
 20
40.533999999999999
 30
0.0
 10
-76.567999999999998
 20
43.917499999999997
 30
0.0
 10
-76.567999999999998
 20
43.917499999999997
 30
0.0
 10
-76.567999999999998
 20
43.917499999999997
 30
0.0
 10
-75.617400000000004
 20
43.209400000000002
 30
0.0
 10
-75.617400000000004
 20
43.209400000000002
 30
0.0
 10
-75.617400000000004
 20
43.209400000000002
 30
0.0
 10
-75.577500000000001
 20
41.787500000000001
 30
0.0
 10
-76.017899999999997
 20
40.286499999999997
 30
0.0
 10
-74.587500000000006
 20
40.286499999999997
 30
0.0
 10
-74.587500000000006
 20
40.286499999999997
 30
0.0
 10
-73.792699999999996
 20
40.286499999999997
 30
0.0
 10
-72.606999999999999
 20
41.4724
 30
0.0
 10
-72.606999999999999
 20
42.267299999999999
 30
0.0
 10
-72.606999999999999
 20
42.267299999999999
 30
0.0
 10
-72.606999999999999
 20
42.267299999999999
 30
0.0
 10
-72.606999999999999
 20
44.577800000000003
 30
0.0
 10
-72.606999999999999
 20
44.577800000000003
 30
0.0
  0
SPLINE
  5
2A
100
AcDbEntity
  8
RÚteg 1
 62
     7
100
AcDbSpline
210
0.0
220
0.0
230
1.0
 70
     1
 71
     3
 72
    48
 73
    44
 74
     0
 42
0.0000000001
 43
0.0000000001
 40
0.0
 40
0.0
 40
0.0
 40
0.0
 40
0.0909090909090909
 40
0.0909090909090909
 40
0.0909090909090909
 40
0.0909090909090909
 40
0.1818181818181818
 40
0.1818181818181818
 40
0.1818181818181818
 40
0.1818181818181818
 40
0.2727272727272727
 40
0.2727272727272727
 40
0.2727272727272727
 40
0.2727272727272727
 40
0.3636363636363637
 40
0.3636363636363637
 40
0.3636363636363637
 40
0.3636363636363637
 40
0.4545454545454546
 40
0.4545454545454546
 40
0.4545454545454546
 40
0.4545454545454546
 40
0.5454545454545455
 40
0.5454545454545455
 40
0.5454545454545455
 40
0.5454545454545455
 40
0.6363636363636365
 40
0.6363636363636365
 40
0.6363636363636365
 40
0.6363636363636365
 40
0.7272727272727274
 40
0.7272727272727274
 40
0.7272727272727274
 40
0.7272727272727274
 40
0.8181818181818183
 40
0.8181818181818183
 40
0.8181818181818183
 40
0.8181818181818183
 40
0.9090909090909093
 40
0.9090909090909093
 40
0.9090909090909093
 40
0.9090909090909093
 40
1.0
 40
1.0
 40
1.0
 40
1.0
 10
-67.655799999999999
 20
55.470300000000002
 30
0.0
 10
-69.173900000000003
 20
54.453600000000002
 30
0.0
 10
-69.921000000000006
 20
54.860399999999998
 30
0.0
 10
-69.966300000000004
 20
52.829700000000003
 30
0.0
 10
-69.966300000000004
 20
52.829700000000003
 30
0.0
 10
-68.519300000000001
 20
52.4925
 30
0.0
 10
-67.325900000000004
 20
51.996400000000001
 30
0.0
 10
-67.325900000000004
 20
50.1892
 30
0.0
 10
-67.325900000000004
 20
50.1892
 30
0.0
 10
-67.325900000000004
 20
50.1892
 30
0.0
 10
-67.325900000000004
 20
48.208399999999997
 30
0.0
 10
-67.325900000000004
 20
48.208399999999997
 30
0.0
 10
-67.325900000000004
 20
48.208399999999997
 30
0.0
 10
-65.581500000000005
 20
48.353499999999997
 30
0.0
 10
-65.427099999999996
 20
49.198700000000002
 30
0.0
 10
-63.364699999999999
 20
49.198700000000002
 30
0.0
 10
-63.364699999999999
 20
49.198700000000002
 30
0.0
 10
-63.364699999999999
 20
49.198700000000002
 30
0.0
 10
-63.034599999999998
 20
49.198700000000002
 30
0.0
 10
-63.034599999999998
 20
49.198700000000002
 30
0.0
 10
-63.034599999999998
 20
49.198700000000002
 30
0.0
 10
-61.505200000000002
 20
49.198700000000002
 30
0.0
 10
-62.042099999999998
 20
48.582599999999999
 30
0.0
 10
-60.064100000000003
 20
48.538699999999999
 30
0.0
 10
-60.064100000000003
 20
48.538699999999999
 30
0.0
 10
-60.064100000000003
 20
48.538699999999999
 30
0.0
 10
-60.064100000000003
 20
50.1892
 30
0.0
 10
-60.064100000000003
 20
50.1892
 30
0.0
 10
-60.064100000000003
 20
50.1892
 30
0.0
 10
-60.064100000000003
 20
53.409700000000001
 30
0.0
 10
-58.567799999999998
 20
52.770899999999997
 30
0.0
 10
-57.4236
 20
54.4803
 30
0.0
 10
-57.4236
 20
54.4803
 30
0.0
 10
-58.273899999999998
 20
54.929900000000004
 30
0.0
 10
-59.7667
 20
55.4375
 30
0.0
 10
-60.292099999999998
 20
56.232500000000002
 30
0.0
 10
-60.292099999999998
 20
56.232500000000002
 30
0.0
 10
-61.263300000000001
 20
57.701999999999998
 30
0.0
 10
-59.901499999999999
 20
59.232399999999998
 30
0.0
 10
-61.945900000000002
 20
59.059600000000003
 30
0.0
 10
-61.945900000000002
 20
59.059600000000003
 30
0.0
 10
-66.877200000000002
 20
58.642299999999999
 30
0.0
 10
-67.655799999999999
 20
60.124499999999998
 30
0.0
 10
-67.655799999999999
 20
55.470300000000002
 30
0.0
  0
SPLINE
  5
2B
100
AcDbEntity
  8
RÚteg 1
 62
     7
100
AcDbSpline
210
0.0
220
0.0
230
1.0
 70
     1
 71
     3
 72
    28
 73
    24
 74
     0
 42
0.0000000001
 43
0.0000000001
 40
0.0
 40
0.0
 40
0.0
 40
0.0
 40
0.1666666666666667
 40
0.1666666666666667
 40
0.1666666666666667
 40
0.1666666666666667
 40
0.3333333333333333
 40
0.3333333333333333
 40
0.3333333333333333
 40
0.3333333333333333
 40
0.5
 40
0.5
 40
0.5
 40
0.5
 40
0.6666666666666666
 40
0.6666666666666666
 40
0.6666666666666666
 40
0.6666666666666666
 40
0.8333333333333333
 40
0.8333333333333333
 40
0.8333333333333333
 40
0.8333333333333333
 40
1.0
 40
1.0
 40
1.0
 40
1.0
 10
-57.753500000000003
 20
56.4604
 30
0.0
 10
-57.194099999999999
 20
55.6252
 30
0.0
 10
-55.773000000000003
 20
54.985999999999997
 30
0.0
 10
-55.773000000000003
 20
54.4803
 30
0.0
 10
-55.773000000000003
 20
54.4803
 30
0.0
 10
-55.773000000000003
 20
53.316499999999998
 30
0.0
 10
-57.093299999999999
 20
53.150700000000001
 30
0.0
 10
-57.093299999999999
 20
52.499499999999998
 30
0.0
 10
-57.093299999999999
 20
52.499499999999998
 30
0.0
 10
-57.093299999999999
 20
51.814399999999999
 30
0.0
 10
-56.127699999999997
 20
50.848999999999997
 30
0.0
 10
-55.773000000000003
 20
50.848999999999997
 30
0.0
 10
-55.773000000000003
 20
50.848999999999997
 30
0.0
 10
-54.3782
 20
50.848999999999997
 30
0.0
 10
-50.815199999999997
 20
53.834499999999998
 30
0.0
 10
-50.161799999999999
 20
54.810000000000002
 30
0.0
 10
-50.161799999999999
 20
54.810000000000002
 30
0.0
 10
-51.313200000000002
 20
55.419400000000003
 30
0.0
 10
-54.460299999999997
 20
57.450699999999998
 30
0.0
 10
-55.773000000000003
 20
57.450699999999998
 30
0.0
 10
-55.773000000000003
 20
57.450699999999998
 30
0.0
 10
-56.935099999999998
 20
57.450699999999998
 30
0.0
 10
-57.280799999999999
 20
57.140900000000002
 30
0.0
 10
-57.753500000000003
 20
56.4604
 30
0.0
  0
SPLINE
  5
2C
100
AcDbEntity
  8
RÚteg 1
 62
     7
100
AcDbSpline
210
0.0
220
0.0
230
1.0
 70
     1
 71
     3
 72
    28
 73
    24
 74
     0
 42
0.0000000001
 43
0.0000000001
 40
0.0
 40
0.0
 40
0.0
 40
0.0
 40
0.1666666666666667
 40
0.1666666666666667
 40
0.1666666666666667
 40
0.1666666666666667
 40
0.3333333333333333
 40
0.3333333333333333
 40
0.3333333333333333
 40
0.3333333333333333
 40
0.5
 40
0.5
 40
0.5
 40
0.5
 40
0.6666666666666666
 40
0.6666666666666666
 40
0.6666666666666666
 40
0.6666666666666666
 40
0.8333333333333333
 40
0.8333333333333333
 40
0.8333333333333333
 40
0.8333333333333333
 40
1.0
 40
1.0
 40
1.0
 40
1.0
 10
-62.704599999999999
 20
47.218499999999999
 30
0.0
 10
-61.6877
 20
44.942300000000003
 30
0.0
 10
-62.732999999999997
 20
45.212499999999999
 30
0.0
 10
-60.284199999999998
 20
44.0274
 30
0.0
 10
-60.284199999999998
 20
44.0274
 30
0.0
 10
-59.009300000000003
 20
43.410299999999999
 30
0.0
 10
-57.761400000000002
 20
42.576700000000002
 30
0.0
 10
-56.433300000000003
 20
42.267299999999999
 30
0.0
 10
-56.433300000000003
 20
42.267299999999999
 30
0.0
 10
-56.433300000000003
 20
42.267299999999999
 30
0.0
 10
-56.025700000000001
 20
47.872100000000003
 30
0.0
 10
-56.025700000000001
 20
47.872100000000003
 30
0.0
 10
-56.025700000000001
 20
47.872100000000003
 30
0.0
 10
-56.043900000000001
 20
48.590600000000002
 30
0.0
 10
-57.7059
 20
49.363900000000001
 30
0.0
 10
-58.413600000000002
 20
49.528799999999997
 30
0.0
 10
-58.413600000000002
 20
49.528799999999997
 30
0.0
 10
-58.936700000000002
 20
48.540500000000002
 30
0.0
 10
-58.950499999999998
 20
47.218499999999999
 30
0.0
 10
-60.064100000000003
 20
47.218499999999999
 30
0.0
 10
-60.064100000000003
 20
47.218499999999999
 30
0.0
 10
-60.064100000000003
 20
47.218499999999999
 30
0.0
 10
-62.704599999999999
 20
47.218499999999999
 30
0.0
 10
-62.704599999999999
 20
47.218499999999999
 30
0.0
  0
SPLINE
  5
2D
100
AcDbEntity
  8
RÚteg 1
 62
     7
100
AcDbSpline
210
0.0
220
0.0
230
1.0
 70
     1
 71
     3
 72
    36
 73
    32
 74
     0
 42
0.0000000001
 43
0.0000000001
 40
0.0
 40
0.0
 40
0.0
 40
0.0
 40
0.125
 40
0.125
 40
0.125
 40
0.125
 40
0.25
 40
0.25
 40
0.25
 40
0.25
 40
0.375
 40
0.375
 40
0.375
 40
0.375
 40
0.5
 40
0.5
 40
0.5
 40
0.5
 40
0.625
 40
0.625
 40
0.625
 40
0.625
 40
0.75
 40
0.75
 40
0.75
 40
0.75
 40
0.875
 40
0.875
 40
0.875
 40
0.875
 40
1.0
 40
1.0
 40
1.0
 40
1.0
 10
-77.786199999999994
 20
53.183100000000003
 30
0.0
 10
-76.9636
 20
52.0182
 30
0.0
 10
-73.646000000000001
 20
50.1892
 30
0.0
 10
-72.276799999999994
 20
50.1892
 30
0.0
 10
-72.276799999999994
 20
50.1892
 30
0.0
 10
-72.276799999999994
 20
50.1892
 30
0.0
 10
-71.616799999999998
 20
50.1892
 30
0.0
 10
-71.616799999999998
 20
50.1892
 30
0.0
 10
-71.616799999999998
 20
50.1892
 30
0.0
 10
-70.856099999999998
 20
50.1892
 30
0.0
 10
-70.626499999999993
 20
50.418500000000002
 30
0.0
 10
-70.626499999999993
 20
51.179200000000002
 30
0.0
 10
-70.626499999999993
 20
51.179200000000002
 30
0.0
 10
-70.626499999999993
 20
52.667000000000002
 30
0.0
 10
-72.276799999999994
 20
52.315800000000003
 30
0.0
 10
-72.276799999999994
 20
53.159799999999997
 30
0.0
 10
-72.276799999999994
 20
53.159799999999997
 30
0.0
 10
-72.276799999999994
 20
54.323099999999997
 30
0.0
 10
-70.956699999999998
 20
54.488999999999997
 30
0.0
 10
-70.956699999999998
 20
55.1402
 30
0.0
 10
-70.956699999999998
 20
55.1402
 30
0.0
 10
-70.956699999999998
 20
56.0227
 30
0.0
 10
-71.433300000000003
 20
56.116300000000003
 30
0.0
 10
-71.946799999999996
 20
56.4604
 30
0.0
 10
-71.946799999999996
 20
56.4604
 30
0.0
 10
-71.946799999999996
 20
56.4604
 30
0.0
 10
-72.170699999999997
 20
56.807600000000001
 30
0.0
 10
-72.170699999999997
 20
56.807600000000001
 30
0.0
 10
-72.170699999999997
 20
56.807600000000001
 30
0.0
 10
-72.170699999999997
 20
56.807600000000001
 30
0.0
 10
-77.786199999999994
 20
53.183100000000003
 30
0.0
 10
-77.786199999999994
 20
53.183100000000003
 30
0.0
  0
SPLINE
  5
2E
100
AcDbEntity
  8
RÚteg 1
 62
     7
100
AcDbSpline
210
0.0
220
0.0
230
1.0
 70
     1
 71
     3
 72
    32
 73
    28
 74
     0
 42
0.0000000001
 43
0.0000000001
 40
0.0
 40
0.0
 40
0.0
 40
0.0
 40
0.1428571428571429
 40
0.1428571428571429
 40
0.1428571428571429
 40
0.1428571428571429
 40
0.2857142857142857
 40
0.2857142857142857
 40
0.2857142857142857
 40
0.2857142857142857
 40
0.4285714285714286
 40
0.4285714285714286
 40
0.4285714285714286
 40
0.4285714285714286
 40
0.5714285714285714
 40
0.5714285714285714
 40
0.5714285714285714
 40
0.5714285714285714
 40
0.7142857142857142
 40
0.7142857142857142
 40
0.7142857142857142
 40
0.7142857142857142
 40
0.857142857142857
 40
0.857142857142857
 40
0.857142857142857
 40
0.857142857142857
 40
1.0
 40
1.0
 40
1.0
 40
1.0
 10
-70.626499999999993
 20
44.907800000000002
 30
0.0
 10
-70.626499999999993
 20
44.907800000000002
 30
0.0
 10
-70.626499999999993
 20
42.927300000000002
 30
0.0
 10
-70.626499999999993
 20
42.927300000000002
 30
0.0
 10
-70.626499999999993
 20
42.927300000000002
 30
0.0
 10
-70.626499999999993
 20
42.166800000000002
 30
0.0
 10
-70.397000000000006
 20
41.936999999999998
 30
0.0
 10
-69.636399999999995
 20
41.936999999999998
 30
0.0
 10
-69.636399999999995
 20
41.936999999999998
 30
0.0
 10
-67.829700000000003
 20
41.936999999999998
 30
0.0
 10
-64.685299999999998
 20
44.220100000000002
 30
0.0
 10
-64.685299999999998
 20
46.227800000000002
 30
0.0
 10
-64.685299999999998
 20
46.227800000000002
 30
0.0
 10
-64.685299999999998
 20
48.2044
 30
0.0
 10
-66.411000000000001
 20
46.359000000000002
 30
0.0
 10
-67.985799999999998
 20
46.227800000000002
 30
0.0
 10
-67.985799999999998
 20
46.227800000000002
 30
0.0
 10
-67.985799999999998
 20
46.227800000000002
 30
0.0
 10
-67.985799999999998
 20
47.548200000000001
 30
0.0
 10
-67.985799999999998
 20
47.548200000000001
 30
0.0
 10
-67.985799999999998
 20
47.548200000000001
 30
0.0
 10
-67.985799999999998
 20
48.308900000000001
 30
0.0
 10
-68.215599999999995
 20
48.538699999999999
 30
0.0
 10
-68.976200000000006
 20
48.538699999999999
 30
0.0
 10
-68.976200000000006
 20
48.538699999999999
 30
0.0
 10
-70.430300000000003
 20
48.538699999999999
 30
0.0
 10
-70.626499999999993
 20
46.4176
 30
0.0
 10
-70.626499999999993
 20
44.907800000000002
 30
0.0
  0
SPLINE
  5
2F
100
AcDbEntity
  8
RÚteg 1
 62
     7
100
AcDbSpline
210
0.0
220
0.0
230
1.0
 70
     1
 71
     3
 72
    28
 73
    24
 74
     0
 42
0.0000000001
 43
0.0000000001
 40
0.0
 40
0.0
 40
0.0
 40
0.0
 40
0.1666666666666667
 40
0.1666666666666667
 40
0.1666666666666667
 40
0.1666666666666667
 40
0.3333333333333333
 40
0.3333333333333333
 40
0.3333333333333333
 40
0.3333333333333333
 40
0.5
 40
0.5
 40
0.5
 40
0.5
 40
0.6666666666666666
 40
0.6666666666666666
 40
0.6666666666666666
 40
0.6666666666666666
 40
0.8333333333333333
 40
0.8333333333333333
 40
0.8333333333333333
 40
0.8333333333333333
 40
1.0
 40
1.0
 40
1.0
 40
1.0
 10
-63.364699999999999
 20
61.411499999999997
 30
0.0
 10
-63.364699999999999
 20
61.411499999999997
 30
0.0
 10
-63.303600000000003
 20
60.273499999999999
 30
0.0
 10
-63.303600000000003
 20
60.273499999999999
 30
0.0
 10
-63.303600000000003
 20
60.273499999999999
 30
0.0
 10
-63.303600000000003
 20
60.273499999999999
 30
0.0
 10
-60.4848
 20
61.361800000000002
 30
0.0
 10
-60.4848
 20
61.361800000000002
 30
0.0
 10
-60.4848
 20
61.361800000000002
 30
0.0
 10
-60.4848
 20
61.361800000000002
 30
0.0
 10
-58.743899999999996
 20
58.770899999999997
 30
0.0
 10
-58.743899999999996
 20
58.770899999999997
 30
0.0
 10
-58.743899999999996
 20
58.770899999999997
 30
0.0
 10
-58.180999999999997
 20
59.1479
 30
0.0
 10
-57.4236
 20
59.488999999999997
 30
0.0
 10
-57.4236
 20
60.421199999999999
 30
0.0
 10
-57.4236
 20
60.421199999999999
 30
0.0
 10
-57.4236
 20
60.421199999999999
 30
0.0
 10
-57.4236
 20
65.042400000000001
 30
0.0
 10
-57.4236
 20
65.042400000000001
 30
0.0
 10
-57.4236
 20
65.042400000000001
 30
0.0
 10
-57.4236
 20
67.326599999999999
 30
0.0
 10
-63.364699999999999
 20
63.792499999999997
 30
0.0
 10
-63.364699999999999
 20
61.411499999999997
 30
0.0
  0
SPLINE
  5
30
100
AcDbEntity
  8
RÚteg 1
 62
     7
100
AcDbSpline
210
0.0
220
0.0
230
1.0
 70
     1
 71
     3
 72
    28
 73
    24
 74
     0
 42
0.0000000001
 43
0.0000000001
 40
0.0
 40
0.0
 40
0.0
 40
0.0
 40
0.1666666666666667
 40
0.1666666666666667
 40
0.1666666666666667
 40
0.1666666666666667
 40
0.3333333333333333
 40
0.3333333333333333
 40
0.3333333333333333
 40
0.3333333333333333
 40
0.5
 40
0.5
 40
0.5
 40
0.5
 40
0.6666666666666666
 40
0.6666666666666666
 40
0.6666666666666666
 40
0.6666666666666666
 40
0.8333333333333333
 40
0.8333333333333333
 40
0.8333333333333333
 40
0.8333333333333333
 40
1.0
 40
1.0
 40
1.0
 40
1.0
 10
-71.616799999999998
 20
64.712100000000007
 30
0.0
 10
-72.1648
 20
64.712100000000007
 30
0.0
 10
-72.118099999999998
 20
61.830399999999997
 30
0.0
 10
-71.616799999999998
 20
61.411499999999997
 30
0.0
 10
-71.616799999999998
 20
61.411499999999997
 30
0.0
 10
-71.586100000000002
 20
60.0289
 30
0.0
 10
-71.350700000000003
 20
58.110900000000001
 30
0.0
 10
-69.966300000000004
 20
58.110900000000001
 30
0.0
 10
-69.966300000000004
 20
58.110900000000001
 30
0.0
 10
-68.190700000000007
 20
58.110900000000001
 30
0.0
 10
-69.219399999999993
 20
60.076000000000001
 30
0.0
 10
-68.180700000000002
 20
60.641100000000002
 30
0.0
 10
-68.180700000000002
 20
60.641100000000002
 30
0.0
 10
-67.262600000000006
 20
61.140500000000003
 30
0.0
 10
-65.345299999999995
 20
59.351999999999997
 30
0.0
 10
-65.345299999999995
 20
61.411499999999997
 30
0.0
 10
-65.345299999999995
 20
61.411499999999997
 30
0.0
 10
-65.345299999999995
 20
62.963099999999997
 30
0.0
 10
-69.038300000000007
 20
64.579999999999998
 30
0.0
 10
-70.626499999999993
 20
64.712100000000007
 30
0.0
 10
-70.626499999999993
 20
64.712100000000007
 30
0.0
 10
-70.626499999999993
 20
64.712100000000007
 30
0.0
 10
-71.616799999999998
 20
64.712100000000007
 30
0.0
 10
-71.616799999999998
 20
64.712100000000007
 30
0.0
  0
SPLINE
  5
31
100
AcDbEntity
  8
RÚteg 1
 62
     7
100
AcDbSpline
210
0.0
220
0.0
230
1.0
 70
     1
 71
     3
 72
    96
 73
    92
 74
     0
 42
0.0000000001
 43
0.0000000001
 40
0.0
 40
0.0
 40
0.0
 40
0.0
 40
0.0434782608695652
 40
0.0434782608695652
 40
0.0434782608695652
 40
0.0434782608695652
 40
0.0869565217391304
 40
0.0869565217391304
 40
0.0869565217391304
 40
0.0869565217391304
 40
0.1304347826086957
 40
0.1304347826086957
 40
0.1304347826086957
 40
0.1304347826086957
 40
0.1739130434782609
 40
0.1739130434782609
 40
0.1739130434782609
 40
0.1739130434782609
 40
0.2173913043478261
 40
0.2173913043478261
 40
0.2173913043478261
 40
0.2173913043478261
 40
0.2608695652173913
 40
0.2608695652173913
 40
0.2608695652173913
 40
0.2608695652173913
 40
0.3043478260869565
 40
0.3043478260869565
 40
0.3043478260869565
 40
0.3043478260869565
 40
0.3478260869565217
 40
0.3478260869565217
 40
0.3478260869565217
 40
0.3478260869565217
 40
0.3913043478260869
 40
0.3913043478260869
 40
0.3913043478260869
 40
0.3913043478260869
 40
0.4347826086956521
 40
0.4347826086956521
 40
0.4347826086956521
 40
0.4347826086956521
 40
0.4782608695652173
 40
0.4782608695652173
 40
0.4782608695652173
 40
0.4782608695652173
 40
0.5217391304347825
 40
0.5217391304347825
 40
0.5217391304347825
 40
0.5217391304347825
 40
0.5652173913043477
 40
0.5652173913043477
 40
0.5652173913043477
 40
0.5652173913043477
 40
0.6086956521739129
 40
0.6086956521739129
 40
0.6086956521739129
 40
0.6086956521739129
 40
0.6521739130434781
 40
0.6521739130434781
 40
0.6521739130434781
 40
0.6521739130434781
 40
0.6956521739130432
 40
0.6956521739130432
 40
0.6956521739130432
 40
0.6956521739130432
 40
0.7391304347826084
 40
0.7391304347826084
 40
0.7391304347826084
 40
0.7391304347826084
 40
0.7826086956521736
 40
0.7826086956521736
 40
0.7826086956521736
 40
0.7826086956521736
 40
0.8260869565217388
 40
0.8260869565217388
 40
0.8260869565217388
 40
0.8260869565217388
 40
0.869565217391304
 40
0.869565217391304
 40
0.869565217391304
 40
0.869565217391304
 40
0.9130434782608692
 40
0.9130434782608692
 40
0.9130434782608692
 40
0.9130434782608692
 40
0.9565217391304344
 40
0.9565217391304344
 40
0.9565217391304344
 40
0.9565217391304344
 40
1.0
 40
1.0
 40
1.0
 40
1.0
 10
-63.034599999999998
 20
75.274799999999999
 30
0.0
 10
-63.034599999999998
 20
75.274799999999999
 30
0.0
 10
-63.837600000000002
 20
75.382400000000004
 30
0.0
 10
-63.837600000000002
 20
75.382400000000004
 30
0.0
 10
-63.837600000000002
 20
75.382400000000004
 30
0.0
 10
-63.837600000000002
 20
75.382400000000004
 30
0.0
 10
-62.704599999999999
 20
76.9251
 30
0.0
 10
-62.704599999999999
 20
76.9251
 30
0.0
 10
-62.704599999999999
 20
76.9251
 30
0.0
 10
-61.831000000000003
 20
77.510499999999993
 30
0.0
 10
-61.054299999999998
 20
78.099299999999999
 30
0.0
 10
-61.054299999999998
 20
79.565799999999996
 30
0.0
 10
-61.054299999999998
 20
79.565799999999996
 30
0.0
 10
-61.054299999999998
 20
84.526899999999998
 30
0.0
 10
-63.030099999999997
 20
83.494699999999995
 30
0.0
 10
-65.345299999999995
 20
85.507000000000005
 30
0.0
 10
-65.345299999999995
 20
85.507000000000005
 30
0.0
 10
-65.345299999999995
 20
85.507000000000005
 30
0.0
 10
-66.665599999999998
 20
85.507000000000005
 30
0.0
 10
-66.665599999999998
 20
85.507000000000005
 30
0.0
 10
-66.665599999999998
 20
85.507000000000005
 30
0.0
 10
-68.235500000000002
 20
84.142600000000002
 30
0.0
 10
-69.966300000000004
 20
83.940299999999993
 30
0.0
 10
-69.966300000000004
 20
80.886099999999999
 30
0.0
 10
-69.966300000000004
 20
80.886099999999999
 30
0.0
 10
-69.966300000000004
 20
80.886099999999999
 30
0.0
 10
-69.966300000000004
 20
78.245500000000007
 30
0.0
 10
-69.966300000000004
 20
78.245500000000007
 30
0.0
 10
-69.966300000000004
 20
78.245500000000007
 30
0.0
 10
-69.966300000000004
 20
77.059399999999997
 30
0.0
 10
-68.508899999999997
 20
76.716399999999993
 30
0.0
 10
-67.655799999999999
 20
76.264899999999997
 30
0.0
 10
-67.655799999999999
 20
76.264899999999997
 30
0.0
 10
-67.655799999999999
 20
76.264899999999997
 30
0.0
 10
-66.995800000000003
 20
74.944599999999994
 30
0.0
 10
-66.995800000000003
 20
74.944599999999994
 30
0.0
 10
-66.995800000000003
 20
74.944599999999994
 30
0.0
 10
-66.995800000000003
 20
74.944599999999994
 30
0.0
 10
-67.655799999999999
 20
74.944599999999994
 30
0.0
 10
-67.655799999999999
 20
74.944599999999994
 30
0.0
 10
-67.655799999999999
 20
74.944599999999994
 30
0.0
 10
-67.655799999999999
 20
74.944599999999994
 30
0.0
 10
-72.606999999999999
 20
76.595200000000006
 30
0.0
 10
-72.606999999999999
 20
76.595200000000006
 30
0.0
 10
-72.606999999999999
 20
76.595200000000006
 30
0.0
 10
-72.606999999999999
 20
76.595200000000006
 30
0.0
 10
-72.606999999999999
 20
74.614800000000002
 30
0.0
 10
-72.606999999999999
 20
74.614800000000002
 30
0.0
 10
-72.606999999999999
 20
74.614800000000002
 30
0.0
 10
-72.606999999999999
 20
70.658600000000007
 30
0.0
 10
-67.172200000000004
 20
72.137200000000007
 30
0.0
 10
-66.330500000000001
 20
69.021799999999999
 30
0.0
 10
-66.330500000000001
 20
69.021799999999999
 30
0.0
 10
-66.330500000000001
 20
69.021799999999999
 30
0.0
 10
-70.626499999999993
 20
69.993399999999994
 30
0.0
 10
-70.626499999999993
 20
69.993399999999994
 30
0.0
 10
-70.626499999999993
 20
69.993399999999994
 30
0.0
 10
-70.626499999999993
 20
69.993399999999994
 30
0.0
 10
-70.626499999999993
 20
68.673199999999994
 30
0.0
 10
-70.626499999999993
 20
68.673199999999994
 30
0.0
 10
-70.626499999999993
 20
68.673199999999994
 30
0.0
 10
-70.626499999999993
 20
67.250100000000003
 30
0.0
 10
-66.983500000000006
 20
65.042400000000001
 30
0.0
 10
-65.345299999999995
 20
65.042400000000001
 30
0.0
 10
-65.345299999999995
 20
65.042400000000001
 30
0.0
 10
-65.345299999999995
 20
65.042400000000001
 30
0.0
 10
-65.015100000000004
 20
65.042400000000001
 30
0.0
 10
-65.015100000000004
 20
65.042400000000001
 30
0.0
 10
-65.015100000000004
 20
65.042400000000001
 30
0.0
 10
-63.624600000000001
 20
65.042400000000001
 30
0.0
 10
-59.403700000000001
 20
67.260400000000004
 30
0.0
 10
-59.403700000000001
 20
68.673199999999994
 30
0.0
 10
-59.403700000000001
 20
68.673199999999994
 30
0.0
 10
-59.403700000000001
 20
68.673199999999994
 30
0.0
 10
-59.496200000000002
 20
70.878299999999996
 30
0.0
 10
-59.496200000000002
 20
70.878299999999996
 30
0.0
 10
-59.496200000000002
 20
70.878299999999996
 30
0.0
 10
-59.496200000000002
 20
70.878299999999996
 30
0.0
 10
-63.364699999999999
 20
69.333500000000001
 30
0.0
 10
-63.364699999999999
 20
69.333500000000001
 30
0.0
 10
-63.364699999999999
 20
69.333500000000001
 30
0.0
 10
-62.619900000000001
 20
72.123400000000004
 30
0.0
 10
-58.083500000000001
 20
72.015199999999993
 30
0.0
 10
-58.083500000000001
 20
75.274799999999999
 30
0.0
 10
-58.083500000000001
 20
75.274799999999999
 30
0.0
 10
-58.083500000000001
 20
75.274799999999999
 30
0.0
 10
-58.176699999999997
 20
77.449700000000007
 30
0.0
 10
-58.176699999999997
 20
77.449700000000007
 30
0.0
 10
-58.176699999999997
 20
77.449700000000007
 30
0.0
 10
-58.176699999999997
 20
77.449700000000007
 30
0.0
 10
-63.034599999999998
 20
75.274799999999999
 30
0.0
 10
-63.034599999999998
 20
75.274799999999999
 30
0.0
  0
SPLINE
  5
32
100
AcDbEntity
  8
RÚteg 1
 62
     7
100
AcDbSpline
210
0.0
220
0.0
230
1.0
 70
     1
 71
     3
 72
    92
 73
    88
 74
     0
 42
0.0000000001
 43
0.0000000001
 40
0.0
 40
0.0
 40
0.0
 40
0.0
 40
0.0454545454545455
 40
0.0454545454545455
 40
0.0454545454545455
 40
0.0454545454545455
 40
0.0909090909090909
 40
0.0909090909090909
 40
0.0909090909090909
 40
0.0909090909090909
 40
0.1363636363636364
 40
0.1363636363636364
 40
0.1363636363636364
 40
0.1363636363636364
 40
0.1818181818181818
 40
0.1818181818181818
 40
0.1818181818181818
 40
0.1818181818181818
 40
0.2272727272727273
 40
0.2272727272727273
 40
0.2272727272727273
 40
0.2272727272727273
 40
0.2727272727272728
 40
0.2727272727272728
 40
0.2727272727272728
 40
0.2727272727272728
 40
0.3181818181818182
 40
0.3181818181818182
 40
0.3181818181818182
 40
0.3181818181818182
 40
0.3636363636363637
 40
0.3636363636363637
 40
0.3636363636363637
 40
0.3636363636363637
 40
0.4090909090909092
 40
0.4090909090909092
 40
0.4090909090909092
 40
0.4090909090909092
 40
0.4545454545454546
 40
0.4545454545454546
 40
0.4545454545454546
 40
0.4545454545454546
 40
0.5000000000000001
 40
0.5000000000000001
 40
0.5000000000000001
 40
0.5000000000000001
 40
0.5454545454545455
 40
0.5454545454545455
 40
0.5454545454545455
 40
0.5454545454545455
 40
0.5909090909090909
 40
0.5909090909090909
 40
0.5909090909090909
 40
0.5909090909090909
 40
0.6363636363636364
 40
0.6363636363636364
 40
0.6363636363636364
 40
0.6363636363636364
 40
0.6818181818181818
 40
0.6818181818181818
 40
0.6818181818181818
 40
0.6818181818181818
 40
0.7272727272727272
 40
0.7272727272727272
 40
0.7272727272727272
 40
0.7272727272727272
 40
0.7727272727272726
 40
0.7727272727272726
 40
0.7727272727272726
 40
0.7727272727272726
 40
0.818181818181818
 40
0.818181818181818
 40
0.818181818181818
 40
0.818181818181818
 40
0.8636363636363634
 40
0.8636363636363634
 40
0.8636363636363634
 40
0.8636363636363634
 40
0.9090909090909088
 40
0.9090909090909088
 40
0.9090909090909088
 40
0.9090909090909088
 40
0.9545454545454543
 40
0.9545454545454543
 40
0.9545454545454543
 40
0.9545454545454543
 40
1.0
 40
1.0
 40
1.0
 40
1.0
 10
-61.054299999999998
 20
37.315899999999999
 30
0.0
 10
-61.054299999999998
 20
37.315899999999999
 30
0.0
 10
-61.7622
 20
38.266500000000001
 30
0.0
 10
-61.7622
 20
38.266500000000001
 30
0.0
 10
-61.7622
 20
38.266500000000001
 30
0.0
 10
-61.7622
 20
38.266500000000001
 30
0.0
 10
-60.7241
 20
38.3063
 30
0.0
 10
-60.7241
 20
38.3063
 30
0.0
 10
-60.7241
 20
38.3063
 30
0.0
 10
-59.795200000000001
 20
38.0899
 30
0.0
 10
-59.046999999999997
 20
37.646000000000001
 30
0.0
 10
-58.083500000000001
 20
37.646000000000001
 30
0.0
 10
-58.083500000000001
 20
37.646000000000001
 30
0.0
 10
-57.621200000000002
 20
37.646000000000001
 30
0.0
 10
-57.4236
 20
38.096200000000003
 30
0.0
 10
-57.4236
 20
38.636099999999999
 30
0.0
 10
-57.4236
 20
38.636099999999999
 30
0.0
 10
-57.4236
 20
38.636099999999999
 30
0.0
 10
-57.4236
 20
39.626399999999997
 30
0.0
 10
-57.4236
 20
39.626399999999997
 30
0.0
 10
-57.4236
 20
39.626399999999997
 30
0.0
 10
-57.4236
 20
41.069800000000001
 30
0.0
 10
-61.994700000000002
 20
42.597000000000001
 30
0.0
 10
-63.364699999999999
 20
42.597000000000001
 30
0.0
 10
-63.364699999999999
 20
42.597000000000001
 30
0.0
 10
-64.385000000000005
 20
42.597000000000001
 30
0.0
 10
-68.646100000000004
 20
40.322699999999998
 30
0.0
 10
-68.646100000000004
 20
38.966299999999997
 30
0.0
 10
-68.646100000000004
 20
38.966299999999997
 30
0.0
 10
-68.646100000000004
 20
38.966299999999997
 30
0.0
 10
-68.646100000000004
 20
36.985999999999997
 30
0.0
 10
-68.646100000000004
 20
36.985999999999997
 30
0.0
 10
-68.646100000000004
 20
36.985999999999997
 30
0.0
 10
-68.646100000000004
 20
36.985999999999997
 30
0.0
 10
-64.095399999999998
 20
38.492699999999999
 30
0.0
 10
-64.095399999999998
 20
38.492699999999999
 30
0.0
 10
-64.095399999999998
 20
38.492699999999999
 30
0.0
 10
-65.625
 20
35.916899999999998
 30
0.0
 10
-69.966300000000004
 20
35.168100000000003
 30
0.0
 10
-69.966300000000004
 20
32.365200000000002
 30
0.0
 10
-69.966300000000004
 20
32.365200000000002
 30
0.0
 10
-69.966300000000004
 20
32.365200000000002
 30
0.0
 10
-69.966300000000004
 20
30.3843
 30
0.0
 10
-69.966300000000004
 20
30.3843
 30
0.0
 10
-69.966300000000004
 20
30.3843
 30
0.0
 10
-69.966300000000004
 20
30.3843
 30
0.0
 10
-64.166399999999996
 20
32.691899999999997
 30
0.0
 10
-64.166399999999996
 20
32.691899999999997
 30
0.0
 10
-64.166399999999996
 20
32.691899999999997
 30
0.0
 10
-64.166399999999996
 20
32.691899999999997
 30
0.0
 10
-64.025099999999995
 20
32.365200000000002
 30
0.0
 10
-64.025099999999995
 20
32.365200000000002
 30
0.0
 10
-64.025099999999995
 20
32.365200000000002
 30
0.0
 10
-64.549099999999996
 20
30.401599999999998
 30
0.0
 10
-66.665599999999998
 20
30.450600000000001
 30
0.0
 10
-66.665599999999998
 20
28.073799999999999
 30
0.0
 10
-66.665599999999998
 20
28.073799999999999
 30
0.0
 10
-66.665599999999998
 20
28.073799999999999
 30
0.0
 10
-66.665599999999998
 20
25.763200000000001
 30
0.0
 10
-66.665599999999998
 20
25.763200000000001
 30
0.0
 10
-66.665599999999998
 20
25.763200000000001
 30
0.0
 10
-66.665599999999998
 20
23.192299999999999
 30
0.0
 10
-64.380700000000004
 20
23.302600000000002
 30
0.0
 10
-63.034599999999998
 20
22.1327
 30
0.0
 10
-63.034599999999998
 20
22.1327
 30
0.0
 10
-63.034599999999998
 20
22.1327
 30
0.0
 10
-61.384300000000003
 20
22.1327
 30
0.0
 10
-61.384300000000003
 20
22.1327
 30
0.0
 10
-61.384300000000003
 20
22.1327
 30
0.0
 10
-60.506599999999999
 20
22.895399999999999
 30
0.0
 10
-57.753500000000003
 20
24.367899999999999
 30
0.0
 10
-57.753500000000003
 20
25.763200000000001
 30
0.0
 10
-57.753500000000003
 20
25.763200000000001
 30
0.0
 10
-57.753500000000003
 20
32.696199999999997
 30
0.0
 10
-61.109099999999998
 20
29.716899999999999
 30
0.0
 10
-61.384300000000003
 20
33.025100000000002
 30
0.0
 10
-61.384300000000003
 20
33.025100000000002
 30
0.0
 10
-61.384300000000003
 20
33.025100000000002
 30
0.0
 10
-55.488500000000002
 20
30.928000000000001
 30
0.0
 10
-55.488500000000002
 20
30.928000000000001
 30
0.0
 10
-55.488500000000002
 20
30.928000000000001
 30
0.0
 10
-55.488500000000002
 20
30.928000000000001
 30
0.0
 10
-55.442799999999998
 20
33.685099999999998
 30
0.0
 10
-55.442799999999998
 20
33.685099999999998
 30
0.0
 10
-55.442799999999998
 20
33.685099999999998
 30
0.0
 10
-55.442799999999998
 20
35.342399999999998
 30
0.0
 10
-59.659999999999997
 20
36.578200000000002
 30
0.0
 10
-61.054299999999998
 20
37.315899999999999
 30
0.0
  0
SPLINE
  5
33
100
AcDbEntity
  8
RÚteg 1
 62
     7
100
AcDbSpline
210
0.0
220
0.0
230
1.0
 70
     1
 71
     3
 72
    76
 73
    72
 74
     0
 42
0.0000000001
 43
0.0000000001
 40
0.0
 40
0.0
 40
0.0
 40
0.0
 40
0.0555555555555556
 40
0.0555555555555556
 40
0.0555555555555556
 40
0.0555555555555556
 40
0.1111111111111111
 40
0.1111111111111111
 40
0.1111111111111111
 40
0.1111111111111111
 40
0.1666666666666667
 40
0.1666666666666667
 40
0.1666666666666667
 40
0.1666666666666667
 40
0.2222222222222222
 40
0.2222222222222222
 40
0.2222222222222222
 40
0.2222222222222222
 40
0.2777777777777778
 40
0.2777777777777778
 40
0.2777777777777778
 40
0.2777777777777778
 40
0.3333333333333334
 40
0.3333333333333334
 40
0.3333333333333334
 40
0.3333333333333334
 40
0.388888888888889
 40
0.388888888888889
 40
0.388888888888889
 40
0.388888888888889
 40
0.4444444444444445
 40
0.4444444444444445
 40
0.4444444444444445
 40
0.4444444444444445
 40
0.5000000000000001
 40
0.5000000000000001
 40
0.5000000000000001
 40
0.5000000000000001
 40
0.5555555555555557
 40
0.5555555555555557
 40
0.5555555555555557
 40
0.5555555555555557
 40
0.6111111111111113
 40
0.6111111111111113
 40
0.6111111111111113
 40
0.6111111111111113
 40
0.6666666666666669
 40
0.6666666666666669
 40
0.6666666666666669
 40
0.6666666666666669
 40
0.7222222222222224
 40
0.7222222222222224
 40
0.7222222222222224
 40
0.7222222222222224
 40
0.777777777777778
 40
0.777777777777778
 40
0.777777777777778
 40
0.777777777777778
 40
0.8333333333333336
 40
0.8333333333333336
 40
0.8333333333333336
 40
0.8333333333333336
 40
0.8888888888888892
 40
0.8888888888888892
 40
0.8888888888888892
 40
0.8888888888888892
 40
0.9444444444444448
 40
0.9444444444444448
 40
0.9444444444444448
 40
0.9444444444444448
 40
1.0
 40
1.0
 40
1.0
 40
1.0
 10
-79.538499999999999
 20
59.4313
 30
0.0
 10
-79.538499999999999
 20
59.4313
 30
0.0
 10
-79.208699999999993
 20
59.101199999999999
 30
0.0
 10
-79.208699999999993
 20
59.101199999999999
 30
0.0
 10
-79.208699999999993
 20
59.101199999999999
 30
0.0
 10
-79.208699999999993
 20
59.101199999999999
 30
0.0
 10
-81.189099999999996
 20
56.4604
 30
0.0
 10
-81.189099999999996
 20
56.4604
 30
0.0
 10
-81.189099999999996
 20
56.4604
 30
0.0
 10
-80.909000000000006
 20
56.042499999999997
 30
0.0
 10
-79.579999999999998
 20
54.810000000000002
 30
0.0
 10
-79.208699999999993
 20
54.810000000000002
 30
0.0
 10
-79.208699999999993
 20
54.810000000000002
 30
0.0
 10
-78.044600000000003
 20
54.810000000000002
 30
0.0
 10
-73.597300000000004
 20
58.512900000000002
 30
0.0
 10
-73.597300000000004
 20
60.421199999999999
 30
0.0
 10
-73.597300000000004
 20
60.421199999999999
 30
0.0
 10
-73.597300000000004
 20
60.421199999999999
 30
0.0
 10
-73.597300000000004
 20
63.722099999999998
 30
0.0
 10
-73.597300000000004
 20
63.722099999999998
 30
0.0
 10
-73.597300000000004
 20
63.722099999999998
 30
0.0
 10
-73.597300000000004
 20
64.686700000000002
 30
0.0
 10
-75.242400000000004
 20
66.032499999999999
 30
0.0
 10
-76.237899999999996
 20
66.032499999999999
 30
0.0
 10
-76.237899999999996
 20
66.032499999999999
 30
0.0
 10
-77.355400000000003
 20
66.032499999999999
 30
0.0
 10
-76.617699999999999
 20
63.014000000000003
 30
0.0
 10
-77.228099999999998
 20
61.741599999999998
 30
0.0
 10
-77.228099999999998
 20
61.741599999999998
 30
0.0
 10
-79.898799999999994
 20
63.698300000000003
 30
0.0
 10
-75.367000000000004
 20
70.323599999999999
 30
0.0
 10
-81.899900000000002
 20
70.328500000000005
 30
0.0
 10
-81.899900000000002
 20
70.328500000000005
 30
0.0
 10
-81.899900000000002
 20
70.328500000000005
 30
0.0
 10
-82.509500000000003
 20
64.382000000000005
 30
0.0
 10
-82.509500000000003
 20
64.382000000000005
 30
0.0
 10
-82.509500000000003
 20
64.382000000000005
 30
0.0
 10
-84.183300000000003
 20
65.608500000000006
 30
0.0
 10
-82.748900000000006
 20
67.157300000000006
 30
0.0
 10
-84.389300000000006
 20
68.773499999999999
 30
0.0
 10
-84.389300000000006
 20
68.773499999999999
 30
0.0
 10
-84.917100000000005
 20
69.293700000000001
 30
0.0
 10
-87.889399999999995
 20
70.653700000000001
 30
0.0
 10
-88.780699999999996
 20
70.653700000000001
 30
0.0
 10
-88.780699999999996
 20
70.653700000000001
 30
0.0
 10
-89.840599999999995
 20
70.653700000000001
 30
0.0
 10
-92.741600000000005
 20
68.478099999999998
 30
0.0
 10
-92.741600000000005
 20
66.692899999999995
 30
0.0
 10
-92.741600000000005
 20
66.692899999999995
 30
0.0
 10
-92.741600000000005
 20
66.692899999999995
 30
0.0
 10
-92.741600000000005
 20
64.052199999999999
 30
0.0
 10
-92.741600000000005
 20
64.052199999999999
 30
0.0
 10
-92.741600000000005
 20
64.052199999999999
 30
0.0
 10
-92.741600000000005
 20
62.6571
 30
0.0
 10
-89.251000000000005
 20
61.081499999999998
 30
0.0
 10
-87.790400000000005
 20
61.081499999999998
 30
0.0
 10
-87.790400000000005
 20
61.081499999999998
 30
0.0
 10
-86.102400000000003
 20
61.081499999999998
 30
0.0
 10
-85.770499999999998
 20
62.240400000000001
 30
0.0
 10
-83.829499999999996
 20
62.401800000000001
 30
0.0
 10
-83.829499999999996
 20
62.401800000000001
 30
0.0
 10
-84.392099999999999
 20
59.987400000000001
 30
0.0
 10
-86.436800000000005
 20
59.802199999999999
 30
0.0
 10
-87.790400000000005
 20
57.780799999999999
 30
0.0
 10
-87.790400000000005
 20
57.780799999999999
 30
0.0
 10
-87.337500000000006
 20
57.104300000000002
 30
0.0
 10
-86.169899999999998
 20
56.130299999999998
 30
0.0
 10
-85.150000000000006
 20
56.130299999999998
 30
0.0
 10
-85.150000000000006
 20
56.130299999999998
 30
0.0
 10
-84.027299999999997
 20
56.130299999999998
 30
0.0
 10
-80.784000000000006
 20
58.772100000000002
 30
0.0
 10
-79.538499999999999
 20
59.4313
 30
0.0
  0
SPLINE
  5
34
100
AcDbEntity
  8
RÚteg 1
100
AcDbSpline
210
0.0
220
0.0
230
1.0
 70
     1
 71
     3
 72
    60
 73
    56
 74
     0
 42
0.0000000001
 43
0.0000000001
 40
0.0
 40
0.0
 40
0.0
 40
0.0
 40
0.0714285714285714
 40
0.0714285714285714
 40
0.0714285714285714
 40
0.0714285714285714
 40
0.1428571428571429
 40
0.1428571428571429
 40
0.1428571428571429
 40
0.1428571428571429
 40
0.2142857142857143
 40
0.2142857142857143
 40
0.2142857142857143
 40
0.2142857142857143
 40
0.2857142857142857
 40
0.2857142857142857
 40
0.2857142857142857
 40
0.2857142857142857
 40
0.3571428571428571
 40
0.3571428571428571
 40
0.3571428571428571
 40
0.3571428571428571
 40
0.4285714285714285
 40
0.4285714285714285
 40
0.4285714285714285
 40
0.4285714285714285
 40
0.4999999999999999
 40
0.4999999999999999
 40
0.4999999999999999
 40
0.4999999999999999
 40
0.5714285714285713
 40
0.5714285714285713
 40
0.5714285714285713
 40
0.5714285714285713
 40
0.6428571428571427
 40
0.6428571428571427
 40
0.6428571428571427
 40
0.6428571428571427
 40
0.7142857142857141
 40
0.7142857142857141
 40
0.7142857142857141
 40
0.7142857142857141
 40
0.7857142857142855
 40
0.7857142857142855
 40
0.7857142857142855
 40
0.7857142857142855
 40
0.8571428571428569
 40
0.8571428571428569
 40
0.8571428571428569
 40
0.8571428571428569
 40
0.9285714285714283
 40
0.9285714285714283
 40
0.9285714285714283
 40
0.9285714285714283
 40
1.0
 40
1.0
 40
1.0
 40
1.0
 10
-59.941200000000002
 20
87.499300000000005
 30
0.0
 10
-43.133499999999998
 20
85.481300000000005
 30
0.0
 10
-30.099900000000002
 20
71.170500000000004
 30
0.0
 10
-30.099900000000002
 20
53.819699999999997
 30
0.0
 10
-30.099900000000002
 20
53.819699999999997
 30
0.0
 10
-30.099900000000002
 20
35.086799999999997
 30
0.0
 10
-45.292000000000002
 20
19.8947
 30
0.0
 10
-64.025099999999995
 20
19.8947
 30
0.0
 10
-64.025099999999995
 20
19.8947
 30
0.0
 10
-82.758099999999999
 20
19.8947
 30
0.0
 10
-97.950000000000003
 20
35.086799999999997
 30
0.0
 10
-97.950000000000003
 20
53.819699999999997
 30
0.0
 10
-97.950000000000003
 20
53.819699999999997
 30
0.0
 10
-97.950000000000003
 20
71.170500000000004
 30
0.0
 10
-84.916600000000003
 20
85.481300000000005
 30
0.0
 10
-68.108800000000002
 20
87.499300000000005
 30
0.0
 10
-68.108800000000002
 20
87.499300000000005
 30
0.0
 10
-68.108800000000002
 20
87.499300000000005
 30
0.0
 10
-68.108800000000002
 20
92.891499999999994
 30
0.0
 10
-68.108800000000002
 20
92.891499999999994
 30
0.0
 10
-68.108800000000002
 20
92.891499999999994
 30
0.0
 10
-68.108800000000002
 20
93.272900000000007
 30
0.0
 10
-67.796800000000005
 20
93.584500000000006
 30
0.0
 10
-67.415700000000001
 20
93.584500000000006
 30
0.0
 10
-67.415700000000001
 20
93.584500000000006
 30
0.0
 10
-67.415700000000001
 20
93.584500000000006
 30
0.0
 10
-67.402900000000002
 20
93.584500000000006
 30
0.0
 10
-67.402900000000002
 20
93.584500000000006
 30
0.0
 10
-67.402900000000002
 20
93.584500000000006
 30
0.0
 10
-67.924000000000007
 20
94.284899999999993
 30
0.0
 10
-68.232399999999998
 20
95.152799999999999
 30
0.0
 10
-68.232399999999998
 20
96.092600000000004
 30
0.0
 10
-68.232399999999998
 20
96.092600000000004
 30
0.0
 10
-68.232399999999998
 20
98.415999999999997
 30
0.0
 10
-66.348299999999995
 20
100.3
 30
0.0
 10
-64.025099999999995
 20
100.3
 30
0.0
 10
-64.025099999999995
 20
100.3
 30
0.0
 10
-61.701700000000002
 20
100.3
 30
0.0
 10
-59.817399999999999
 20
98.415999999999997
 30
0.0
 10
-59.817399999999999
 20
96.092600000000004
 30
0.0
 10
-59.817399999999999
 20
96.092600000000004
 30
0.0
 10
-59.817399999999999
 20
95.152799999999999
 30
0.0
 10
-60.125999999999998
 20
94.284899999999993
 30
0.0
 10
-60.646999999999998
 20
93.584500000000006
 30
0.0
 10
-60.646999999999998
 20
93.584500000000006
 30
0.0
 10
-60.646999999999998
 20
93.584500000000006
 30
0.0
 10
-60.634399999999999
 20
93.584500000000006
 30
0.0
 10
-60.634399999999999
 20
93.584500000000006
 30
0.0
 10
-60.634399999999999
 20
93.584500000000006
 30
0.0
 10
-60.253300000000003
 20
93.584500000000006
 30
0.0
 10
-59.941200000000002
 20
93.272900000000007
 30
0.0
 10
-59.941200000000002
 20
92.891499999999994
 30
0.0
 10
-59.941200000000002
 20
92.891499999999994
 30
0.0
 10
-59.941200000000002
 20
92.891499999999994
 30
0.0
 10
-59.941200000000002
 20
87.499300000000005
 30
0.0
 10
-59.941200000000002
 20
87.499300000000005
 30
0.0
  0
SPLINE
  5
35
100
AcDbEntity
  8
RÚteg 1
100
AcDbSpline
210
0.0
220
0.0
230
1.0
 70
     1
 71
     3
 72
    20
 73
    16
 74
     0
 42
0.0000000001
 43
0.0000000001
 40
0.0
 40
0.0
 40
0.0
 40
0.0
 40
0.25
 40
0.25
 40
0.25
 40
0.25
 40
0.5
 40
0.5
 40
0.5
 40
0.5
 40
0.75
 40
0.75
 40
0.75
 40
0.75
 40
1.0
 40
1.0
 40
1.0
 40
1.0
 10
-64.025099999999995
 20
98.349400000000003
 30
0.0
 10
-62.7789
 20
98.349400000000003
 30
0.0
 10
-61.7684
 20
97.338899999999995
 30
0.0
 10
-61.7684
 20
96.092600000000004
 30
0.0
 10
-61.7684
 20
96.092600000000004
 30
0.0
 10
-61.7684
 20
94.846400000000003
 30
0.0
 10
-62.7789
 20
93.835999999999999
 30
0.0
 10
-64.025099999999995
 20
93.835999999999999
 30
0.0
 10
-64.025099999999995
 20
93.835999999999999
 30
0.0
 10
-65.271100000000004
 20
93.835999999999999
 30
0.0
 10
-66.281800000000004
 20
94.846400000000003
 30
0.0
 10
-66.281800000000004
 20
96.092600000000004
 30
0.0
 10
-66.281800000000004
 20
96.092600000000004
 30
0.0
 10
-66.281800000000004
 20
97.338899999999995
 30
0.0
 10
-65.271100000000004
 20
98.349400000000003
 30
0.0
 10
-64.025099999999995
 20
98.349400000000003
 30
0.0
  0
SPLINE
  5
36
100
AcDbEntity
  8
RÚteg 1
100
AcDbSpline
210
0.0
220
0.0
230
1.0
 70
     1
 71
     3
 72
    96
 73
    92
 74
     0
 42
0.0000000001
 43
0.0000000001
 40
0.0
 40
0.0
 40
0.0
 40
0.0
 40
0.0434782608695652
 40
0.0434782608695652
 40
0.0434782608695652
 40
0.0434782608695652
 40
0.0869565217391304
 40
0.0869565217391304
 40
0.0869565217391304
 40
0.0869565217391304
 40
0.1304347826086957
 40
0.1304347826086957
 40
0.1304347826086957
 40
0.1304347826086957
 40
0.1739130434782609
 40
0.1739130434782609
 40
0.1739130434782609
 40
0.1739130434782609
 40
0.2173913043478261
 40
0.2173913043478261
 40
0.2173913043478261
 40
0.2173913043478261
 40
0.2608695652173913
 40
0.2608695652173913
 40
0.2608695652173913
 40
0.2608695652173913
 40
0.3043478260869565
 40
0.3043478260869565
 40
0.3043478260869565
 40
0.3043478260869565
 40
0.3478260869565217
 40
0.3478260869565217
 40
0.3478260869565217
 40
0.3478260869565217
 40
0.3913043478260869
 40
0.3913043478260869
 40
0.3913043478260869
 40
0.3913043478260869
 40
0.4347826086956521
 40
0.4347826086956521
 40
0.4347826086956521
 40
0.4347826086956521
 40
0.4782608695652173
 40
0.4782608695652173
 40
0.4782608695652173
 40
0.4782608695652173
 40
0.5217391304347825
 40
0.5217391304347825
 40
0.5217391304347825
 40
0.5217391304347825
 40
0.5652173913043477
 40
0.5652173913043477
 40
0.5652173913043477
 40
0.5652173913043477
 40
0.6086956521739129
 40
0.6086956521739129
 40
0.6086956521739129
 40
0.6086956521739129
 40
0.6521739130434781
 40
0.6521739130434781
 40
0.6521739130434781
 40
0.6521739130434781
 40
0.6956521739130432
 40
0.6956521739130432
 40
0.6956521739130432
 40
0.6956521739130432
 40
0.7391304347826084
 40
0.7391304347826084
 40
0.7391304347826084
 40
0.7391304347826084
 40
0.7826086956521736
 40
0.7826086956521736
 40
0.7826086956521736
 40
0.7826086956521736
 40
0.8260869565217388
 40
0.8260869565217388
 40
0.8260869565217388
 40
0.8260869565217388
 40
0.869565217391304
 40
0.869565217391304
 40
0.869565217391304
 40
0.869565217391304
 40
0.9130434782608692
 40
0.9130434782608692
 40
0.9130434782608692
 40
0.9130434782608692
 40
0.9565217391304344
 40
0.9565217391304344
 40
0.9565217391304344
 40
0.9565217391304344
 40
1.0
 40
1.0
 40
1.0
 40
1.0
 10
-46.200699999999998
 20
69.993399999999994
 30
0.0
 10
-46.200699999999998
 20
69.993399999999994
 30
0.0
 10
-46.200699999999998
 20
66.692899999999995
 30
0.0
 10
-46.200699999999998
 20
66.692899999999995
 30
0.0
 10
-46.200699999999998
 20
66.692899999999995
 30
0.0
 10
-49.127200000000002
 20
67.474199999999996
 30
0.0
 10
-46.8994
 20
72.304100000000005
 30
0.0
 10
-48.841200000000001
 20
72.304100000000005
 30
0.0
 10
-48.841200000000001
 20
72.304100000000005
 30
0.0
 10
-49.896999999999998
 20
72.304100000000005
 30
0.0
 10
-52.018000000000001
 20
70.867000000000004
 30
0.0
 10
-51.902999999999999
 20
69.647800000000004
 30
0.0
 10
-51.902999999999999
 20
69.647800000000004
 30
0.0
 10
-51.902999999999999
 20
69.647800000000004
 30
0.0
 10
-51.152099999999997
 20
64.712100000000007
 30
0.0
 10
-51.152099999999997
 20
64.712100000000007
 30
0.0
 10
-51.152099999999997
 20
64.712100000000007
 30
0.0
 10
-51.002699999999997
 20
63.838700000000003
 30
0.0
 10
-51.403199999999998
 20
64.021799999999999
 30
0.0
 10
-51.8339
 20
63.715800000000002
 30
0.0
 10
-51.8339
 20
63.715800000000002
 30
0.0
 10
-51.8339
 20
63.715800000000002
 30
0.0
 10
-52.802399999999999
 20
67.352800000000002
 30
0.0
 10
-52.802399999999999
 20
67.352800000000002
 30
0.0
 10
-52.802399999999999
 20
67.352800000000002
 30
0.0
 10
-54.0047
 20
67.252899999999997
 30
0.0
 10
-55.442799999999998
 20
66.555999999999997
 30
0.0
 10
-55.442799999999998
 20
65.372399999999999
 30
0.0
 10
-55.442799999999998
 20
65.372399999999999
 30
0.0
 10
-55.442799999999998
 20
65.372399999999999
 30
0.0
 10
-55.442799999999998
 20
62.7318
 30
0.0
 10
-55.442799999999998
 20
62.7318
 30
0.0
 10
-55.442799999999998
 20
62.7318
 30
0.0
 10
-55.442799999999998
 20
60.091299999999997
 30
0.0
 10
-51.846499999999999
 20
56.790300000000002
 30
0.0
 10
-49.501399999999997
 20
56.790300000000002
 30
0.0
 10
-49.501399999999997
 20
56.790300000000002
 30
0.0
 10
-48.4816
 20
56.790300000000002
 30
0.0
 10
-47.314
 20
57.764099999999999
 30
0.0
 10
-46.766800000000003
 20
58.564100000000003
 30
0.0
 10
-46.766800000000003
 20
58.564100000000003
 30
0.0
 10
-46.766800000000003
 20
58.564100000000003
 30
0.0
 10
-50.161799999999999
 20
61.411499999999997
 30
0.0
 10
-50.161799999999999
 20
61.411499999999997
 30
0.0
 10
-50.161799999999999
 20
61.411499999999997
 30
0.0
 10
-47.528399999999998
 20
61.352800000000002
 30
0.0
 10
-45.2012
 20
58.770899999999997
 30
0.0
 10
-44.220500000000001
 20
58.770899999999997
 30
0.0
 10
-44.220500000000001
 20
58.770899999999997
 30
0.0
 10
-44.220500000000001
 20
58.770899999999997
 30
0.0
 10
-43.560299999999998
 20
58.770899999999997
 30
0.0
 10
-43.560299999999998
 20
58.770899999999997
 30
0.0
 10
-43.560299999999998
 20
58.770899999999997
 30
0.0
 10
-42.093699999999998
 20
58.770899999999997
 30
0.0
 10
-41.504899999999999
 20
59.547499999999999
 30
0.0
 10
-40.821599999999997
 20
60.549300000000002
 30
0.0
 10
-40.821599999999997
 20
60.549300000000002
 30
0.0
 10
-40.821599999999997
 20
60.549300000000002
 30
0.0
 10
-45.438600000000001
 20
64.084500000000006
 30
0.0
 10
-45.438600000000001
 20
64.084500000000006
 30
0.0
 10
-45.438600000000001
 20
64.084500000000006
 30
0.0
 10
-45.438600000000001
 20
64.084500000000006
 30
0.0
 10
-45.2104
 20
64.382000000000005
 30
0.0
 10
-45.2104
 20
64.382000000000005
 30
0.0
 10
-45.2104
 20
64.382000000000005
 30
0.0
 10
-45.204300000000003
 20
64.3874
 30
0.0
 10
-44.594900000000003
 20
64.712100000000007
 30
0.0
 10
-44.550400000000003
 20
64.712100000000007
 30
0.0
 10
-44.550400000000003
 20
64.712100000000007
 30
0.0
 10
-43.108499999999999
 20
64.712100000000007
 30
0.0
 10
-43.351700000000001
 20
64.052199999999999
 30
0.0
 10
-41.909999999999997
 20
64.052199999999999
 30
0.0
 10
-41.909999999999997
 20
64.052199999999999
 30
0.0
 10
-41.909999999999997
 20
64.052199999999999
 30
0.0
 10
-41.249600000000001
 20
64.052199999999999
 30
0.0
 10
-41.249600000000001
 20
64.052199999999999
 30
0.0
 10
-41.249600000000001
 20
64.052199999999999
 30
0.0
 10
-39.749899999999997
 20
64.052199999999999
 30
0.0
 10
-36.628799999999998
 20
66.034599999999998
 30
0.0
 10
-36.628799999999998
 20
67.352800000000002
 30
0.0
 10
-36.628799999999998
 20
67.352800000000002
 30
0.0
 10
-36.628799999999998
 20
67.352800000000002
 30
0.0
 10
-36.628799999999998
 20
68.343199999999996
 30
0.0
 10
-36.628799999999998
 20
68.343199999999996
 30
0.0
 10
-36.628799999999998
 20
68.343199999999996
 30
0.0
 10
-36.628799999999998
 20
70.847499999999997
 30
0.0
 10
-39.323900000000002
 20
73.294300000000007
 30
0.0
 10
-41.909999999999997
 20
73.294300000000007
 30
0.0
 10
-41.909999999999997
 20
73.294300000000007
 30
0.0
 10
-42.8217
 20
73.294300000000007
 30
0.0
 10
-46.200699999999998
 20
71.158600000000007
 30
0.0
 10
-46.200699999999998
 20
69.993399999999994
 30
0.0
  0
SPLINE
  5
37
100
AcDbEntity
  8
RÚteg 1
100
AcDbSpline
210
0.0
220
0.0
230
1.0
 70
     1
 71
     3
 72
    80
 73
    76
 74
     0
 42
0.0000000001
 43
0.0000000001
 40
0.0
 40
0.0
 40
0.0
 40
0.0
 40
0.0526315789473684
 40
0.0526315789473684
 40
0.0526315789473684
 40
0.0526315789473684
 40
0.1052631578947368
 40
0.1052631578947368
 40
0.1052631578947368
 40
0.1052631578947368
 40
0.1578947368421053
 40
0.1578947368421053
 40
0.1578947368421053
 40
0.1578947368421053
 40
0.2105263157894737
 40
0.2105263157894737
 40
0.2105263157894737
 40
0.2105263157894737
 40
0.2631578947368421
 40
0.2631578947368421
 40
0.2631578947368421
 40
0.2631578947368421
 40
0.3157894736842105
 40
0.3157894736842105
 40
0.3157894736842105
 40
0.3157894736842105
 40
0.3684210526315789
 40
0.3684210526315789
 40
0.3684210526315789
 40
0.3684210526315789
 40
0.4210526315789474
 40
0.4210526315789474
 40
0.4210526315789474
 40
0.4210526315789474
 40
0.4736842105263158
 40
0.4736842105263158
 40
0.4736842105263158
 40
0.4736842105263158
 40
0.5263157894736842
 40
0.5263157894736842
 40
0.5263157894736842
 40
0.5263157894736842
 40
0.5789473684210527
 40
0.5789473684210527
 40
0.5789473684210527
 40
0.5789473684210527
 40
0.631578947368421
 40
0.631578947368421
 40
0.631578947368421
 40
0.631578947368421
 40
0.6842105263157894
 40
0.6842105263157894
 40
0.6842105263157894
 40
0.6842105263157894
 40
0.7368421052631577
 40
0.7368421052631577
 40
0.7368421052631577
 40
0.7368421052631577
 40
0.7894736842105261
 40
0.7894736842105261
 40
0.7894736842105261
 40
0.7894736842105261
 40
0.8421052631578945
 40
0.8421052631578945
 40
0.8421052631578945
 40
0.8421052631578945
 40
0.8947368421052628
 40
0.8947368421052628
 40
0.8947368421052628
 40
0.8947368421052628
 40
0.9473684210526312
 40
0.9473684210526312
 40
0.9473684210526312
 40
0.9473684210526312
 40
1.0
 40
1.0
 40
1.0
 40
1.0
 10
-46.5276
 20
51.506599999999999
 30
0.0
 10
-47.8611
 20
51.819299999999998
 30
0.0
 10
-48.180199999999999
 20
52.499499999999998
 30
0.0
 10
-49.501399999999997
 20
52.499499999999998
 30
0.0
 10
-49.501399999999997
 20
52.499499999999998
 30
0.0
 10
-51.098199999999999
 20
52.499499999999998
 30
0.0
 10
-54.122599999999998
 20
49.183599999999998
 30
0.0
 10
-54.122599999999998
 20
46.227800000000002
 30
0.0
 10
-54.122599999999998
 20
46.227800000000002
 30
0.0
 10
-54.122599999999998
 20
46.227800000000002
 30
0.0
 10
-54.122599999999998
 20
44.247500000000002
 30
0.0
 10
-54.122599999999998
 20
44.247500000000002
 30
0.0
 10
-54.122599999999998
 20
44.247500000000002
 30
0.0
 10
-54.122599999999998
 20
42.545999999999999
 30
0.0
 10
-53.220999999999997
 20
41.645699999999998
 30
0.0
 10
-51.481999999999999
 20
41.606900000000003
 30
0.0
 10
-51.481999999999999
 20
41.606900000000003
 30
0.0
 10
-51.481999999999999
 20
41.606900000000003
 30
0.0
 10
-50.353400000000001
 20
44.976700000000001
 30
0.0
 10
-50.353400000000001
 20
44.976700000000001
 30
0.0
 10
-50.353400000000001
 20
44.976700000000001
 30
0.0
 10
-50.161799999999999
 20
40.200899999999997
 30
0.0
 10
-50.142899999999997
 20
37.904200000000003
 30
0.0
 10
-46.200699999999998
 20
36.985999999999997
 30
0.0
 10
-46.200699999999998
 20
36.985999999999997
 30
0.0
 10
-46.200699999999998
 20
36.985999999999997
 30
0.0
 10
-45.633000000000003
 20
42.608699999999999
 30
0.0
 10
-45.633000000000003
 20
42.608699999999999
 30
0.0
 10
-45.633000000000003
 20
42.608699999999999
 30
0.0
 10
-45.633000000000003
 20
42.608699999999999
 30
0.0
 10
-44.880499999999998
 20
42.597000000000001
 30
0.0
 10
-44.880499999999998
 20
42.597000000000001
 30
0.0
 10
-44.880499999999998
 20
42.597000000000001
 30
0.0
 10
-44.634599999999999
 20
39.642800000000001
 30
0.0
 10
-41.679099999999998
 20
36.655799999999999
 30
0.0
 10
-39.269300000000001
 20
36.655799999999999
 30
0.0
 10
-39.269300000000001
 20
36.655799999999999
 30
0.0
 10
-38.378599999999999
 20
36.655799999999999
 30
0.0
 10
-35.308300000000003
 20
39.1858
 30
0.0
 10
-35.308300000000003
 20
41.606900000000003
 30
0.0
 10
-35.308300000000003
 20
41.606900000000003
 30
0.0
 10
-35.308300000000003
 20
41.606900000000003
 30
0.0
 10
-35.308300000000003
 20
42.927300000000002
 30
0.0
 10
-35.308300000000003
 20
42.927300000000002
 30
0.0
 10
-35.308300000000003
 20
42.927300000000002
 30
0.0
 10
-35.308300000000003
 20
44.826099999999997
 30
0.0
 10
-38.4756
 20
46.558300000000003
 30
0.0
 10
-40.259300000000003
 20
46.558300000000003
 30
0.0
 10
-40.259300000000003
 20
46.558300000000003
 30
0.0
 10
-42.265300000000003
 20
46.558300000000003
 30
0.0
 10
-41.990000000000002
 20
45.287500000000001
 30
0.0
 10
-44.220500000000001
 20
45.237699999999997
 30
0.0
 10
-44.220500000000001
 20
45.237699999999997
 30
0.0
 10
-44.220500000000001
 20
45.237699999999997
 30
0.0
 10
-44.465000000000003
 20
45.495800000000003
 30
0.0
 10
-44.465000000000003
 20
45.495800000000003
 30
0.0
 10
-44.465000000000003
 20
45.495800000000003
 30
0.0
 10
-44.465000000000003
 20
45.495800000000003
 30
0.0
 10
-40.237000000000002
 20
49.505299999999998
 30
0.0
 10
-40.237000000000002
 20
49.505299999999998
 30
0.0
 10
-40.237000000000002
 20
49.505299999999998
 30
0.0
 10
-40.645099999999999
 20
50.104599999999998
 30
0.0
 10
-41.327599999999997
 20
51.179200000000002
 30
0.0
 10
-42.240099999999998
 20
51.179200000000002
 30
0.0
 10
-42.240099999999998
 20
51.179200000000002
 30
0.0
 10
-42.240099999999998
 20
51.179200000000002
 30
0.0
 10
-42.900100000000002
 20
51.179200000000002
 30
0.0
 10
-42.900100000000002
 20
51.179200000000002
 30
0.0
 10
-42.900100000000002
 20
51.179200000000002
 30
0.0
 10
-45.180199999999999
 20
51.179200000000002
 30
0.0
 10
-46.424599999999998
 20
48.518599999999999
 30
0.0
 10
-49.423200000000001
 20
48.091900000000003
 30
0.0
 10
-49.423200000000001
 20
48.091900000000003
 30
0.0
 10
-49.423200000000001
 20
48.091900000000003
 30
0.0
 10
-46.5276
 20
51.506599999999999
 30
0.0
 10
-46.5276
 20
51.506599999999999
 30
0.0
  0
SPLINE
  5
38
100
AcDbEntity
  8
RÚteg 1
100
AcDbSpline
210
0.0
220
0.0
230
1.0
 70
     1
 71
     3
 72
    88
 73
    84
 74
     0
 42
0.0000000001
 43
0.0000000001
 40
0.0
 40
0.0
 40
0.0
 40
0.0
 40
0.0476190476190476
 40
0.0476190476190476
 40
0.0476190476190476
 40
0.0476190476190476
 40
0.0952380952380952
 40
0.0952380952380952
 40
0.0952380952380952
 40
0.0952380952380952
 40
0.1428571428571429
 40
0.1428571428571429
 40
0.1428571428571429
 40
0.1428571428571429
 40
0.1904761904761905
 40
0.1904761904761905
 40
0.1904761904761905
 40
0.1904761904761905
 40
0.2380952380952381
 40
0.2380952380952381
 40
0.2380952380952381
 40
0.2380952380952381
 40
0.2857142857142857
 40
0.2857142857142857
 40
0.2857142857142857
 40
0.2857142857142857
 40
0.3333333333333333
 40
0.3333333333333333
 40
0.3333333333333333
 40
0.3333333333333333
 40
0.3809523809523809
 40
0.3809523809523809
 40
0.3809523809523809
 40
0.3809523809523809
 40
0.4285714285714286
 40
0.4285714285714286
 40
0.4285714285714286
 40
0.4285714285714286
 40
0.4761904761904762
 40
0.4761904761904762
 40
0.4761904761904762
 40
0.4761904761904762
 40
0.5238095238095237
 40
0.5238095238095237
 40
0.5238095238095237
 40
0.5238095238095237
 40
0.5714285714285714
 40
0.5714285714285714
 40
0.5714285714285714
 40
0.5714285714285714
 40
0.6190476190476191
 40
0.6190476190476191
 40
0.6190476190476191
 40
0.6190476190476191
 40
0.6666666666666667
 40
0.6666666666666667
 40
0.6666666666666667
 40
0.6666666666666667
 40
0.7142857142857144
 40
0.7142857142857144
 40
0.7142857142857144
 40
0.7142857142857144
 40
0.7619047619047621
 40
0.7619047619047621
 40
0.7619047619047621
 40
0.7619047619047621
 40
0.8095238095238098
 40
0.8095238095238098
 40
0.8095238095238098
 40
0.8095238095238098
 40
0.8571428571428574
 40
0.8571428571428574
 40
0.8571428571428574
 40
0.8571428571428574
 40
0.9047619047619051
 40
0.9047619047619051
 40
0.9047619047619051
 40
0.9047619047619051
 40
0.9523809523809528
 40
0.9523809523809528
 40
0.9523809523809528
 40
0.9523809523809528
 40
1.0
 40
1.0
 40
1.0
 40
1.0
 10
-72.606999999999999
 20
44.577800000000003
 30
0.0
 10
-72.606999999999999
 20
47.641500000000001
 30
0.0
 10
-76.027900000000002
 20
50.518900000000002
 30
0.0
 10
-78.548500000000004
 20
50.518900000000002
 30
0.0
 10
-78.548500000000004
 20
50.518900000000002
 30
0.0
 10
-78.548500000000004
 20
50.518900000000002
 30
0.0
 10
-78.878500000000003
 20
50.518900000000002
 30
0.0
 10
-78.878500000000003
 20
50.518900000000002
 30
0.0
 10
-78.878500000000003
 20
50.518900000000002
 30
0.0
 10
-79.650999999999996
 20
50.518900000000002
 30
0.0
 10
-80.198800000000006
 20
49.971499999999999
 30
0.0
 10
-80.198800000000006
 20
49.198700000000002
 30
0.0
 10
-80.198800000000006
 20
49.198700000000002
 30
0.0
 10
-80.198800000000006
 20
48.1845
 30
0.0
 10
-78.424400000000006
 20
47.028500000000001
 30
0.0
 10
-77.888199999999998
 20
46.227800000000002
 30
0.0
 10
-77.888199999999998
 20
46.227800000000002
 30
0.0
 10
-80.740399999999994
 20
46.291600000000003
 30
0.0
 10
-81.648899999999998
 20
48.538699999999999
 30
0.0
 10
-83.829499999999996
 20
48.538699999999999
 30
0.0
 10
-83.829499999999996
 20
48.538699999999999
 30
0.0
 10
-83.829499999999996
 20
48.538699999999999
 30
0.0
 10
-85.150000000000006
 20
48.538699999999999
 30
0.0
 10
-85.150000000000006
 20
48.538699999999999
 30
0.0
 10
-85.150000000000006
 20
48.538699999999999
 30
0.0
 10
-85.762799999999999
 20
48.538699999999999
 30
0.0
 10
-87.130300000000005
 20
47.722099999999998
 30
0.0
 10
-87.130300000000005
 20
46.888199999999998
 30
0.0
 10
-87.130300000000005
 20
46.888199999999998
 30
0.0
 10
-87.130300000000005
 20
46.629899999999999
 30
0.0
 10
-83.115799999999993
 20
44.325499999999998
 30
0.0
 10
-82.179199999999994
 20
42.927300000000002
 30
0.0
 10
-82.179199999999994
 20
42.927300000000002
 30
0.0
 10
-84.928100000000001
 20
42.927300000000002
 30
0.0
 10
-84.952100000000002
 20
43.917499999999997
 30
0.0
 10
-86.800299999999993
 20
43.917499999999997
 30
0.0
 10
-86.800299999999993
 20
43.917499999999997
 30
0.0
 10
-87.778099999999995
 20
43.917499999999997
 30
0.0
 10
-90.761399999999995
 20
41.779200000000003
 30
0.0
 10
-90.761399999999995
 20
39.956600000000002
 30
0.0
 10
-90.761399999999995
 20
39.956600000000002
 30
0.0
 10
-90.761399999999995
 20
39.956600000000002
 30
0.0
 10
-90.761399999999995
 20
36.985999999999997
 30
0.0
 10
-90.761399999999995
 20
36.985999999999997
 30
0.0
 10
-90.761399999999995
 20
36.985999999999997
 30
0.0
 10
-90.761399999999995
 20
35.747300000000003
 30
0.0
 10
-88.063100000000006
 20
34.345399999999998
 30
0.0
 10
-86.800299999999993
 20
34.345399999999998
 30
0.0
 10
-86.800299999999993
 20
34.345399999999998
 30
0.0
 10
-86.800299999999993
 20
34.345399999999998
 30
0.0
 10
-86.140299999999996
 20
34.345399999999998
 30
0.0
 10
-86.140299999999996
 20
34.345399999999998
 30
0.0
 10
-86.140299999999996
 20
34.345399999999998
 30
0.0
 10
-84.307699999999997
 20
34.345399999999998
 30
0.0
 10
-81.519099999999995
 20
36.287799999999997
 30
0.0
 10
-81.519099999999995
 20
38.3063
 30
0.0
 10
-81.519099999999995
 20
38.3063
 30
0.0
 10
-81.519099999999995
 20
38.3063
 30
0.0
 10
-81.519099999999995
 20
40.616700000000002
 30
0.0
 10
-81.519099999999995
 20
40.616700000000002
 30
0.0
 10
-81.519099999999995
 20
40.616700000000002
 30
0.0
 10
-78.717299999999994
 20
40.310000000000002
 30
0.0
 10
-81.391999999999996
 20
35.335500000000003
 30
0.0
 10
-78.878500000000003
 20
35.335500000000003
 30
0.0
 10
-78.878500000000003
 20
35.335500000000003
 30
0.0
 10
-75.285300000000007
 20
35.335500000000003
 30
0.0
 10
-76.567999999999998
 20
40.533999999999999
 30
0.0
 10
-76.567999999999998
 20
43.917499999999997
 30
0.0
 10
-76.567999999999998
 20
43.917499999999997
 30
0.0
 10
-76.567999999999998
 20
43.917499999999997
 30
0.0
 10
-75.617400000000004
 20
43.209400000000002
 30
0.0
 10
-75.617400000000004
 20
43.209400000000002
 30
0.0
 10
-75.617400000000004
 20
43.209400000000002
 30
0.0
 10
-75.577500000000001
 20
41.787500000000001
 30
0.0
 10
-76.017899999999997
 20
40.286499999999997
 30
0.0
 10
-74.587500000000006
 20
40.286499999999997
 30
0.0
 10
-74.587500000000006
 20
40.286499999999997
 30
0.0
 10
-73.792699999999996
 20
40.286499999999997
 30
0.0
 10
-72.606999999999999
 20
41.4724
 30
0.0
 10
-72.606999999999999
 20
42.267299999999999
 30
0.0
 10
-72.606999999999999
 20
42.267299999999999
 30
0.0
 10
-72.606999999999999
 20
42.267299999999999
 30
0.0
 10
-72.606999999999999
 20
44.577800000000003
 30
0.0
 10
-72.606999999999999
 20
44.577800000000003
 30
0.0
  0
SPLINE
  5
39
100
AcDbEntity
  8
RÚteg 1
100
AcDbSpline
210
0.0
220
0.0
230
1.0
 70
     1
 71
     3
 72
    48
 73
    44
 74
     0
 42
0.0000000001
 43
0.0000000001
 40
0.0
 40
0.0
 40
0.0
 40
0.0
 40
0.0909090909090909
 40
0.0909090909090909
 40
0.0909090909090909
 40
0.0909090909090909
 40
0.1818181818181818
 40
0.1818181818181818
 40
0.1818181818181818
 40
0.1818181818181818
 40
0.2727272727272727
 40
0.2727272727272727
 40
0.2727272727272727
 40
0.2727272727272727
 40
0.3636363636363637
 40
0.3636363636363637
 40
0.3636363636363637
 40
0.3636363636363637
 40
0.4545454545454546
 40
0.4545454545454546
 40
0.4545454545454546
 40
0.4545454545454546
 40
0.5454545454545455
 40
0.5454545454545455
 40
0.5454545454545455
 40
0.5454545454545455
 40
0.6363636363636365
 40
0.6363636363636365
 40
0.6363636363636365
 40
0.6363636363636365
 40
0.7272727272727274
 40
0.7272727272727274
 40
0.7272727272727274
 40
0.7272727272727274
 40
0.8181818181818183
 40
0.8181818181818183
 40
0.8181818181818183
 40
0.8181818181818183
 40
0.9090909090909093
 40
0.9090909090909093
 40
0.9090909090909093
 40
0.9090909090909093
 40
1.0
 40
1.0
 40
1.0
 40
1.0
 10
-67.655799999999999
 20
55.470300000000002
 30
0.0
 10
-69.173900000000003
 20
54.453600000000002
 30
0.0
 10
-69.921000000000006
 20
54.860399999999998
 30
0.0
 10
-69.966300000000004
 20
52.829700000000003
 30
0.0
 10
-69.966300000000004
 20
52.829700000000003
 30
0.0
 10
-68.519300000000001
 20
52.4925
 30
0.0
 10
-67.325900000000004
 20
51.996400000000001
 30
0.0
 10
-67.325900000000004
 20
50.1892
 30
0.0
 10
-67.325900000000004
 20
50.1892
 30
0.0
 10
-67.325900000000004
 20
50.1892
 30
0.0
 10
-67.325900000000004
 20
48.208399999999997
 30
0.0
 10
-67.325900000000004
 20
48.208399999999997
 30
0.0
 10
-67.325900000000004
 20
48.208399999999997
 30
0.0
 10
-65.581500000000005
 20
48.353499999999997
 30
0.0
 10
-65.427099999999996
 20
49.198700000000002
 30
0.0
 10
-63.364699999999999
 20
49.198700000000002
 30
0.0
 10
-63.364699999999999
 20
49.198700000000002
 30
0.0
 10
-63.364699999999999
 20
49.198700000000002
 30
0.0
 10
-63.034599999999998
 20
49.198700000000002
 30
0.0
 10
-63.034599999999998
 20
49.198700000000002
 30
0.0
 10
-63.034599999999998
 20
49.198700000000002
 30
0.0
 10
-61.505200000000002
 20
49.198700000000002
 30
0.0
 10
-62.042099999999998
 20
48.582599999999999
 30
0.0
 10
-60.064100000000003
 20
48.538699999999999
 30
0.0
 10
-60.064100000000003
 20
48.538699999999999
 30
0.0
 10
-60.064100000000003
 20
48.538699999999999
 30
0.0
 10
-60.064100000000003
 20
50.1892
 30
0.0
 10
-60.064100000000003
 20
50.1892
 30
0.0
 10
-60.064100000000003
 20
50.1892
 30
0.0
 10
-60.064100000000003
 20
53.409700000000001
 30
0.0
 10
-58.567799999999998
 20
52.770899999999997
 30
0.0
 10
-57.4236
 20
54.4803
 30
0.0
 10
-57.4236
 20
54.4803
 30
0.0
 10
-58.273899999999998
 20
54.929900000000004
 30
0.0
 10
-59.7667
 20
55.4375
 30
0.0
 10
-60.292099999999998
 20
56.232500000000002
 30
0.0
 10
-60.292099999999998
 20
56.232500000000002
 30
0.0
 10
-61.263300000000001
 20
57.701999999999998
 30
0.0
 10
-59.901499999999999
 20
59.232399999999998
 30
0.0
 10
-61.945900000000002
 20
59.059600000000003
 30
0.0
 10
-61.945900000000002
 20
59.059600000000003
 30
0.0
 10
-66.877200000000002
 20
58.642299999999999
 30
0.0
 10
-67.655799999999999
 20
60.124499999999998
 30
0.0
 10
-67.655799999999999
 20
55.470300000000002
 30
0.0
  0
SPLINE
  5
3A
100
AcDbEntity
  8
RÚteg 1
100
AcDbSpline
210
0.0
220
0.0
230
1.0
 70
     1
 71
     3
 72
    28
 73
    24
 74
     0
 42
0.0000000001
 43
0.0000000001
 40
0.0
 40
0.0
 40
0.0
 40
0.0
 40
0.1666666666666667
 40
0.1666666666666667
 40
0.1666666666666667
 40
0.1666666666666667
 40
0.3333333333333333
 40
0.3333333333333333
 40
0.3333333333333333
 40
0.3333333333333333
 40
0.5
 40
0.5
 40
0.5
 40
0.5
 40
0.6666666666666666
 40
0.6666666666666666
 40
0.6666666666666666
 40
0.6666666666666666
 40
0.8333333333333333
 40
0.8333333333333333
 40
0.8333333333333333
 40
0.8333333333333333
 40
1.0
 40
1.0
 40
1.0
 40
1.0
 10
-57.753500000000003
 20
56.4604
 30
0.0
 10
-57.194099999999999
 20
55.6252
 30
0.0
 10
-55.773000000000003
 20
54.985999999999997
 30
0.0
 10
-55.773000000000003
 20
54.4803
 30
0.0
 10
-55.773000000000003
 20
54.4803
 30
0.0
 10
-55.773000000000003
 20
53.316499999999998
 30
0.0
 10
-57.093299999999999
 20
53.150700000000001
 30
0.0
 10
-57.093299999999999
 20
52.499499999999998
 30
0.0
 10
-57.093299999999999
 20
52.499499999999998
 30
0.0
 10
-57.093299999999999
 20
51.814399999999999
 30
0.0
 10
-56.127699999999997
 20
50.848999999999997
 30
0.0
 10
-55.773000000000003
 20
50.848999999999997
 30
0.0
 10
-55.773000000000003
 20
50.848999999999997
 30
0.0
 10
-54.3782
 20
50.848999999999997
 30
0.0
 10
-50.815199999999997
 20
53.834499999999998
 30
0.0
 10
-50.161799999999999
 20
54.810000000000002
 30
0.0
 10
-50.161799999999999
 20
54.810000000000002
 30
0.0
 10
-51.313200000000002
 20
55.419400000000003
 30
0.0
 10
-54.460299999999997
 20
57.450699999999998
 30
0.0
 10
-55.773000000000003
 20
57.450699999999998
 30
0.0
 10
-55.773000000000003
 20
57.450699999999998
 30
0.0
 10
-56.935099999999998
 20
57.450699999999998
 30
0.0
 10
-57.280799999999999
 20
57.140900000000002
 30
0.0
 10
-57.753500000000003
 20
56.4604
 30
0.0
  0
SPLINE
  5
3B
100
AcDbEntity
  8
RÚteg 1
100
AcDbSpline
210
0.0
220
0.0
230
1.0
 70
     1
 71
     3
 72
    28
 73
    24
 74
     0
 42
0.0000000001
 43
0.0000000001
 40
0.0
 40
0.0
 40
0.0
 40
0.0
 40
0.1666666666666667
 40
0.1666666666666667
 40
0.1666666666666667
 40
0.1666666666666667
 40
0.3333333333333333
 40
0.3333333333333333
 40
0.3333333333333333
 40
0.3333333333333333
 40
0.5
 40
0.5
 40
0.5
 40
0.5
 40
0.6666666666666666
 40
0.6666666666666666
 40
0.6666666666666666
 40
0.6666666666666666
 40
0.8333333333333333
 40
0.8333333333333333
 40
0.8333333333333333
 40
0.8333333333333333
 40
1.0
 40
1.0
 40
1.0
 40
1.0
 10
-62.704599999999999
 20
47.218499999999999
 30
0.0
 10
-61.6877
 20
44.942300000000003
 30
0.0
 10
-62.732999999999997
 20
45.212499999999999
 30
0.0
 10
-60.284199999999998
 20
44.0274
 30
0.0
 10
-60.284199999999998
 20
44.0274
 30
0.0
 10
-59.009300000000003
 20
43.410299999999999
 30
0.0
 10
-57.761400000000002
 20
42.576700000000002
 30
0.0
 10
-56.433300000000003
 20
42.267299999999999
 30
0.0
 10
-56.433300000000003
 20
42.267299999999999
 30
0.0
 10
-56.433300000000003
 20
42.267299999999999
 30
0.0
 10
-56.025700000000001
 20
47.872100000000003
 30
0.0
 10
-56.025700000000001
 20
47.872100000000003
 30
0.0
 10
-56.025700000000001
 20
47.872100000000003
 30
0.0
 10
-56.043900000000001
 20
48.590600000000002
 30
0.0
 10
-57.7059
 20
49.363900000000001
 30
0.0
 10
-58.413600000000002
 20
49.528799999999997
 30
0.0
 10
-58.413600000000002
 20
49.528799999999997
 30
0.0
 10
-58.936700000000002
 20
48.540500000000002
 30
0.0
 10
-58.950499999999998
 20
47.218499999999999
 30
0.0
 10
-60.064100000000003
 20
47.218499999999999
 30
0.0
 10
-60.064100000000003
 20
47.218499999999999
 30
0.0
 10
-60.064100000000003
 20
47.218499999999999
 30
0.0
 10
-62.704599999999999
 20
47.218499999999999
 30
0.0
 10
-62.704599999999999
 20
47.218499999999999
 30
0.0
  0
SPLINE
  5
3C
100
AcDbEntity
  8
RÚteg 1
100
AcDbSpline
210
0.0
220
0.0
230
1.0
 70
     1
 71
     3
 72
    36
 73
    32
 74
     0
 42
0.0000000001
 43
0.0000000001
 40
0.0
 40
0.0
 40
0.0
 40
0.0
 40
0.125
 40
0.125
 40
0.125
 40
0.125
 40
0.25
 40
0.25
 40
0.25
 40
0.25
 40
0.375
 40
0.375
 40
0.375
 40
0.375
 40
0.5
 40
0.5
 40
0.5
 40
0.5
 40
0.625
 40
0.625
 40
0.625
 40
0.625
 40
0.75
 40
0.75
 40
0.75
 40
0.75
 40
0.875
 40
0.875
 40
0.875
 40
0.875
 40
1.0
 40
1.0
 40
1.0
 40
1.0
 10
-77.786199999999994
 20
53.183100000000003
 30
0.0
 10
-76.9636
 20
52.0182
 30
0.0
 10
-73.646000000000001
 20
50.1892
 30
0.0
 10
-72.276799999999994
 20
50.1892
 30
0.0
 10
-72.276799999999994
 20
50.1892
 30
0.0
 10
-72.276799999999994
 20
50.1892
 30
0.0
 10
-71.616799999999998
 20
50.1892
 30
0.0
 10
-71.616799999999998
 20
50.1892
 30
0.0
 10
-71.616799999999998
 20
50.1892
 30
0.0
 10
-70.856099999999998
 20
50.1892
 30
0.0
 10
-70.626499999999993
 20
50.418500000000002
 30
0.0
 10
-70.626499999999993
 20
51.179200000000002
 30
0.0
 10
-70.626499999999993
 20
51.179200000000002
 30
0.0
 10
-70.626499999999993
 20
52.667000000000002
 30
0.0
 10
-72.276799999999994
 20
52.315800000000003
 30
0.0
 10
-72.276799999999994
 20
53.159799999999997
 30
0.0
 10
-72.276799999999994
 20
53.159799999999997
 30
0.0
 10
-72.276799999999994
 20
54.323099999999997
 30
0.0
 10
-70.956699999999998
 20
54.488999999999997
 30
0.0
 10
-70.956699999999998
 20
55.1402
 30
0.0
 10
-70.956699999999998
 20
55.1402
 30
0.0
 10
-70.956699999999998
 20
56.0227
 30
0.0
 10
-71.433300000000003
 20
56.116300000000003
 30
0.0
 10
-71.946799999999996
 20
56.4604
 30
0.0
 10
-71.946799999999996
 20
56.4604
 30
0.0
 10
-71.946799999999996
 20
56.4604
 30
0.0
 10
-72.170699999999997
 20
56.807600000000001
 30
0.0
 10
-72.170699999999997
 20
56.807600000000001
 30
0.0
 10
-72.170699999999997
 20
56.807600000000001
 30
0.0
 10
-72.170699999999997
 20
56.807600000000001
 30
0.0
 10
-77.786199999999994
 20
53.183100000000003
 30
0.0
 10
-77.786199999999994
 20
53.183100000000003
 30
0.0
  0
SPLINE
  5
3D
100
AcDbEntity
  8
RÚteg 1
100
AcDbSpline
210
0.0
220
0.0
230
1.0
 70
     1
 71
     3
 72
    32
 73
    28
 74
     0
 42
0.0000000001
 43
0.0000000001
 40
0.0
 40
0.0
 40
0.0
 40
0.0
 40
0.1428571428571429
 40
0.1428571428571429
 40
0.1428571428571429
 40
0.1428571428571429
 40
0.2857142857142857
 40
0.2857142857142857
 40
0.2857142857142857
 40
0.2857142857142857
 40
0.4285714285714286
 40
0.4285714285714286
 40
0.4285714285714286
 40
0.4285714285714286
 40
0.5714285714285714
 40
0.5714285714285714
 40
0.5714285714285714
 40
0.5714285714285714
 40
0.7142857142857142
 40
0.7142857142857142
 40
0.7142857142857142
 40
0.7142857142857142
 40
0.857142857142857
 40
0.857142857142857
 40
0.857142857142857
 40
0.857142857142857
 40
1.0
 40
1.0
 40
1.0
 40
1.0
 10
-70.626499999999993
 20
44.907800000000002
 30
0.0
 10
-70.626499999999993
 20
44.907800000000002
 30
0.0
 10
-70.626499999999993
 20
42.927300000000002
 30
0.0
 10
-70.626499999999993
 20
42.927300000000002
 30
0.0
 10
-70.626499999999993
 20
42.927300000000002
 30
0.0
 10
-70.626499999999993
 20
42.166800000000002
 30
0.0
 10
-70.397000000000006
 20
41.936999999999998
 30
0.0
 10
-69.636399999999995
 20
41.936999999999998
 30
0.0
 10
-69.636399999999995
 20
41.936999999999998
 30
0.0
 10
-67.829700000000003
 20
41.936999999999998
 30
0.0
 10
-64.685299999999998
 20
44.220100000000002
 30
0.0
 10
-64.685299999999998
 20
46.227800000000002
 30
0.0
 10
-64.685299999999998
 20
46.227800000000002
 30
0.0
 10
-64.685299999999998
 20
48.2044
 30
0.0
 10
-66.411000000000001
 20
46.359000000000002
 30
0.0
 10
-67.985799999999998
 20
46.227800000000002
 30
0.0
 10
-67.985799999999998
 20
46.227800000000002
 30
0.0
 10
-67.985799999999998
 20
46.227800000000002
 30
0.0
 10
-67.985799999999998
 20
47.548200000000001
 30
0.0
 10
-67.985799999999998
 20
47.548200000000001
 30
0.0
 10
-67.985799999999998
 20
47.548200000000001
 30
0.0
 10
-67.985799999999998
 20
48.308900000000001
 30
0.0
 10
-68.215599999999995
 20
48.538699999999999
 30
0.0
 10
-68.976200000000006
 20
48.538699999999999
 30
0.0
 10
-68.976200000000006
 20
48.538699999999999
 30
0.0
 10
-70.430300000000003
 20
48.538699999999999
 30
0.0
 10
-70.626499999999993
 20
46.4176
 30
0.0
 10
-70.626499999999993
 20
44.907800000000002
 30
0.0
  0
SPLINE
  5
3E
100
AcDbEntity
  8
RÚteg 1
100
AcDbSpline
210
0.0
220
0.0
230
1.0
 70
     1
 71
     3
 72
    28
 73
    24
 74
     0
 42
0.0000000001
 43
0.0000000001
 40
0.0
 40
0.0
 40
0.0
 40
0.0
 40
0.1666666666666667
 40
0.1666666666666667
 40
0.1666666666666667
 40
0.1666666666666667
 40
0.3333333333333333
 40
0.3333333333333333
 40
0.3333333333333333
 40
0.3333333333333333
 40
0.5
 40
0.5
 40
0.5
 40
0.5
 40
0.6666666666666666
 40
0.6666666666666666
 40
0.6666666666666666
 40
0.6666666666666666
 40
0.8333333333333333
 40
0.8333333333333333
 40
0.8333333333333333
 40
0.8333333333333333
 40
1.0
 40
1.0
 40
1.0
 40
1.0
 10
-63.364699999999999
 20
61.411499999999997
 30
0.0
 10
-63.364699999999999
 20
61.411499999999997
 30
0.0
 10
-63.303600000000003
 20
60.273499999999999
 30
0.0
 10
-63.303600000000003
 20
60.273499999999999
 30
0.0
 10
-63.303600000000003
 20
60.273499999999999
 30
0.0
 10
-63.303600000000003
 20
60.273499999999999
 30
0.0
 10
-60.4848
 20
61.361800000000002
 30
0.0
 10
-60.4848
 20
61.361800000000002
 30
0.0
 10
-60.4848
 20
61.361800000000002
 30
0.0
 10
-60.4848
 20
61.361800000000002
 30
0.0
 10
-58.743899999999996
 20
58.770899999999997
 30
0.0
 10
-58.743899999999996
 20
58.770899999999997
 30
0.0
 10
-58.743899999999996
 20
58.770899999999997
 30
0.0
 10
-58.180999999999997
 20
59.1479
 30
0.0
 10
-57.4236
 20
59.488999999999997
 30
0.0
 10
-57.4236
 20
60.421199999999999
 30
0.0
 10
-57.4236
 20
60.421199999999999
 30
0.0
 10
-57.4236
 20
60.421199999999999
 30
0.0
 10
-57.4236
 20
65.042400000000001
 30
0.0
 10
-57.4236
 20
65.042400000000001
 30
0.0
 10
-57.4236
 20
65.042400000000001
 30
0.0
 10
-57.4236
 20
67.326599999999999
 30
0.0
 10
-63.364699999999999
 20
63.792499999999997
 30
0.0
 10
-63.364699999999999
 20
61.411499999999997
 30
0.0
  0
SPLINE
  5
3F
100
AcDbEntity
  8
RÚteg 1
100
AcDbSpline
210
0.0
220
0.0
230
1.0
 70
     0
 71
     3
 72
    24
 73
    20
 74
     0
 42
0.0000000001
 43
0.0000000001
 40
0.0
 40
0.0
 40
0.0
 40
0.0
 40
0.2
 40
0.2
 40
0.2
 40
0.2
 40
0.4
 40
0.4
 40
0.4
 40
0.4
 40
0.6000000000000001
 40
0.6000000000000001
 40
0.6000000000000001
 40
0.6000000000000001
 40
0.8
 40
0.8
 40
0.8
 40
0.8
 40
1.0
 40
1.0
 40
1.0
 40
1.0
 10
-71.616799999999998
 20
64.712100000000007
 30
0.0
 10
-72.1648
 20
64.712100000000007
 30
0.0
 10
-72.118099999999998
 20
61.830399999999997
 30
0.0
 10
-71.616799999999998
 20
61.411499999999997
 30
0.0
 10
-71.616799999999998
 20
61.411499999999997
 30
0.0
 10
-71.586100000000002
 20
60.0289
 30
0.0
 10
-71.350700000000003
 20
58.110900000000001
 30
0.0
 10
-69.966300000000004
 20
58.110900000000001
 30
0.0
 10
-69.966300000000004
 20
58.110900000000001
 30
0.0
 10
-68.190700000000007
 20
58.110900000000001
 30
0.0
 10
-69.219399999999993
 20
60.076000000000001
 30
0.0
 10
-68.180700000000002
 20
60.641100000000002
 30
0.0
 10
-68.180700000000002
 20
60.641100000000002
 30
0.0
 10
-67.262600000000006
 20
61.140500000000003
 30
0.0
 10
-65.345299999999995
 20
59.351999999999997
 30
0.0
 10
-65.345299999999995
 20
61.411499999999997
 30
0.0
 10
-65.345299999999995
 20
61.411499999999997
 30
0.0
 10
-65.345299999999995
 20
62.963099999999997
 30
0.0
 10
-69.038300000000007
 20
64.579999999999998
 30
0.0
 10
-70.626499999999993
 20
64.712100000000007
 30
0.0
  0
SPLINE
  5
40
100
AcDbEntity
  8
RÚteg 1
100
AcDbSpline
210
0.0
220
0.0
230
1.0
 70
     1
 71
     3
 72
    96
 73
    92
 74
     0
 42
0.0000000001
 43
0.0000000001
 40
0.0
 40
0.0
 40
0.0
 40
0.0
 40
0.0434782608695652
 40
0.0434782608695652
 40
0.0434782608695652
 40
0.0434782608695652
 40
0.0869565217391304
 40
0.0869565217391304
 40
0.0869565217391304
 40
0.0869565217391304
 40
0.1304347826086957
 40
0.1304347826086957
 40
0.1304347826086957
 40
0.1304347826086957
 40
0.1739130434782609
 40
0.1739130434782609
 40
0.1739130434782609
 40
0.1739130434782609
 40
0.2173913043478261
 40
0.2173913043478261
 40
0.2173913043478261
 40
0.2173913043478261
 40
0.2608695652173913
 40
0.2608695652173913
 40
0.2608695652173913
 40
0.2608695652173913
 40
0.3043478260869565
 40
0.3043478260869565
 40
0.3043478260869565
 40
0.3043478260869565
 40
0.3478260869565217
 40
0.3478260869565217
 40
0.3478260869565217
 40
0.3478260869565217
 40
0.3913043478260869
 40
0.3913043478260869
 40
0.3913043478260869
 40
0.3913043478260869
 40
0.4347826086956521
 40
0.4347826086956521
 40
0.4347826086956521
 40
0.4347826086956521
 40
0.4782608695652173
 40
0.4782608695652173
 40
0.4782608695652173
 40
0.4782608695652173
 40
0.5217391304347825
 40
0.5217391304347825
 40
0.5217391304347825
 40
0.5217391304347825
 40
0.5652173913043477
 40
0.5652173913043477
 40
0.5652173913043477
 40
0.5652173913043477
 40
0.6086956521739129
 40
0.6086956521739129
 40
0.6086956521739129
 40
0.6086956521739129
 40
0.6521739130434781
 40
0.6521739130434781
 40
0.6521739130434781
 40
0.6521739130434781
 40
0.6956521739130432
 40
0.6956521739130432
 40
0.6956521739130432
 40
0.6956521739130432
 40
0.7391304347826084
 40
0.7391304347826084
 40
0.7391304347826084
 40
0.7391304347826084
 40
0.7826086956521736
 40
0.7826086956521736
 40
0.7826086956521736
 40
0.7826086956521736
 40
0.8260869565217388
 40
0.8260869565217388
 40
0.8260869565217388
 40
0.8260869565217388
 40
0.869565217391304
 40
0.869565217391304
 40
0.869565217391304
 40
0.869565217391304
 40
0.9130434782608692
 40
0.9130434782608692
 40
0.9130434782608692
 40
0.9130434782608692
 40
0.9565217391304344
 40
0.9565217391304344
 40
0.9565217391304344
 40
0.9565217391304344
 40
1.0
 40
1.0
 40
1.0
 40
1.0
 10
-63.034599999999998
 20
75.274799999999999
 30
0.0
 10
-63.034599999999998
 20
75.274799999999999
 30
0.0
 10
-63.837600000000002
 20
75.382400000000004
 30
0.0
 10
-63.837600000000002
 20
75.382400000000004
 30
0.0
 10
-63.837600000000002
 20
75.382400000000004
 30
0.0
 10
-63.837600000000002
 20
75.382400000000004
 30
0.0
 10
-62.704599999999999
 20
76.9251
 30
0.0
 10
-62.704599999999999
 20
76.9251
 30
0.0
 10
-62.704599999999999
 20
76.9251
 30
0.0
 10
-61.831000000000003
 20
77.510499999999993
 30
0.0
 10
-61.054299999999998
 20
78.099299999999999
 30
0.0
 10
-61.054299999999998
 20
79.565799999999996
 30
0.0
 10
-61.054299999999998
 20
79.565799999999996
 30
0.0
 10
-61.054299999999998
 20
84.526899999999998
 30
0.0
 10
-63.030099999999997
 20
83.494699999999995
 30
0.0
 10
-65.345299999999995
 20
85.507000000000005
 30
0.0
 10
-65.345299999999995
 20
85.507000000000005
 30
0.0
 10
-65.345299999999995
 20
85.507000000000005
 30
0.0
 10
-66.665599999999998
 20
85.507000000000005
 30
0.0
 10
-66.665599999999998
 20
85.507000000000005
 30
0.0
 10
-66.665599999999998
 20
85.507000000000005
 30
0.0
 10
-68.235500000000002
 20
84.142600000000002
 30
0.0
 10
-69.966300000000004
 20
83.940299999999993
 30
0.0
 10
-69.966300000000004
 20
80.886099999999999
 30
0.0
 10
-69.966300000000004
 20
80.886099999999999
 30
0.0
 10
-69.966300000000004
 20
80.886099999999999
 30
0.0
 10
-69.966300000000004
 20
78.245500000000007
 30
0.0
 10
-69.966300000000004
 20
78.245500000000007
 30
0.0
 10
-69.966300000000004
 20
78.245500000000007
 30
0.0
 10
-69.966300000000004
 20
77.059399999999997
 30
0.0
 10
-68.508899999999997
 20
76.716399999999993
 30
0.0
 10
-67.655799999999999
 20
76.264899999999997
 30
0.0
 10
-67.655799999999999
 20
76.264899999999997
 30
0.0
 10
-67.655799999999999
 20
76.264899999999997
 30
0.0
 10
-66.995800000000003
 20
74.944599999999994
 30
0.0
 10
-66.995800000000003
 20
74.944599999999994
 30
0.0
 10
-66.995800000000003
 20
74.944599999999994
 30
0.0
 10
-66.995800000000003
 20
74.944599999999994
 30
0.0
 10
-67.655799999999999
 20
74.944599999999994
 30
0.0
 10
-67.655799999999999
 20
74.944599999999994
 30
0.0
 10
-67.655799999999999
 20
74.944599999999994
 30
0.0
 10
-67.655799999999999
 20
74.944599999999994
 30
0.0
 10
-72.606999999999999
 20
76.595200000000006
 30
0.0
 10
-72.606999999999999
 20
76.595200000000006
 30
0.0
 10
-72.606999999999999
 20
76.595200000000006
 30
0.0
 10
-72.606999999999999
 20
76.595200000000006
 30
0.0
 10
-72.606999999999999
 20
74.614800000000002
 30
0.0
 10
-72.606999999999999
 20
74.614800000000002
 30
0.0
 10
-72.606999999999999
 20
74.614800000000002
 30
0.0
 10
-72.606999999999999
 20
70.658600000000007
 30
0.0
 10
-67.172200000000004
 20
72.137200000000007
 30
0.0
 10
-66.330500000000001
 20
69.021799999999999
 30
0.0
 10
-66.330500000000001
 20
69.021799999999999
 30
0.0
 10
-66.330500000000001
 20
69.021799999999999
 30
0.0
 10
-70.626499999999993
 20
69.993399999999994
 30
0.0
 10
-70.626499999999993
 20
69.993399999999994
 30
0.0
 10
-70.626499999999993
 20
69.993399999999994
 30
0.0
 10
-70.626499999999993
 20
69.993399999999994
 30
0.0
 10
-70.626499999999993
 20
68.673199999999994
 30
0.0
 10
-70.626499999999993
 20
68.673199999999994
 30
0.0
 10
-70.626499999999993
 20
68.673199999999994
 30
0.0
 10
-70.626499999999993
 20
67.250100000000003
 30
0.0
 10
-66.983500000000006
 20
65.042400000000001
 30
0.0
 10
-65.345299999999995
 20
65.042400000000001
 30
0.0
 10
-65.345299999999995
 20
65.042400000000001
 30
0.0
 10
-65.345299999999995
 20
65.042400000000001
 30
0.0
 10
-65.015100000000004
 20
65.042400000000001
 30
0.0
 10
-65.015100000000004
 20
65.042400000000001
 30
0.0
 10
-65.015100000000004
 20
65.042400000000001
 30
0.0
 10
-63.624600000000001
 20
65.042400000000001
 30
0.0
 10
-59.403700000000001
 20
67.260400000000004
 30
0.0
 10
-59.403700000000001
 20
68.673199999999994
 30
0.0
 10
-59.403700000000001
 20
68.673199999999994
 30
0.0
 10
-59.403700000000001
 20
68.673199999999994
 30
0.0
 10
-59.496200000000002
 20
70.878299999999996
 30
0.0
 10
-59.496200000000002
 20
70.878299999999996
 30
0.0
 10
-59.496200000000002
 20
70.878299999999996
 30
0.0
 10
-59.496200000000002
 20
70.878299999999996
 30
0.0
 10
-63.364699999999999
 20
69.333500000000001
 30
0.0
 10
-63.364699999999999
 20
69.333500000000001
 30
0.0
 10
-63.364699999999999
 20
69.333500000000001
 30
0.0
 10
-62.619900000000001
 20
72.123400000000004
 30
0.0
 10
-58.083500000000001
 20
72.015199999999993
 30
0.0
 10
-58.083500000000001
 20
75.274799999999999
 30
0.0
 10
-58.083500000000001
 20
75.274799999999999
 30
0.0
 10
-58.083500000000001
 20
75.274799999999999
 30
0.0
 10
-58.176699999999997
 20
77.449700000000007
 30
0.0
 10
-58.176699999999997
 20
77.449700000000007
 30
0.0
 10
-58.176699999999997
 20
77.449700000000007
 30
0.0
 10
-58.176699999999997
 20
77.449700000000007
 30
0.0
 10
-63.034599999999998
 20
75.274799999999999
 30
0.0
 10
-63.034599999999998
 20
75.274799999999999
 30
0.0
  0
SPLINE
  5
41
100
AcDbEntity
  8
RÚteg 1
100
AcDbSpline
210
0.0
220
0.0
230
1.0
 70
     1
 71
     3
 72
    92
 73
    88
 74
     0
 42
0.0000000001
 43
0.0000000001
 40
0.0
 40
0.0
 40
0.0
 40
0.0
 40
0.0454545454545455
 40
0.0454545454545455
 40
0.0454545454545455
 40
0.0454545454545455
 40
0.0909090909090909
 40
0.0909090909090909
 40
0.0909090909090909
 40
0.0909090909090909
 40
0.1363636363636364
 40
0.1363636363636364
 40
0.1363636363636364
 40
0.1363636363636364
 40
0.1818181818181818
 40
0.1818181818181818
 40
0.1818181818181818
 40
0.1818181818181818
 40
0.2272727272727273
 40
0.2272727272727273
 40
0.2272727272727273
 40
0.2272727272727273
 40
0.2727272727272728
 40
0.2727272727272728
 40
0.2727272727272728
 40
0.2727272727272728
 40
0.3181818181818182
 40
0.3181818181818182
 40
0.3181818181818182
 40
0.3181818181818182
 40
0.3636363636363637
 40
0.3636363636363637
 40
0.3636363636363637
 40
0.3636363636363637
 40
0.4090909090909092
 40
0.4090909090909092
 40
0.4090909090909092
 40
0.4090909090909092
 40
0.4545454545454546
 40
0.4545454545454546
 40
0.4545454545454546
 40
0.4545454545454546
 40
0.5000000000000001
 40
0.5000000000000001
 40
0.5000000000000001
 40
0.5000000000000001
 40
0.5454545454545455
 40
0.5454545454545455
 40
0.5454545454545455
 40
0.5454545454545455
 40
0.5909090909090909
 40
0.5909090909090909
 40
0.5909090909090909
 40
0.5909090909090909
 40
0.6363636363636364
 40
0.6363636363636364
 40
0.6363636363636364
 40
0.6363636363636364
 40
0.6818181818181818
 40
0.6818181818181818
 40
0.6818181818181818
 40
0.6818181818181818
 40
0.7272727272727272
 40
0.7272727272727272
 40
0.7272727272727272
 40
0.7272727272727272
 40
0.7727272727272726
 40
0.7727272727272726
 40
0.7727272727272726
 40
0.7727272727272726
 40
0.818181818181818
 40
0.818181818181818
 40
0.818181818181818
 40
0.818181818181818
 40
0.8636363636363634
 40
0.8636363636363634
 40
0.8636363636363634
 40
0.8636363636363634
 40
0.9090909090909088
 40
0.9090909090909088
 40
0.9090909090909088
 40
0.9090909090909088
 40
0.9545454545454543
 40
0.9545454545454543
 40
0.9545454545454543
 40
0.9545454545454543
 40
1.0
 40
1.0
 40
1.0
 40
1.0
 10
-61.054299999999998
 20
37.315899999999999
 30
0.0
 10
-61.054299999999998
 20
37.315899999999999
 30
0.0
 10
-61.7622
 20
38.266500000000001
 30
0.0
 10
-61.7622
 20
38.266500000000001
 30
0.0
 10
-61.7622
 20
38.266500000000001
 30
0.0
 10
-61.7622
 20
38.266500000000001
 30
0.0
 10
-60.7241
 20
38.3063
 30
0.0
 10
-60.7241
 20
38.3063
 30
0.0
 10
-60.7241
 20
38.3063
 30
0.0
 10
-59.795200000000001
 20
38.0899
 30
0.0
 10
-59.046999999999997
 20
37.646000000000001
 30
0.0
 10
-58.083500000000001
 20
37.646000000000001
 30
0.0
 10
-58.083500000000001
 20
37.646000000000001
 30
0.0
 10
-57.621200000000002
 20
37.646000000000001
 30
0.0
 10
-57.4236
 20
38.096200000000003
 30
0.0
 10
-57.4236
 20
38.636099999999999
 30
0.0
 10
-57.4236
 20
38.636099999999999
 30
0.0
 10
-57.4236
 20
38.636099999999999
 30
0.0
 10
-57.4236
 20
39.626399999999997
 30
0.0
 10
-57.4236
 20
39.626399999999997
 30
0.0
 10
-57.4236
 20
39.626399999999997
 30
0.0
 10
-57.4236
 20
41.069800000000001
 30
0.0
 10
-61.994700000000002
 20
42.597000000000001
 30
0.0
 10
-63.364699999999999
 20
42.597000000000001
 30
0.0
 10
-63.364699999999999
 20
42.597000000000001
 30
0.0
 10
-64.385000000000005
 20
42.597000000000001
 30
0.0
 10
-68.646100000000004
 20
40.322699999999998
 30
0.0
 10
-68.646100000000004
 20
38.966299999999997
 30
0.0
 10
-68.646100000000004
 20
38.966299999999997
 30
0.0
 10
-68.646100000000004
 20
38.966299999999997
 30
0.0
 10
-68.646100000000004
 20
36.985999999999997
 30
0.0
 10
-68.646100000000004
 20
36.985999999999997
 30
0.0
 10
-68.646100000000004
 20
36.985999999999997
 30
0.0
 10
-68.646100000000004
 20
36.985999999999997
 30
0.0
 10
-64.095399999999998
 20
38.492699999999999
 30
0.0
 10
-64.095399999999998
 20
38.492699999999999
 30
0.0
 10
-64.095399999999998
 20
38.492699999999999
 30
0.0
 10
-65.625
 20
35.916899999999998
 30
0.0
 10
-69.966300000000004
 20
35.168100000000003
 30
0.0
 10
-69.966300000000004
 20
32.365200000000002
 30
0.0
 10
-69.966300000000004
 20
32.365200000000002
 30
0.0
 10
-69.966300000000004
 20
32.365200000000002
 30
0.0
 10
-69.966300000000004
 20
30.3843
 30
0.0
 10
-69.966300000000004
 20
30.3843
 30
0.0
 10
-69.966300000000004
 20
30.3843
 30
0.0
 10
-69.966300000000004
 20
30.3843
 30
0.0
 10
-64.166399999999996
 20
32.691899999999997
 30
0.0
 10
-64.166399999999996
 20
32.691899999999997
 30
0.0
 10
-64.166399999999996
 20
32.691899999999997
 30
0.0
 10
-64.166399999999996
 20
32.691899999999997
 30
0.0
 10
-64.025099999999995
 20
32.365200000000002
 30
0.0
 10
-64.025099999999995
 20
32.365200000000002
 30
0.0
 10
-64.025099999999995
 20
32.365200000000002
 30
0.0
 10
-64.549099999999996
 20
30.401599999999998
 30
0.0
 10
-66.665599999999998
 20
30.450600000000001
 30
0.0
 10
-66.665599999999998
 20
28.073799999999999
 30
0.0
 10
-66.665599999999998
 20
28.073799999999999
 30
0.0
 10
-66.665599999999998
 20
28.073799999999999
 30
0.0
 10
-66.665599999999998
 20
25.763200000000001
 30
0.0
 10
-66.665599999999998
 20
25.763200000000001
 30
0.0
 10
-66.665599999999998
 20
25.763200000000001
 30
0.0
 10
-66.665599999999998
 20
23.192299999999999
 30
0.0
 10
-64.380700000000004
 20
23.302600000000002
 30
0.0
 10
-63.034599999999998
 20
22.1327
 30
0.0
 10
-63.034599999999998
 20
22.1327
 30
0.0
 10
-63.034599999999998
 20
22.1327
 30
0.0
 10
-61.384300000000003
 20
22.1327
 30
0.0
 10
-61.384300000000003
 20
22.1327
 30
0.0
 10
-61.384300000000003
 20
22.1327
 30
0.0
 10
-60.506599999999999
 20
22.895399999999999
 30
0.0
 10
-57.753500000000003
 20
24.367899999999999
 30
0.0
 10
-57.753500000000003
 20
25.763200000000001
 30
0.0
 10
-57.753500000000003
 20
25.763200000000001
 30
0.0
 10
-57.753500000000003
 20
32.696199999999997
 30
0.0
 10
-61.109099999999998
 20
29.716899999999999
 30
0.0
 10
-61.384300000000003
 20
33.025100000000002
 30
0.0
 10
-61.384300000000003
 20
33.025100000000002
 30
0.0
 10
-61.384300000000003
 20
33.025100000000002
 30
0.0
 10
-55.488500000000002
 20
30.928000000000001
 30
0.0
 10
-55.488500000000002
 20
30.928000000000001
 30
0.0
 10
-55.488500000000002
 20
30.928000000000001
 30
0.0
 10
-55.488500000000002
 20
30.928000000000001
 30
0.0
 10
-55.442799999999998
 20
33.685099999999998
 30
0.0
 10
-55.442799999999998
 20
33.685099999999998
 30
0.0
 10
-55.442799999999998
 20
33.685099999999998
 30
0.0
 10
-55.442799999999998
 20
35.342399999999998
 30
0.0
 10
-59.659999999999997
 20
36.578200000000002
 30
0.0
 10
-61.054299999999998
 20
37.315899999999999
 30
0.0
  0
SPLINE
  5
42
100
AcDbEntity
  8
RÚteg 1
100
AcDbSpline
210
0.0
220
0.0
230
1.0
 70
     1
 71
     3
 72
    76
 73
    72
 74
     0
 42
0.0000000001
 43
0.0000000001
 40
0.0
 40
0.0
 40
0.0
 40
0.0
 40
0.0555555555555556
 40
0.0555555555555556
 40
0.0555555555555556
 40
0.0555555555555556
 40
0.1111111111111111
 40
0.1111111111111111
 40
0.1111111111111111
 40
0.1111111111111111
 40
0.1666666666666667
 40
0.1666666666666667
 40
0.1666666666666667
 40
0.1666666666666667
 40
0.2222222222222222
 40
0.2222222222222222
 40
0.2222222222222222
 40
0.2222222222222222
 40
0.2777777777777778
 40
0.2777777777777778
 40
0.2777777777777778
 40
0.2777777777777778
 40
0.3333333333333334
 40
0.3333333333333334
 40
0.3333333333333334
 40
0.3333333333333334
 40
0.388888888888889
 40
0.388888888888889
 40
0.388888888888889
 40
0.388888888888889
 40
0.4444444444444445
 40
0.4444444444444445
 40
0.4444444444444445
 40
0.4444444444444445
 40
0.5000000000000001
 40
0.5000000000000001
 40
0.5000000000000001
 40
0.5000000000000001
 40
0.5555555555555557
 40
0.5555555555555557
 40
0.5555555555555557
 40
0.5555555555555557
 40
0.6111111111111113
 40
0.6111111111111113
 40
0.6111111111111113
 40
0.6111111111111113
 40
0.6666666666666669
 40
0.6666666666666669
 40
0.6666666666666669
 40
0.6666666666666669
 40
0.7222222222222224
 40
0.7222222222222224
 40
0.7222222222222224
 40
0.7222222222222224
 40
0.777777777777778
 40
0.777777777777778
 40
0.777777777777778
 40
0.777777777777778
 40
0.8333333333333336
 40
0.8333333333333336
 40
0.8333333333333336
 40
0.8333333333333336
 40
0.8888888888888892
 40
0.8888888888888892
 40
0.8888888888888892
 40
0.8888888888888892
 40
0.9444444444444448
 40
0.9444444444444448
 40
0.9444444444444448
 40
0.9444444444444448
 40
1.0
 40
1.0
 40
1.0
 40
1.0
 10
-79.538499999999999
 20
59.4313
 30
0.0
 10
-79.538499999999999
 20
59.4313
 30
0.0
 10
-79.208699999999993
 20
59.101199999999999
 30
0.0
 10
-79.208699999999993
 20
59.101199999999999
 30
0.0
 10
-79.208699999999993
 20
59.101199999999999
 30
0.0
 10
-79.208699999999993
 20
59.101199999999999
 30
0.0
 10
-81.189099999999996
 20
56.4604
 30
0.0
 10
-81.189099999999996
 20
56.4604
 30
0.0
 10
-81.189099999999996
 20
56.4604
 30
0.0
 10
-80.909000000000006
 20
56.042499999999997
 30
0.0
 10
-79.579999999999998
 20
54.810000000000002
 30
0.0
 10
-79.208699999999993
 20
54.810000000000002
 30
0.0
 10
-79.208699999999993
 20
54.810000000000002
 30
0.0
 10
-78.044600000000003
 20
54.810000000000002
 30
0.0
 10
-73.597300000000004
 20
58.512900000000002
 30
0.0
 10
-73.597300000000004
 20
60.421199999999999
 30
0.0
 10
-73.597300000000004
 20
60.421199999999999
 30
0.0
 10
-73.597300000000004
 20
60.421199999999999
 30
0.0
 10
-73.597300000000004
 20
63.722099999999998
 30
0.0
 10
-73.597300000000004
 20
63.722099999999998
 30
0.0
 10
-73.597300000000004
 20
63.722099999999998
 30
0.0
 10
-73.597300000000004
 20
64.686700000000002
 30
0.0
 10
-75.242400000000004
 20
66.032499999999999
 30
0.0
 10
-76.237899999999996
 20
66.032499999999999
 30
0.0
 10
-76.237899999999996
 20
66.032499999999999
 30
0.0
 10
-77.355400000000003
 20
66.032499999999999
 30
0.0
 10
-76.617699999999999
 20
63.014000000000003
 30
0.0
 10
-77.228099999999998
 20
61.741599999999998
 30
0.0
 10
-77.228099999999998
 20
61.741599999999998
 30
0.0
 10
-79.898799999999994
 20
63.698300000000003
 30
0.0
 10
-75.367000000000004
 20
70.323599999999999
 30
0.0
 10
-81.899900000000002
 20
70.328500000000005
 30
0.0
 10
-81.899900000000002
 20
70.328500000000005
 30
0.0
 10
-81.899900000000002
 20
70.328500000000005
 30
0.0
 10
-82.509500000000003
 20
64.382000000000005
 30
0.0
 10
-82.509500000000003
 20
64.382000000000005
 30
0.0
 10
-82.509500000000003
 20
64.382000000000005
 30
0.0
 10
-84.183300000000003
 20
65.608500000000006
 30
0.0
 10
-82.748900000000006
 20
67.157300000000006
 30
0.0
 10
-84.389300000000006
 20
68.773499999999999
 30
0.0
 10
-84.389300000000006
 20
68.773499999999999
 30
0.0
 10
-84.917100000000005
 20
69.293700000000001
 30
0.0
 10
-87.889399999999995
 20
70.653700000000001
 30
0.0
 10
-88.780699999999996
 20
70.653700000000001
 30
0.0
 10
-88.780699999999996
 20
70.653700000000001
 30
0.0
 10
-89.840599999999995
 20
70.653700000000001
 30
0.0
 10
-92.741600000000005
 20
68.478099999999998
 30
0.0
 10
-92.741600000000005
 20
66.692899999999995
 30
0.0
 10
-92.741600000000005
 20
66.692899999999995
 30
0.0
 10
-92.741600000000005
 20
66.692899999999995
 30
0.0
 10
-92.741600000000005
 20
64.052199999999999
 30
0.0
 10
-92.741600000000005
 20
64.052199999999999
 30
0.0
 10
-92.741600000000005
 20
64.052199999999999
 30
0.0
 10
-92.741600000000005
 20
62.6571
 30
0.0
 10
-89.251000000000005
 20
61.081499999999998
 30
0.0
 10
-87.790400000000005
 20
61.081499999999998
 30
0.0
 10
-87.790400000000005
 20
61.081499999999998
 30
0.0
 10
-86.102400000000003
 20
61.081499999999998
 30
0.0
 10
-85.770499999999998
 20
62.240400000000001
 30
0.0
 10
-83.829499999999996
 20
62.401800000000001
 30
0.0
 10
-83.829499999999996
 20
62.401800000000001
 30
0.0
 10
-84.392099999999999
 20
59.987400000000001
 30
0.0
 10
-86.436800000000005
 20
59.802199999999999
 30
0.0
 10
-87.790400000000005
 20
57.780799999999999
 30
0.0
 10
-87.790400000000005
 20
57.780799999999999
 30
0.0
 10
-87.337500000000006
 20
57.104300000000002
 30
0.0
 10
-86.169899999999998
 20
56.130299999999998
 30
0.0
 10
-85.150000000000006
 20
56.130299999999998
 30
0.0
 10
-85.150000000000006
 20
56.130299999999998
 30
0.0
 10
-84.027299999999997
 20
56.130299999999998
 30
0.0
 10
-80.784000000000006
 20
58.772100000000002
 30
0.0
 10
-79.538499999999999
 20
59.4313
 30
0.0
  0
SPLINE
  5
43
100
AcDbEntity
  8
RÚteg 1
 62
     7
100
AcDbSpline
210
0.0
220
0.0
230
1.0
 70
     1
 71
     3
 72
    60
 73
    56
 74
     0
 42
0.0000000001
 43
0.0000000001
 40
0.0
 40
0.0
 40
0.0
 40
0.0
 40
0.0714285714285714
 40
0.0714285714285714
 40
0.0714285714285714
 40
0.0714285714285714
 40
0.1428571428571429
 40
0.1428571428571429
 40
0.1428571428571429
 40
0.1428571428571429
 40
0.2142857142857143
 40
0.2142857142857143
 40
0.2142857142857143
 40
0.2142857142857143
 40
0.2857142857142857
 40
0.2857142857142857
 40
0.2857142857142857
 40
0.2857142857142857
 40
0.3571428571428571
 40
0.3571428571428571
 40
0.3571428571428571
 40
0.3571428571428571
 40
0.4285714285714285
 40
0.4285714285714285
 40
0.4285714285714285
 40
0.4285714285714285
 40
0.4999999999999999
 40
0.4999999999999999
 40
0.4999999999999999
 40
0.4999999999999999
 40
0.5714285714285713
 40
0.5714285714285713
 40
0.5714285714285713
 40
0.5714285714285713
 40
0.6428571428571427
 40
0.6428571428571427
 40
0.6428571428571427
 40
0.6428571428571427
 40
0.7142857142857141
 40
0.7142857142857141
 40
0.7142857142857141
 40
0.7142857142857141
 40
0.7857142857142855
 40
0.7857142857142855
 40
0.7857142857142855
 40
0.7857142857142855
 40
0.8571428571428569
 40
0.8571428571428569
 40
0.8571428571428569
 40
0.8571428571428569
 40
0.9285714285714283
 40
0.9285714285714283
 40
0.9285714285714283
 40
0.9285714285714283
 40
1.0
 40
1.0
 40
1.0
 40
1.0
 10
9.2316000000000003
 20
87.647499999999994
 30
0.0
 10
25.6738
 20
85.673500000000004
 30
0.0
 10
38.423699999999997
 20
71.674199999999999
 30
0.0
 10
38.423699999999997
 20
54.700899999999997
 30
0.0
 10
38.423699999999997
 20
54.700899999999997
 30
0.0
 10
38.423699999999997
 20
36.3752
 30
0.0
 10
23.562200000000001
 20
21.5139
 30
0.0
 10
5.2370000000000001
 20
21.5139
 30
0.0
 10
5.2370000000000001
 20
21.5139
 30
0.0
 10
-13.088699999999999
 20
21.5139
 30
0.0
 10
-27.949999999999999
 20
36.3752
 30
0.0
 10
-27.949999999999999
 20
54.700899999999997
 30
0.0
 10
-27.949999999999999
 20
54.700899999999997
 30
0.0
 10
-27.949999999999999
 20
71.674199999999999
 30
0.0
 10
-15.2005
 20
85.673500000000004
 30
0.0
 10
1.242
 20
87.647499999999994
 30
0.0
 10
1.242
 20
87.647499999999994
 30
0.0
 10
1.242
 20
87.647499999999994
 30
0.0
 10
1.242
 20
92.590299999999999
 30
0.0
 10
1.242
 20
92.590299999999999
 30
0.0
 10
1.242
 20
92.590299999999999
 30
0.0
 10
1.242
 20
92.963300000000004
 30
0.0
 10
1.5468999999999999
 20
93.268199999999993
 30
0.0
 10
1.9197
 20
93.268199999999993
 30
0.0
 10
1.9197
 20
93.268199999999993
 30
0.0
 10
1.9197
 20
93.268199999999993
 30
0.0
 10
2.3325999999999998
 20
93.268199999999993
 30
0.0
 10
2.3325999999999998
 20
93.268199999999993
 30
0.0
 10
2.3325999999999998
 20
93.268199999999993
 30
0.0
 10
1.5844
 20
94.0137
 30
0.0
 10
1.1208
 20
95.044799999999995
 30
0.0
 10
1.1208
 20
96.184200000000004
 30
0.0
 10
1.1208
 20
96.184200000000004
 30
0.0
 10
1.1208
 20
98.457099999999997
 30
0.0
 10
2.964
 20
100.3
 30
0.0
 10
5.2370000000000001
 20
100.3
 30
0.0
 10
5.2370000000000001
 20
100.3
 30
0.0
 10
7.5096999999999996
 20
100.3
 30
0.0
 10
9.3524999999999991
 20
98.457099999999997
 30
0.0
 10
9.3524999999999991
 20
96.184200000000004
 30
0.0
 10
9.3524999999999991
 20
96.184200000000004
 30
0.0
 10
9.3524999999999991
 20
95.044799999999995
 30
0.0
 10
8.8894000000000002
 20
94.0137
 30
0.0
 10
8.141
 20
93.268199999999993
 30
0.0
 10
8.141
 20
93.268199999999993
 30
0.0
 10
8.141
 20
93.268199999999993
 30
0.0
 10
8.5535999999999994
 20
93.268199999999993
 30
0.0
 10
8.5535999999999994
 20
93.268199999999993
 30
0.0
 10
8.5535999999999994
 20
93.268199999999993
 30
0.0
 10
8.9265000000000008
 20
93.268199999999993
 30
0.0
 10
9.2316000000000003
 20
92.963300000000004
 30
0.0
 10
9.2316000000000003
 20
92.590299999999999
 30
0.0
 10
9.2316000000000003
 20
92.590299999999999
 30
0.0
 10
9.2316000000000003
 20
92.590299999999999
 30
0.0
 10
9.2316000000000003
 20
87.647499999999994
 30
0.0
 10
9.2316000000000003
 20
87.647499999999994
 30
0.0
  0
SPLINE
  5
44
100
AcDbEntity
  8
RÚteg 1
 62
     7
100
AcDbSpline
210
0.0
220
0.0
230
1.0
 70
     1
 71
     3
 72
    20
 73
    16
 74
     0
 42
0.0000000001
 43
0.0000000001
 40
0.0
 40
0.0
 40
0.0
 40
0.0
 40
0.25
 40
0.25
 40
0.25
 40
0.25
 40
0.5
 40
0.5
 40
0.5
 40
0.5
 40
0.75
 40
0.75
 40
0.75
 40
0.75
 40
1.0
 40
1.0
 40
1.0
 40
1.0
 10
5.2370000000000001
 20
98.391599999999997
 30
0.0
 10
6.4558
 20
98.391599999999997
 30
0.0
 10
7.4443999999999999
 20
97.403099999999995
 30
0.0
 10
7.4443999999999999
 20
96.184200000000004
 30
0.0
 10
7.4443999999999999
 20
96.184200000000004
 30
0.0
 10
7.4443999999999999
 20
94.965299999999999
 30
0.0
 10
6.4558
 20
93.976699999999994
 30
0.0
 10
5.2370000000000001
 20
93.976699999999994
 30
0.0
 10
5.2370000000000001
 20
93.976699999999994
 30
0.0
 10
4.0175999999999998
 20
93.976699999999994
 30
0.0
 10
3.0295000000000001
 20
94.965299999999999
 30
0.0
 10
3.0295000000000001
 20
96.184200000000004
 30
0.0
 10
3.0295000000000001
 20
96.184200000000004
 30
0.0
 10
3.0295000000000001
 20
97.403099999999995
 30
0.0
 10
4.0175999999999998
 20
98.391599999999997
 30
0.0
 10
5.2370000000000001
 20
98.391599999999997
 30
0.0
  0
SPLINE
  5
45
100
AcDbEntity
  8
RÚteg 1
 62
     7
100
AcDbSpline
210
0.0
220
0.0
230
1.0
 70
     1
 71
     3
 72
    44
 73
    40
 74
     0
 42
0.0000000001
 43
0.0000000001
 40
0.0
 40
0.0
 40
0.0
 40
0.0
 40
0.1
 40
0.1
 40
0.1
 40
0.1
 40
0.2
 40
0.2
 40
0.2
 40
0.2
 40
0.3
 40
0.3
 40
0.3
 40
0.3
 40
0.4
 40
0.4
 40
0.4
 40
0.4
 40
0.5
 40
0.5
 40
0.5
 40
0.5
 40
0.6
 40
0.6
 40
0.6
 40
0.6
 40
0.7
 40
0.7
 40
0.7
 40
0.7
 40
0.7999999999999999
 40
0.7999999999999999
 40
0.7999999999999999
 40
0.7999999999999999
 40
0.8999999999999999
 40
0.8999999999999999
 40
0.8999999999999999
 40
0.8999999999999999
 40
1.0
 40
1.0
 40
1.0
 40
1.0
 10
-10.5593
 20
70.496799999999993
 30
0.0
 10
-10.5593
 20
70.496799999999993
 30
0.0
 10
-10.5593
 20
65.850899999999996
 30
0.0
 10
-10.5593
 20
65.850899999999996
 30
0.0
 10
-10.5593
 20
65.850899999999996
 30
0.0
 10
-11.6196
 20
64.267399999999995
 30
0.0
 10
-15.8247
 20
62.9298
 30
0.0
 10
-15.8247
 20
62.134099999999997
 30
0.0
 10
-15.8247
 20
62.134099999999997
 30
0.0
 10
-15.8247
 20
61.4681
 30
0.0
 10
-15.1617
 20
59.966099999999997
 30
0.0
 10
-14.2761
 20
59.966099999999997
 30
0.0
 10
-14.2761
 20
59.966099999999997
 30
0.0
 10
-13.2729
 20
59.966099999999997
 30
0.0
 10
-9.9518000000000004
 20
62.443899999999999
 30
0.0
 10
-9.0106999999999999
 20
62.443899999999999
 30
0.0
 10
-9.0106999999999999
 20
62.443899999999999
 30
0.0
 10
-8.9452999999999996
 20
62.443899999999999
 30
0.0
 10
-5.1818
 20
59.760199999999998
 30
0.0
 10
-4.6125999999999996
 20
59.408499999999997
 30
0.0
 10
-4.6125999999999996
 20
59.408499999999997
 30
0.0
 10
-4.2000000000000002
 20
59.153700000000001
 30
0.0
 10
0.2811
 20
56.302999999999997
 30
0.0
 10
0.2811
 20
58.107599999999998
 30
0.0
 10
0.2811
 20
58.107599999999998
 30
0.0
 10
0.2811
 20
60.161900000000003
 30
0.0
 10
-3.5893000000000002
 20
62.529800000000002
 30
0.0
 10
-5.1132999999999997
 20
63.553699999999999
 30
0.0
 10
-5.1132999999999997
 20
63.553699999999999
 30
0.0
 10
-9.3914000000000009
 20
66.427400000000006
 30
0.0
 10
-6.0963000000000003
 20
71.116100000000003
 30
0.0
 10
-8.3912999999999993
 20
71.116100000000003
 30
0.0
 10
-8.3912999999999993
 20
71.116100000000003
 30
0.0
 10
-8.3912999999999993
 20
71.116100000000003
 30
0.0
 10
-9.3203999999999994
 20
71.116100000000003
 30
0.0
 10
-9.3203999999999994
 20
71.116100000000003
 30
0.0
 10
-9.3203999999999994
 20
71.116100000000003
 30
0.0
 10
-9.8224
 20
71.116100000000003
 30
0.0
 10
-10.305899999999999
 20
70.744900000000001
 30
0.0
 10
-10.5593
 20
70.496799999999993
 30
0.0
  0
SPLINE
  5
46
100
AcDbEntity
  8
RÚteg 1
 62
     7
100
AcDbSpline
210
0.0
220
0.0
230
1.0
 70
     1
 71
     3
 72
    44
 73
    40
 74
     0
 42
0.0000000001
 43
0.0000000001
 40
0.0
 40
0.0
 40
0.0
 40
0.0
 40
0.1
 40
0.1
 40
0.1
 40
0.1
 40
0.2
 40
0.2
 40
0.2
 40
0.2
 40
0.3
 40
0.3
 40
0.3
 40
0.3
 40
0.4
 40
0.4
 40
0.4
 40
0.4
 40
0.5
 40
0.5
 40
0.5
 40
0.5
 40
0.6
 40
0.6
 40
0.6
 40
0.6
 40
0.7
 40
0.7
 40
0.7
 40
0.7
 40
0.7999999999999999
 40
0.7999999999999999
 40
0.7999999999999999
 40
0.7999999999999999
 40
0.8999999999999999
 40
0.8999999999999999
 40
0.8999999999999999
 40
0.8999999999999999
 40
1.0
 40
1.0
 40
1.0
 40
1.0
 10
-11.178800000000001
 20
39.8339
 30
0.0
 10
-6.3648999999999996
 20
39.8339
 30
0.0
 10
-11.5406
 20
44.318399999999997
 30
0.0
 10
-6.0179999999999998
 20
47.061900000000001
 30
0.0
 10
-6.0179999999999998
 20
47.061900000000001
 30
0.0
 10
-5.5457999999999998
 20
47.296199999999999
 30
0.0
 10
3.4392
 20
52.222900000000003
 30
0.0
 10
-0.6479
 20
52.222900000000003
 30
0.0
 10
-0.6479
 20
52.222900000000003
 30
0.0
 10
-0.6479
 20
52.222900000000003
 30
0.0
 10
-3.4352999999999998
 20
52.222900000000003
 30
0.0
 10
-3.4352999999999998
 20
52.222900000000003
 30
0.0
 10
-3.4352999999999998
 20
52.222900000000003
 30
0.0
 10
-3.8029999999999999
 20
52.222900000000003
 30
0.0
 10
-8.0755999999999997
 20
48.816000000000003
 30
0.0
 10
-9.9397000000000002
 20
48.816000000000003
 30
0.0
 10
-9.9397000000000002
 20
48.816000000000003
 30
0.0
 10
-10.8245
 20
48.816000000000003
 30
0.0
 10
-13.087199999999999
 20
51.293500000000002
 30
0.0
 10
-14.8956
 20
51.293500000000002
 30
0.0
 10
-14.8956
 20
51.293500000000002
 30
0.0
 10
-14.8956
 20
51.293500000000002
 30
0.0
 10
-15.2051
 20
51.293500000000002
 30
0.0
 10
-15.2051
 20
51.293500000000002
 30
0.0
 10
-15.2051
 20
51.293500000000002
 30
0.0
 10
-16.0794
 20
51.293500000000002
 30
0.0
 10
-16.400200000000002
 20
50.582799999999999
 30
0.0
 10
-16.753799999999998
 20
50.054299999999998
 30
0.0
 10
-16.753799999999998
 20
50.054299999999998
 30
0.0
 10
-15.445600000000001
 20
48.100999999999999
 30
0.0
 10
-14.2736
 20
48.0779
 30
0.0
 10
-12.658300000000001
 20
46.716700000000003
 30
0.0
 10
-12.658300000000001
 20
46.716700000000003
 30
0.0
 10
-11.1472
 20
45.443100000000001
 30
0.0
 10
-12.107900000000001
 20
42.957099999999997
 30
0.0
 10
-12.107900000000001
 20
40.452800000000003
 30
0.0
 10
-12.107900000000001
 20
40.452800000000003
 30
0.0
 10
-12.107900000000001
 20
40.019199999999998
 30
0.0
 10
-11.685499999999999
 20
39.8339
 30
0.0
 10
-11.178800000000001
 20
39.8339
 30
0.0
  0
SPLINE
  5
47
100
AcDbEntity
  8
RÚteg 1
 62
     7
100
AcDbSpline
210
0.0
220
0.0
230
1.0
 70
     1
 71
     3
 72
    44
 73
    40
 74
     0
 42
0.0000000001
 43
0.0000000001
 40
0.0
 40
0.0
 40
0.0
 40
0.0
 40
0.1
 40
0.1
 40
0.1
 40
0.1
 40
0.2
 40
0.2
 40
0.2
 40
0.2
 40
0.3
 40
0.3
 40
0.3
 40
0.3
 40
0.4
 40
0.4
 40
0.4
 40
0.4
 40
0.5
 40
0.5
 40
0.5
 40
0.5
 40
0.6
 40
0.6
 40
0.6
 40
0.6
 40
0.7
 40
0.7
 40
0.7
 40
0.7
 40
0.7999999999999999
 40
0.7999999999999999
 40
0.7999999999999999
 40
0.7999999999999999
 40
0.8999999999999999
 40
0.8999999999999999
 40
0.8999999999999999
 40
0.8999999999999999
 40
1.0
 40
1.0
 40
1.0
 40
1.0
 10
6.5743
 20
44.156799999999997
 30
0.0
 10
6.5743
 20
44.156799999999997
 30
0.0
 10
6.4756
 20
44.479599999999998
 30
0.0
 10
6.4756
 20
44.479599999999998
 30
0.0
 10
6.4756
 20
44.479599999999998
 30
0.0
 10
6.4756
 20
46.408000000000001
 30
0.0
 10
6.0978000000000003
 20
47.722499999999997
 30
0.0
 10
4.9272
 20
48.5062
 30
0.0
 10
4.9272
 20
48.5062
 30
0.0
 10
3.0537999999999998
 20
47.133499999999998
 30
0.0
 10
3.2187000000000001
 20
42.889299999999999
 30
0.0
 10
2.7963
 20
40.106099999999998
 30
0.0
 10
2.7963
 20
40.106099999999998
 30
0.0
 10
2.2753999999999999
 20
36.673299999999998
 30
0.0
 10
-2.1970000000000001
 20
36.624000000000002
 30
0.0
 10
-2.1970000000000001
 20
34.878100000000003
 30
0.0
 10
-2.1970000000000001
 20
34.878100000000003
 30
0.0
 10
-2.1970000000000001
 20
34.369100000000003
 30
0.0
 10
-1.7444999999999999
 20
33.329599999999999
 30
0.0
 10
-1.2674000000000001
 20
33.329599999999999
 30
0.0
 10
-1.2674000000000001
 20
33.329599999999999
 30
0.0
 10
0.7236
 20
33.329599999999999
 30
0.0
 10
3.1355
 20
35.497599999999998
 30
0.0
 10
4.3078000000000003
 20
35.497599999999998
 30
0.0
 10
4.3078000000000003
 20
35.497599999999998
 30
0.0
 10
4.5951000000000004
 20
35.497599999999998
 30
0.0
 10
8.4984000000000002
 20
32.400300000000001
 30
0.0
 10
9.2631999999999994
 20
32.400300000000001
 30
0.0
 10
9.2631999999999994
 20
32.400300000000001
 30
0.0
 10
9.5678999999999998
 20
32.400300000000001
 30
0.0
 10
10.811999999999999
 20
33.589599999999997
 30
0.0
 10
10.811999999999999
 20
34.258699999999997
 30
0.0
 10
10.811999999999999
 20
34.258699999999997
 30
0.0
 10
10.811999999999999
 20
35.297499999999999
 30
0.0
 10
6.7293000000000003
 20
37.7423
 30
0.0
 10
5.7579000000000002
 20
37.988700000000001
 30
0.0
 10
5.7579000000000002
 20
37.988700000000001
 30
0.0
 10
5.7579000000000002
 20
37.988700000000001
 30
0.0
 10
6.5743
 20
44.156799999999997
 30
0.0
 10
6.5743
 20
44.156799999999997
 30
0.0
  0
SPLINE
  5
48
100
AcDbEntity
  8
RÚteg 1
 62
     7
100
AcDbSpline
210
0.0
220
0.0
230
1.0
 70
     1
 71
     3
 72
    40
 73
    36
 74
     0
 42
0.0000000001
 43
0.0000000001
 40
0.0
 40
0.0
 40
0.0
 40
0.0
 40
0.1111111111111111
 40
0.1111111111111111
 40
0.1111111111111111
 40
0.1111111111111111
 40
0.2222222222222222
 40
0.2222222222222222
 40
0.2222222222222222
 40
0.2222222222222222
 40
0.3333333333333333
 40
0.3333333333333333
 40
0.3333333333333333
 40
0.3333333333333333
 40
0.4444444444444444
 40
0.4444444444444444
 40
0.4444444444444444
 40
0.4444444444444444
 40
0.5555555555555556
 40
0.5555555555555556
 40
0.5555555555555556
 40
0.5555555555555556
 40
0.6666666666666667
 40
0.6666666666666667
 40
0.6666666666666667
 40
0.6666666666666667
 40
0.7777777777777779
 40
0.7777777777777779
 40
0.7777777777777779
 40
0.7777777777777779
 40
0.8888888888888891
 40
0.8888888888888891
 40
0.8888888888888891
 40
0.8888888888888891
 40
1.0
 40
1.0
 40
1.0
 40
1.0
 10
19.793700000000001
 20
46.957500000000003
 30
0.0
 10
18.545999999999999
 20
46.957500000000003
 30
0.0
 10
15.240399999999999
 20
51.603499999999997
 30
0.0
 10
10.5022
 20
51.603499999999997
 30
0.0
 10
10.5022
 20
51.603499999999997
 30
0.0
 10
10.590999999999999
 20
48.3827
 30
0.0
 10
16.168399999999998
 20
45.433
 30
0.0
 10
18.555
 20
44.169800000000002
 30
0.0
 10
18.555
 20
44.169800000000002
 30
0.0
 10
18.2774
 20
42.978999999999999
 30
0.0
 10
17.146000000000001
 20
37.975499999999997
 30
0.0
 10
18.865300000000001
 20
37.975499999999997
 30
0.0
 10
18.865300000000001
 20
37.975499999999997
 30
0.0
 10
18.865300000000001
 20
37.975499999999997
 30
0.0
 10
19.793700000000001
 20
37.975499999999997
 30
0.0
 10
19.793700000000001
 20
37.975499999999997
 30
0.0
 10
19.793700000000001
 20
37.975499999999997
 30
0.0
 10
21.4985
 20
37.975499999999997
 30
0.0
 10
21.036799999999999
 20
42.5212
 30
0.0
 10
21.892499999999998
 20
43.929699999999997
 30
0.0
 10
21.892499999999998
 20
43.929699999999997
 30
0.0
 10
22.878799999999998
 20
45.551900000000003
 30
0.0
 10
26.6081
 20
45.465499999999999
 30
0.0
 10
26.6081
 20
47.2669
 30
0.0
 10
26.6081
 20
47.2669
 30
0.0
 10
26.6081
 20
47.991100000000003
 30
0.0
 10
26.205200000000001
 20
48.816000000000003
 30
0.0
 10
25.3688
 20
48.816000000000003
 30
0.0
 10
25.3688
 20
48.816000000000003
 30
0.0
 10
25.3688
 20
48.816000000000003
 30
0.0
 10
25.0594
 20
48.816000000000003
 30
0.0
 10
25.0594
 20
48.816000000000003
 30
0.0
 10
25.0594
 20
48.816000000000003
 30
0.0
 10
23.654900000000001
 20
48.816000000000003
 30
0.0
 10
20.784700000000001
 20
46.957500000000003
 30
0.0
 10
19.793700000000001
 20
46.957500000000003
 30
0.0
  0
SPLINE
  5
49
100
AcDbEntity
  8
RÚteg 1
 62
     7
100
AcDbSpline
210
0.0
220
0.0
230
1.0
 70
     1
 71
     3
 72
    40
 73
    36
 74
     0
 42
0.0000000001
 43
0.0000000001
 40
0.0
 40
0.0
 40
0.0
 40
0.0
 40
0.1111111111111111
 40
0.1111111111111111
 40
0.1111111111111111
 40
0.1111111111111111
 40
0.2222222222222222
 40
0.2222222222222222
 40
0.2222222222222222
 40
0.2222222222222222
 40
0.3333333333333333
 40
0.3333333333333333
 40
0.3333333333333333
 40
0.3333333333333333
 40
0.4444444444444444
 40
0.4444444444444444
 40
0.4444444444444444
 40
0.4444444444444444
 40
0.5555555555555556
 40
0.5555555555555556
 40
0.5555555555555556
 40
0.5555555555555556
 40
0.6666666666666667
 40
0.6666666666666667
 40
0.6666666666666667
 40
0.6666666666666667
 40
0.7777777777777779
 40
0.7777777777777779
 40
0.7777777777777779
 40
0.7777777777777779
 40
0.8888888888888891
 40
0.8888888888888891
 40
0.8888888888888891
 40
0.8888888888888891
 40
1.0
 40
1.0
 40
1.0
 40
1.0
 10
0.5908
 20
75.452399999999997
 30
0.0
 10
0.5908
 20
75.452399999999997
 30
0.0
 10
0.5908
 20
75.142799999999994
 30
0.0
 10
0.5908
 20
75.142799999999994
 30
0.0
 10
0.5908
 20
75.142799999999994
 30
0.0
 10
0.5908
 20
73.430800000000005
 30
0.0
 10
4.5442
 20
72.324799999999996
 30
0.0
 10
4.6329000000000002
 20
69.273399999999995
 30
0.0
 10
4.6329000000000002
 20
69.273399999999995
 30
0.0
 10
4.7220000000000004
 20
66.197400000000002
 30
0.0
 10
4.0015999999999998
 20
61.944400000000002
 30
0.0
 10
5.8559999999999999
 20
60.585500000000003
 30
0.0
 10
5.8559999999999999
 20
60.585500000000003
 30
0.0
 10
8.2398000000000007
 20
62.1815
 30
0.0
 10
7.7145000000000001
 20
66.534700000000001
 30
0.0
 10
7.7145000000000001
 20
70.496799999999993
 30
0.0
 10
7.7145000000000001
 20
70.496799999999993
 30
0.0
 10
8.8460000000000001
 20
71.095399999999998
 30
0.0
 10
13.2897
 20
73.257599999999996
 30
0.0
 10
13.2897
 20
74.523300000000006
 30
0.0
 10
13.2897
 20
74.523300000000006
 30
0.0
 10
13.2897
 20
75.398099999999999
 30
0.0
 10
12.579000000000001
 20
75.718299999999999
 30
0.0
 10
12.050700000000001
 20
76.072000000000003
 30
0.0
 10
12.050700000000001
 20
76.072000000000003
 30
0.0
 10
10.362
 20
75.6785
 30
0.0
 10
6.9519000000000002
 20
73.594099999999997
 30
0.0
 10
6.4756
 20
73.594099999999997
 30
0.0
 10
6.4756
 20
73.594099999999997
 30
0.0
 10
5.9969999999999999
 20
73.594099999999997
 30
0.0
 10
2.9100999999999999
 20
76.691299999999998
 30
0.0
 10
1.5201
 20
76.691299999999998
 30
0.0
 10
1.5201
 20
76.691299999999998
 30
0.0
 10
1.1432
 20
76.691299999999998
 30
0.0
 10
0.5908
 20
76.0505
 30
0.0
 10
0.5908
 20
75.452399999999997
 30
0.0
  0
SPLINE
  5
4A
100
AcDbEntity
  8
RÚteg 1
 62
     7
100
AcDbSpline
210
0.0
220
0.0
230
1.0
 70
     1
 71
     3
 72
    48
 73
    44
 74
     0
 42
0.0000000001
 43
0.0000000001
 40
0.0
 40
0.0
 40
0.0
 40
0.0
 40
0.0909090909090909
 40
0.0909090909090909
 40
0.0909090909090909
 40
0.0909090909090909
 40
0.1818181818181818
 40
0.1818181818181818
 40
0.1818181818181818
 40
0.1818181818181818
 40
0.2727272727272727
 40
0.2727272727272727
 40
0.2727272727272727
 40
0.2727272727272727
 40
0.3636363636363637
 40
0.3636363636363637
 40
0.3636363636363637
 40
0.3636363636363637
 40
0.4545454545454546
 40
0.4545454545454546
 40
0.4545454545454546
 40
0.4545454545454546
 40
0.5454545454545455
 40
0.5454545454545455
 40
0.5454545454545455
 40
0.5454545454545455
 40
0.6363636363636365
 40
0.6363636363636365
 40
0.6363636363636365
 40
0.6363636363636365
 40
0.7272727272727274
 40
0.7272727272727274
 40
0.7272727272727274
 40
0.7272727272727274
 40
0.8181818181818183
 40
0.8181818181818183
 40
0.8181818181818183
 40
0.8181818181818183
 40
0.9090909090909093
 40
0.9090909090909093
 40
0.9090909090909093
 40
0.9090909090909093
 40
1.0
 40
1.0
 40
1.0
 40
1.0
 10
8.3340999999999994
 20
60.275700000000001
 30
0.0
 10
8.3340999999999994
 20
59.768700000000003
 30
0.0
 10
8.5193999999999992
 20
59.346600000000002
 30
0.0
 10
8.9535
 20
59.346600000000002
 30
0.0
 10
8.9535
 20
59.346600000000002
 30
0.0
 10
9.7032000000000007
 20
59.346600000000002
 30
0.0
 10
12.5442
 20
62.063800000000001
 30
0.0
 10
13.3452
 20
62.698300000000003
 30
0.0
 10
13.3452
 20
62.698300000000003
 30
0.0
 10
14.459899999999999
 20
63.581000000000003
 30
0.0
 10
18.2456
 20
65.1965
 30
0.0
 10
18.2456
 20
65.850899999999996
 30
0.0
 10
18.2456
 20
65.850899999999996
 30
0.0
 10
18.2456
 20
65.850899999999996
 30
0.0
 10
18.2456
 20
66.470100000000002
 30
0.0
 10
18.2456
 20
66.470100000000002
 30
0.0
 10
18.2456
 20
66.470100000000002
 30
0.0
 10
18.2456
 20
67.068799999999996
 30
0.0
 10
17.693300000000001
 20
67.709100000000007
 30
0.0
 10
17.316400000000002
 20
67.709100000000007
 30
0.0
 10
17.316400000000002
 20
67.709100000000007
 30
0.0
 10
15.541
 20
67.709100000000007
 30
0.0
 10
15.1012
 20
67.214699999999993
 30
0.0
 10
13.599500000000001
 20
67.089799999999997
 30
0.0
 10
13.599500000000001
 20
67.089799999999997
 30
0.0
 10
13.599500000000001
 20
67.089799999999997
 30
0.0
 10
13.599500000000001
 20
69.877200000000002
 30
0.0
 10
13.599500000000001
 20
69.877200000000002
 30
0.0
 10
13.599500000000001
 20
69.877200000000002
 30
0.0
 10
13.599500000000001
 20
70.6023
 30
0.0
 10
13.0855
 20
71.116100000000003
 30
0.0
 10
12.3605
 20
71.116100000000003
 30
0.0
 10
12.3605
 20
71.116100000000003
 30
0.0
 10
12.3605
 20
71.116100000000003
 30
0.0
 10
12.050700000000001
 20
71.116100000000003
 30
0.0
 10
12.050700000000001
 20
71.116100000000003
 30
0.0
 10
12.050700000000001
 20
71.116100000000003
 30
0.0
 10
9.9044000000000008
 20
71.116100000000003
 30
0.0
 10
10.8073
 20
67.475999999999999
 30
0.0
 10
10.393599999999999
 20
65.649600000000007
 30
0.0
 10
10.393599999999999
 20
65.649600000000007
 30
0.0
 10
9.9797999999999991
 20
63.821199999999997
 30
0.0
 10
8.3340999999999994
 20
62.144100000000002
 30
0.0
 10
8.3340999999999994
 20
60.275700000000001
 30
0.0
  0
SPLINE
  5
4B
100
AcDbEntity
  8
RÚteg 1
 62
     7
100
AcDbSpline
210
0.0
220
0.0
230
1.0
 70
     1
 71
     3
 72
    32
 73
    28
 74
     0
 42
0.0000000001
 43
0.0000000001
 40
0.0
 40
0.0
 40
0.0
 40
0.0
 40
0.1428571428571429
 40
0.1428571428571429
 40
0.1428571428571429
 40
0.1428571428571429
 40
0.2857142857142857
 40
0.2857142857142857
 40
0.2857142857142857
 40
0.2857142857142857
 40
0.4285714285714286
 40
0.4285714285714286
 40
0.4285714285714286
 40
0.4285714285714286
 40
0.5714285714285714
 40
0.5714285714285714
 40
0.5714285714285714
 40
0.5714285714285714
 40
0.7142857142857142
 40
0.7142857142857142
 40
0.7142857142857142
 40
0.7142857142857142
 40
0.857142857142857
 40
0.857142857142857
 40
0.857142857142857
 40
0.857142857142857
 40
1.0
 40
1.0
 40
1.0
 40
1.0
 10
1.5201
 20
55.319899999999997
 30
0.0
 10
1.5201
 20
55.319899999999997
 30
0.0
 10
1.5201
 20
54.081200000000003
 30
0.0
 10
1.5201
 20
54.081200000000003
 30
0.0
 10
1.5201
 20
54.081200000000003
 30
0.0
 10
1.5201
 20
52.342199999999998
 30
0.0
 10
3.5676999999999999
 20
50.674199999999999
 30
0.0
 10
5.2370000000000001
 20
50.674199999999999
 30
0.0
 10
5.2370000000000001
 20
50.674199999999999
 30
0.0
 10
5.2370000000000001
 20
50.674199999999999
 30
0.0
 10
5.5465999999999998
 20
50.674199999999999
 30
0.0
 10
5.5465999999999998
 20
50.674199999999999
 30
0.0
 10
5.5465999999999998
 20
50.674199999999999
 30
0.0
 10
7.7054
 20
50.674199999999999
 30
0.0
 10
9.5730000000000004
 20
52.7408
 30
0.0
 10
9.5730000000000004
 20
55.010399999999997
 30
0.0
 10
9.5730000000000004
 20
55.010399999999997
 30
0.0
 10
9.5730000000000004
 20
55.010399999999997
 30
0.0
 10
9.5730000000000004
 20
55.319899999999997
 30
0.0
 10
9.5730000000000004
 20
55.319899999999997
 30
0.0
 10
9.5730000000000004
 20
55.319899999999997
 30
0.0
 10
9.5730000000000004
 20
57.112900000000003
 30
0.0
 10
7.1121999999999996
 20
58.7271
 30
0.0
 10
5.5465999999999998
 20
58.7271
 30
0.0
 10
5.5465999999999998
 20
58.7271
 30
0.0
 10
3.8986999999999998
 20
58.7271
 30
0.0
 10
1.5201
 20
57.178400000000003
 30
0.0
 10
1.5201
 20
55.319899999999997
 30
0.0
  0
SPLINE
  5
4C
100
AcDbEntity
  8
RÚteg 1
 62
     7
100
AcDbSpline
210
0.0
220
0.0
230
1.0
 70
     1
 71
     3
 72
    48
 73
    44
 74
     0
 42
0.0000000001
 43
0.0000000001
 40
0.0
 40
0.0
 40
0.0
 40
0.0
 40
0.0909090909090909
 40
0.0909090909090909
 40
0.0909090909090909
 40
0.0909090909090909
 40
0.1818181818181818
 40
0.1818181818181818
 40
0.1818181818181818
 40
0.1818181818181818
 40
0.2727272727272727
 40
0.2727272727272727
 40
0.2727272727272727
 40
0.2727272727272727
 40
0.3636363636363637
 40
0.3636363636363637
 40
0.3636363636363637
 40
0.3636363636363637
 40
0.4545454545454546
 40
0.4545454545454546
 40
0.4545454545454546
 40
0.4545454545454546
 40
0.5454545454545455
 40
0.5454545454545455
 40
0.5454545454545455
 40
0.5454545454545455
 40
0.6363636363636365
 40
0.6363636363636365
 40
0.6363636363636365
 40
0.6363636363636365
 40
0.7272727272727274
 40
0.7272727272727274
 40
0.7272727272727274
 40
0.7272727272727274
 40
0.8181818181818183
 40
0.8181818181818183
 40
0.8181818181818183
 40
0.8181818181818183
 40
0.9090909090909093
 40
0.9090909090909093
 40
0.9090909090909093
 40
0.9090909090909093
 40
1.0
 40
1.0
 40
1.0
 40
1.0
 10
16.696999999999999
 20
41.692300000000003
 30
0.0
 10
16.696999999999999
 20
41.692300000000003
 30
0.0
 10
16.696999999999999
 20
42.621499999999997
 30
0.0
 10
16.696999999999999
 20
42.621499999999997
 30
0.0
 10
16.696999999999999
 20
42.621499999999997
 30
0.0
 10
10.7605
 20
44.206299999999999
 30
0.0
 10
11.3085
 20
49.052500000000002
 30
0.0
 10
8.0244999999999997
 20
49.125500000000002
 30
0.0
 10
8.0244999999999997
 20
49.125500000000002
 30
0.0
 10
7.8623000000000003
 20
48.430900000000001
 30
0.0
 10
7.7145000000000001
 20
48.413600000000002
 30
0.0
 10
7.7145000000000001
 20
47.576999999999998
 30
0.0
 10
7.7145000000000001
 20
47.576999999999998
 30
0.0
 10
7.7145000000000001
 20
47.576999999999998
 30
0.0
 10
7.7145000000000001
 20
47.2669
 30
0.0
 10
7.7145000000000001
 20
47.2669
 30
0.0
 10
7.7145000000000001
 20
47.2669
 30
0.0
 10
7.7145000000000001
 20
46.096200000000003
 30
0.0
 10
8.4702999999999999
 20
45.2012
 30
0.0
 10
8.9535
 20
44.479599999999998
 30
0.0
 10
8.9535
 20
44.479599999999998
 30
0.0
 10
8.9535
 20
44.479599999999998
 30
0.0
 10
8.5643999999999991
 20
38.290599999999998
 30
0.0
 10
8.5643999999999991
 20
38.290599999999998
 30
0.0
 10
8.5643999999999991
 20
38.290599999999998
 30
0.0
 10
8.6186000000000007
 20
37.929900000000004
 30
0.0
 10
9.2893000000000008
 20
37.356000000000002
 30
0.0
 10
9.8826999999999998
 20
37.356000000000002
 30
0.0
 10
9.8826999999999998
 20
37.356000000000002
 30
0.0
 10
9.8826999999999998
 20
37.356000000000002
 30
0.0
 10
10.192399999999999
 20
37.356000000000002
 30
0.0
 10
10.192399999999999
 20
37.356000000000002
 30
0.0
 10
10.192399999999999
 20
37.356000000000002
 30
0.0
 10
12.321400000000001
 20
37.356000000000002
 30
0.0
 10
11.1144
 20
40.762799999999999
 30
0.0
 10
12.98
 20
40.762799999999999
 30
0.0
 10
12.98
 20
40.762799999999999
 30
0.0
 10
14.3332
 20
40.762799999999999
 30
0.0
 10
14.104900000000001
 20
40.143500000000003
 30
0.0
 10
15.4579
 20
40.143500000000003
 30
0.0
 10
15.4579
 20
40.143500000000003
 30
0.0
 10
15.790699999999999
 20
40.143500000000003
 30
0.0
 10
16.696999999999999
 20
41.049500000000002
 30
0.0
 10
16.696999999999999
 20
41.692300000000003
 30
0.0
  0
SPLINE
  5
4D
100
AcDbEntity
  8
RÚteg 1
 62
     7
100
AcDbSpline
210
0.0
220
0.0
230
1.0
 70
     1
 71
     3
 72
    44
 73
    40
 74
     0
 42
0.0000000001
 43
0.0000000001
 40
0.0
 40
0.0
 40
0.0
 40
0.0
 40
0.1
 40
0.1
 40
0.1
 40
0.1
 40
0.2
 40
0.2
 40
0.2
 40
0.2
 40
0.3
 40
0.3
 40
0.3
 40
0.3
 40
0.4
 40
0.4
 40
0.4
 40
0.4
 40
0.5
 40
0.5
 40
0.5
 40
0.5
 40
0.6
 40
0.6
 40
0.6
 40
0.6
 40
0.7
 40
0.7
 40
0.7
 40
0.7
 40
0.7999999999999999
 40
0.7999999999999999
 40
0.7999999999999999
 40
0.7999999999999999
 40
0.8999999999999999
 40
0.8999999999999999
 40
0.8999999999999999
 40
0.8999999999999999
 40
1.0
 40
1.0
 40
1.0
 40
1.0
 10
-1.5771999999999999
 20
68.328599999999994
 30
0.0
 10
-2.5074999999999998
 20
68.328599999999994
 30
0.0
 10
-3.5752999999999999
 20
69.001800000000003
 30
0.0
 10
-4.6746999999999996
 20
69.257599999999996
 30
0.0
 10
-4.6746999999999996
 20
69.257599999999996
 30
0.0
 10
-5.2461000000000002
 20
68.875399999999999
 30
0.0
 10
-5.9132999999999996
 20
68.356399999999994
 30
0.0
 10
-5.9132999999999996
 20
67.399299999999997
 30
0.0
 10
-5.9132999999999996
 20
67.399299999999997
 30
0.0
 10
-5.9132999999999996
 20
66.774000000000001
 30
0.0
 10
-2.2414999999999998
 20
64.816400000000002
 30
0.0
 10
-1.3418000000000001
 20
63.918199999999999
 30
0.0
 10
-1.3418000000000001
 20
63.918199999999999
 30
0.0
 10
-0.1721
 20
62.750999999999998
 30
0.0
 10
1.1281000000000001
 20
59.966099999999997
 30
0.0
 10
2.7587999999999999
 20
59.966099999999997
 30
0.0
 10
2.7587999999999999
 20
59.966099999999997
 30
0.0
 10
3.1932
 20
59.966099999999997
 30
0.0
 10
3.3784000000000001
 20
60.388500000000001
 30
0.0
 10
3.3784000000000001
 20
60.895099999999999
 30
0.0
 10
3.3784000000000001
 20
60.895099999999999
 30
0.0
 10
3.3784000000000001
 20
63.182299999999998
 30
0.0
 10
1.8297000000000001
 20
64.664199999999994
 30
0.0
 10
1.8297000000000001
 20
66.470100000000002
 30
0.0
 10
1.8297000000000001
 20
66.470100000000002
 30
0.0
 10
1.8297000000000001
 20
68.3626
 30
0.0
 10
2.4493999999999998
 20
68.836399999999998
 30
0.0
 10
2.4493999999999998
 20
70.496799999999993
 30
0.0
 10
2.4493999999999998
 20
70.496799999999993
 30
0.0
 10
2.4493999999999998
 20
71.221900000000005
 30
0.0
 10
1.9358
 20
71.735799999999998
 30
0.0
 10
1.2104999999999999
 20
71.735799999999998
 30
0.0
 10
1.2104999999999999
 20
71.735799999999998
 30
0.0
 10
1.2104999999999999
 20
71.735799999999998
 30
0.0
 10
0.9006
 20
71.735799999999998
 30
0.0
 10
0.9006
 20
71.735799999999998
 30
0.0
 10
0.9006
 20
71.735799999999998
 30
0.0
 10
-1.0564
 20
71.735799999999998
 30
0.0
 10
-0.3603
 20
68.328599999999994
 30
0.0
 10
-1.5771999999999999
 20
68.328599999999994
 30
0.0
  0
SPLINE
  5
4E
100
AcDbEntity
  8
RÚteg 1
 62
     7
100
AcDbSpline
210
0.0
220
0.0
230
1.0
 70
     1
 71
     3
 72
    40
 73
    36
 74
     0
 42
0.0000000001
 43
0.0000000001
 40
0.0
 40
0.0
 40
0.0
 40
0.0
 40
0.1111111111111111
 40
0.1111111111111111
 40
0.1111111111111111
 40
0.1111111111111111
 40
0.2222222222222222
 40
0.2222222222222222
 40
0.2222222222222222
 40
0.2222222222222222
 40
0.3333333333333333
 40
0.3333333333333333
 40
0.3333333333333333
 40
0.3333333333333333
 40
0.4444444444444444
 40
0.4444444444444444
 40
0.4444444444444444
 40
0.4444444444444444
 40
0.5555555555555556
 40
0.5555555555555556
 40
0.5555555555555556
 40
0.5555555555555556
 40
0.6666666666666667
 40
0.6666666666666667
 40
0.6666666666666667
 40
0.6666666666666667
 40
0.7777777777777779
 40
0.7777777777777779
 40
0.7777777777777779
 40
0.7777777777777779
 40
0.8888888888888891
 40
0.8888888888888891
 40
0.8888888888888891
 40
0.8888888888888891
 40
1.0
 40
1.0
 40
1.0
 40
1.0
 10
11.741
 20
54.390700000000002
 30
0.0
 10
11.741
 20
52.539700000000003
 30
0.0
 10
15.234500000000001
 20
52.694699999999997
 30
0.0
 10
16.799800000000001
 20
52.016399999999997
 30
0.0
 10
16.799800000000001
 20
52.016399999999997
 30
0.0
 10
18.8155
 20
51.143000000000001
 30
0.0
 10
19.471800000000002
 20
50.115400000000001
 30
0.0
 10
21.420999999999999
 20
49.028399999999998
 30
0.0
 10
21.420999999999999
 20
49.028399999999998
 30
0.0
 10
21.420999999999999
 20
49.028399999999998
 30
0.0
 10
23.3323
 20
50.791200000000003
 30
0.0
 10
23.3323
 20
50.791200000000003
 30
0.0
 10
23.3323
 20
50.791200000000003
 30
0.0
 10
23.3323
 20
50.791200000000003
 30
0.0
 10
20.723299999999998
 20
53.771700000000003
 30
0.0
 10
20.723299999999998
 20
53.771700000000003
 30
0.0
 10
20.723299999999998
 20
53.771700000000003
 30
0.0
 10
21.430800000000001
 20
54.2455
 30
0.0
 10
23.2012
 20
55.212600000000002
 30
0.0
 10
23.2012
 20
56.249200000000002
 30
0.0
 10
23.2012
 20
56.249200000000002
 30
0.0
 10
23.2012
 20
56.249200000000002
 30
0.0
 10
23.2012
 20
56.559199999999997
 30
0.0
 10
23.2012
 20
56.559199999999997
 30
0.0
 10
23.2012
 20
56.559199999999997
 30
0.0
 10
23.2012
 20
57.283799999999999
 30
0.0
 10
22.687200000000001
 20
57.798000000000002
 30
0.0
 10
21.962199999999999
 20
57.798000000000002
 30
0.0
 10
21.962199999999999
 20
57.798000000000002
 30
0.0
 10
20.561599999999999
 20
57.798000000000002
 30
0.0
 10
19.039000000000001
 20
56.341999999999999
 30
0.0
 10
17.078299999999999
 20
55.867699999999999
 30
0.0
 10
17.078299999999999
 20
55.867699999999999
 30
0.0
 10
16.087399999999999
 20
55.628100000000003
 30
0.0
 10
11.741
 20
55.426299999999998
 30
0.0
 10
11.741
 20
54.390700000000002
 30
0.0
  0
SPLINE
  5
4F
100
AcDbEntity
  8
RÚteg 1
 62
     7
100
AcDbSpline
210
0.0
220
0.0
230
1.0
 70
     1
 71
     3
 72
    48
 73
    44
 74
     0
 42
0.0000000001
 43
0.0000000001
 40
0.0
 40
0.0
 40
0.0
 40
0.0
 40
0.0909090909090909
 40
0.0909090909090909
 40
0.0909090909090909
 40
0.0909090909090909
 40
0.1818181818181818
 40
0.1818181818181818
 40
0.1818181818181818
 40
0.1818181818181818
 40
0.2727272727272727
 40
0.2727272727272727
 40
0.2727272727272727
 40
0.2727272727272727
 40
0.3636363636363637
 40
0.3636363636363637
 40
0.3636363636363637
 40
0.3636363636363637
 40
0.4545454545454546
 40
0.4545454545454546
 40
0.4545454545454546
 40
0.4545454545454546
 40
0.5454545454545455
 40
0.5454545454545455
 40
0.5454545454545455
 40
0.5454545454545455
 40
0.6363636363636365
 40
0.6363636363636365
 40
0.6363636363636365
 40
0.6363636363636365
 40
0.7272727272727274
 40
0.7272727272727274
 40
0.7272727272727274
 40
0.7272727272727274
 40
0.8181818181818183
 40
0.8181818181818183
 40
0.8181818181818183
 40
0.8181818181818183
 40
0.9090909090909093
 40
0.9090909090909093
 40
0.9090909090909093
 40
0.9090909090909093
 40
1.0
 40
1.0
 40
1.0
 40
1.0
 10
-11.798
 20
58.7271
 30
0.0
 10
-11.798
 20
58.7271
 30
0.0
 10
-11.798
 20
58.107599999999998
 30
0.0
 10
-11.798
 20
58.107599999999998
 30
0.0
 10
-11.798
 20
58.107599999999998
 30
0.0
 10
-11.798
 20
57.304400000000001
 30
0.0
 10
-10.464499999999999
 20
56.413499999999999
 30
0.0
 10
-9.9397000000000002
 20
55.629899999999999
 30
0.0
 10
-9.9397000000000002
 20
55.629899999999999
 30
0.0
 10
-10.4429
 20
54.878599999999999
 30
0.0
 10
-12.107900000000001
 20
53.793999999999997
 30
0.0
 10
-12.107900000000001
 20
52.842399999999998
 30
0.0
 10
-12.107900000000001
 20
52.842399999999998
 30
0.0
 10
-12.107900000000001
 20
52.842399999999998
 30
0.0
 10
-12.107900000000001
 20
52.532400000000003
 30
0.0
 10
-12.107900000000001
 20
52.532400000000003
 30
0.0
 10
-12.107900000000001
 20
52.532400000000003
 30
0.0
 10
-12.107900000000001
 20
51.934199999999997
 30
0.0
 10
-11.555899999999999
 20
51.293500000000002
 30
0.0
 10
-11.178800000000001
 20
51.293500000000002
 30
0.0
 10
-11.178800000000001
 20
51.293500000000002
 30
0.0
 10
-9.8673999999999999
 20
51.293500000000002
 30
0.0
 10
-7.8682999999999996
 20
52.924700000000001
 30
0.0
 10
-6.5038999999999998
 20
53.433
 30
0.0
 10
-6.5038999999999998
 20
53.433
 30
0.0
 10
-5.3307000000000002
 20
53.870199999999997
 30
0.0
 10
-4.8822000000000001
 20
53.667700000000004
 30
0.0
 10
-3.4266999999999999
 20
53.7624
 30
0.0
 10
-3.4266999999999999
 20
53.7624
 30
0.0
 10
-2.0343
 20
53.853099999999998
 30
0.0
 10
-1.9648000000000001
 20
54.393700000000003
 30
0.0
 10
-0.6479
 20
54.700899999999997
 30
0.0
 10
-0.6479
 20
54.700899999999997
 30
0.0
 10
-1.3281000000000001
 20
57.247799999999998
 30
0.0
 10
-3.8517999999999999
 20
56.353400000000001
 30
0.0
 10
-5.9722
 20
57.119300000000003
 30
0.0
 10
-5.9722
 20
57.119300000000003
 30
0.0
 10
-7.8528000000000002
 20
57.7988
 30
0.0
 10
-9.1204999999999998
 20
60.275700000000001
 30
0.0
 10
-10.5593
 20
60.275700000000001
 30
0.0
 10
-10.5593
 20
60.275700000000001
 30
0.0
 10
-10.892099999999999
 20
60.275700000000001
 30
0.0
 10
-11.798
 20
59.369799999999998
 30
0.0
 10
-11.798
 20
58.7271
 30
0.0
  0
SPLINE
  5
50
100
AcDbEntity
  8
RÚteg 1
 62
     7
100
AcDbSpline
210
0.0
220
0.0
230
1.0
 70
     1
 71
     3
 72
    48
 73
    44
 74
     0
 42
0.0000000001
 43
0.0000000001
 40
0.0
 40
0.0
 40
0.0
 40
0.0
 40
0.0909090909090909
 40
0.0909090909090909
 40
0.0909090909090909
 40
0.0909090909090909
 40
0.1818181818181818
 40
0.1818181818181818
 40
0.1818181818181818
 40
0.1818181818181818
 40
0.2727272727272727
 40
0.2727272727272727
 40
0.2727272727272727
 40
0.2727272727272727
 40
0.3636363636363637
 40
0.3636363636363637
 40
0.3636363636363637
 40
0.3636363636363637
 40
0.4545454545454546
 40
0.4545454545454546
 40
0.4545454545454546
 40
0.4545454545454546
 40
0.5454545454545455
 40
0.5454545454545455
 40
0.5454545454545455
 40
0.5454545454545455
 40
0.6363636363636365
 40
0.6363636363636365
 40
0.6363636363636365
 40
0.6363636363636365
 40
0.7272727272727274
 40
0.7272727272727274
 40
0.7272727272727274
 40
0.7272727272727274
 40
0.8181818181818183
 40
0.8181818181818183
 40
0.8181818181818183
 40
0.8181818181818183
 40
0.9090909090909093
 40
0.9090909090909093
 40
0.9090909090909093
 40
0.9090909090909093
 40
1.0
 40
1.0
 40
1.0
 40
1.0
 10
-0.6479
 20
38.2851
 30
0.0
 10
1.046
 20
38.2851
 30
0.0
 10
-0.0547
 20
41.874499999999998
 30
0.0
 10
0.457
 20
43.684600000000003
 30
0.0
 10
0.457
 20
43.684600000000003
 30
0.0
 10
0.9695
 20
45.499200000000002
 30
0.0
 10
2.1396999999999999
 20
46.310299999999998
 30
0.0
 10
2.1396999999999999
 20
48.5062
 30
0.0
 10
2.1396999999999999
 20
48.5062
 30
0.0
 10
2.1396999999999999
 20
48.5062
 30
0.0
 10
2.1396999999999999
 20
48.816000000000003
 30
0.0
 10
2.1396999999999999
 20
48.816000000000003
 30
0.0
 10
2.1396999999999999
 20
48.816000000000003
 30
0.0
 10
2.1396999999999999
 20
52.042900000000003
 30
0.0
 10
-2.0901999999999998
 20
46.260300000000001
 30
0.0
 10
-2.1046999999999998
 20
46.245800000000003
 30
0.0
 10
-2.1046999999999998
 20
46.245800000000003
 30
0.0
 10
-3.4676999999999998
 20
44.874699999999997
 30
0.0
 10
-7.1524000000000001
 20
44.685400000000001
 30
0.0
 10
-7.1524000000000001
 20
42.931100000000001
 30
0.0
 10
-7.1524000000000001
 20
42.931100000000001
 30
0.0
 10
-7.1524000000000001
 20
42.931100000000001
 30
0.0
 10
-7.1524000000000001
 20
42.311500000000002
 30
0.0
 10
-7.1524000000000001
 20
42.311500000000002
 30
0.0
 10
-7.1524000000000001
 20
42.311500000000002
 30
0.0
 10
-7.1524000000000001
 20
41.597799999999999
 30
0.0
 10
-6.9366000000000003
 20
41.382300000000001
 30
0.0
 10
-6.2228000000000003
 20
41.382300000000001
 30
0.0
 10
-6.2228000000000003
 20
41.382300000000001
 30
0.0
 10
-6.2228000000000003
 20
41.382300000000001
 30
0.0
 10
-5.9132999999999996
 20
41.382300000000001
 30
0.0
 10
-5.9132999999999996
 20
41.382300000000001
 30
0.0
 10
-5.9132999999999996
 20
41.382300000000001
 30
0.0
 10
-4.5602999999999998
 20
41.382300000000001
 30
0.0
 10
-4.7885
 20
42.0017
 30
0.0
 10
-3.4352999999999998
 20
42.0017
 30
0.0
 10
-3.4352999999999998
 20
42.0017
 30
0.0
 10
-2.0482
 20
42.0017
 30
0.0
 10
-3.6232000000000002
 20
38.2851
 30
0.0
 10
-1.5771999999999999
 20
38.2851
 30
0.0
 10
-1.5771999999999999
 20
38.2851
 30
0.0
 10
-1.5771999999999999
 20
38.2851
 30
0.0
 10
-0.6479
 20
38.2851
 30
0.0
 10
-0.6479
 20
38.2851
 30
0.0
  0
SPLINE
  5
51
100
AcDbEntity
  8
RÚteg 1
 62
     7
100
AcDbSpline
210
0.0
220
0.0
230
1.0
 70
     1
 71
     3
 72
    20
 73
    16
 74
     0
 42
0.0000000001
 43
0.0000000001
 40
0.0
 40
0.0
 40
0.0
 40
0.0
 40
0.25
 40
0.25
 40
0.25
 40
0.25
 40
0.5
 40
0.5
 40
0.5
 40
0.5
 40
0.75
 40
0.75
 40
0.75
 40
0.75
 40
1.0
 40
1.0
 40
1.0
 40
1.0
 10
14.218999999999999
 20
71.735799999999998
 30
0.0
 10
14.218999999999999
 20
70.520799999999994
 30
0.0
 10
14.2837
 20
68.638599999999997
 30
0.0
 10
15.4579
 20
68.638599999999997
 30
0.0
 10
15.4579
 20
68.638599999999997
 30
0.0
 10
15.4579
 20
68.638599999999997
 30
0.0
 10
15.7674
 20
68.638599999999997
 30
0.0
 10
15.7674
 20
68.638599999999997
 30
0.0
 10
15.7674
 20
68.638599999999997
 30
0.0
 10
19.919699999999999
 20
68.638599999999997
 30
0.0
 10
21.444299999999998
 20
75.926299999999998
 30
0.0
 10
22.271899999999999
 20
79.478700000000003
 30
0.0
 10
22.271899999999999
 20
79.478700000000003
 30
0.0
 10
20.663799999999998
 20
79.049499999999995
 30
0.0
 10
14.218999999999999
 20
73.774799999999999
 30
0.0
 10
14.218999999999999
 20
71.735799999999998
 30
0.0
  0
SPLINE
  5
52
100
AcDbEntity
  8
RÚteg 1
 62
     7
100
AcDbSpline
210
0.0
220
0.0
230
1.0
 70
     1
 71
     3
 72
    24
 73
    20
 74
     0
 42
0.0000000001
 43
0.0000000001
 40
0.0
 40
0.0
 40
0.0
 40
0.0
 40
0.2
 40
0.2
 40
0.2
 40
0.2
 40
0.4
 40
0.4
 40
0.4
 40
0.4
 40
0.6000000000000001
 40
0.6000000000000001
 40
0.6000000000000001
 40
0.6000000000000001
 40
0.8
 40
0.8
 40
0.8
 40
0.8
 40
1.0
 40
1.0
 40
1.0
 40
1.0
 10
-24.8066
 20
56.559199999999997
 30
0.0
 10
-24.8066
 20
56.559199999999997
 30
0.0
 10
-24.8066
 20
56.249200000000002
 30
0.0
 10
-24.8066
 20
56.249200000000002
 30
0.0
 10
-24.8066
 20
56.249200000000002
 30
0.0
 10
-22.6082
 20
55.737099999999998
 30
0.0
 10
-16.9908
 20
53.152000000000001
 30
0.0
 10
-15.2051
 20
53.152000000000001
 30
0.0
 10
-15.2051
 20
53.152000000000001
 30
0.0
 10
-14.3758
 20
53.152000000000001
 30
0.0
 10
-11.4885
 20
55.013399999999997
 30
0.0
 10
-11.4885
 20
55.629899999999999
 30
0.0
 10
-11.4885
 20
55.629899999999999
 30
0.0
 10
-11.4885
 20
56.5456
 30
0.0
 10
-13.6
 20
58.417400000000001
 30
0.0
 10
-14.585800000000001
 20
58.417400000000001
 30
0.0
 10
-14.585800000000001
 20
58.417400000000001
 30
0.0
 10
-16.808399999999999
 20
58.417400000000001
 30
0.0
 10
-23.4358
 20
57.216900000000003
 30
0.0
 10
-24.8066
 20
56.559199999999997
 30
0.0
  0
SPLINE
  5
53
100
AcDbEntity
  8
RÚteg 1
 62
     7
100
AcDbSpline
210
0.0
220
0.0
230
1.0
 70
     1
 71
     3
 72
    28
 73
    24
 74
     0
 42
0.0000000001
 43
0.0000000001
 40
0.0
 40
0.0
 40
0.0
 40
0.0
 40
0.1666666666666667
 40
0.1666666666666667
 40
0.1666666666666667
 40
0.1666666666666667
 40
0.3333333333333333
 40
0.3333333333333333
 40
0.3333333333333333
 40
0.3333333333333333
 40
0.5
 40
0.5
 40
0.5
 40
0.5
 40
0.6666666666666666
 40
0.6666666666666666
 40
0.6666666666666666
 40
0.6666666666666666
 40
0.8333333333333333
 40
0.8333333333333333
 40
0.8333333333333333
 40
0.8333333333333333
 40
1.0
 40
1.0
 40
1.0
 40
1.0
 10
35.2804
 20
52.532400000000003
 30
0.0
 10
35.2804
 20
52.532400000000003
 30
0.0
 10
35.2804
 20
52.842399999999998
 30
0.0
 10
35.2804
 20
52.842399999999998
 30
0.0
 10
35.2804
 20
52.842399999999998
 30
0.0
 10
34.0291
 20
53.504399999999997
 30
0.0
 10
27.892700000000001
 20
55.939500000000002
 30
0.0
 10
26.298100000000002
 20
55.939500000000002
 30
0.0
 10
26.298100000000002
 20
55.939500000000002
 30
0.0
 10
25.136900000000001
 20
55.939500000000002
 30
0.0
 10
22.581600000000002
 20
54.511299999999999
 30
0.0
 10
22.581600000000002
 20
53.4619
 30
0.0
 10
22.581600000000002
 20
53.4619
 30
0.0
 10
22.581600000000002
 20
52.384700000000002
 30
0.0
 10
24.733599999999999
 20
50.674199999999999
 30
0.0
 10
25.988600000000002
 20
50.674199999999999
 30
0.0
 10
25.988600000000002
 20
50.674199999999999
 30
0.0
 10
25.988600000000002
 20
50.674199999999999
 30
0.0
 10
26.9176
 20
50.674199999999999
 30
0.0
 10
26.9176
 20
50.674199999999999
 30
0.0
 10
26.9176
 20
50.674199999999999
 30
0.0
 10
28.1266
 20
50.674199999999999
 30
0.0
 10
34.488700000000001
 20
52.152900000000002
 30
0.0
 10
35.2804
 20
52.532400000000003
 30
0.0
  0
SPLINE
  5
54
100
AcDbEntity
  8
RÚteg 1
 62
     7
100
AcDbSpline
210
0.0
220
0.0
230
1.0
 70
     1
 71
     3
 72
    16
 73
    12
 74
     0
 42
0.0000000001
 43
0.0000000001
 40
0.0
 40
0.0
 40
0.0
 40
0.0
 40
0.3333333333333333
 40
0.3333333333333333
 40
0.3333333333333333
 40
0.3333333333333333
 40
0.6666666666666666
 40
0.6666666666666666
 40
0.6666666666666666
 40
0.6666666666666666
 40
1.0
 40
1.0
 40
1.0
 40
1.0
 10
18.865300000000001
 20
28.0641
 30
0.0
 10
18.865300000000001
 20
30.371400000000001
 30
0.0
 10
18.072299999999998
 20
33.959499999999998
 30
0.0
 10
17.5061
 20
35.997100000000003
 30
0.0
 10
17.5061
 20
35.997100000000003
 30
0.0
 10
16.846
 20
38.370399999999997
 30
0.0
 10
13.1813
 20
40.334499999999998
 30
0.0
 10
12.487299999999999
 20
39.111899999999999
 30
0.0
 10
12.487299999999999
 20
39.111899999999999
 30
0.0
 10
10.3583
 20
35.3626
 30
0.0
 10
17.114899999999999
 20
28.531300000000002
 30
0.0
 10
18.865300000000001
 20
28.0641
 30
0.0
  0
SPLINE
  5
55
100
AcDbEntity
  8
RÚteg 1
 62
     7
100
AcDbSpline
210
0.0
220
0.0
230
1.0
 70
     1
 71
     3
 72
    24
 73
    20
 74
     0
 42
0.0000000001
 43
0.0000000001
 40
0.0
 40
0.0
 40
0.0
 40
0.0
 40
0.2
 40
0.2
 40
0.2
 40
0.2
 40
0.4
 40
0.4
 40
0.4
 40
0.4
 40
0.6000000000000001
 40
0.6000000000000001
 40
0.6000000000000001
 40
0.6000000000000001
 40
0.8
 40
0.8
 40
0.8
 40
0.8
 40
1.0
 40
1.0
 40
1.0
 40
1.0
 10
3.6882999999999999
 20
27.134899999999998
 30
0.0
 10
3.6882999999999999
 20
27.134899999999998
 30
0.0
 10
4.3078000000000003
 20
27.134899999999998
 30
0.0
 10
4.3078000000000003
 20
27.134899999999998
 30
0.0
 10
4.3078000000000003
 20
27.134899999999998
 30
0.0
 10
5.0415000000000001
 20
28.230399999999999
 30
0.0
 10
6.1660000000000004
 20
28.5791
 30
0.0
 10
6.1660000000000004
 20
30.232099999999999
 30
0.0
 10
6.1660000000000004
 20
30.232099999999999
 30
0.0
 10
6.1660000000000004
 20
31.613900000000001
 30
0.0
 10
4.9081000000000001
 20
33.362200000000001
 30
0.0
 10
4.3078000000000003
 20
34.258699999999997
 30
0.0
 10
4.3078000000000003
 20
34.258699999999997
 30
0.0
 10
3.6507999999999998
 20
33.818600000000004
 30
0.0
 10
1.5201
 20
31.704699999999999
 30
0.0
 10
1.5201
 20
30.851600000000001
 30
0.0
 10
1.5201
 20
30.851600000000001
 30
0.0
 10
1.5201
 20
29.992899999999999
 30
0.0
 10
3.2483
 20
27.792300000000001
 30
0.0
 10
3.6882999999999999
 20
27.134899999999998
 30
0.0
  0
SPLINE
  5
56
100
AcDbEntity
  8
RÚteg 1
 62
     7
100
AcDbSpline
210
0.0
220
0.0
230
1.0
 70
     1
 71
     3
 72
    24
 73
    20
 74
     0
 42
0.0000000001
 43
0.0000000001
 40
0.0
 40
0.0
 40
0.0
 40
0.0
 40
0.2
 40
0.2
 40
0.2
 40
0.2
 40
0.4
 40
0.4
 40
0.4
 40
0.4
 40
0.6000000000000001
 40
0.6000000000000001
 40
0.6000000000000001
 40
0.6000000000000001
 40
0.8
 40
0.8
 40
0.8
 40
0.8
 40
1.0
 40
1.0
 40
1.0
 40
1.0
 10
-17.675999999999998
 20
69.817300000000003
 30
0.0
 10
-17.529299999999999
 20
68.029799999999994
 30
0.0
 10
-16.66
 20
65.540899999999993
 30
0.0
 10
-14.585800000000001
 20
65.540899999999993
 30
0.0
 10
-14.585800000000001
 20
65.540899999999993
 30
0.0
 10
-14.585800000000001
 20
65.540899999999993
 30
0.0
 10
-13.3468
 20
65.540899999999993
 30
0.0
 10
-13.3468
 20
65.540899999999993
 30
0.0
 10
-13.3468
 20
65.540899999999993
 30
0.0
 10
-12.510199999999999
 20
65.540899999999993
 30
0.0
 10
-12.492900000000001
 20
65.688900000000004
 30
0.0
 10
-11.798
 20
65.850899999999996
 30
0.0
 10
-11.798
 20
65.850899999999996
 30
0.0
 10
-11.829599999999999
 20
67.247699999999995
 30
0.0
 10
-13.145200000000001
 20
70.282300000000006
 30
0.0
 10
-13.9732
 20
70.246700000000004
 30
0.0
 10
-13.9732
 20
70.246700000000004
 30
0.0
 10
-13.9732
 20
70.246700000000004
 30
0.0
 10
-17.675999999999998
 20
69.817300000000003
 30
0.0
 10
-17.675999999999998
 20
69.817300000000003
 30
0.0
  0
SPLINE
  5
57
100
AcDbEntity
  8
RÚteg 1
 62
     7
100
AcDbSpline
210
0.0
220
0.0
230
1.0
 70
     1
 71
     3
 72
    28
 73
    24
 74
     0
 42
0.0000000001
 43
0.0000000001
 40
0.0
 40
0.0
 40
0.0
 40
0.0
 40
0.1666666666666667
 40
0.1666666666666667
 40
0.1666666666666667
 40
0.1666666666666667
 40
0.3333333333333333
 40
0.3333333333333333
 40
0.3333333333333333
 40
0.3333333333333333
 40
0.5
 40
0.5
 40
0.5
 40
0.5
 40
0.6666666666666666
 40
0.6666666666666666
 40
0.6666666666666666
 40
0.6666666666666666
 40
0.8333333333333333
 40
0.8333333333333333
 40
0.8333333333333333
 40
0.8333333333333333
 40
1.0
 40
1.0
 40
1.0
 40
1.0
 10
28.511399999999998
 20
40.106299999999997
 30
0.0
 10
28.203600000000002
 20
41.271599999999999
 30
0.0
 10
27.569900000000001
 20
43.550600000000003
 30
0.0
 10
26.298100000000002
 20
43.550600000000003
 30
0.0
 10
26.298100000000002
 20
43.550600000000003
 30
0.0
 10
26.298100000000002
 20
43.550600000000003
 30
0.0
 10
24.130099999999999
 20
43.550600000000003
 30
0.0
 10
24.130099999999999
 20
43.550600000000003
 30
0.0
 10
24.130099999999999
 20
43.550600000000003
 30
0.0
 10
23.5319
 20
43.550600000000003
 30
0.0
 10
22.891400000000001
 20
42.997999999999998
 30
0.0
 10
22.891400000000001
 20
42.621499999999997
 30
0.0
 10
22.891400000000001
 20
42.621499999999997
 30
0.0
 10
22.891400000000001
 20
41.624899999999997
 30
0.0
 10
24.017499999999998
 20
38.804099999999998
 30
0.0
 10
24.7498
 20
38.904600000000002
 30
0.0
 10
24.7498
 20
38.904600000000002
 30
0.0
 10
24.7498
 20
38.904600000000002
 30
0.0
 10
27.839200000000002
 20
39.2714
 30
0.0
 10
27.839200000000002
 20
39.2714
 30
0.0
 10
27.839200000000002
 20
39.2714
 30
0.0
 10
27.839200000000002
 20
39.2714
 30
0.0
 10
28.511399999999998
 20
40.106299999999997
 30
0.0
 10
28.511399999999998
 20
40.106299999999997
 30
0.0
  0
SPLINE
  5
58
100
AcDbEntity
  8
RÚteg 1
 62
     7
100
AcDbSpline
210
0.0
220
0.0
230
1.0
 70
     1
 71
     3
 72
    24
 73
    20
 74
     0
 42
0.0000000001
 43
0.0000000001
 40
0.0
 40
0.0
 40
0.0
 40
0.0
 40
0.2
 40
0.2
 40
0.2
 40
0.2
 40
0.4
 40
0.4
 40
0.4
 40
0.4
 40
0.6000000000000001
 40
0.6000000000000001
 40
0.6000000000000001
 40
0.6000000000000001
 40
0.8
 40
0.8
 40
0.8
 40
0.8
 40
1.0
 40
1.0
 40
1.0
 40
1.0
 10
24.439900000000002
 20
64.611900000000006
 30
0.0
 10
24.439900000000002
 20
63.610399999999998
 30
0.0
 10
25.5642
 20
63.063400000000001
 30
0.0
 10
26.6081
 20
63.063400000000001
 30
0.0
 10
26.6081
 20
63.063400000000001
 30
0.0
 10
26.6081
 20
63.063400000000001
 30
0.0
 10
26.9176
 20
63.063400000000001
 30
0.0
 10
26.9176
 20
63.063400000000001
 30
0.0
 10
26.9176
 20
63.063400000000001
 30
0.0
 10
28.683900000000001
 20
63.063400000000001
 30
0.0
 10
30.3248
 20
65.4495
 30
0.0
 10
30.3248
 20
66.779899999999998
 30
0.0
 10
30.3248
 20
66.779899999999998
 30
0.0
 10
30.3248
 20
67.513199999999998
 30
0.0
 10
27.803000000000001
 20
67.709100000000007
 30
0.0
 10
26.9176
 20
67.709100000000007
 30
0.0
 10
26.9176
 20
67.709100000000007
 30
0.0
 10
25.902999999999999
 20
67.709100000000007
 30
0.0
 10
24.439900000000002
 20
65.577799999999996
 30
0.0
 10
24.439900000000002
 20
64.611900000000006
 30
0.0
  0
SPLINE
  5
59
100
AcDbEntity
  8
RÚteg 1
 62
     7
100
AcDbSpline
210
0.0
220
0.0
230
1.0
 70
     1
 71
     3
 72
    24
 73
    20
 74
     0
 42
0.0000000001
 43
0.0000000001
 40
0.0
 40
0.0
 40
0.0
 40
0.0
 40
0.2
 40
0.2
 40
0.2
 40
0.2
 40
0.4
 40
0.4
 40
0.4
 40
0.4
 40
0.6000000000000001
 40
0.6000000000000001
 40
0.6000000000000001
 40
0.6000000000000001
 40
0.8
 40
0.8
 40
0.8
 40
0.8
 40
1.0
 40
1.0
 40
1.0
 40
1.0
 10
4.9272
 20
78.859499999999997
 30
0.0
 10
4.9272
 20
78.859499999999997
 30
0.0
 10
4.9272
 20
78.549700000000001
 30
0.0
 10
4.9272
 20
78.549700000000001
 30
0.0
 10
4.9272
 20
78.549700000000001
 30
0.0
 10
4.9272
 20
76.821299999999994
 30
0.0
 10
6.1148999999999996
 20
76.493799999999993
 30
0.0
 10
6.4756
 20
75.142799999999994
 30
0.0
 10
6.4756
 20
75.142799999999994
 30
0.0
 10
7.4875999999999996
 20
75.412899999999993
 30
0.0
 10
9.2631999999999994
 20
77.562899999999999
 30
0.0
 10
9.2631999999999994
 20
78.549700000000001
 30
0.0
 10
9.2631999999999994
 20
78.549700000000001
 30
0.0
 10
9.2631999999999994
 20
80.188500000000005
 30
0.0
 10
8.0860000000000003
 20
80.671599999999998
 30
0.0
 10
7.7145000000000001
 20
82.266199999999998
 30
0.0
 10
7.7145000000000001
 20
82.266199999999998
 30
0.0
 10
6.5331999999999999
 20
81.950999999999993
 30
0.0
 10
4.9272
 20
80.362099999999998
 30
0.0
 10
4.9272
 20
78.859499999999997
 30
0.0
  0
SPLINE
  5
5A
100
AcDbEntity
  8
RÚteg 1
 62
     7
100
AcDbSpline
210
0.0
220
0.0
230
1.0
 70
     1
 71
     3
 72
    32
 73
    28
 74
     0
 42
0.0000000001
 43
0.0000000001
 40
0.0
 40
0.0
 40
0.0
 40
0.0
 40
0.1428571428571429
 40
0.1428571428571429
 40
0.1428571428571429
 40
0.1428571428571429
 40
0.2857142857142857
 40
0.2857142857142857
 40
0.2857142857142857
 40
0.2857142857142857
 40
0.4285714285714286
 40
0.4285714285714286
 40
0.4285714285714286
 40
0.4285714285714286
 40
0.5714285714285714
 40
0.5714285714285714
 40
0.5714285714285714
 40
0.5714285714285714
 40
0.7142857142857142
 40
0.7142857142857142
 40
0.7142857142857142
 40
0.7142857142857142
 40
0.857142857142857
 40
0.857142857142857
 40
0.857142857142857
 40
0.857142857142857
 40
1.0
 40
1.0
 40
1.0
 40
1.0
 10
-15.8247
 20
41.692300000000003
 30
0.0
 10
-14.7281
 20
41.692300000000003
 30
0.0
 10
-13.6564
 20
43.6143
 30
0.0
 10
-13.6564
 20
44.789299999999997
 30
0.0
 10
-13.6564
 20
44.789299999999997
 30
0.0
 10
-13.6564
 20
44.789299999999997
 30
0.0
 10
-13.6564
 20
45.718600000000002
 30
0.0
 10
-13.6564
 20
45.718600000000002
 30
0.0
 10
-13.6564
 20
45.718600000000002
 30
0.0
 10
-14.351100000000001
 20
45.880499999999998
 30
0.0
 10
-14.368600000000001
 20
46.028199999999998
 30
0.0
 10
-15.2051
 20
46.028199999999998
 30
0.0
 10
-15.2051
 20
46.028199999999998
 30
0.0
 10
-15.2051
 20
46.028199999999998
 30
0.0
 10
-16.753799999999998
 20
46.028199999999998
 30
0.0
 10
-16.753799999999998
 20
46.028199999999998
 30
0.0
 10
-16.753799999999998
 20
46.028199999999998
 30
0.0
 10
-17.906700000000001
 20
46.028199999999998
 30
0.0
 10
-19.231400000000001
 20
43.601100000000002
 30
0.0
 10
-19.231400000000001
 20
42.621499999999997
 30
0.0
 10
-19.231400000000001
 20
42.621499999999997
 30
0.0
 10
-19.231400000000001
 20
42.244399999999999
 30
0.0
 10
-18.590900000000001
 20
41.692300000000003
 30
0.0
 10
-17.992699999999999
 20
41.692300000000003
 30
0.0
 10
-17.992699999999999
 20
41.692300000000003
 30
0.0
 10
-17.992699999999999
 20
41.692300000000003
 30
0.0
 10
-15.8247
 20
41.692300000000003
 30
0.0
 10
-15.8247
 20
41.692300000000003
 30
0.0
  0
SPLINE
  5
5B
100
AcDbEntity
  8
RÚteg 1
 62
     7
100
AcDbSpline
210
0.0
220
0.0
230
1.0
 70
     1
 71
     3
 72
    48
 73
    44
 74
     0
 42
0.0000000001
 43
0.0000000001
 40
0.0
 40
0.0
 40
0.0
 40
0.0
 40
0.0909090909090909
 40
0.0909090909090909
 40
0.0909090909090909
 40
0.0909090909090909
 40
0.1818181818181818
 40
0.1818181818181818
 40
0.1818181818181818
 40
0.1818181818181818
 40
0.2727272727272727
 40
0.2727272727272727
 40
0.2727272727272727
 40
0.2727272727272727
 40
0.3636363636363637
 40
0.3636363636363637
 40
0.3636363636363637
 40
0.3636363636363637
 40
0.4545454545454546
 40
0.4545454545454546
 40
0.4545454545454546
 40
0.4545454545454546
 40
0.5454545454545455
 40
0.5454545454545455
 40
0.5454545454545455
 40
0.5454545454545455
 40
0.6363636363636365
 40
0.6363636363636365
 40
0.6363636363636365
 40
0.6363636363636365
 40
0.7272727272727274
 40
0.7272727272727274
 40
0.7272727272727274
 40
0.7272727272727274
 40
0.8181818181818183
 40
0.8181818181818183
 40
0.8181818181818183
 40
0.8181818181818183
 40
0.9090909090909093
 40
0.9090909090909093
 40
0.9090909090909093
 40
0.9090909090909093
 40
1.0
 40
1.0
 40
1.0
 40
1.0
 10
11.121600000000001
 20
57.798000000000002
 30
0.0
 10
10.199999999999999
 20
57.798000000000002
 30
0.0
 10
11.286300000000001
 20
55.582700000000003
 30
0.0
 10
12.3605
 20
56.868699999999997
 30
0.0
 10
12.3605
 20
56.868699999999997
 30
0.0
 10
15.089499999999999
 20
56.929699999999997
 30
0.0
 10
19.341999999999999
 20
60.275700000000001
 30
0.0
 10
20.723299999999998
 20
60.275700000000001
 30
0.0
 10
20.723299999999998
 20
60.275700000000001
 30
0.0
 10
21.809899999999999
 20
60.275700000000001
 30
0.0
 10
24.9513
 20
57.488399999999999
 30
0.0
 10
26.298100000000002
 20
57.488399999999999
 30
0.0
 10
26.298100000000002
 20
57.488399999999999
 30
0.0
 10
26.6738
 20
57.488399999999999
 30
0.0
 10
27.537299999999998
 20
58.878300000000003
 30
0.0
 10
27.537299999999998
 20
59.346600000000002
 30
0.0
 10
27.537299999999998
 20
59.346600000000002
 30
0.0
 10
27.537299999999998
 20
60.484900000000003
 30
0.0
 10
24.699300000000001
 20
61.575800000000001
 30
0.0
 10
23.7516
 20
62.3748
 30
0.0
 10
23.7516
 20
62.3748
 30
0.0
 10
22.4543
 20
63.468299999999999
 30
0.0
 10
22.891400000000001
 20
66.323999999999998
 30
0.0
 10
22.891400000000001
 20
68.638599999999997
 30
0.0
 10
22.891400000000001
 20
68.638599999999997
 30
0.0
 10
22.3322
 20
69.012799999999999
 30
0.0
 10
22.346800000000002
 20
69.257599999999996
 30
0.0
 10
21.6524
 20
69.257599999999996
 30
0.0
 10
21.6524
 20
69.257599999999996
 30
0.0
 10
21.6524
 20
69.257599999999996
 30
0.0
 10
21.032900000000001
 20
69.257599999999996
 30
0.0
 10
21.032900000000001
 20
69.257599999999996
 30
0.0
 10
21.032900000000001
 20
69.257599999999996
 30
0.0
 10
20.308
 20
69.257599999999996
 30
0.0
 10
19.793700000000001
 20
68.743899999999996
 30
0.0
 10
19.793700000000001
 20
68.018900000000002
 30
0.0
 10
19.793700000000001
 20
68.018900000000002
 30
0.0
 10
19.793700000000001
 20
68.018900000000002
 30
0.0
 10
19.793700000000001
 20
63.063400000000001
 30
0.0
 10
19.793700000000001
 20
63.063400000000001
 30
0.0
 10
19.793700000000001
 20
63.063400000000001
 30
0.0
 10
17.495899999999999
 20
62.527700000000003
 30
0.0
 10
11.663500000000001
 20
59.826700000000002
 30
0.0
 10
11.121600000000001
 20
57.798000000000002
 30
0.0
  0
SPLINE
  5
5C
100
AcDbEntity
  8
RÚteg 1
 62
     7
100
AcDbSpline
210
0.0
220
0.0
230
1.0
 70
     1
 71
     3
 72
    24
 73
    20
 74
     0
 42
0.0000000001
 43
0.0000000001
 40
0.0
 40
0.0
 40
0.0
 40
0.0
 40
0.2
 40
0.2
 40
0.2
 40
0.2
 40
0.4
 40
0.4
 40
0.4
 40
0.4
 40
0.6000000000000001
 40
0.6000000000000001
 40
0.6000000000000001
 40
0.6000000000000001
 40
0.8
 40
0.8
 40
0.8
 40
0.8
 40
1.0
 40
1.0
 40
1.0
 40
1.0
 10
-10.8687
 20
30.851600000000001
 30
0.0
 10
-10.8687
 20
30.851600000000001
 30
0.0
 10
-11.2225
 20
29.930900000000001
 30
0.0
 10
-11.2225
 20
29.930900000000001
 30
0.0
 10
-11.2225
 20
29.930900000000001
 30
0.0
 10
-11.2225
 20
29.930900000000001
 30
0.0
 10
-10.5593
 20
30.232099999999999
 30
0.0
 10
-10.5593
 20
30.232099999999999
 30
0.0
 10
-10.5593
 20
30.232099999999999
 30
0.0
 10
-8.6845999999999997
 20
31.487400000000001
 30
0.0
 10
-3.4352999999999998
 20
34.981000000000002
 30
0.0
 10
-3.4352999999999998
 20
37.665500000000002
 30
0.0
 10
-3.4352999999999998
 20
37.665500000000002
 30
0.0
 10
-3.4352999999999998
 20
37.665500000000002
 30
0.0
 10
-3.4352999999999998
 20
41.072600000000001
 30
0.0
 10
-3.4352999999999998
 20
41.072600000000001
 30
0.0
 10
-3.4352999999999998
 20
41.072600000000001
 30
0.0
 10
-9.0297000000000001
 20
39.769399999999997
 30
0.0
 10
-9.6058000000000003
 20
36.273099999999999
 30
0.0
 10
-10.8687
 20
30.851600000000001
 30
0.0
  0
SPLINE
  5
5D
100
AcDbEntity
  8
RÚteg 1
 62
     7
100
AcDbSpline
210
0.0
220
0.0
230
1.0
 70
     1
 71
     3
 72
    28
 73
    24
 74
     0
 42
0.0000000001
 43
0.0000000001
 40
0.0
 40
0.0
 40
0.0
 40
0.0
 40
0.1666666666666667
 40
0.1666666666666667
 40
0.1666666666666667
 40
0.1666666666666667
 40
0.3333333333333333
 40
0.3333333333333333
 40
0.3333333333333333
 40
0.3333333333333333
 40
0.5
 40
0.5
 40
0.5
 40
0.5
 40
0.6666666666666666
 40
0.6666666666666666
 40
0.6666666666666666
 40
0.6666666666666666
 40
0.8333333333333333
 40
0.8333333333333333
 40
0.8333333333333333
 40
0.8333333333333333
 40
1.0
 40
1.0
 40
1.0
 40
1.0
 10
-7.4621000000000004
 20
81.027500000000003
 30
0.0
 10
-7.4621000000000004
 20
81.027500000000003
 30
0.0
 10
-8.1250999999999998
 20
81.328999999999994
 30
0.0
 10
-8.1250999999999998
 20
81.328999999999994
 30
0.0
 10
-8.1250999999999998
 20
81.328999999999994
 30
0.0
 10
-8.1250999999999998
 20
81.328999999999994
 30
0.0
 10
-7.7716000000000003
 20
80.408199999999994
 30
0.0
 10
-7.7716000000000003
 20
80.408199999999994
 30
0.0
 10
-7.7716000000000003
 20
80.408199999999994
 30
0.0
 10
-7.7716000000000003
 20
74.9923
 30
0.0
 10
-6.4013
 20
70.310000000000002
 30
0.0
 10
-1.8872
 20
69.257599999999996
 30
0.0
 10
-1.8872
 20
69.257599999999996
 30
0.0
 10
-1.5274000000000001
 20
70.006900000000002
 30
0.0
 10
-1.2674000000000001
 20
70.612700000000004
 30
0.0
 10
-1.2674000000000001
 20
71.735799999999998
 30
0.0
 10
-1.2674000000000001
 20
71.735799999999998
 30
0.0
 10
-1.2674000000000001
 20
71.735799999999998
 30
0.0
 10
-1.2674000000000001
 20
73.903599999999997
 30
0.0
 10
-1.2674000000000001
 20
73.903599999999997
 30
0.0
 10
-1.2674000000000001
 20
73.903599999999997
 30
0.0
 10
-1.2674000000000001
 20
75.061199999999999
 30
0.0
 10
-6.4389000000000003
 20
80.342600000000004
 30
0.0
 10
-7.4621000000000004
 20
81.027500000000003
 30
0.0
  0
ENDSEC
  0
SECTION
  2
OBJECTS
  0
DICTIONARY
  5
19
100
AcDbDictionary
280
     0
281
     1
  3
ACAD_GROUP
350
1A
  3
ACAD_MLINESTYLE
350
1B
  3
ACAD_LAYOUT
350
1E
  3
ACAD_PLOTSETTINGS
350
22
  3
ACAD_PLOTSTYLENAME
350
1F
  3
ACAD_WIPEOUT_VARS
350
23
  0
DICTIONARY
  5
1A
102
{ACAD_REACTORS
330
19
102
}
100
AcDbDictionary
280
     0
281
     1
  0
DICTIONARY
  5
1B
102
{ACAD_REACTORS
330
19
102
}
100
AcDbDictionary
280
     0
281
     1
  3
Standard
350
1C
  0
MLINESTYLE
  5
1C
102
{ACAD_REACTORS
330
1B
102
}
100
AcDbMlineStyle
  2
Standard
 70
     0
  3

 62
     0
 51
90.0
 52
90.0
 71
     2
 49
0.5
 62
   256
  6
BYLAYER
 49
-0.5
 62
   256
  6
BYLAYER
  0
ACDBDICTIONARYWDFLT
  5
1F
102
{ACAD_REACTORS
330
19
102
}
100
AcDbDictionary
281
     1
  3
Normal
350
1D
100
AcDbDictionaryWithDefault
340
1D
  0
ACDBPLACEHOLDER
  5
1D
102
{ACAD_REACTORS
330
1F
102
}
  0
LAYOUT
  5
20
102
{ACAD_REACTORS
330
1E
102
}
100
AcDbPlotSettings
  1

  2

  4

  6

 40
0.0
 41
0.0
 42
0.0
 43
0.0
 44
0.0
 45
0.0
 46
0.0
 47
0.0
 48
0.0
 49
0.0
140
0.0
141
0.0
142
1.0
143
1.0
 70
  1024
 72
     0
 73
     0
 74
     0
  7

 75
     0
147
1.0
148
0.0
149
0.0
100
AcDbLayout
  1
Model
 70
     0
 71
     0
 10
0.0
 20
0.0
 11
0.0
 21
0.0
 12
0.0
 22
0.0
 32
0.0
 14
0.0
 24
0.0
 34
0.0
 15
0.0
 25
0.0
 35
0.0
146
0.0
 13
0.0
 23
0.0
 33
0.0
 16
0.0
 26
0.0
 36
0.0
 17
0.0
 27
0.0
 37
0.0
 76
     0
330
A
331
0
345
0
346
0
  0
LAYOUT
  5
21
102
{ACAD_REACTORS
330
1E
102
}
100
AcDbPlotSettings
  1

  2

  4

  6

 40
0.0
 41
0.0
 42
0.0
 43
0.0
 44
0.0
 45
0.0
 46
0.0
 47
0.0
 48
0.0
 49
0.0
140
0.0
141
0.0
142
1.0
143
1.0
 70
     0
 72
     0
 73
     0
 74
     0
  7

 75
     0
147
1.0
148
0.0
149
0.0
100
AcDbLayout
  1
Layout1
 70
     0
 71
     0
 10
0.0
 20
0.0
 11
0.0
 21
0.0
 12
0.0
 22
0.0
 32
0.0
 14
0.0
 24
0.0
 34
0.0
 15
0.0
 25
0.0
 35
0.0
146
0.0
 13
0.0
 23
0.0
 33
0.0
 16
0.0
 26
0.0
 36
0.0
 17
0.0
 27
0.0
 37
0.0
 76
     0
330
B
331
0
345
0
346
0
  0
DICTIONARY
  5
1E
102
{ACAD_REACTORS
330
19
102
}
100
AcDbDictionary
280
     0
281
     1
  3
Layout1
350
21
  3
Model
350
20
  0
DICTIONARY
  5
22
102
{ACAD_REACTORS
330
19
102
}
100
AcDbDictionary
280
     0
281
     1
  0
WIPEOUTVARIABLES
  5
23
100
AcDbWipeoutVariables
 70
     1
  0
ENDSEC
  0
EOF
