  0
SECTION
  2
HEADER
  9
$ACADVER
  1
AC1015
  9
$ACADMAINTVER
 70
     6
  9
$DWGCODEPAGE
  3
DOS850
  9
$INSBASE
 10
0.0
 20
0.0
 30
0.0
  9
$EXTMIN
 10
-98.0382
 20
10.2118
 30
1.000000E+20
  9
$EXTMAX
 10
42.1382
 20
90.3882
 30
-1.000000E+20
  9
$LIMMIN
 10
0.0
 20
0.0
  9
$LIMMAX
 10
0.0
 20
0.0
  9
$ORTHOMODE
 70
     0
  9
$REGENMODE
 70
     1
  9
$FILLMODE
 70
     1
  9
$QTEXTMODE
 70
     0
  9
$MIRRTEXT
 70
     1
  9
$LTSCALE
 40
1.0
  9
$ATTMODE
 70
     1
  9
$TEXTSIZE
 40
0.2
  9
$TRACEWID
 40
0.05
  9
$TEXTSTYLE
  7
Standard
  9
$CLAYER
  8
0
  9
$CELTYPE
  6
Continuous
  9
$CECOLOR
 62
   256
  9
$CELTSCALE
 40
1.0
  9
$DISPSILH
 70
     0
  9
$DIMSCALE
 40
1.0
  9
$DIMASZ
 40
0.18
  9
$DIMEXO
 40
0.0625
  9
$DIMDLI
 40
0.38
  9
$DIMRND
 40
0.0
  9
$DIMDLE
 40
0.0
  9
$DIMEXE
 40
0.18
  9
$DIMTP
 40
0.0
  9
$DIMTM
 40
0.0
  9
$DIMTXT
 40
0.18
  9
$DIMCEN
 40
0.09
  9
$DIMTSZ
 40
0.0
  9
$DIMTOL
 70
     0
  9
$DIMLIM
 70
     0
  9
$DIMTIH
 70
     1
  9
$DIMTOH
 70
     1
  9
$DIMSE1
 70
     0
  9
$DIMSE2
 70
     0
  9
$DIMTAD
 70
     0
  9
$DIMZIN
 70
     0
  9
$DIMBLK
  1

  9
$DIMASO
 70
     1
  9
$DIMSHO
 70
     1
  9
$DIMPOST
  1

  9
$DIMAPOST
  1

  9
$DIMALT
 70
     0
  9
$DIMALTD
 70
     2
  9
$DIMALTF
 40
25.4
  9
$DIMLFAC
 40
1.0
  9
$DIMTOFL
 70
     0
  9
$DIMTVP
 40
0.0
  9
$DIMTIX
 70
     0
  9
$DIMSOXD
 70
     0
  9
$DIMSAH
 70
     0
  9
$DIMBLK1
  1

  9
$DIMBLK2
  1

  9
$DIMSTYLE
  2
Standard
  9
$DIMCLRD
 70
     0
  9
$DIMCLRE
 70
     0
  9
$DIMCLRT
 70
     0
  9
$DIMTFAC
 40
1.0
  9
$DIMGAP
 40
0.09
  9
$DIMJUST
 70
     0
  9
$DIMSD1
 70
     0
  9
$DIMSD2
 70
     0
  9
$DIMTOLJ
 70
     1
  9
$DIMTZIN
 70
     0
  9
$DIMALTZ
 70
     0
  9
$DIMALTTZ
 70
     0
  9
$DIMUPT
 70
     0
  9
$DIMDEC
 70
     4
  9
$DIMTDEC
 70
     4
  9
$DIMALTU
 70
     2
  9
$DIMALTTD
 70
     2
  9
$DIMTXSTY
  7
Standard
  9
$DIMAUNIT
 70
     0
  9
$DIMADEC
 70
     0
  9
$DIMALTRND
 40
0.0
  9
$DIMAZIN
 70
     0
  9
$DIMDSEP
 70
     0
  9
$DIMATFIT
 70
     3
  9
$DIMFRAC
 70
     0
  9
$DIMLDRBLK
  1

  9
$DIMLUNIT
 70
     2
  9
$DIMLWD
 70
     0
  9
$DIMLWE
 70
     0
  9
$DIMTMOVE
 70
     0
  9
$LUNITS
 70
     2
  9
$LUPREC
 70
     4
  9
$SKETCHINC
 40
0.1
  9
$FILLETRAD
 40
0.0
  9
$AUNITS
 70
     0
  9
$AUPREC
 70
     0
  9
$MENU
  1
acad
  9
$ELEVATION
 40
0.0
  9
$PELEVATION
 40
0.0
  9
$THICKNESS
 40
0.0
  9
$LIMCHECK
 70
     0
  9
$CHAMFERA
 40
0.0
  9
$CHAMFERB
 40
0.0
  9
$CHAMFERC
 40
0.0
  9
$CHAMFERD
 40
0.0
  9
$SKPOLY
 70
     0
  9
$TDCREATE
 40
0.000000000
  9
$TDUCREATE
 40
0.000000000
  9
$TDUPDATE
 40
0.000000000
  9
$TDUUPDATE
 40
0.000000000
  9
$TDINDWG
 40
0.0000000000
  9
$TDUSRTIMER
 40
0.0000000000
  9
$USRTIMER
 70
     1
  9
$ANGBASE
 50
0.0
  9
$ANGDIR
 70
     0
  9
$PDMODE
 70
     0
  9
$PDSIZE
 40
0.0
  9
$PLINEWID
 40
0.0
  9
$SPLFRAME
 70
     0
  9
$SPLINETYPE
 70
     6
  9
$SPLINESEGS
 70
     8
  9
$HANDSEED
  5
3B
  9
$SURFTAB1
 70
     6
  9
$SURFTAB2
 70
     6
  9
$SURFTYPE
 70
     6
  9
$SURFU
 70
     6
  9
$SURFV
 70
     6
  9
$UCSBASE
  2

  9
$UCSNAME
  2

  9
$UCSORG
 10
0.0
 20
0.0
 30
0.0
  9
$UCSXDIR
 10
1.0
 20
0.0
 30
0.0
  9
$UCSYDIR
 10
0.0
 20
1.0
 30
0.0
  9
$UCSORTHOREF
  2

  9
$UCSORTHOVIEW
 70
     0
  9
$UCSORGTOP
 10
0.0
 20
0.0
 30
0.0
  9
$UCSORGBOTTOM
 10
0.0
 20
0.0
 30
0.0
  9
$UCSORGLEFT
 10
0.0
 20
0.0
 30
0.0
  9
$UCSORGRIGHT
 10
0.0
 20
0.0
 30
0.0
  9
$UCSORGFRONT
 10
0.0
 20
0.0
 30
0.0
  9
$UCSORGBACK
 10
0.0
 20
0.0
 30
0.0
  9
$PUCSBASE
  2

  9
$PUCSNAME
  2

  9
$PUCSORG
 10
0.0
 20
0.0
 30
0.0
  9
$PUCSXDIR
 10
1.0
 20
0.0
 30
0.0
  9
$PUCSYDIR
 10
0.0
 20
1.0
 30
0.0
  9
$PUCSORTHOREF
  2

  9
$PUCSORTHOVIEW
 70
     0
  9
$PUCSORGTOP
 10
0.0
 20
0.0
 30
0.0
  9
$PUCSORGBOTTOM
 10
0.0
 20
0.0
 30
0.0
  9
$PUCSORGLEFT
 10
0.0
 20
0.0
 30
0.0
  9
$PUCSORGRIGHT
 10
0.0
 20
0.0
 30
0.0
  9
$PUCSORGFRONT
 10
0.0
 20
0.0
 30
0.0
  9
$PUCSORGBACK
 10
0.0
 20
0.0
 30
0.0
  9
$USERI1
 70
     0
  9
$USERI2
 70
     0
  9
$USERI3
 70
     0
  9
$USERI4
 70
     0
  9
$USERI5
 70
     0
  9
$USERR1
 40
0.0
  9
$USERR2
 40
0.0
  9
$USERR3
 40
0.0
  9
$USERR4
 40
0.0
  9
$USERR5
 40
0.0
  9
$WORLDVIEW
 70
     1
  9
$SHADEDGE
 70
     3
  9
$SHADEDIF
 70
    70
  9
$TILEMODE
 70
     1
  9
$MAXACTVP
 70
    16
  9
$PINSBASE
 10
0.0
 20
0.0
 30
0.0
  9
$PLIMCHECK
 70
     0
  9
$PEXTMIN
 10
1.000000E+20
 20
1.000000E+20
 30
1.000000E+20
  9
$PEXTMAX
 10
-1.000000E+20
 20
-1.000000E+20
 30
-1.000000E+20
  9
$PLIMMIN
 10
0.0
 20
0.0
  9
$PLIMMAX
 10
12.0
 20
9.0
  9
$UNITMODE
 70
     0
  9
$VISRETAIN
 70
     0
  9
$PLINEGEN
 70
     1
  9
$PSLTSCALE
 70
     0
  9
$TREEDEPTH
 70
  3020
  9
$CMLSTYLE
  2
Standard
  9
$CMLJUST
 70
     0
  9
$CMLSCALE
 40
1.0
  9
$PROXYGRAPHICS
 70
     0
  9
$MEASUREMENT
 70
     0
  9
$CELWEIGHT
370
     0
  9
$ENDCAPS
280
     0
  9
$JOINSTYLE
280
     0
  9
$LWDISPLAY
290
     0
  9
$INSUNITS
 70
     4
  9
$HYPERLINKBASE
  1

  9
$XEDIT
290
     1
  9
$CEPSNTYPE
380
     0
  9
$PSTYLEMODE
290
     1
  9
$FINGERPRINTGUID
  2

  9
$VERSIONGUID
  2

  9
$EXTNAMES
290
     1
  9
$PSVPSCALE
 40
0.0
  0
ENDSEC
  0
SECTION
  2
CLASSES
  0
CLASS
  1
LWPOLYLINE
  2
AcDbPolyline
  3
AutoCAD 2000
 90
    32768
280
     0
281
     1
  0
CLASS
  1
IMAGE
  2
AcDbRasterImage
  3
ISM
 90
    32895
280
     0
281
     1
  0
CLASS
  1
OLE2FRAME
  2
AcDbOle2Frame
  3
AutoCAD 2000
 90
    32768
280
     0
281
     1
  0
CLASS
  1
HATCH
  2
AcDbHatch
  3
AutoCAD 2000
 90
    32768
280
     0
281
     1
  0
CLASS
  1
DICTIONARYVAR
  2
AcDbDictionaryVar
  3
AutoCAD 2000
 90
    32768
280
     0
281
     0
  0
CLASS
  1
RASTERVARIABLES
  2
AcDbRasterVariables
  3
ISM
 90
    32768
280
     0
281
     0
  0
CLASS
  1
IMAGEDEF
  2
AcDbRasterImageDef
  3
ISM
 90
    32768
280
     0
281
     0
  0
CLASS
  1
IMAGEDEF_REACTOR
  2
AcDbRasterImageDefReactor
  3
ISM
 90
    32769
280
     0
281
     0
  0
CLASS
  1
IDBUFFER
  2
AcDbIdBuffer
  3
AutoCAD 2000
 90
    32768
280
     0
281
     0
  0
CLASS
  1
SPATIAL_FILTER
  2
AcDbSpatialFilter
  3
AutoCAD 2000
 90
    32768
280
     0
281
     0
  0
CLASS
  1
XRECORD
  2
AcDbXrecord
  3
AutoCAD 2000
 90
    32768
280
     0
281
     0
  0
CLASS
  1
SORTENTSTABLE
  2
AcDbSortentsTable
  3
AutoCAD 2000
 90
    32768
280
     0
281
     0
  0
CLASS
  1
LAYER_INDEX
  2
AcDbLayerIndex
  3
AutoCAD 2000
 90
    32768
280
     0
281
     0
  0
CLASS
  1
SPATIAL_INDEX
  2
AcDbSpatialIndex
  3
AutoCAD 2000
 90
    32768
280
     0
281
     0
  0
CLASS
  1
OBJECT_PTR
  2
CAseDLPNTableRecord
  3
"ASE-LPNTableRecord"
 90
    32769
280
     0
281
     0
  0
CLASS
  1
LAYOUT
  2
AcDbLayout
  3
AutoCAD 2000
 90
        0
280
     0
281
     0
  0
CLASS
  1
PLOTSETTINGS
  2
AcDbPlotSettings
  3
AutoCAD 2000
 90
    32768
280
     0
281
     0
  0
CLASS
  1
ACDBDICTIONARYWDFLT
  2
AcDbDictionaryWithDefault
  3
AutoCAD 2000
 90
        0
280
     0
281
     0
  0
CLASS
  1
ACDBPLACEHOLDER
  2
AcDbPlaceHolder
  3
AutoCAD 2000
 90
        0
280
     0
281
     0
  0
CLASS
  1
VBA_PROJECT
  2
AcDbVbaProject
  3
acadvba
 90
    32768
280
     0
281
     0
  0
CLASS
  1
WIPEOUT
  2
AcDbWipeout
  3
WipeOut|AutoCAD Express Tool|expresstools@autodesk.com
 90
    32895
280
     0
281
     1
  0
CLASS
  1
WIPEOUTVARIABLES
  2
AcDbWipeoutVariables
  3
WipeOut|AutoCAD Express Tool|expresstools@autodesk.com
 90
        0
280
     0
281
     0
  0
CLASS
  1
RTEXT
  2
RText
  3
RText|AutoCAD Express Tool|expresstools@autodesk.com
 90
    32768
280
     0
281
     1
  0
CLASS
  1
ARCALIGNEDTEXT
  2
AcDbArcAlignedText
  3
ATEXT|AutoCAD Express Tool|expresstools@autodesk.com
 90
    32768
280
     0
281
     1
  0
ENDSEC
  0
SECTION
  2
TABLES
  0
TABLE
  2
VPORT
  5
7
100
AcDbSymbolTable
 70
     1
  0
VPORT
  5
15
100
AcDbSymbolTableRecord
100
AcDbViewportTableRecord
  2
*ACTIVE
 70
     0
 10
0.0
 20
0.0
 11
1.0
 21
1.0
 12
6.591288
 22
4.579184
 13
0.0
 23
0.0
 14
1.0
 24
1.0
 15
0.0
 25
0.0
 16
0.0
 26
0.0
 36
1.0
 17
0.0
 27
0.0
 37
0.0
 40
9.158369
 41
0.688564
 42
50.0
 43
0.0
 44
0.0
 50
0.0
 51
0.0
 71
     0
 72
   100
 73
     1
 74
     1
 75
     0
 76
     0
 77
     0
 78
     0
281
     0
 65
     0
110
0.0
120
0.0
130
0.0
111
1.0
121
0.0
131
0.0
112
0.0
122
1.0
132
0.0
345
0
346
0
 79
     0
146
0.0
  0
ENDTAB
  0
TABLE
  2
LTYPE
  5
4
100
AcDbSymbolTable
 70
     3
  0
LTYPE
  5
11
100
AcDbSymbolTableRecord
100
AcDbLinetypeTableRecord
  2
ByBlock
 70
    64
  3

 72
    65
 73
     0
 40
0.0
  0
LTYPE
  5
12
100
AcDbSymbolTableRecord
100
AcDbLinetypeTableRecord
  2
ByLayer
 70
    64
  3

 72
    65
 73
     0
 40
0.0
  0
LTYPE
  5
13
100
AcDbSymbolTableRecord
100
AcDbLinetypeTableRecord
  2
Continuous
 70
    64
  3
Solid line
 72
    65
 73
     0
 40
0.0
  0
ENDTAB
  0
TABLE
  2
LAYER
  5
2
100
AcDbSymbolTable
 70
     2
  0
LAYER
  5
14
100
AcDbSymbolTableRecord
100
AcDbLayerTableRecord
  2
0
 70
     0
 62
     7
  6
Continuous
290
     1
370
    -3
390
1D
  0
LAYER
  5
24
100
AcDbSymbolTableRecord
100
AcDbLayerTableRecord
  2
RÚteg 1
 70
     0
 62
     7
  6
Continuous
290
     1
370
    -3
390
1F
  0
ENDTAB
  0
TABLE
  2
STYLE
  5
3
100
AcDbSymbolTable
 70
     1
  0
STYLE
  5
17
100
AcDbSymbolTableRecord
100
AcDbTextStyleTableRecord
  2
Standard
 70
     0
 40
0.0
 41
1.0
 50
0.0
 71
     0
 42
0.0
  3
txt
  4

  0
ENDTAB
  0
TABLE
  2
VIEW
  5
5
100
AcDbSymbolTable
 70
     0
  0
ENDTAB
  0
TABLE
  2
UCS
  5
6
100
AcDbSymbolTable
 70
     0
  0
ENDTAB
  0
TABLE
  2
APPID
  5
8
100
AcDbSymbolTable
 70
     1
  0
APPID
  5
16
100
AcDbSymbolTableRecord
100
AcDbRegAppTableRecord
  2
ACAD
 70
     0
  0
ENDTAB
  0
TABLE
  2
DIMSTYLE
  5
9
100
AcDbSymbolTable
 70
     1
100
AcDbDimStyleTable
 71
     0
  0
DIMSTYLE
105
18
100
AcDbSymbolTableRecord
100
AcDbDimStyleTableRecord
  2
Standard
 70
     0
  3

  4

 40
1.0
 41
0.18
 42
0.0625
 43
0.38
 44
0.18
 45
0.0
 46
0.0
 47
0.0
 48
0.0
 71
     0
 72
     0
 73
     1
 74
     1
 75
     0
 76
     0
 77
     0
 78
     0
 79
     0
140
0.18
141
0.09
142
0.0
143
25.4
144
1.0
145
0.0
146
1.0
147
0.09
148
0.0
170
     0
171
     2
172
     0
173
     0
174
     0
175
     0
176
     0
177
     0
178
     0
179
     0
271
     4
272
     4
273
     2
274
     2
275
     0
276
     0
277
     2
278
    46
279
     0
280
     0
281
     0
282
     0
283
     1
284
     0
285
     0
286
     0
288
     0
340
17
341
0
342
0
343
0
344
0
371
    -2
372
    -2
  0
ENDTAB
  0
TABLE
  2
BLOCK_RECORD
  5
1
100
AcDbSymbolTable
 70
     0
  0
BLOCK_RECORD
  5
A
100
AcDbSymbolTableRecord
100
AcDbBlockTableRecord
  2
*MODEL_SPACE
340
20
  0
BLOCK_RECORD
  5
B
100
AcDbSymbolTableRecord
100
AcDbBlockTableRecord
  2
*PAPER_SPACE
340
21
  0
ENDTAB
  0
ENDSEC
  0
SECTION
  2
BLOCKS
  0
BLOCK
  5
D
100
AcDbEntity
  8
0
100
AcDbBlockBegin
  2
*MODEL_SPACE
 70
     0
 10
0.0
 20
0.0
 30
0.0
  3
*MODEL_SPACE
  1

  0
ENDBLK
  5
E
100
AcDbEntity
  8
0
100
AcDbBlockEnd
  0
BLOCK
  5
F
100
AcDbEntity
 67
     1
  8
0
100
AcDbBlockBegin
  2
*PAPER_SPACE
 70
     0
 10
0.0
 20
0.0
 30
0.0
  3
*PAPER_SPACE
  1

  0
ENDBLK
  5
10
100
AcDbEntity
 67
     1
  8
0
100
AcDbBlockEnd
  0
ENDSEC
  0
SECTION
  2
ENTITIES
  0
SPLINE
  5
25
100
AcDbEntity
  8
RÚteg 1
 62
     7
100
AcDbSpline
210
0.0
220
0.0
230
1.0
 70
     1
 71
     3
 72
    24
 73
    20
 74
     0
 42
0.0000000001
 43
0.0000000001
 40
0.0
 40
0.0
 40
0.0
 40
0.0
 40
0.2
 40
0.2
 40
0.2
 40
0.2
 40
0.4
 40
0.4
 40
0.4
 40
0.4
 40
0.6000000000000001
 40
0.6000000000000001
 40
0.6000000000000001
 40
0.6000000000000001
 40
0.8
 40
0.8
 40
0.8
 40
0.8
 40
1.0
 40
1.0
 40
1.0
 40
1.0
 10
-64.763900000000007
 20
83.959900000000005
 30
0.0
 10
-64.763900000000007
 20
83.959900000000005
 30
0.0
 10
-63.286099999999998
 20
83.959900000000005
 30
0.0
 10
-63.286099999999998
 20
83.959900000000005
 30
0.0
 10
-63.286099999999998
 20
83.959900000000005
 30
0.0
 10
-62.402799999999999
 20
84.266000000000005
 30
0.0
 10
-61.768300000000004
 20
85.105199999999996
 30
0.0
 10
-61.768300000000004
 20
86.092600000000004
 30
0.0
 10
-61.768300000000004
 20
86.092600000000004
 30
0.0
 10
-61.768300000000004
 20
87.338800000000006
 30
0.0
 10
-62.7789
 20
88.349400000000003
 30
0.0
 10
-64.025000000000006
 20
88.349400000000003
 30
0.0
 10
-64.025000000000006
 20
88.349400000000003
 30
0.0
 10
-65.271100000000004
 20
88.349400000000003
 30
0.0
 10
-66.281700000000001
 20
87.338800000000006
 30
0.0
 10
-66.281700000000001
 20
86.092600000000004
 30
0.0
 10
-66.281700000000001
 20
86.092600000000004
 30
0.0
 10
-66.281700000000001
 20
85.105199999999996
 30
0.0
 10
-65.647199999999998
 20
84.266000000000005
 30
0.0
 10
-64.763900000000007
 20
83.959900000000005
 30
0.0
  0
SPLINE
  5
26
100
AcDbEntity
  8
RÚteg 1
 62
     7
100
AcDbSpline
210
0.0
220
0.0
230
1.0
 70
     1
 71
     3
 72
    52
 73
    48
 74
     0
 42
0.0000000001
 43
0.0000000001
 40
0.0
 40
0.0
 40
0.0
 40
0.0
 40
0.0833333333333333
 40
0.0833333333333333
 40
0.0833333333333333
 40
0.0833333333333333
 40
0.1666666666666667
 40
0.1666666666666667
 40
0.1666666666666667
 40
0.1666666666666667
 40
0.25
 40
0.25
 40
0.25
 40
0.25
 40
0.3333333333333333
 40
0.3333333333333333
 40
0.3333333333333333
 40
0.3333333333333333
 40
0.4166666666666666
 40
0.4166666666666666
 40
0.4166666666666666
 40
0.4166666666666666
 40
0.4999999999999999
 40
0.4999999999999999
 40
0.4999999999999999
 40
0.4999999999999999
 40
0.5833333333333333
 40
0.5833333333333333
 40
0.5833333333333333
 40
0.5833333333333333
 40
0.6666666666666666
 40
0.6666666666666666
 40
0.6666666666666666
 40
0.6666666666666666
 40
0.75
 40
0.75
 40
0.75
 40
0.75
 40
0.8333333333333334
 40
0.8333333333333334
 40
0.8333333333333334
 40
0.8333333333333334
 40
0.9166666666666667
 40
0.9166666666666667
 40
0.9166666666666667
 40
0.9166666666666667
 40
1.0
 40
1.0
 40
1.0
 40
1.0
 10
-60.418500000000002
 20
83.925200000000004
 30
0.0
 10
-60.142299999999999
 20
83.834000000000003
 30
0.0
 10
-59.941299999999998
 20
83.572900000000004
 30
0.0
 10
-59.941299999999998
 20
83.266900000000007
 30
0.0
 10
-59.941299999999998
 20
83.266900000000007
 30
0.0
 10
-59.941299999999998
 20
83.266900000000007
 30
0.0
 10
-59.941299999999998
 20
78.044300000000007
 30
0.0
 10
-59.941299999999998
 20
78.044300000000007
 30
0.0
 10
-59.941299999999998
 20
78.044300000000007
 30
0.0
 10
-43.133400000000002
 20
76.026499999999999
 30
0.0
 10
-30.100000000000001
 20
61.715899999999998
 30
0.0
 10
-30.100000000000001
 20
44.364899999999999
 30
0.0
 10
-30.100000000000001
 20
44.364899999999999
 30
0.0
 10
-30.100000000000001
 20
25.631799999999998
 30
0.0
 10
-45.291899999999998
 20
10.4399
 30
0.0
 10
-64.025000000000006
 20
10.4399
 30
0.0
 10
-64.025000000000006
 20
10.4399
 30
0.0
 10
-82.758099999999999
 20
10.4399
 30
0.0
 10
-97.950000000000003
 20
25.631799999999998
 30
0.0
 10
-97.950000000000003
 20
44.364899999999999
 30
0.0
 10
-97.950000000000003
 20
44.364899999999999
 30
0.0
 10
-97.950000000000003
 20
61.715899999999998
 30
0.0
 10
-84.916600000000003
 20
76.026499999999999
 30
0.0
 10
-68.108699999999999
 20
78.044300000000007
 30
0.0
 10
-68.108699999999999
 20
78.044300000000007
 30
0.0
 10
-68.108699999999999
 20
78.044300000000007
 30
0.0
 10
-68.108699999999999
 20
83.266900000000007
 30
0.0
 10
-68.108699999999999
 20
83.266900000000007
 30
0.0
 10
-68.108699999999999
 20
83.266900000000007
 30
0.0
 10
-68.108699999999999
 20
83.572900000000004
 30
0.0
 10
-67.907700000000006
 20
83.834000000000003
 30
0.0
 10
-67.631500000000003
 20
83.925200000000004
 30
0.0
 10
-67.631500000000003
 20
83.925200000000004
 30
0.0
 10
-68.012900000000002
 20
84.558199999999999
 30
0.0
 10
-68.232399999999998
 20
85.299899999999994
 30
0.0
 10
-68.232399999999998
 20
86.092600000000004
 30
0.0
 10
-68.232399999999998
 20
86.092600000000004
 30
0.0
 10
-68.232399999999998
 20
88.415999999999997
 30
0.0
 10
-66.348299999999995
 20
90.299999999999997
 30
0.0
 10
-64.025000000000006
 20
90.299999999999997
 30
0.0
 10
-64.025000000000006
 20
90.299999999999997
 30
0.0
 10
-61.701700000000002
 20
90.299999999999997
 30
0.0
 10
-59.817599999999999
 20
88.415999999999997
 30
0.0
 10
-59.817599999999999
 20
86.092600000000004
 30
0.0
 10
-59.817599999999999
 20
86.092600000000004
 30
0.0
 10
-59.817599999999999
 20
85.299899999999994
 30
0.0
 10
-60.037100000000002
 20
84.558199999999999
 30
0.0
 10
-60.418500000000002
 20
83.925200000000004
 30
0.0
  0
SPLINE
  5
27
100
AcDbEntity
  8
RÚteg 1
 62
     7
100
AcDbSpline
210
0.0
220
0.0
230
1.0
 70
     1
 71
     3
 72
    48
 73
    44
 74
     0
 42
0.0000000001
 43
0.0000000001
 40
0.0
 40
0.0
 40
0.0
 40
0.0
 40
0.0909090909090909
 40
0.0909090909090909
 40
0.0909090909090909
 40
0.0909090909090909
 40
0.1818181818181818
 40
0.1818181818181818
 40
0.1818181818181818
 40
0.1818181818181818
 40
0.2727272727272727
 40
0.2727272727272727
 40
0.2727272727272727
 40
0.2727272727272727
 40
0.3636363636363637
 40
0.3636363636363637
 40
0.3636363636363637
 40
0.3636363636363637
 40
0.4545454545454546
 40
0.4545454545454546
 40
0.4545454545454546
 40
0.4545454545454546
 40
0.5454545454545455
 40
0.5454545454545455
 40
0.5454545454545455
 40
0.5454545454545455
 40
0.6363636363636365
 40
0.6363636363636365
 40
0.6363636363636365
 40
0.6363636363636365
 40
0.7272727272727274
 40
0.7272727272727274
 40
0.7272727272727274
 40
0.7272727272727274
 40
0.8181818181818183
 40
0.8181818181818183
 40
0.8181818181818183
 40
0.8181818181818183
 40
0.9090909090909093
 40
0.9090909090909093
 40
0.9090909090909093
 40
0.9090909090909093
 40
1.0
 40
1.0
 40
1.0
 40
1.0
 10
-65.966999999999999
 20
75.259
 30
0.0
 10
-65.837699999999998
 20
72.6828
 30
0.0
 10
-65.5548
 20
69.646699999999996
 30
0.0
 10
-66.349100000000007
 20
67.600999999999999
 30
0.0
 10
-66.349100000000007
 20
67.600999999999999
 30
0.0
 10
-68.537999999999997
 20
67.769099999999995
 30
0.0
 10
-71.990600000000001
 20
70.722200000000001
 30
0.0
 10
-73.985200000000006
 20
71.917000000000002
 30
0.0
 10
-73.985200000000006
 20
71.917000000000002
 30
0.0
 10
-75.036600000000007
 20
70.584599999999995
 30
0.0
 10
-74.859499999999997
 20
70.290300000000002
 30
0.0
 10
-75.645200000000003
 20
68.928899999999999
 30
0.0
 10
-75.645200000000003
 20
68.928899999999999
 30
0.0
 10
-72.831599999999995
 20
66.115200000000002
 30
0.0
 10
-69.118600000000001
 20
64.472300000000004
 30
0.0
 10
-66.017099999999999
 20
61.956699999999998
 30
0.0
 10
-66.017099999999999
 20
61.956699999999998
 30
0.0
 10
-66.017099999999999
 20
58.9148
 30
0.0
 10
-65.444999999999993
 20
51.005499999999998
 30
0.0
 10
-66.349100000000007
 20
48.676400000000001
 30
0.0
 10
-66.349100000000007
 20
48.676400000000001
 30
0.0
 10
-69.738299999999995
 20
49.0107
 30
0.0
 10
-75.4405
 20
53.119900000000001
 30
0.0
 10
-77.969200000000001
 20
55.648800000000001
 30
0.0
 10
-77.969200000000001
 20
55.648800000000001
 30
0.0
 10
-77.969200000000001
 20
59.005899999999997
 30
0.0
 10
-78.633399999999995
 20
62.293100000000003
 30
0.0
 10
-78.633399999999995
 20
65.608800000000002
 30
0.0
 10
-78.633399999999995
 20
65.608800000000002
 30
0.0
 10
-80.112700000000004
 20
66.942400000000006
 30
0.0
 10
-80.232100000000003
 20
66.673100000000005
 30
0.0
 10
-81.953299999999999
 20
67.268799999999999
 30
0.0
 10
-81.953299999999999
 20
67.268799999999999
 30
0.0
 10
-83.105099999999993
 20
63.999200000000002
 30
0.0
 10
-81.029700000000005
 20
59.815600000000003
 30
0.0
 10
-82.617400000000004
 20
58.304600000000001
 30
0.0
 10
-82.617400000000004
 20
58.304600000000001
 30
0.0
 10
-84.044700000000006
 20
58.605400000000003
 30
0.0
 10
-87.395899999999997
 20
60.6648
 30
0.0
 10
-89.496799999999993
 20
61.956200000000003
 30
0.0
 10
-89.496799999999993
 20
61.956200000000003
 30
0.0
 10
-84.254400000000004
 20
69.5304
 30
0.0
 10
-75.722200000000001
 20
74.654700000000005
 30
0.0
 10
-65.966999999999999
 20
75.259
 30
0.0
  0
SPLINE
  5
28
100
AcDbEntity
  8
RÚteg 1
 62
     7
100
AcDbSpline
210
0.0
220
0.0
230
1.0
 70
     1
 71
     3
 72
    52
 73
    48
 74
     0
 42
0.0000000001
 43
0.0000000001
 40
0.0
 40
0.0
 40
0.0
 40
0.0
 40
0.0833333333333333
 40
0.0833333333333333
 40
0.0833333333333333
 40
0.0833333333333333
 40
0.1666666666666667
 40
0.1666666666666667
 40
0.1666666666666667
 40
0.1666666666666667
 40
0.25
 40
0.25
 40
0.25
 40
0.25
 40
0.3333333333333333
 40
0.3333333333333333
 40
0.3333333333333333
 40
0.3333333333333333
 40
0.4166666666666666
 40
0.4166666666666666
 40
0.4166666666666666
 40
0.4166666666666666
 40
0.4999999999999999
 40
0.4999999999999999
 40
0.4999999999999999
 40
0.4999999999999999
 40
0.5833333333333333
 40
0.5833333333333333
 40
0.5833333333333333
 40
0.5833333333333333
 40
0.6666666666666666
 40
0.6666666666666666
 40
0.6666666666666666
 40
0.6666666666666666
 40
0.75
 40
0.75
 40
0.75
 40
0.75
 40
0.8333333333333334
 40
0.8333333333333334
 40
0.8333333333333334
 40
0.8333333333333334
 40
0.9166666666666667
 40
0.9166666666666667
 40
0.9166666666666667
 40
0.9166666666666667
 40
1.0
 40
1.0
 40
1.0
 40
1.0
 10
-91.792699999999996
 20
58.057600000000001
 30
0.0
 10
-89.977500000000006
 20
56.515599999999999
 30
0.0
 10
-87.055499999999995
 20
55.395000000000003
 30
0.0
 10
-85.273300000000006
 20
53.988500000000002
 30
0.0
 10
-85.273300000000006
 20
53.988500000000002
 30
0.0
 10
-86.748500000000007
 20
51.762700000000002
 30
0.0
 10
-90.407200000000003
 20
51.385599999999997
 30
0.0
 10
-92.577500000000001
 20
49.672499999999999
 30
0.0
 10
-92.577500000000001
 20
49.672499999999999
 30
0.0
 10
-92.206100000000006
 20
47.909999999999997
 30
0.0
 10
-91.9251
 20
48.024000000000001
 30
0.0
 10
-90.585400000000007
 20
46.684399999999997
 30
0.0
 10
-90.585400000000007
 20
46.684399999999997
 30
0.0
 10
-89.450900000000004
 20
47.139400000000002
 30
0.0
 10
-80.7864
 20
51.332500000000003
 30
0.0
 10
-80.625299999999996
 20
51.332500000000003
 30
0.0
 10
-80.625299999999996
 20
51.332500000000003
 30
0.0
 10
-79.340400000000002
 20
51.332500000000003
 30
0.0
 10
-69.372500000000002
 20
45.415599999999998
 30
0.0
 10
-68.673100000000005
 20
44.360399999999998
 30
0.0
 10
-68.673100000000005
 20
44.360399999999998
 30
0.0
 10
-69.226699999999994
 20
43.524999999999999
 30
0.0
 10
-79.366600000000005
 20
37.388199999999998
 30
0.0
 10
-80.293400000000005
 20
37.388199999999998
 30
0.0
 10
-80.293400000000005
 20
37.388199999999998
 30
0.0
 10
-82.314400000000006
 20
37.388199999999998
 30
0.0
 10
-88.0779
 20
41.818100000000001
 30
0.0
 10
-90.917500000000004
 20
42.0364
 30
0.0
 10
-90.917500000000004
 20
42.0364
 30
0.0
 10
-91.882800000000003
 20
40.990699999999997
 30
0.0
 10
-91.951300000000003
 20
40.883099999999999
 30
0.0
 10
-92.577500000000001
 20
39.7121
 30
0.0
 10
-92.577500000000001
 20
39.7121
 30
0.0
 10
-91.108199999999997
 20
37.362900000000003
 30
0.0
 10
-87.489500000000007
 20
36.813400000000001
 30
0.0
 10
-85.273300000000006
 20
35.064399999999999
 30
0.0
 10
-85.273300000000006
 20
35.064399999999999
 30
0.0
 10
-86.273700000000005
 20
33.5548
 30
0.0
 10
-89.621600000000001
 20
32.1768
 30
0.0
 10
-91.858099999999993
 20
30.8035
 30
0.0
 10
-91.858099999999993
 20
30.8035
 30
0.0
 10
-93.857799999999997
 20
34.8994
 30
0.0
 10
-94.9816
 20
39.500999999999998
 30
0.0
 10
-94.9816
 20
44.364899999999999
 30
0.0
 10
-94.9816
 20
44.364899999999999
 30
0.0
 10
-94.9816
 20
49.281100000000002
 30
0.0
 10
-93.833500000000001
 20
53.929299999999998
 30
0.0
 10
-91.792699999999996
 20
58.057600000000001
 30
0.0
  0
SPLINE
  5
29
100
AcDbEntity
  8
RÚteg 1
 62
     7
100
AcDbSpline
210
0.0
220
0.0
230
1.0
 70
     1
 71
     3
 72
    48
 73
    44
 74
     0
 42
0.0000000001
 43
0.0000000001
 40
0.0
 40
0.0
 40
0.0
 40
0.0
 40
0.0909090909090909
 40
0.0909090909090909
 40
0.0909090909090909
 40
0.0909090909090909
 40
0.1818181818181818
 40
0.1818181818181818
 40
0.1818181818181818
 40
0.1818181818181818
 40
0.2727272727272727
 40
0.2727272727272727
 40
0.2727272727272727
 40
0.2727272727272727
 40
0.3636363636363637
 40
0.3636363636363637
 40
0.3636363636363637
 40
0.3636363636363637
 40
0.4545454545454546
 40
0.4545454545454546
 40
0.4545454545454546
 40
0.4545454545454546
 40
0.5454545454545455
 40
0.5454545454545455
 40
0.5454545454545455
 40
0.5454545454545455
 40
0.6363636363636365
 40
0.6363636363636365
 40
0.6363636363636365
 40
0.6363636363636365
 40
0.7272727272727274
 40
0.7272727272727274
 40
0.7272727272727274
 40
0.7272727272727274
 40
0.8181818181818183
 40
0.8181818181818183
 40
0.8181818181818183
 40
0.8181818181818183
 40
0.9090909090909093
 40
0.9090909090909093
 40
0.9090909090909093
 40
0.9090909090909093
 40
1.0
 40
1.0
 40
1.0
 40
1.0
 10
-89.525199999999998
 20
26.814800000000002
 30
0.0
 10
-87.318700000000007
 20
27.6968
 30
0.0
 10
-84.125
 20
29.845099999999999
 30
0.0
 10
-82.617400000000004
 20
30.748200000000001
 30
0.0
 10
-82.617400000000004
 20
30.748200000000001
 30
0.0
 10
-81.029700000000005
 20
28.519400000000001
 30
0.0
 10
-83.105099999999993
 20
24.750399999999999
 30
0.0
 10
-81.953299999999999
 20
21.783999999999999
 30
0.0
 10
-81.953299999999999
 20
21.783999999999999
 30
0.0
 10
-80.211500000000001
 20
21.821899999999999
 30
0.0
 10
-79.930099999999996
 20
21.943000000000001
 30
0.0
 10
-78.633399999999995
 20
23.112100000000002
 30
0.0
 10
-78.633399999999995
 20
23.112100000000002
 30
0.0
 10
-78.633399999999995
 20
26.5806
 30
0.0
 10
-77.969200000000001
 20
29.959599999999998
 30
0.0
 10
-77.969200000000001
 20
33.404200000000003
 30
0.0
 10
-77.969200000000001
 20
33.404200000000003
 30
0.0
 10
-76.228899999999996
 20
34.777900000000002
 30
0.0
 10
-68.163899999999998
 20
39.865200000000002
 30
0.0
 10
-66.349100000000007
 20
40.0443
 30
0.0
 10
-66.349100000000007
 20
40.0443
 30
0.0
 10
-65.444999999999993
 20
37.715200000000003
 30
0.0
 10
-66.017099999999999
 20
29.806000000000001
 30
0.0
 10
-66.017099999999999
 20
26.763999999999999
 30
0.0
 10
-66.017099999999999
 20
26.763999999999999
 30
0.0
 10
-68.729500000000002
 20
24.990100000000002
 30
0.0
 10
-73.350099999999998
 20
22.242799999999999
 30
0.0
 10
-75.645200000000003
 20
20.123799999999999
 30
0.0
 10
-75.645200000000003
 20
20.123799999999999
 30
0.0
 10
-75.138000000000005
 20
19.033300000000001
 30
0.0
 10
-74.777199999999993
 20
18.139399999999998
 30
0.0
 10
-73.985200000000006
 20
17.1358
 30
0.0
 10
-73.985200000000006
 20
17.1358
 30
0.0
 10
-71.260300000000001
 20
18.287800000000001
 30
0.0
 10
-69.182500000000005
 20
20.471499999999999
 30
0.0
 10
-66.349100000000007
 20
21.451899999999998
 30
0.0
 10
-66.349100000000007
 20
21.451899999999998
 30
0.0
 10
-65.447000000000003
 20
19.128399999999999
 30
0.0
 10
-66.267499999999998
 20
16.0991
 30
0.0
 10
-66.090400000000002
 20
13.4786
 30
0.0
 10
-66.090400000000002
 20
13.4786
 30
0.0
 10
-75.811599999999999
 20
14.1196
 30
0.0
 10
-84.3078
 20
19.248999999999999
 30
0.0
 10
-89.525199999999998
 20
26.814800000000002
 30
0.0
  0
SPLINE
  5
2A
100
AcDbEntity
  8
RÚteg 1
 62
     7
100
AcDbSpline
210
0.0
220
0.0
230
1.0
 70
     1
 71
     3
 72
    48
 73
    44
 74
     0
 42
0.0000000001
 43
0.0000000001
 40
0.0
 40
0.0
 40
0.0
 40
0.0
 40
0.0909090909090909
 40
0.0909090909090909
 40
0.0909090909090909
 40
0.0909090909090909
 40
0.1818181818181818
 40
0.1818181818181818
 40
0.1818181818181818
 40
0.1818181818181818
 40
0.2727272727272727
 40
0.2727272727272727
 40
0.2727272727272727
 40
0.2727272727272727
 40
0.3636363636363637
 40
0.3636363636363637
 40
0.3636363636363637
 40
0.3636363636363637
 40
0.4545454545454546
 40
0.4545454545454546
 40
0.4545454545454546
 40
0.4545454545454546
 40
0.5454545454545455
 40
0.5454545454545455
 40
0.5454545454545455
 40
0.5454545454545455
 40
0.6363636363636365
 40
0.6363636363636365
 40
0.6363636363636365
 40
0.6363636363636365
 40
0.7272727272727274
 40
0.7272727272727274
 40
0.7272727272727274
 40
0.7272727272727274
 40
0.8181818181818183
 40
0.8181818181818183
 40
0.8181818181818183
 40
0.8181818181818183
 40
0.9090909090909093
 40
0.9090909090909093
 40
0.9090909090909093
 40
0.9090909090909093
 40
1.0
 40
1.0
 40
1.0
 40
1.0
 10
-61.647199999999998
 20
13.4983
 30
0.0
 10
-61.356499999999997
 20
16.125299999999999
 30
0.0
 10
-62.123100000000001
 20
19.333100000000002
 30
0.0
 10
-61.700899999999997
 20
21.451899999999998
 30
0.0
 10
-61.700899999999997
 20
21.451899999999998
 30
0.0
 10
-58.8337
 20
20.4206
 30
0.0
 10
-56.777700000000003
 20
17.7775
 30
0.0
 10
-53.732799999999997
 20
17.1358
 30
0.0
 10
-53.732799999999997
 20
17.1358
 30
0.0
 10
-52.974499999999999
 20
18.402100000000001
 30
0.0
 10
-52.871099999999998
 20
18.776299999999999
 30
0.0
 10
-52.404800000000002
 20
20.123799999999999
 30
0.0
 10
-52.404800000000002
 20
20.123799999999999
 30
0.0
 10
-55.3215
 20
22.816600000000001
 30
0.0
 10
-59.140799999999999
 20
24.2668
 30
0.0
 10
-62.032899999999998
 20
27.0961
 30
0.0
 10
-62.032899999999998
 20
27.0961
 30
0.0
 10
-62.032899999999998
 20
30.082999999999998
 30
0.0
 10
-62.5916
 20
37.7498
 30
0.0
 10
-61.700899999999997
 20
40.0443
 30
0.0
 10
-61.700899999999997
 20
40.0443
 30
0.0
 10
-59.886099999999999
 20
39.865200000000002
 30
0.0
 10
-51.821100000000001
 20
34.777900000000002
 30
0.0
 10
-50.080800000000004
 20
33.404200000000003
 30
0.0
 10
-50.080800000000004
 20
33.404200000000003
 30
0.0
 10
-49.805100000000003
 20
29.8965
 30
0.0
 10
-49.084699999999998
 20
26.3416
 30
0.0
 10
-49.084699999999998
 20
22.779900000000001
 30
0.0
 10
-49.084699999999998
 20
22.779900000000001
 30
0.0
 10
-47.910899999999998
 20
21.917999999999999
 30
0.0
 10
-47.173200000000001
 20
21.783999999999999
 30
0.0
 10
-45.764699999999998
 20
21.783999999999999
 30
0.0
 10
-45.764699999999998
 20
21.783999999999999
 30
0.0
 10
-44.656199999999998
 20
24.639800000000001
 30
0.0
 10
-46.5824
 20
27.4541
 30
0.0
 10
-45.432600000000001
 20
30.4161
 30
0.0
 10
-45.432600000000001
 20
30.4161
 30
0.0
 10
-43.740299999999998
 20
30.0593
 30
0.0
 10
-40.575299999999999
 20
27.838799999999999
 30
0.0
 10
-38.605400000000003
 20
26.698599999999999
 30
0.0
 10
-38.605400000000003
 20
26.698599999999999
 30
0.0
 10
-43.773400000000002
 20
19.2773
 30
0.0
 10
-52.105800000000002
 20
14.2235
 30
0.0
 10
-61.647199999999998
 20
13.4983
 30
0.0
  0
SPLINE
  5
2B
100
AcDbEntity
  8
RÚteg 1
 62
     7
100
AcDbSpline
210
0.0
220
0.0
230
1.0
 70
     1
 71
     3
 72
    52
 73
    48
 74
     0
 42
0.0000000001
 43
0.0000000001
 40
0.0
 40
0.0
 40
0.0
 40
0.0
 40
0.0833333333333333
 40
0.0833333333333333
 40
0.0833333333333333
 40
0.0833333333333333
 40
0.1666666666666667
 40
0.1666666666666667
 40
0.1666666666666667
 40
0.1666666666666667
 40
0.25
 40
0.25
 40
0.25
 40
0.25
 40
0.3333333333333333
 40
0.3333333333333333
 40
0.3333333333333333
 40
0.3333333333333333
 40
0.4166666666666666
 40
0.4166666666666666
 40
0.4166666666666666
 40
0.4166666666666666
 40
0.4999999999999999
 40
0.4999999999999999
 40
0.4999999999999999
 40
0.4999999999999999
 40
0.5833333333333333
 40
0.5833333333333333
 40
0.5833333333333333
 40
0.5833333333333333
 40
0.6666666666666666
 40
0.6666666666666666
 40
0.6666666666666666
 40
0.6666666666666666
 40
0.75
 40
0.75
 40
0.75
 40
0.75
 40
0.8333333333333334
 40
0.8333333333333334
 40
0.8333333333333334
 40
0.8333333333333334
 40
0.9166666666666667
 40
0.9166666666666667
 40
0.9166666666666667
 40
0.9166666666666667
 40
1.0
 40
1.0
 40
1.0
 40
1.0
 10
-36.191899999999997
 20
30.8035
 30
0.0
 10
-38.428400000000003
 20
32.1768
 30
0.0
 10
-41.776299999999999
 20
33.5548
 30
0.0
 10
-42.776699999999998
 20
35.064399999999999
 30
0.0
 10
-42.776699999999998
 20
35.064399999999999
 30
0.0
 10
-40.552500000000002
 20
36.819499999999998
 30
0.0
 10
-37.8583
 20
37.619100000000003
 30
0.0
 10
-35.472499999999997
 20
39.048299999999998
 30
0.0
 10
-35.472499999999997
 20
39.048299999999998
 30
0.0
 10
-35.6295
 20
40.641800000000003
 30
0.0
 10
-36.020800000000001
 20
40.832299999999996
 30
0.0
 10
-37.1325
 20
42.0364
 30
0.0
 10
-37.1325
 20
42.0364
 30
0.0
 10
-39.084099999999999
 20
41.886499999999998
 30
0.0
 10
-45.378599999999999
 20
38.342100000000002
 30
0.0
 10
-47.756599999999999
 20
37.388199999999998
 30
0.0
 10
-47.756599999999999
 20
37.388199999999998
 30
0.0
 10
-49.849800000000002
 20
38.227699999999999
 30
0.0
 10
-58.078400000000002
 20
42.8551
 30
0.0
 10
-59.709000000000003
 20
44.360399999999998
 30
0.0
 10
-59.709000000000003
 20
44.360399999999998
 30
0.0
 10
-58.652500000000003
 20
45.335599999999999
 30
0.0
 10
-48.589700000000001
 20
51.332500000000003
 30
0.0
 10
-47.756599999999999
 20
51.332500000000003
 30
0.0
 10
-47.756599999999999
 20
51.332500000000003
 30
0.0
 10
-45.735599999999998
 20
51.332500000000003
 30
0.0
 10
-39.972099999999998
 20
46.902500000000003
 30
0.0
 10
-37.1325
 20
46.684399999999997
 30
0.0
 10
-37.1325
 20
46.684399999999997
 30
0.0
 10
-36.191000000000003
 20
48.077500000000001
 30
0.0
 10
-35.8262
 20
47.993099999999998
 30
0.0
 10
-35.472499999999997
 20
49.672499999999999
 30
0.0
 10
-35.472499999999997
 20
49.672499999999999
 30
0.0
 10
-37.8583
 20
51.101500000000001
 30
0.0
 10
-40.552500000000002
 20
51.9011
 30
0.0
 10
-42.776699999999998
 20
53.656500000000001
 30
0.0
 10
-42.776699999999998
 20
53.656500000000001
 30
0.0
 10
-41.962499999999999
 20
54.884999999999998
 30
0.0
 10
-38.430300000000003
 20
56.785200000000003
 30
0.0
 10
-36.234099999999998
 20
58.011200000000002
 30
0.0
 10
-36.234099999999998
 20
58.011200000000002
 30
0.0
 10
-34.208100000000002
 20
53.894199999999998
 30
0.0
 10
-33.068399999999997
 20
49.262599999999999
 30
0.0
 10
-33.068399999999997
 20
44.364899999999999
 30
0.0
 10
-33.068399999999997
 20
44.364899999999999
 30
0.0
 10
-33.068399999999997
 20
39.500999999999998
 30
0.0
 10
-34.191499999999998
 20
34.899000000000001
 30
0.0
 10
-36.191899999999997
 20
30.8035
 30
0.0
  0
SPLINE
  5
2C
100
AcDbEntity
  8
RÚteg 1
 62
     7
100
AcDbSpline
210
0.0
220
0.0
230
1.0
 70
     1
 71
     3
 72
    48
 73
    44
 74
     0
 42
0.0000000001
 43
0.0000000001
 40
0.0
 40
0.0
 40
0.0
 40
0.0
 40
0.0909090909090909
 40
0.0909090909090909
 40
0.0909090909090909
 40
0.0909090909090909
 40
0.1818181818181818
 40
0.1818181818181818
 40
0.1818181818181818
 40
0.1818181818181818
 40
0.2727272727272727
 40
0.2727272727272727
 40
0.2727272727272727
 40
0.2727272727272727
 40
0.3636363636363637
 40
0.3636363636363637
 40
0.3636363636363637
 40
0.3636363636363637
 40
0.4545454545454546
 40
0.4545454545454546
 40
0.4545454545454546
 40
0.4545454545454546
 40
0.5454545454545455
 40
0.5454545454545455
 40
0.5454545454545455
 40
0.5454545454545455
 40
0.6363636363636365
 40
0.6363636363636365
 40
0.6363636363636365
 40
0.6363636363636365
 40
0.7272727272727274
 40
0.7272727272727274
 40
0.7272727272727274
 40
0.7272727272727274
 40
0.8181818181818183
 40
0.8181818181818183
 40
0.8181818181818183
 40
0.8181818181818183
 40
0.9090909090909093
 40
0.9090909090909093
 40
0.9090909090909093
 40
0.9090909090909093
 40
1.0
 40
1.0
 40
1.0
 40
1.0
 10
-38.5595
 20
61.9651
 30
0.0
 10
-40.664099999999998
 20
60.709600000000002
 30
0.0
 10
-44.398899999999998
 20
58.522599999999997
 30
0.0
 10
-45.432600000000001
 20
58.304600000000001
 30
0.0
 10
-45.432600000000001
 20
58.304600000000001
 30
0.0
 10
-46.604399999999998
 20
61.323399999999999
 30
0.0
 10
-44.664900000000003
 20
64.435699999999997
 30
0.0
 10
-45.764699999999998
 20
67.268799999999999
 30
0.0
 10
-45.764699999999998
 20
67.268799999999999
 30
0.0
 10
-46.9191
 20
67.050799999999995
 30
0.0
 10
-48.020899999999997
 20
66.709000000000003
 30
0.0
 10
-49.084699999999998
 20
66.272800000000004
 30
0.0
 10
-49.084699999999998
 20
66.272800000000004
 30
0.0
 10
-49.084699999999998
 20
62.690199999999997
 30
0.0
 10
-49.802599999999998
 20
58.938499999999998
 30
0.0
 10
-50.080800000000004
 20
55.316699999999997
 30
0.0
 10
-50.080800000000004
 20
55.316699999999997
 30
0.0
 10
-51.877800000000001
 20
53.859200000000001
 30
0.0
 10
-59.766100000000002
 20
48.8673
 30
0.0
 10
-61.700899999999997
 20
48.676400000000001
 30
0.0
 10
-61.700899999999997
 20
48.676400000000001
 30
0.0
 10
-62.420499999999997
 20
50.530099999999997
 30
0.0
 10
-62.327599999999997
 20
60.355899999999998
 30
0.0
 10
-61.700899999999997
 20
62.288800000000002
 30
0.0
 10
-61.700899999999997
 20
62.288800000000002
 30
0.0
 10
-58.555399999999999
 20
64.3459
 30
0.0
 10
-55.534599999999998
 20
66.481899999999996
 30
0.0
 10
-52.404800000000002
 20
68.596800000000002
 30
0.0
 10
-52.404800000000002
 20
68.596800000000002
 30
0.0
 10
-52.740000000000002
 20
70.371499999999997
 30
0.0
 10
-52.783099999999997
 20
70.528599999999997
 30
0.0
 10
-54.064799999999998
 20
71.917000000000002
 30
0.0
 10
-54.064799999999998
 20
71.917000000000002
 30
0.0
 10
-55.9953
 20
70.7607
 30
0.0
 10
-60.005200000000002
 20
67.189899999999994
 30
0.0
 10
-62.032899999999998
 20
67.9328
 30
0.0
 10
-62.032899999999998
 20
67.9328
 30
0.0
 10
-61.360999999999997
 20
70.004900000000006
 30
0.0
 10
-61.561100000000003
 20
72.759299999999996
 30
0.0
 10
-61.660200000000003
 20
75.232299999999995
 30
0.0
 10
-61.660200000000003
 20
75.232299999999995
 30
0.0
 10
-52.085099999999997
 20
74.508399999999995
 30
0.0
 10
-43.725999999999999
 20
69.426000000000002
 30
0.0
 10
-38.5595
 20
61.9651
 30
0.0
  0
SPLINE
  5
2D
100
AcDbEntity
  8
RÚteg 1
 62
     7
100
AcDbSpline
210
0.0
220
0.0
230
1.0
 70
     1
 71
     3
 72
    28
 73
    24
 74
     0
 42
0.0000000001
 43
0.0000000001
 40
0.0
 40
0.0
 40
0.0
 40
0.0
 40
0.1666666666666667
 40
0.1666666666666667
 40
0.1666666666666667
 40
0.1666666666666667
 40
0.3333333333333333
 40
0.3333333333333333
 40
0.3333333333333333
 40
0.3333333333333333
 40
0.5
 40
0.5
 40
0.5
 40
0.5
 40
0.6666666666666666
 40
0.6666666666666666
 40
0.6666666666666666
 40
0.6666666666666666
 40
0.8333333333333333
 40
0.8333333333333333
 40
0.8333333333333333
 40
0.8333333333333333
 40
1.0
 40
1.0
 40
1.0
 40
1.0
 10
9.8092000000000006
 20
40.767899999999997
 30
0.0
 10
9.8092000000000006
 20
41.104999999999997
 30
0.0
 10
10.002599999999999
 20
41.073399999999999
 30
0.0
 10
10.2403
 20
41.199199999999998
 30
0.0
 10
10.2403
 20
41.199199999999998
 30
0.0
 10
10.2403
 20
41.199199999999998
 30
0.0
 10
12.219799999999999
 20
39.294899999999998
 30
0.0
 10
12.219799999999999
 20
39.294899999999998
 30
0.0
 10
12.219799999999999
 20
39.294899999999998
 30
0.0
 10
12.2737
 20
38.662999999999997
 30
0.0
 10
11.016999999999999
 20
37.964100000000002
 30
0.0
 10
10.3483
 20
37.964100000000002
 30
0.0
 10
10.3483
 20
37.964100000000002
 30
0.0
 10
10.3483
 20
37.964100000000002
 30
0.0
 10
10.1328
 20
37.964100000000002
 30
0.0
 10
10.1328
 20
37.964100000000002
 30
0.0
 10
10.1328
 20
37.964100000000002
 30
0.0
 10
9.8841000000000001
 20
37.964100000000002
 30
0.0
 10
9.8092000000000006
 20
38.039099999999998
 30
0.0
 10
9.8092000000000006
 20
38.287599999999998
 30
0.0
 10
9.8092000000000006
 20
38.287599999999998
 30
0.0
 10
9.8092000000000006
 20
38.287599999999998
 30
0.0
 10
9.8092000000000006
 20
40.767899999999997
 30
0.0
 10
9.8092000000000006
 20
40.767899999999997
 30
0.0
  0
SPLINE
  5
2E
100
AcDbEntity
  8
RÚteg 1
 62
     7
100
AcDbSpline
210
0.0
220
0.0
230
1.0
 70
     1
 71
     3
 72
    52
 73
    48
 74
     0
 42
0.0000000001
 43
0.0000000001
 40
0.0
 40
0.0
 40
0.0
 40
0.0
 40
0.0833333333333333
 40
0.0833333333333333
 40
0.0833333333333333
 40
0.0833333333333333
 40
0.1666666666666667
 40
0.1666666666666667
 40
0.1666666666666667
 40
0.1666666666666667
 40
0.25
 40
0.25
 40
0.25
 40
0.25
 40
0.3333333333333333
 40
0.3333333333333333
 40
0.3333333333333333
 40
0.3333333333333333
 40
0.4166666666666666
 40
0.4166666666666666
 40
0.4166666666666666
 40
0.4166666666666666
 40
0.4999999999999999
 40
0.4999999999999999
 40
0.4999999999999999
 40
0.4999999999999999
 40
0.5833333333333333
 40
0.5833333333333333
 40
0.5833333333333333
 40
0.5833333333333333
 40
0.6666666666666666
 40
0.6666666666666666
 40
0.6666666666666666
 40
0.6666666666666666
 40
0.75
 40
0.75
 40
0.75
 40
0.75
 40
0.8333333333333334
 40
0.8333333333333334
 40
0.8333333333333334
 40
0.8333333333333334
 40
0.9166666666666667
 40
0.9166666666666667
 40
0.9166666666666667
 40
0.9166666666666667
 40
1.0
 40
1.0
 40
1.0
 40
1.0
 10
8.2932000000000006
 20
90.102099999999993
 30
0.0
 10
10.6046
 20
90.102099999999993
 30
0.0
 10
12.4796
 20
88.227400000000003
 30
0.0
 10
12.4796
 20
85.915599999999998
 30
0.0
 10
12.4796
 20
85.915599999999998
 30
0.0
 10
12.4796
 20
85.065399999999997
 30
0.0
 10
12.2255
 20
84.274199999999993
 30
0.0
 10
11.789899999999999
 20
83.613699999999994
 30
0.0
 10
11.789899999999999
 20
83.613699999999994
 30
0.0
 10
12.110799999999999
 20
83.555099999999996
 30
0.0
 10
12.356199999999999
 20
83.272400000000005
 30
0.0
 10
12.356199999999999
 20
82.935100000000006
 30
0.0
 10
12.356199999999999
 20
82.935100000000006
 30
0.0
 10
12.356199999999999
 20
82.935100000000006
 30
0.0
 10
12.356199999999999
 20
77.569400000000002
 30
0.0
 10
12.356199999999999
 20
77.569400000000002
 30
0.0
 10
12.356199999999999
 20
77.569400000000002
 30
0.0
 10
29.081199999999999
 20
75.561800000000005
 30
0.0
 10
42.049999999999997
 20
61.322000000000003
 30
0.0
 10
42.049999999999997
 20
44.057099999999998
 30
0.0
 10
42.049999999999997
 20
44.057099999999998
 30
0.0
 10
42.049999999999997
 20
25.416599999999999
 30
0.0
 10
26.933499999999999
 20
10.300000000000001
 30
0.0
 10
8.2932000000000006
 20
10.300000000000001
 30
0.0
 10
8.2932000000000006
 20
10.300000000000001
 30
0.0
 10
-10.347300000000001
 20
10.300000000000001
 30
0.0
 10
-25.463899999999999
 20
25.416599999999999
 30
0.0
 10
-25.463899999999999
 20
44.057099999999998
 30
0.0
 10
-25.463899999999999
 20
44.057099999999998
 30
0.0
 10
-25.463899999999999
 20
61.322000000000003
 30
0.0
 10
-12.495200000000001
 20
75.561800000000005
 30
0.0
 10
4.2297000000000002
 20
77.569400000000002
 30
0.0
 10
4.2297000000000002
 20
77.569400000000002
 30
0.0
 10
4.2297000000000002
 20
77.569400000000002
 30
0.0
 10
4.2297000000000002
 20
82.935100000000006
 30
0.0
 10
4.2297000000000002
 20
82.935100000000006
 30
0.0
 10
4.2297000000000002
 20
82.935100000000006
 30
0.0
 10
4.2297000000000002
 20
83.272400000000005
 30
0.0
 10
4.4752000000000001
 20
83.555099999999996
 30
0.0
 10
4.7961999999999998
 20
83.613699999999994
 30
0.0
 10
4.7961999999999998
 20
83.613699999999994
 30
0.0
 10
4.3605999999999998
 20
84.274199999999993
 30
0.0
 10
4.1066000000000003
 20
85.065399999999997
 30
0.0
 10
4.1066000000000003
 20
85.915599999999998
 30
0.0
 10
4.1066000000000003
 20
85.915599999999998
 30
0.0
 10
4.1066000000000003
 20
88.227400000000003
 30
0.0
 10
5.9813000000000001
 20
90.102099999999993
 30
0.0
 10
8.2932000000000006
 20
90.102099999999993
 30
0.0
  0
SPLINE
  5
2F
100
AcDbEntity
  8
RÚteg 1
 62
     7
100
AcDbSpline
210
0.0
220
0.0
230
1.0
 70
     1
 71
     3
 72
    20
 73
    16
 74
     0
 42
0.0000000001
 43
0.0000000001
 40
0.0
 40
0.0
 40
0.0
 40
0.0
 40
0.25
 40
0.25
 40
0.25
 40
0.25
 40
0.5
 40
0.5
 40
0.5
 40
0.5
 40
0.75
 40
0.75
 40
0.75
 40
0.75
 40
1.0
 40
1.0
 40
1.0
 40
1.0
 10
8.2932000000000006
 20
88.161000000000001
 30
0.0
 10
9.5332000000000008
 20
88.161000000000001
 30
0.0
 10
10.5387
 20
87.155500000000004
 30
0.0
 10
10.5387
 20
85.915599999999998
 30
0.0
 10
10.5387
 20
85.915599999999998
 30
0.0
 10
10.5387
 20
84.675600000000003
 30
0.0
 10
9.5332000000000008
 20
83.670100000000005
 30
0.0
 10
8.2932000000000006
 20
83.670100000000005
 30
0.0
 10
8.2932000000000006
 20
83.670100000000005
 30
0.0
 10
7.0530999999999997
 20
83.670100000000005
 30
0.0
 10
6.0475000000000003
 20
84.675600000000003
 30
0.0
 10
6.0475000000000003
 20
85.915599999999998
 30
0.0
 10
6.0475000000000003
 20
85.915599999999998
 30
0.0
 10
6.0475000000000003
 20
87.155500000000004
 30
0.0
 10
7.0530999999999997
 20
88.161000000000001
 30
0.0
 10
8.2932000000000006
 20
88.161000000000001
 30
0.0
  0
SPLINE
  5
30
100
AcDbEntity
  8
RÚteg 1
 62
     7
100
AcDbSpline
210
0.0
220
0.0
230
1.0
 70
     1
 71
     3
 72
   320
 73
   316
 74
     0
 42
0.0000000001
 43
0.0000000001
 40
0.0
 40
0.0
 40
0.0
 40
0.0
 40
0.0126582278481013
 40
0.0126582278481013
 40
0.0126582278481013
 40
0.0126582278481013
 40
0.0253164556962025
 40
0.0253164556962025
 40
0.0253164556962025
 40
0.0253164556962025
 40
0.0379746835443038
 40
0.0379746835443038
 40
0.0379746835443038
 40
0.0379746835443038
 40
0.0506329113924051
 40
0.0506329113924051
 40
0.0506329113924051
 40
0.0506329113924051
 40
0.0632911392405063
 40
0.0632911392405063
 40
0.0632911392405063
 40
0.0632911392405063
 40
0.0759493670886076
 40
0.0759493670886076
 40
0.0759493670886076
 40
0.0759493670886076
 40
0.0886075949367089
 40
0.0886075949367089
 40
0.0886075949367089
 40
0.0886075949367089
 40
0.1012658227848101
 40
0.1012658227848101
 40
0.1012658227848101
 40
0.1012658227848101
 40
0.1139240506329114
 40
0.1139240506329114
 40
0.1139240506329114
 40
0.1139240506329114
 40
0.1265822784810127
 40
0.1265822784810127
 40
0.1265822784810127
 40
0.1265822784810127
 40
0.1392405063291139
 40
0.1392405063291139
 40
0.1392405063291139
 40
0.1392405063291139
 40
0.1518987341772152
 40
0.1518987341772152
 40
0.1518987341772152
 40
0.1518987341772152
 40
0.1645569620253165
 40
0.1645569620253165
 40
0.1645569620253165
 40
0.1645569620253165
 40
0.1772151898734178
 40
0.1772151898734178
 40
0.1772151898734178
 40
0.1772151898734178
 40
0.1898734177215191
 40
0.1898734177215191
 40
0.1898734177215191
 40
0.1898734177215191
 40
0.2025316455696203
 40
0.2025316455696203
 40
0.2025316455696203
 40
0.2025316455696203
 40
0.2151898734177216
 40
0.2151898734177216
 40
0.2151898734177216
 40
0.2151898734177216
 40
0.2278481012658229
 40
0.2278481012658229
 40
0.2278481012658229
 40
0.2278481012658229
 40
0.2405063291139242
 40
0.2405063291139242
 40
0.2405063291139242
 40
0.2405063291139242
 40
0.2531645569620254
 40
0.2531645569620254
 40
0.2531645569620254
 40
0.2531645569620254
 40
0.2658227848101267
 40
0.2658227848101267
 40
0.2658227848101267
 40
0.2658227848101267
 40
0.278481012658228
 40
0.278481012658228
 40
0.278481012658228
 40
0.278481012658228
 40
0.2911392405063293
 40
0.2911392405063293
 40
0.2911392405063293
 40
0.2911392405063293
 40
0.3037974683544306
 40
0.3037974683544306
 40
0.3037974683544306
 40
0.3037974683544306
 40
0.3164556962025318
 40
0.3164556962025318
 40
0.3164556962025318
 40
0.3164556962025318
 40
0.3291139240506331
 40
0.3291139240506331
 40
0.3291139240506331
 40
0.3291139240506331
 40
0.3417721518987344
 40
0.3417721518987344
 40
0.3417721518987344
 40
0.3417721518987344
 40
0.3544303797468357
 40
0.3544303797468357
 40
0.3544303797468357
 40
0.3544303797468357
 40
0.3670886075949369
 40
0.3670886075949369
 40
0.3670886075949369
 40
0.3670886075949369
 40
0.3797468354430382
 40
0.3797468354430382
 40
0.3797468354430382
 40
0.3797468354430382
 40
0.3924050632911395
 40
0.3924050632911395
 40
0.3924050632911395
 40
0.3924050632911395
 40
0.4050632911392408
 40
0.4050632911392408
 40
0.4050632911392408
 40
0.4050632911392408
 40
0.4177215189873421
 40
0.4177215189873421
 40
0.4177215189873421
 40
0.4177215189873421
 40
0.4303797468354433
 40
0.4303797468354433
 40
0.4303797468354433
 40
0.4303797468354433
 40
0.4430379746835446
 40
0.4430379746835446
 40
0.4430379746835446
 40
0.4430379746835446
 40
0.4556962025316459
 40
0.4556962025316459
 40
0.4556962025316459
 40
0.4556962025316459
 40
0.4683544303797472
 40
0.4683544303797472
 40
0.4683544303797472
 40
0.4683544303797472
 40
0.4810126582278484
 40
0.4810126582278484
 40
0.4810126582278484
 40
0.4810126582278484
 40
0.4936708860759497
 40
0.4936708860759497
 40
0.4936708860759497
 40
0.4936708860759497
 40
0.506329113924051
 40
0.506329113924051
 40
0.506329113924051
 40
0.506329113924051
 40
0.5189873417721522
 40
0.5189873417721522
 40
0.5189873417721522
 40
0.5189873417721522
 40
0.5316455696202534
 40
0.5316455696202534
 40
0.5316455696202534
 40
0.5316455696202534
 40
0.5443037974683547
 40
0.5443037974683547
 40
0.5443037974683547
 40
0.5443037974683547
 40
0.5569620253164559
 40
0.5569620253164559
 40
0.5569620253164559
 40
0.5569620253164559
 40
0.5696202531645571
 40
0.5696202531645571
 40
0.5696202531645571
 40
0.5696202531645571
 40
0.5822784810126583
 40
0.5822784810126583
 40
0.5822784810126583
 40
0.5822784810126583
 40
0.5949367088607596
 40
0.5949367088607596
 40
0.5949367088607596
 40
0.5949367088607596
 40
0.6075949367088608
 40
0.6075949367088608
 40
0.6075949367088608
 40
0.6075949367088608
 40
0.620253164556962
 40
0.620253164556962
 40
0.620253164556962
 40
0.620253164556962
 40
0.6329113924050632
 40
0.6329113924050632
 40
0.6329113924050632
 40
0.6329113924050632
 40
0.6455696202531644
 40
0.6455696202531644
 40
0.6455696202531644
 40
0.6455696202531644
 40
0.6582278481012657
 40
0.6582278481012657
 40
0.6582278481012657
 40
0.6582278481012657
 40
0.6708860759493669
 40
0.6708860759493669
 40
0.6708860759493669
 40
0.6708860759493669
 40
0.6835443037974681
 40
0.6835443037974681
 40
0.6835443037974681
 40
0.6835443037974681
 40
0.6962025316455693
 40
0.6962025316455693
 40
0.6962025316455693
 40
0.6962025316455693
 40
0.7088607594936706
 40
0.7088607594936706
 40
0.7088607594936706
 40
0.7088607594936706
 40
0.7215189873417718
 40
0.7215189873417718
 40
0.7215189873417718
 40
0.7215189873417718
 40
0.734177215189873
 40
0.734177215189873
 40
0.734177215189873
 40
0.734177215189873
 40
0.7468354430379742
 40
0.7468354430379742
 40
0.7468354430379742
 40
0.7468354430379742
 40
0.7594936708860754
 40
0.7594936708860754
 40
0.7594936708860754
 40
0.7594936708860754
 40
0.7721518987341767
 40
0.7721518987341767
 40
0.7721518987341767
 40
0.7721518987341767
 40
0.7848101265822779
 40
0.7848101265822779
 40
0.7848101265822779
 40
0.7848101265822779
 40
0.7974683544303791
 40
0.7974683544303791
 40
0.7974683544303791
 40
0.7974683544303791
 40
0.8101265822784803
 40
0.8101265822784803
 40
0.8101265822784803
 40
0.8101265822784803
 40
0.8227848101265816
 40
0.8227848101265816
 40
0.8227848101265816
 40
0.8227848101265816
 40
0.8354430379746828
 40
0.8354430379746828
 40
0.8354430379746828
 40
0.8354430379746828
 40
0.848101265822784
 40
0.848101265822784
 40
0.848101265822784
 40
0.848101265822784
 40
0.8607594936708852
 40
0.8607594936708852
 40
0.8607594936708852
 40
0.8607594936708852
 40
0.8734177215189865
 40
0.8734177215189865
 40
0.8734177215189865
 40
0.8734177215189865
 40
0.8860759493670877
 40
0.8860759493670877
 40
0.8860759493670877
 40
0.8860759493670877
 40
0.8987341772151889
 40
0.8987341772151889
 40
0.8987341772151889
 40
0.8987341772151889
 40
0.9113924050632901
 40
0.9113924050632901
 40
0.9113924050632901
 40
0.9113924050632901
 40
0.9240506329113913
 40
0.9240506329113913
 40
0.9240506329113913
 40
0.9240506329113913
 40
0.9367088607594926
 40
0.9367088607594926
 40
0.9367088607594926
 40
0.9367088607594926
 40
0.9493670886075938
 40
0.9493670886075938
 40
0.9493670886075938
 40
0.9493670886075938
 40
0.962025316455695
 40
0.962025316455695
 40
0.962025316455695
 40
0.962025316455695
 40
0.9746835443037962
 40
0.9746835443037962
 40
0.9746835443037962
 40
0.9746835443037962
 40
0.9873417721518975
 40
0.9873417721518975
 40
0.9873417721518975
 40
0.9873417721518975
 40
1.0
 40
1.0
 40
1.0
 40
1.0
 10
10.7796
 20
74.759900000000002
 30
0.0
 10
25.704000000000001
 20
73.566999999999993
 30
0.0
 10
37.630699999999997
 20
61.7318
 30
0.0
 10
38.969099999999997
 20
46.848799999999997
 30
0.0
 10
38.969099999999997
 20
46.848799999999997
 30
0.0
 10
38.670699999999997
 20
46.7836
 30
0.0
 10
38.4938
 20
46.613599999999998
 30
0.0
 10
38.4938
 20
46.159799999999997
 30
0.0
 10
38.4938
 20
46.159799999999997
 30
0.0
 10
38.271799999999999
 20
46.010899999999999
 30
0.0
 10
38.213900000000002
 20
45.836100000000002
 30
0.0
 10
37.954900000000002
 20
45.836100000000002
 30
0.0
 10
37.954900000000002
 20
45.836100000000002
 30
0.0
 10
37.954900000000002
 20
45.836100000000002
 30
0.0
 10
33.425699999999999
 20
45.836100000000002
 30
0.0
 10
33.425699999999999
 20
45.836100000000002
 30
0.0
 10
33.425699999999999
 20
45.836100000000002
 30
0.0
 10
33.0884
 20
45.836100000000002
 30
0.0
 10
33.120100000000001
 20
46.029899999999998
 30
0.0
 10
32.994399999999999
 20
46.267800000000001
 30
0.0
 10
32.994399999999999
 20
46.267800000000001
 30
0.0
 10
32.994399999999999
 20
46.267800000000001
 30
0.0
 10
34.478000000000002
 20
47.803100000000001
 30
0.0
 10
34.478000000000002
 20
47.803100000000001
 30
0.0
 10
34.478000000000002
 20
47.803100000000001
 30
0.0
 10
34.333799999999997
 20
48.031799999999997
 30
0.0
 10
33.424100000000003
 20
49.071599999999997
 30
0.0
 10
33.101999999999997
 20
49.071599999999997
 30
0.0
 10
33.101999999999997
 20
49.071599999999997
 30
0.0
 10
32.659500000000001
 20
49.071599999999997
 30
0.0
 10
30.573599999999999
 20
46.051900000000003
 30
0.0
 10
29.651199999999999
 20
46.051900000000003
 30
0.0
 10
29.651199999999999
 20
46.051900000000003
 30
0.0
 10
29.651199999999999
 20
46.051900000000003
 30
0.0
 10
28.465299999999999
 20
46.051900000000003
 30
0.0
 10
28.465299999999999
 20
46.051900000000003
 30
0.0
 10
28.465299999999999
 20
46.051900000000003
 30
0.0
 10
28.001300000000001
 20
46.051900000000003
 30
0.0
 10
27.880600000000001
 20
46.177700000000002
 30
0.0
 10
27.494499999999999
 20
46.267800000000001
 30
0.0
 10
27.494499999999999
 20
46.267800000000001
 30
0.0
 10
27.494499999999999
 20
46.267800000000001
 30
0.0
 10
29.0288
 20
47.860900000000001
 30
0.0
 10
29.0288
 20
47.860900000000001
 30
0.0
 10
29.0288
 20
47.860900000000001
 30
0.0
 10
29.0288
 20
47.860900000000001
 30
0.0
 10
27.733699999999999
 20
49.095199999999998
 30
0.0
 10
27.733699999999999
 20
49.095199999999998
 30
0.0
 10
27.733699999999999
 20
49.095199999999998
 30
0.0
 10
26.777100000000001
 20
48.5779
 30
0.0
 10
25.030799999999999
 20
46.051900000000003
 30
0.0
 10
24.151599999999998
 20
46.051900000000003
 30
0.0
 10
24.151599999999998
 20
46.051900000000003
 30
0.0
 10
24.151599999999998
 20
46.051900000000003
 30
0.0
 10
22.641999999999999
 20
46.051900000000003
 30
0.0
 10
22.641999999999999
 20
46.051900000000003
 30
0.0
 10
22.641999999999999
 20
46.051900000000003
 30
0.0
 10
22.2913
 20
46.051900000000003
 30
0.0
 10
22.560199999999998
 20
46.145299999999999
 30
0.0
 10
22.102499999999999
 20
46.267800000000001
 30
0.0
 10
22.102499999999999
 20
46.267800000000001
 30
0.0
 10
22.102499999999999
 20
46.267800000000001
 30
0.0
 10
23.5289
 20
47.753100000000003
 30
0.0
 10
23.5289
 20
47.753100000000003
 30
0.0
 10
23.5289
 20
47.753100000000003
 30
0.0
 10
23.334399999999999
 20
48.031799999999997
 30
0.0
 10
22.424700000000001
 20
49.071599999999997
 30
0.0
 10
22.102499999999999
 20
49.071599999999997
 30
0.0
 10
22.102499999999999
 20
49.071599999999997
 30
0.0
 10
21.6599
 20
49.071599999999997
 30
0.0
 10
19.574100000000001
 20
46.051900000000003
 30
0.0
 10
18.651900000000001
 20
46.051900000000003
 30
0.0
 10
18.651900000000001
 20
46.051900000000003
 30
0.0
 10
18.651900000000001
 20
46.051900000000003
 30
0.0
 10
17.465599999999998
 20
46.051900000000003
 30
0.0
 10
17.465599999999998
 20
46.051900000000003
 30
0.0
 10
17.465599999999998
 20
46.051900000000003
 30
0.0
 10
17.115100000000002
 20
46.051900000000003
 30
0.0
 10
17.3842
 20
46.145299999999999
 30
0.0
 10
16.926300000000001
 20
46.267800000000001
 30
0.0
 10
16.926300000000001
 20
46.267800000000001
 30
0.0
 10
16.926300000000001
 20
47.821800000000003
 30
0.0
 10
15.862500000000001
 20
49.103700000000003
 30
0.0
 10
15.308999999999999
 20
50.149900000000002
 30
0.0
 10
15.308999999999999
 20
50.149900000000002
 30
0.0
 10
15.479100000000001
 20
50.4041
 30
0.0
 10
16.3886
 20
51.4437
 30
0.0
 10
16.710799999999999
 20
51.4437
 30
0.0
 10
16.710799999999999
 20
51.4437
 30
0.0
 10
16.710799999999999
 20
51.4437
 30
0.0
 10
20.916599999999999
 20
51.4437
 30
0.0
 10
20.916599999999999
 20
51.4437
 30
0.0
 10
20.916599999999999
 20
51.4437
 30
0.0
 10
20.916599999999999
 20
51.4437
 30
0.0
 10
20.916599999999999
 20
53.492899999999999
 30
0.0
 10
20.916599999999999
 20
53.492899999999999
 30
0.0
 10
20.916599999999999
 20
53.492899999999999
 30
0.0
 10
20.916599999999999
 20
53.492899999999999
 30
0.0
 10
20.910900000000002
 20
53.3765
 30
0.0
 10
20.910900000000002
 20
53.3765
 30
0.0
 10
20.910900000000002
 20
53.3765
 30
0.0
 10
20.910900000000002
 20
53.3765
 30
0.0
 10
18.753699999999998
 20
53.481099999999998
 30
0.0
 10
18.753699999999998
 20
53.481099999999998
 30
0.0
 10
18.753699999999998
 20
53.481099999999998
 30
0.0
 10
18.753699999999998
 20
53.481099999999998
 30
0.0
 10
18.759699999999999
 20
53.6006
 30
0.0
 10
18.759699999999999
 20
53.6006
 30
0.0
 10
18.759699999999999
 20
53.6006
 30
0.0
 10
18.955200000000001
 20
53.892600000000002
 30
0.0
 10
20.259
 20
55.326000000000001
 30
0.0
 10
20.5929
 20
55.326000000000001
 30
0.0
 10
20.5929
 20
55.326000000000001
 30
0.0
 10
20.5929
 20
55.326000000000001
 30
0.0
 10
24.798500000000001
 20
55.326000000000001
 30
0.0
 10
24.798500000000001
 20
55.326000000000001
 30
0.0
 10
24.798500000000001
 20
55.326000000000001
 30
0.0
 10
24.798500000000001
 20
55.326000000000001
 30
0.0
 10
24.798500000000001
 20
57.159199999999998
 30
0.0
 10
24.798500000000001
 20
57.159199999999998
 30
0.0
 10
24.798500000000001
 20
57.159199999999998
 30
0.0
 10
24.798500000000001
 20
57.159199999999998
 30
0.0
 10
23.831700000000001
 20
57.027500000000003
 30
0.0
 10
23.831700000000001
 20
57.027500000000003
 30
0.0
 10
23.831700000000001
 20
57.027500000000003
 30
0.0
 10
23.831700000000001
 20
57.027500000000003
 30
0.0
 10
23.288900000000002
 20
57.051600000000001
 30
0.0
 10
23.288900000000002
 20
57.051600000000001
 30
0.0
 10
23.288900000000002
 20
57.051600000000001
 30
0.0
 10
22.7437
 20
57.051600000000001
 30
0.0
 10
22.916699999999999
 20
57.236400000000003
 30
0.0
 10
22.533899999999999
 20
57.375
 30
0.0
 10
22.533899999999999
 20
57.375
 30
0.0
 10
22.533899999999999
 20
57.375
 30
0.0
 10
25.7425
 20
60.636499999999998
 30
0.0
 10
25.7425
 20
60.636499999999998
 30
0.0
 10
25.7425
 20
60.636499999999998
 30
0.0
 10
25.7425
 20
60.636499999999998
 30
0.0
 10
26.441099999999999
 20
59.988
 30
0.0
 10
26.441099999999999
 20
59.988
 30
0.0
 10
26.441099999999999
 20
59.988
 30
0.0
 10
26.441099999999999
 20
59.988
 30
0.0
 10
27.996300000000002
 20
61.511600000000001
 30
0.0
 10
27.996300000000002
 20
61.511600000000001
 30
0.0
 10
27.996300000000002
 20
61.511600000000001
 30
0.0
 10
27.996300000000002
 20
61.511600000000001
 30
0.0
 10
27.849399999999999
 20
61.514099999999999
 30
0.0
 10
27.849399999999999
 20
61.514099999999999
 30
0.0
 10
27.849399999999999
 20
61.514099999999999
 30
0.0
 10
27.849399999999999
 20
61.514099999999999
 30
0.0
 10
27.249400000000001
 20
62.201999999999998
 30
0.0
 10
27.249400000000001
 20
62.201999999999998
 30
0.0
 10
27.249400000000001
 20
62.201999999999998
 30
0.0
 10
27.249400000000001
 20
62.201999999999998
 30
0.0
 10
27.9864
 20
62.926900000000003
 30
0.0
 10
27.9864
 20
62.926900000000003
 30
0.0
 10
27.9864
 20
62.926900000000003
 30
0.0
 10
27.9864
 20
62.926900000000003
 30
0.0
 10
27.850999999999999
 20
62.896299999999997
 30
0.0
 10
27.850999999999999
 20
62.896299999999997
 30
0.0
 10
27.850999999999999
 20
62.896299999999997
 30
0.0
 10
27.850999999999999
 20
62.896299999999997
 30
0.0
 10
26.6342
 20
63.955800000000004
 30
0.0
 10
26.6342
 20
63.955800000000004
 30
0.0
 10
26.6342
 20
63.955800000000004
 30
0.0
 10
26.413699999999999
 20
63.837699999999998
 30
0.0
 10
25.996500000000001
 20
63.521599999999999
 30
0.0
 10
25.769300000000001
 20
63.521599999999999
 30
0.0
 10
25.769300000000001
 20
63.521599999999999
 30
0.0
 10
25.591000000000001
 20
63.521599999999999
 30
0.0
 10
25.4191
 20
63.831499999999998
 30
0.0
 10
25.337800000000001
 20
63.953299999999999
 30
0.0
 10
25.337800000000001
 20
63.953299999999999
 30
0.0
 10
25.337800000000001
 20
63.953299999999999
 30
0.0
 10
25.264399999999998
 20
64.035300000000007
 30
0.0
 10
25.264399999999998
 20
64.035300000000007
 30
0.0
 10
25.264399999999998
 20
64.035300000000007
 30
0.0
 10
25.264399999999998
 20
64.035300000000007
 30
0.0
 10
23.781300000000002
 20
62.711500000000001
 30
0.0
 10
23.781300000000002
 20
62.711500000000001
 30
0.0
 10
23.781300000000002
 20
62.711500000000001
 30
0.0
 10
24.087599999999998
 20
62.2712
 30
0.0
 10
24.367000000000001
 20
62.369500000000002
 30
0.0
 10
24.367000000000001
 20
62.0122
 30
0.0
 10
24.367000000000001
 20
62.0122
 30
0.0
 10
24.367000000000001
 20
61.728700000000003
 30
0.0
 10
21.6312
 20
58.9925
 30
0.0
 10
21.347799999999999
 20
58.9925
 30
0.0
 10
21.347799999999999
 20
58.9925
 30
0.0
 10
21.347799999999999
 20
58.9925
 30
0.0
 10
21.0243
 20
58.9925
 30
0.0
 10
21.0243
 20
58.9925
 30
0.0
 10
21.0243
 20
58.9925
 30
0.0
 10
21.0243
 20
58.9925
 30
0.0
 10
21.0243
 20
61.149299999999997
 30
0.0
 10
21.0243
 20
61.149299999999997
 30
0.0
 10
21.0243
 20
61.149299999999997
 30
0.0
 10
21.0243
 20
61.149299999999997
 30
0.0
 10
19.303999999999998
 20
60.884700000000002
 30
0.0
 10
19.303999999999998
 20
60.884700000000002
 30
0.0
 10
19.303999999999998
 20
60.884700000000002
 30
0.0
 10
19.303999999999998
 20
60.884700000000002
 30
0.0
 10
19.104900000000001
 20
60.696399999999997
 30
0.0
 10
19.104900000000001
 20
60.696399999999997
 30
0.0
 10
19.104900000000001
 20
60.696399999999997
 30
0.0
 10
19.104900000000001
 20
60.696399999999997
 30
0.0
 10
19.083100000000002
 20
56.620199999999997
 30
0.0
 10
19.083100000000002
 20
56.620199999999997
 30
0.0
 10
19.083100000000002
 20
56.620199999999997
 30
0.0
 10
18.893899999999999
 20
56.337299999999999
 30
0.0
 10
17.688500000000001
 20
55.002400000000002
 30
0.0
 10
17.357800000000001
 20
55.002400000000002
 30
0.0
 10
17.357800000000001
 20
55.002400000000002
 30
0.0
 10
16.802099999999999
 20
55.002400000000002
 30
0.0
 10
17.141999999999999
 20
55.561100000000003
 30
0.0
 10
17.141999999999999
 20
56.081099999999999
 30
0.0
 10
17.141999999999999
 20
56.081099999999999
 30
0.0
 10
17.141999999999999
 20
56.081099999999999
 30
0.0
 10
17.141999999999999
 20
57.051600000000001
 30
0.0
 10
17.141999999999999
 20
57.051600000000001
 30
0.0
 10
17.141999999999999
 20
57.051600000000001
 30
0.0
 10
17.141999999999999
 20
57.051600000000001
 30
0.0
 10
15.1982
 20
56.864899999999999
 30
0.0
 10
15.1982
 20
56.864899999999999
 30
0.0
 10
15.1982
 20
56.864899999999999
 30
0.0
 10
15.1982
 20
56.864899999999999
 30
0.0
 10
15.2011
 20
52.845700000000001
 30
0.0
 10
15.2011
 20
52.845700000000001
 30
0.0
 10
15.2011
 20
52.845700000000001
 30
0.0
 10
15.2011
 20
52.523200000000003
 30
0.0
 10
14.0547
 20
51.4437
 30
0.0
 10
13.6911
 20
51.4437
 30
0.0
 10
13.6911
 20
51.4437
 30
0.0
 10
13.6442
 20
51.4437
 30
0.0
 10
12.970800000000001
 20
51.978099999999998
 30
0.0
 10
12.8078
 20
52.070099999999996
 30
0.0
 10
12.8078
 20
52.070099999999996
 30
0.0
 10
12.525499999999999
 20
52.229500000000002
 30
0.0
 10
12.0824
 20
52.426699999999997
 30
0.0
 10
11.7659
 20
52.5379
 30
0.0
 10
11.7659
 20
52.5379
 30
0.0
 10
11.286899999999999
 20
52.706000000000003
 30
0.0
 10
9.8092000000000006
 20
52.969700000000003
 30
0.0
 10
9.8092000000000006
 20
53.492899999999999
 30
0.0
 10
9.8092000000000006
 20
53.492899999999999
 30
0.0
 10
9.8092000000000006
 20
53.492899999999999
 30
0.0
 10
9.8092000000000006
 20
54.140000000000001
 30
0.0
 10
9.8092000000000006
 20
54.140000000000001
 30
0.0
 10
9.8092000000000006
 20
54.140000000000001
 30
0.0
 10
9.8092000000000006
 20
54.583199999999998
 30
0.0
 10
12.530799999999999
 20
56.877400000000002
 30
0.0
 10
12.936400000000001
 20
57.482799999999997
 30
0.0
 10
12.936400000000001
 20
57.482799999999997
 30
0.0
 10
12.6403
 20
57.681100000000001
 30
0.0
 10
11.7058
 20
58.561300000000003
 30
0.0
 10
11.534599999999999
 20
58.561300000000003
 30
0.0
 10
11.534599999999999
 20
58.561300000000003
 30
0.0
 10
11.2751
 20
58.561300000000003
 30
0.0
 10
10.5528
 20
57.375
 30
0.0
 10
10.1328
 20
57.375
 30
0.0
 10
10.1328
 20
57.375
 30
0.0
 10
10.1328
 20
57.375
 30
0.0
 10
9.8092000000000006
 20
57.375
 30
0.0
 10
9.8092000000000006
 20
57.375
 30
0.0
 10
9.8092000000000006
 20
57.375
 30
0.0
 10
9.8092000000000006
 20
57.375
 30
0.0
 10
9.8092000000000006
 20
59.639400000000002
 30
0.0
 10
9.8092000000000006
 20
59.639400000000002
 30
0.0
 10
9.8092000000000006
 20
59.639400000000002
 30
0.0
 10
9.8092000000000006
 20
60.083100000000002
 30
0.0
 10
12.530799999999999
 20
62.377000000000002
 30
0.0
 10
12.936400000000001
 20
62.982599999999998
 30
0.0
 10
12.936400000000001
 20
62.982599999999998
 30
0.0
 10
12.5997
 20
63.207999999999998
 30
0.0
 10
11.916700000000001
 20
64.168800000000005
 30
0.0
 10
11.534599999999999
 20
64.168800000000005
 30
0.0
 10
11.534599999999999
 20
64.168800000000005
 30
0.0
 10
11.4292
 20
64.168800000000005
 30
0.0
 10
10.875
 20
63.564799999999998
 30
0.0
 10
10.752700000000001
 20
63.440600000000003
 30
0.0
 10
10.752700000000001
 20
63.440600000000003
 30
0.0
 10
10.160399999999999
 20
62.837600000000002
 30
0.0
 10
10.465199999999999
 20
63.189500000000002
 30
0.0
 10
9.8092000000000006
 20
62.874699999999997
 30
0.0
 10
9.8092000000000006
 20
62.874699999999997
 30
0.0
 10
9.8092000000000006
 20
62.874699999999997
 30
0.0
 10
9.8092000000000006
 20
65.247200000000007
 30
0.0
 10
9.8092000000000006
 20
65.247200000000007
 30
0.0
 10
9.8092000000000006
 20
65.247200000000007
 30
0.0
 10
9.8092000000000006
 20
65.247200000000007
 30
0.0
 10
12.9621
 20
68.456500000000005
 30
0.0
 10
12.9621
 20
68.456500000000005
 30
0.0
 10
12.9621
 20
68.456500000000005
 30
0.0
 10
12.473800000000001
 20
68.727000000000004
 30
0.0
 10
11.8001
 20
69.560500000000005
 30
0.0
 10
11.534599999999999
 20
69.560500000000005
 30
0.0
 10
11.534599999999999
 20
69.560500000000005
 30
0.0
 10
11.2706
 20
69.560500000000005
 30
0.0
 10
10.4497
 20
68.266599999999997
 30
0.0
 10
10.024699999999999
 20
68.266599999999997
 30
0.0
 10
10.024699999999999
 20
68.266599999999997
 30
0.0
 10
9.8735999999999997
 20
68.266599999999997
 30
0.0
 10
9.8092000000000006
 20
68.413499999999999
 30
0.0
 10
9.8092000000000006
 20
68.590000000000003
 30
0.0
 10
9.8092000000000006
 20
68.590000000000003
 30
0.0
 10
9.8092000000000006
 20
68.590000000000003
 30
0.0
 10
9.8092000000000006
 20
73.658500000000004
 30
0.0
 10
9.8092000000000006
 20
73.658500000000004
 30
0.0
 10
9.8092000000000006
 20
73.658500000000004
 30
0.0
 10
9.8092000000000006
 20
73.658500000000004
 30
0.0
 10
10.7796
 20
73.658500000000004
 30
0.0
 10
10.7796
 20
73.658500000000004
 30
0.0
 10
10.7796
 20
73.658500000000004
 30
0.0
 10
10.7796
 20
73.658500000000004
 30
0.0
 10
10.7796
 20
74.759900000000002
 30
0.0
 10
10.7796
 20
74.759900000000002
 30
0.0
  0
SPLINE
  5
31
100
AcDbEntity
  8
RÚteg 1
 62
     7
100
AcDbSpline
210
0.0
220
0.0
230
1.0
 70
     1
 71
     3
 72
   276
 73
   272
 74
     0
 42
0.0000000001
 43
0.0000000001
 40
0.0
 40
0.0
 40
0.0
 40
0.0
 40
0.0147058823529412
 40
0.0147058823529412
 40
0.0147058823529412
 40
0.0147058823529412
 40
0.0294117647058824
 40
0.0294117647058824
 40
0.0294117647058824
 40
0.0294117647058824
 40
0.0441176470588235
 40
0.0441176470588235
 40
0.0441176470588235
 40
0.0441176470588235
 40
0.0588235294117647
 40
0.0588235294117647
 40
0.0588235294117647
 40
0.0588235294117647
 40
0.0735294117647059
 40
0.0735294117647059
 40
0.0735294117647059
 40
0.0735294117647059
 40
0.0882352941176471
 40
0.0882352941176471
 40
0.0882352941176471
 40
0.0882352941176471
 40
0.1029411764705882
 40
0.1029411764705882
 40
0.1029411764705882
 40
0.1029411764705882
 40
0.1176470588235294
 40
0.1176470588235294
 40
0.1176470588235294
 40
0.1176470588235294
 40
0.1323529411764706
 40
0.1323529411764706
 40
0.1323529411764706
 40
0.1323529411764706
 40
0.1470588235294118
 40
0.1470588235294118
 40
0.1470588235294118
 40
0.1470588235294118
 40
0.161764705882353
 40
0.161764705882353
 40
0.161764705882353
 40
0.161764705882353
 40
0.1764705882352941
 40
0.1764705882352941
 40
0.1764705882352941
 40
0.1764705882352941
 40
0.1911764705882353
 40
0.1911764705882353
 40
0.1911764705882353
 40
0.1911764705882353
 40
0.2058823529411765
 40
0.2058823529411765
 40
0.2058823529411765
 40
0.2058823529411765
 40
0.2205882352941177
 40
0.2205882352941177
 40
0.2205882352941177
 40
0.2205882352941177
 40
0.2352941176470589
 40
0.2352941176470589
 40
0.2352941176470589
 40
0.2352941176470589
 40
0.25
 40
0.25
 40
0.25
 40
0.25
 40
0.2647058823529412
 40
0.2647058823529412
 40
0.2647058823529412
 40
0.2647058823529412
 40
0.2794117647058824
 40
0.2794117647058824
 40
0.2794117647058824
 40
0.2794117647058824
 40
0.2941176470588235
 40
0.2941176470588235
 40
0.2941176470588235
 40
0.2941176470588235
 40
0.3088235294117647
 40
0.3088235294117647
 40
0.3088235294117647
 40
0.3088235294117647
 40
0.3235294117647059
 40
0.3235294117647059
 40
0.3235294117647059
 40
0.3235294117647059
 40
0.3382352941176471
 40
0.3382352941176471
 40
0.3382352941176471
 40
0.3382352941176471
 40
0.3529411764705883
 40
0.3529411764705883
 40
0.3529411764705883
 40
0.3529411764705883
 40
0.3676470588235294
 40
0.3676470588235294
 40
0.3676470588235294
 40
0.3676470588235294
 40
0.3823529411764706
 40
0.3823529411764706
 40
0.3823529411764706
 40
0.3823529411764706
 40
0.3970588235294118
 40
0.3970588235294118
 40
0.3970588235294118
 40
0.3970588235294118
 40
0.411764705882353
 40
0.411764705882353
 40
0.411764705882353
 40
0.411764705882353
 40
0.4264705882352942
 40
0.4264705882352942
 40
0.4264705882352942
 40
0.4264705882352942
 40
0.4411764705882353
 40
0.4411764705882353
 40
0.4411764705882353
 40
0.4411764705882353
 40
0.4558823529411765
 40
0.4558823529411765
 40
0.4558823529411765
 40
0.4558823529411765
 40
0.4705882352941177
 40
0.4705882352941177
 40
0.4705882352941177
 40
0.4705882352941177
 40
0.4852941176470589
 40
0.4852941176470589
 40
0.4852941176470589
 40
0.4852941176470589
 40
0.5
 40
0.5
 40
0.5
 40
0.5
 40
0.5147058823529411
 40
0.5147058823529411
 40
0.5147058823529411
 40
0.5147058823529411
 40
0.5294117647058823
 40
0.5294117647058823
 40
0.5294117647058823
 40
0.5294117647058823
 40
0.5441176470588234
 40
0.5441176470588234
 40
0.5441176470588234
 40
0.5441176470588234
 40
0.5588235294117645
 40
0.5588235294117645
 40
0.5588235294117645
 40
0.5588235294117645
 40
0.5735294117647056
 40
0.5735294117647056
 40
0.5735294117647056
 40
0.5735294117647056
 40
0.5882352941176468
 40
0.5882352941176468
 40
0.5882352941176468
 40
0.5882352941176468
 40
0.6029411764705879
 40
0.6029411764705879
 40
0.6029411764705879
 40
0.6029411764705879
 40
0.617647058823529
 40
0.617647058823529
 40
0.617647058823529
 40
0.617647058823529
 40
0.6323529411764701
 40
0.6323529411764701
 40
0.6323529411764701
 40
0.6323529411764701
 40
0.6470588235294112
 40
0.6470588235294112
 40
0.6470588235294112
 40
0.6470588235294112
 40
0.6617647058823524
 40
0.6617647058823524
 40
0.6617647058823524
 40
0.6617647058823524
 40
0.6764705882352935
 40
0.6764705882352935
 40
0.6764705882352935
 40
0.6764705882352935
 40
0.6911764705882346
 40
0.6911764705882346
 40
0.6911764705882346
 40
0.6911764705882346
 40
0.7058823529411757
 40
0.7058823529411757
 40
0.7058823529411757
 40
0.7058823529411757
 40
0.7205882352941169
 40
0.7205882352941169
 40
0.7205882352941169
 40
0.7205882352941169
 40
0.735294117647058
 40
0.735294117647058
 40
0.735294117647058
 40
0.735294117647058
 40
0.7499999999999991
 40
0.7499999999999991
 40
0.7499999999999991
 40
0.7499999999999991
 40
0.7647058823529402
 40
0.7647058823529402
 40
0.7647058823529402
 40
0.7647058823529402
 40
0.7794117647058814
 40
0.7794117647058814
 40
0.7794117647058814
 40
0.7794117647058814
 40
0.7941176470588225
 40
0.7941176470588225
 40
0.7941176470588225
 40
0.7941176470588225
 40
0.8088235294117636
 40
0.8088235294117636
 40
0.8088235294117636
 40
0.8088235294117636
 40
0.8235294117647047
 40
0.8235294117647047
 40
0.8235294117647047
 40
0.8235294117647047
 40
0.8382352941176459
 40
0.8382352941176459
 40
0.8382352941176459
 40
0.8382352941176459
 40
0.852941176470587
 40
0.852941176470587
 40
0.852941176470587
 40
0.852941176470587
 40
0.8676470588235281
 40
0.8676470588235281
 40
0.8676470588235281
 40
0.8676470588235281
 40
0.8823529411764692
 40
0.8823529411764692
 40
0.8823529411764692
 40
0.8823529411764692
 40
0.8970588235294104
 40
0.8970588235294104
 40
0.8970588235294104
 40
0.8970588235294104
 40
0.9117647058823515
 40
0.9117647058823515
 40
0.9117647058823515
 40
0.9117647058823515
 40
0.9264705882352926
 40
0.9264705882352926
 40
0.9264705882352926
 40
0.9264705882352926
 40
0.9411764705882337
 40
0.9411764705882337
 40
0.9411764705882337
 40
0.9411764705882337
 40
0.9558823529411749
 40
0.9558823529411749
 40
0.9558823529411749
 40
0.9558823529411749
 40
0.970588235294116
 40
0.970588235294116
 40
0.970588235294116
 40
0.970588235294116
 40
0.9852941176470571
 40
0.9852941176470571
 40
0.9852941176470571
 40
0.9852941176470571
 40
1.0
 40
1.0
 40
1.0
 40
1.0
 10
39.081899999999997
 20
43.142699999999998
 30
0.0
 10
38.622100000000003
 20
27.387799999999999
 30
0.0
 10
26.3264
 20
14.5966
 30
0.0
 10
10.7796
 20
13.3537
 30
0.0
 10
10.7796
 20
13.3537
 30
0.0
 10
10.7796
 20
13.3537
 30
0.0
 10
10.7796
 20
14.5633
 30
0.0
 10
10.7796
 20
14.5633
 30
0.0
 10
10.7796
 20
14.5633
 30
0.0
 10
10.7796
 20
14.5633
 30
0.0
 10
10.131500000000001
 20
14.4605
 30
0.0
 10
10.131500000000001
 20
14.4605
 30
0.0
 10
10.131500000000001
 20
14.4605
 30
0.0
 10
10.131500000000001
 20
14.4605
 30
0.0
 10
9.8221000000000007
 20
14.6867
 30
0.0
 10
9.8221000000000007
 20
14.6867
 30
0.0
 10
9.8221000000000007
 20
14.6867
 30
0.0
 10
9.8221000000000007
 20
14.6867
 30
0.0
 10
9.8092000000000006
 20
20.062999999999999
 30
0.0
 10
9.8092000000000006
 20
20.062999999999999
 30
0.0
 10
9.8092000000000006
 20
20.062999999999999
 30
0.0
 10
9.8092000000000006
 20
20.062999999999999
 30
0.0
 10
11.4024
 20
18.528700000000001
 30
0.0
 10
11.4024
 20
18.528700000000001
 30
0.0
 10
11.4024
 20
18.528700000000001
 30
0.0
 10
11.4024
 20
18.528700000000001
 30
0.0
 10
12.8545
 20
19.929200000000002
 30
0.0
 10
12.8545
 20
19.929200000000002
 30
0.0
 10
12.8545
 20
19.929200000000002
 30
0.0
 10
12.8545
 20
19.929200000000002
 30
0.0
 10
9.7824000000000009
 20
22.9482
 30
0.0
 10
9.7824000000000009
 20
22.9482
 30
0.0
 10
9.7824000000000009
 20
22.9482
 30
0.0
 10
9.7824000000000009
 20
22.9482
 30
0.0
 10
9.8092000000000006
 20
25.5627
 30
0.0
 10
9.8092000000000006
 20
25.5627
 30
0.0
 10
9.8092000000000006
 20
25.5627
 30
0.0
 10
9.8092000000000006
 20
25.5627
 30
0.0
 10
11.4024
 20
24.028500000000001
 30
0.0
 10
11.4024
 20
24.028500000000001
 30
0.0
 10
11.4024
 20
24.028500000000001
 30
0.0
 10
11.4024
 20
24.028500000000001
 30
0.0
 10
12.962400000000001
 20
25.5367
 30
0.0
 10
12.962400000000001
 20
25.5367
 30
0.0
 10
12.962400000000001
 20
25.5367
 30
0.0
 10
12.962400000000001
 20
25.5367
 30
0.0
 10
9.7423000000000002
 20
28.623200000000001
 30
0.0
 10
9.7423000000000002
 20
28.623200000000001
 30
0.0
 10
9.7423000000000002
 20
28.623200000000001
 30
0.0
 10
9.7423000000000002
 20
28.623200000000001
 30
0.0
 10
9.8092000000000006
 20
30.954599999999999
 30
0.0
 10
9.8092000000000006
 20
30.954599999999999
 30
0.0
 10
9.8092000000000006
 20
30.954599999999999
 30
0.0
 10
9.8092000000000006
 20
30.954599999999999
 30
0.0
 10
11.4129
 20
29.538399999999999
 30
0.0
 10
11.4129
 20
29.538399999999999
 30
0.0
 10
11.4129
 20
29.538399999999999
 30
0.0
 10
11.4129
 20
29.538399999999999
 30
0.0
 10
12.8545
 20
30.928599999999999
 30
0.0
 10
12.8545
 20
30.928599999999999
 30
0.0
 10
12.8545
 20
30.928599999999999
 30
0.0
 10
12.2843
 20
31.319199999999999
 30
0.0
 10
9.8092000000000006
 20
33.626800000000003
 30
0.0
 10
9.8092000000000006
 20
34.297499999999999
 30
0.0
 10
9.8092000000000006
 20
34.297499999999999
 30
0.0
 10
9.8092000000000006
 20
34.297499999999999
 30
0.0
 10
9.8092000000000006
 20
36.023000000000003
 30
0.0
 10
9.8092000000000006
 20
36.023000000000003
 30
0.0
 10
9.8092000000000006
 20
36.023000000000003
 30
0.0
 10
11.1891
 20
36.053800000000003
 30
0.0
 10
12.736499999999999
 20
37.135100000000001
 30
0.0
 10
13.6911
 20
37.640700000000002
 30
0.0
 10
13.6911
 20
37.640700000000002
 30
0.0
 10
13.9969
 20
37.435899999999997
 30
0.0
 10
14.985200000000001
 20
36.761699999999998
 30
0.0
 10
14.985200000000001
 20
36.346299999999999
 30
0.0
 10
14.985200000000001
 20
36.346299999999999
 30
0.0
 10
14.985200000000001
 20
36.346299999999999
 30
0.0
 10
14.985200000000001
 20
32.032899999999998
 30
0.0
 10
14.985200000000001
 20
32.032899999999998
 30
0.0
 10
14.985200000000001
 20
32.032899999999998
 30
0.0
 10
14.985200000000001
 20
32.032899999999998
 30
0.0
 10
17.141999999999999
 20
32.032899999999998
 30
0.0
 10
17.141999999999999
 20
32.032899999999998
 30
0.0
 10
17.141999999999999
 20
32.032899999999998
 30
0.0
 10
17.141999999999999
 20
32.032899999999998
 30
0.0
 10
17.141999999999999
 20
34.189799999999998
 30
0.0
 10
17.141999999999999
 20
34.189799999999998
 30
0.0
 10
17.141999999999999
 20
34.189799999999998
 30
0.0
 10
17.7715
 20
33.7682
 30
0.0
 10
18.975300000000001
 20
32.921500000000002
 30
0.0
 10
18.975300000000001
 20
31.9252
 30
0.0
 10
18.975300000000001
 20
31.9252
 30
0.0
 10
18.975300000000001
 20
31.9252
 30
0.0
 10
18.975300000000001
 20
28.9057
 30
0.0
 10
18.975300000000001
 20
28.9057
 30
0.0
 10
18.975300000000001
 20
28.9057
 30
0.0
 10
18.975300000000001
 20
28.533899999999999
 30
0.0
 10
18.895499999999998
 20
28.488199999999999
 30
0.0
 10
18.8674
 20
28.1508
 30
0.0
 10
18.8674
 20
28.1508
 30
0.0
 10
18.8674
 20
28.1508
 30
0.0
 10
21.0243
 20
28.1508
 30
0.0
 10
21.0243
 20
28.1508
 30
0.0
 10
21.0243
 20
28.1508
 30
0.0
 10
21.0243
 20
28.1508
 30
0.0
 10
21.0243
 20
30.415500000000002
 30
0.0
 10
21.0243
 20
30.415500000000002
 30
0.0
 10
21.0243
 20
30.415500000000002
 30
0.0
 10
21.389399999999998
 20
30.1709
 30
0.0
 10
24.367000000000001
 20
27.3017
 30
0.0
 10
24.367000000000001
 20
27.072399999999998
 30
0.0
 10
24.367000000000001
 20
27.072399999999998
 30
0.0
 10
24.367000000000001
 20
26.741399999999999
 30
0.0
 10
24.101299999999998
 20
26.606200000000001
 30
0.0
 10
23.828099999999999
 20
26.533200000000001
 30
0.0
 10
23.828099999999999
 20
26.533200000000001
 30
0.0
 10
23.828099999999999
 20
26.533200000000001
 30
0.0
 10
23.723299999999998
 20
26.436
 30
0.0
 10
23.723299999999998
 20
26.436
 30
0.0
 10
23.723299999999998
 20
26.436
 30
0.0
 10
23.723299999999998
 20
26.436
 30
0.0
 10
25.024699999999999
 20
25.033000000000001
 30
0.0
 10
25.024699999999999
 20
25.033000000000001
 30
0.0
 10
25.024699999999999
 20
25.033000000000001
 30
0.0
 10
25.024699999999999
 20
25.033000000000001
 30
0.0
 10
25.748000000000001
 20
25.692399999999999
 30
0.0
 10
25.748000000000001
 20
25.692399999999999
 30
0.0
 10
25.748000000000001
 20
25.692399999999999
 30
0.0
 10
25.748000000000001
 20
25.692399999999999
 30
0.0
 10
26.502800000000001
 20
25.001899999999999
 30
0.0
 10
26.502800000000001
 20
25.001899999999999
 30
0.0
 10
26.502800000000001
 20
25.001899999999999
 30
0.0
 10
26.502800000000001
 20
25.001899999999999
 30
0.0
 10
27.950199999999999
 20
26.5091
 30
0.0
 10
27.950199999999999
 20
26.5091
 30
0.0
 10
27.950199999999999
 20
26.5091
 30
0.0
 10
27.950199999999999
 20
26.5091
 30
0.0
 10
27.303899999999999
 20
27.205200000000001
 30
0.0
 10
27.303899999999999
 20
27.205200000000001
 30
0.0
 10
27.303899999999999
 20
27.205200000000001
 30
0.0
 10
27.303899999999999
 20
27.205200000000001
 30
0.0
 10
27.947700000000001
 20
27.914200000000001
 30
0.0
 10
27.947700000000001
 20
27.914200000000001
 30
0.0
 10
27.947700000000001
 20
27.914200000000001
 30
0.0
 10
27.947700000000001
 20
27.914200000000001
 30
0.0
 10
26.576799999999999
 20
29.284800000000001
 30
0.0
 10
26.576799999999999
 20
29.284800000000001
 30
0.0
 10
26.576799999999999
 20
29.284800000000001
 30
0.0
 10
26.376999999999999
 20
29.009899999999998
 30
0.0
 10
26.126300000000001
 20
28.690100000000001
 30
0.0
 10
25.769300000000001
 20
28.690100000000001
 30
0.0
 10
25.769300000000001
 20
28.690100000000001
 30
0.0
 10
25.553699999999999
 20
28.690100000000001
 30
0.0
 10
22.7867
 20
31.6556
 30
0.0
 10
22.533899999999999
 20
32.032899999999998
 30
0.0
 10
22.533899999999999
 20
32.032899999999998
 30
0.0
 10
22.533899999999999
 20
32.032899999999998
 30
0.0
 10
24.798500000000001
 20
32.032899999999998
 30
0.0
 10
24.798500000000001
 20
32.032899999999998
 30
0.0
 10
24.798500000000001
 20
32.032899999999998
 30
0.0
 10
24.798500000000001
 20
32.032899999999998
 30
0.0
 10
24.798500000000001
 20
33.866300000000003
 30
0.0
 10
24.798500000000001
 20
33.866300000000003
 30
0.0
 10
24.798500000000001
 20
33.866300000000003
 30
0.0
 10
24.798500000000001
 20
33.866300000000003
 30
0.0
 10
23.831700000000001
 20
33.734299999999998
 30
0.0
 10
23.831700000000001
 20
33.734299999999998
 30
0.0
 10
23.831700000000001
 20
33.734299999999998
 30
0.0
 10
23.831700000000001
 20
33.734299999999998
 30
0.0
 10
20.916599999999999
 20
33.758499999999998
 30
0.0
 10
20.916599999999999
 20
33.758499999999998
 30
0.0
 10
20.916599999999999
 20
33.758499999999998
 30
0.0
 10
20.082899999999999
 20
33.758499999999998
 30
0.0
 10
19.0381
 20
35.338500000000003
 30
0.0
 10
18.651900000000001
 20
35.915300000000002
 30
0.0
 10
18.651900000000001
 20
35.915300000000002
 30
0.0
 10
18.651900000000001
 20
35.915300000000002
 30
0.0
 10
20.916599999999999
 20
35.915300000000002
 30
0.0
 10
20.916599999999999
 20
35.915300000000002
 30
0.0
 10
20.916599999999999
 20
35.915300000000002
 30
0.0
 10
20.916599999999999
 20
35.915300000000002
 30
0.0
 10
20.916599999999999
 20
37.7483
 30
0.0
 10
20.916599999999999
 20
37.7483
 30
0.0
 10
20.916599999999999
 20
37.7483
 30
0.0
 10
20.916599999999999
 20
37.7483
 30
0.0
 10
19.9495
 20
37.616700000000002
 30
0.0
 10
19.9495
 20
37.616700000000002
 30
0.0
 10
19.9495
 20
37.616700000000002
 30
0.0
 10
19.9495
 20
37.616700000000002
 30
0.0
 10
17.034099999999999
 20
37.640700000000002
 30
0.0
 10
17.034099999999999
 20
37.640700000000002
 30
0.0
 10
17.034099999999999
 20
37.640700000000002
 30
0.0
 10
16.216200000000001
 20
37.640700000000002
 30
0.0
 10
15.591100000000001
 20
38.670200000000001
 30
0.0
 10
15.308999999999999
 20
39.258200000000002
 30
0.0
 10
15.308999999999999
 20
39.258200000000002
 30
0.0
 10
15.711499999999999
 20
40.019199999999998
 30
0.0
 10
16.100300000000001
 20
40.611899999999999
 30
0.0
 10
16.5335
 20
41.484200000000001
 30
0.0
 10
16.5335
 20
41.484200000000001
 30
0.0
 10
16.7334
 20
41.885599999999997
 30
0.0
 10
16.916599999999999
 20
44.110900000000001
 30
0.0
 10
17.357800000000001
 20
44.110900000000001
 30
0.0
 10
17.357800000000001
 20
44.110900000000001
 30
0.0
 10
17.357800000000001
 20
44.110900000000001
 30
0.0
 10
18.651900000000001
 20
44.110900000000001
 30
0.0
 10
18.651900000000001
 20
44.110900000000001
 30
0.0
 10
18.651900000000001
 20
44.110900000000001
 30
0.0
 10
19.095400000000001
 20
44.110900000000001
 30
0.0
 10
21.389399999999998
 20
41.388800000000003
 30
0.0
 10
21.994800000000001
 20
40.983600000000003
 30
0.0
 10
21.994800000000001
 20
40.983600000000003
 30
0.0
 10
21.994800000000001
 20
40.983600000000003
 30
0.0
 10
23.5305
 20
42.467399999999998
 30
0.0
 10
23.5305
 20
42.467399999999998
 30
0.0
 10
23.5305
 20
42.467399999999998
 30
0.0
 10
23.5305
 20
42.467399999999998
 30
0.0
 10
22.056699999999999
 20
43.960299999999997
 30
0.0
 10
22.056699999999999
 20
43.960299999999997
 30
0.0
 10
22.056699999999999
 20
43.960299999999997
 30
0.0
 10
22.386800000000001
 20
44.143900000000002
 30
0.0
 10
22.0139
 20
44.110900000000001
 30
0.0
 10
22.426100000000002
 20
44.110900000000001
 30
0.0
 10
22.426100000000002
 20
44.110900000000001
 30
0.0
 10
22.426100000000002
 20
44.110900000000001
 30
0.0
 10
24.151599999999998
 20
44.110900000000001
 30
0.0
 10
24.151599999999998
 20
44.110900000000001
 30
0.0
 10
24.151599999999998
 20
44.110900000000001
 30
0.0
 10
24.594899999999999
 20
44.110900000000001
 30
0.0
 10
26.889099999999999
 20
41.388800000000003
 30
0.0
 10
27.494499999999999
 20
40.983600000000003
 30
0.0
 10
27.494499999999999
 20
40.983600000000003
 30
0.0
 10
27.494499999999999
 20
40.983600000000003
 30
0.0
 10
29.0304
 20
42.467399999999998
 30
0.0
 10
29.0304
 20
42.467399999999998
 30
0.0
 10
29.0304
 20
42.467399999999998
 30
0.0
 10
29.0304
 20
42.467399999999998
 30
0.0
 10
27.5059
 20
44.018700000000003
 30
0.0
 10
27.5059
 20
44.018700000000003
 30
0.0
 10
27.5059
 20
44.018700000000003
 30
0.0
 10
27.5059
 20
44.018700000000003
 30
0.0
 10
27.602399999999999
 20
44.110900000000001
 30
0.0
 10
27.602399999999999
 20
44.110900000000001
 30
0.0
 10
27.602399999999999
 20
44.110900000000001
 30
0.0
 10
27.602399999999999
 20
44.110900000000001
 30
0.0
 10
29.651199999999999
 20
44.110900000000001
 30
0.0
 10
29.651199999999999
 20
44.110900000000001
 30
0.0
 10
29.651199999999999
 20
44.110900000000001
 30
0.0
 10
30.0946
 20
44.110900000000001
 30
0.0
 10
32.388800000000003
 20
41.388800000000003
 30
0.0
 10
32.994399999999999
 20
40.983600000000003
 30
0.0
 10
32.994399999999999
 20
40.983600000000003
 30
0.0
 10
32.994399999999999
 20
40.983600000000003
 30
0.0
 10
34.529899999999998
 20
42.467399999999998
 30
0.0
 10
34.529899999999998
 20
42.467399999999998
 30
0.0
 10
34.529899999999998
 20
42.467399999999998
 30
0.0
 10
34.529899999999998
 20
42.467399999999998
 30
0.0
 10
32.9559
 20
44.075299999999999
 30
0.0
 10
32.9559
 20
44.075299999999999
 30
0.0
 10
32.9559
 20
44.075299999999999
 30
0.0
 10
32.9559
 20
44.075299999999999
 30
0.0
 10
38.170499999999997
 20
44.110900000000001
 30
0.0
 10
38.170499999999997
 20
44.110900000000001
 30
0.0
 10
38.170499999999997
 20
44.110900000000001
 30
0.0
 10
38.170499999999997
 20
44.110900000000001
 30
0.0
 10
38.307000000000002
 20
43.144300000000001
 30
0.0
 10
38.307000000000002
 20
43.144300000000001
 30
0.0
 10
38.307000000000002
 20
43.144300000000001
 30
0.0
 10
38.307000000000002
 20
43.144300000000001
 30
0.0
 10
39.081899999999997
 20
43.142699999999998
 30
0.0
 10
39.081899999999997
 20
43.142699999999998
 30
0.0
  0
SPLINE
  5
32
100
AcDbEntity
  8
RÚteg 1
 62
     7
100
AcDbSpline
210
0.0
220
0.0
230
1.0
 70
     1
 71
     3
 72
   276
 73
   272
 74
     0
 42
0.0000000001
 43
0.0000000001
 40
0.0
 40
0.0
 40
0.0
 40
0.0
 40
0.0147058823529412
 40
0.0147058823529412
 40
0.0147058823529412
 40
0.0147058823529412
 40
0.0294117647058824
 40
0.0294117647058824
 40
0.0294117647058824
 40
0.0294117647058824
 40
0.0441176470588235
 40
0.0441176470588235
 40
0.0441176470588235
 40
0.0441176470588235
 40
0.0588235294117647
 40
0.0588235294117647
 40
0.0588235294117647
 40
0.0588235294117647
 40
0.0735294117647059
 40
0.0735294117647059
 40
0.0735294117647059
 40
0.0735294117647059
 40
0.0882352941176471
 40
0.0882352941176471
 40
0.0882352941176471
 40
0.0882352941176471
 40
0.1029411764705882
 40
0.1029411764705882
 40
0.1029411764705882
 40
0.1029411764705882
 40
0.1176470588235294
 40
0.1176470588235294
 40
0.1176470588235294
 40
0.1176470588235294
 40
0.1323529411764706
 40
0.1323529411764706
 40
0.1323529411764706
 40
0.1323529411764706
 40
0.1470588235294118
 40
0.1470588235294118
 40
0.1470588235294118
 40
0.1470588235294118
 40
0.161764705882353
 40
0.161764705882353
 40
0.161764705882353
 40
0.161764705882353
 40
0.1764705882352941
 40
0.1764705882352941
 40
0.1764705882352941
 40
0.1764705882352941
 40
0.1911764705882353
 40
0.1911764705882353
 40
0.1911764705882353
 40
0.1911764705882353
 40
0.2058823529411765
 40
0.2058823529411765
 40
0.2058823529411765
 40
0.2058823529411765
 40
0.2205882352941177
 40
0.2205882352941177
 40
0.2205882352941177
 40
0.2205882352941177
 40
0.2352941176470589
 40
0.2352941176470589
 40
0.2352941176470589
 40
0.2352941176470589
 40
0.25
 40
0.25
 40
0.25
 40
0.25
 40
0.2647058823529412
 40
0.2647058823529412
 40
0.2647058823529412
 40
0.2647058823529412
 40
0.2794117647058824
 40
0.2794117647058824
 40
0.2794117647058824
 40
0.2794117647058824
 40
0.2941176470588235
 40
0.2941176470588235
 40
0.2941176470588235
 40
0.2941176470588235
 40
0.3088235294117647
 40
0.3088235294117647
 40
0.3088235294117647
 40
0.3088235294117647
 40
0.3235294117647059
 40
0.3235294117647059
 40
0.3235294117647059
 40
0.3235294117647059
 40
0.3382352941176471
 40
0.3382352941176471
 40
0.3382352941176471
 40
0.3382352941176471
 40
0.3529411764705883
 40
0.3529411764705883
 40
0.3529411764705883
 40
0.3529411764705883
 40
0.3676470588235294
 40
0.3676470588235294
 40
0.3676470588235294
 40
0.3676470588235294
 40
0.3823529411764706
 40
0.3823529411764706
 40
0.3823529411764706
 40
0.3823529411764706
 40
0.3970588235294118
 40
0.3970588235294118
 40
0.3970588235294118
 40
0.3970588235294118
 40
0.411764705882353
 40
0.411764705882353
 40
0.411764705882353
 40
0.411764705882353
 40
0.4264705882352942
 40
0.4264705882352942
 40
0.4264705882352942
 40
0.4264705882352942
 40
0.4411764705882353
 40
0.4411764705882353
 40
0.4411764705882353
 40
0.4411764705882353
 40
0.4558823529411765
 40
0.4558823529411765
 40
0.4558823529411765
 40
0.4558823529411765
 40
0.4705882352941177
 40
0.4705882352941177
 40
0.4705882352941177
 40
0.4705882352941177
 40
0.4852941176470589
 40
0.4852941176470589
 40
0.4852941176470589
 40
0.4852941176470589
 40
0.5
 40
0.5
 40
0.5
 40
0.5
 40
0.5147058823529411
 40
0.5147058823529411
 40
0.5147058823529411
 40
0.5147058823529411
 40
0.5294117647058823
 40
0.5294117647058823
 40
0.5294117647058823
 40
0.5294117647058823
 40
0.5441176470588234
 40
0.5441176470588234
 40
0.5441176470588234
 40
0.5441176470588234
 40
0.5588235294117645
 40
0.5588235294117645
 40
0.5588235294117645
 40
0.5588235294117645
 40
0.5735294117647056
 40
0.5735294117647056
 40
0.5735294117647056
 40
0.5735294117647056
 40
0.5882352941176468
 40
0.5882352941176468
 40
0.5882352941176468
 40
0.5882352941176468
 40
0.6029411764705879
 40
0.6029411764705879
 40
0.6029411764705879
 40
0.6029411764705879
 40
0.617647058823529
 40
0.617647058823529
 40
0.617647058823529
 40
0.617647058823529
 40
0.6323529411764701
 40
0.6323529411764701
 40
0.6323529411764701
 40
0.6323529411764701
 40
0.6470588235294112
 40
0.6470588235294112
 40
0.6470588235294112
 40
0.6470588235294112
 40
0.6617647058823524
 40
0.6617647058823524
 40
0.6617647058823524
 40
0.6617647058823524
 40
0.6764705882352935
 40
0.6764705882352935
 40
0.6764705882352935
 40
0.6764705882352935
 40
0.6911764705882346
 40
0.6911764705882346
 40
0.6911764705882346
 40
0.6911764705882346
 40
0.7058823529411757
 40
0.7058823529411757
 40
0.7058823529411757
 40
0.7058823529411757
 40
0.7205882352941169
 40
0.7205882352941169
 40
0.7205882352941169
 40
0.7205882352941169
 40
0.735294117647058
 40
0.735294117647058
 40
0.735294117647058
 40
0.735294117647058
 40
0.7499999999999991
 40
0.7499999999999991
 40
0.7499999999999991
 40
0.7499999999999991
 40
0.7647058823529402
 40
0.7647058823529402
 40
0.7647058823529402
 40
0.7647058823529402
 40
0.7794117647058814
 40
0.7794117647058814
 40
0.7794117647058814
 40
0.7794117647058814
 40
0.7941176470588225
 40
0.7941176470588225
 40
0.7941176470588225
 40
0.7941176470588225
 40
0.8088235294117636
 40
0.8088235294117636
 40
0.8088235294117636
 40
0.8088235294117636
 40
0.8235294117647047
 40
0.8235294117647047
 40
0.8235294117647047
 40
0.8235294117647047
 40
0.8382352941176459
 40
0.8382352941176459
 40
0.8382352941176459
 40
0.8382352941176459
 40
0.852941176470587
 40
0.852941176470587
 40
0.852941176470587
 40
0.852941176470587
 40
0.8676470588235281
 40
0.8676470588235281
 40
0.8676470588235281
 40
0.8676470588235281
 40
0.8823529411764692
 40
0.8823529411764692
 40
0.8823529411764692
 40
0.8823529411764692
 40
0.8970588235294104
 40
0.8970588235294104
 40
0.8970588235294104
 40
0.8970588235294104
 40
0.9117647058823515
 40
0.9117647058823515
 40
0.9117647058823515
 40
0.9117647058823515
 40
0.9264705882352926
 40
0.9264705882352926
 40
0.9264705882352926
 40
0.9264705882352926
 40
0.9411764705882337
 40
0.9411764705882337
 40
0.9411764705882337
 40
0.9411764705882337
 40
0.9558823529411749
 40
0.9558823529411749
 40
0.9558823529411749
 40
0.9558823529411749
 40
0.970588235294116
 40
0.970588235294116
 40
0.970588235294116
 40
0.970588235294116
 40
0.9852941176470571
 40
0.9852941176470571
 40
0.9852941176470571
 40
0.9852941176470571
 40
1.0
 40
1.0
 40
1.0
 40
1.0
 10
6.6817000000000002
 20
13.295400000000001
 30
0.0
 10
-9.2399000000000004
 20
14.116400000000001
 30
0.0
 10
-21.9681
 20
27.033799999999999
 30
0.0
 10
-22.491599999999998
 20
43.032299999999999
 30
0.0
 10
-22.491599999999998
 20
43.032299999999999
 30
0.0
 10
-22.491599999999998
 20
43.032299999999999
 30
0.0
 10
-21.5717
 20
43.032299999999999
 30
0.0
 10
-21.5717
 20
43.032299999999999
 30
0.0
 10
-21.5717
 20
43.032299999999999
 30
0.0
 10
-21.5717
 20
43.032299999999999
 30
0.0
 10
-21.5717
 20
44.110900000000001
 30
0.0
 10
-21.5717
 20
44.110900000000001
 30
0.0
 10
-21.5717
 20
44.110900000000001
 30
0.0
 10
-21.5717
 20
44.110900000000001
 30
0.0
 10
-16.503399999999999
 20
44.110900000000001
 30
0.0
 10
-16.503399999999999
 20
44.110900000000001
 30
0.0
 10
-16.503399999999999
 20
44.110900000000001
 30
0.0
 10
-16.254899999999999
 20
44.110900000000001
 30
0.0
 10
-16.1799
 20
44.036099999999998
 30
0.0
 10
-16.1799
 20
43.787399999999998
 30
0.0
 10
-16.1799
 20
43.787399999999998
 30
0.0
 10
-16.1799
 20
43.462400000000002
 30
0.0
 10
-17.317900000000002
 20
42.454300000000003
 30
0.0
 10
-17.581800000000001
 20
42.277500000000003
 30
0.0
 10
-17.581800000000001
 20
42.277500000000003
 30
0.0
 10
-17.581800000000001
 20
42.277500000000003
 30
0.0
 10
-16.434200000000001
 20
40.947299999999998
 30
0.0
 10
-16.434200000000001
 20
40.947299999999998
 30
0.0
 10
-16.434200000000001
 20
40.947299999999998
 30
0.0
 10
-15.790100000000001
 20
41.388800000000003
 30
0.0
 10
-13.4961
 20
44.110900000000001
 30
0.0
 10
-13.0525
 20
44.110900000000001
 30
0.0
 10
-13.0525
 20
44.110900000000001
 30
0.0
 10
-13.0525
 20
44.110900000000001
 30
0.0
 10
-10.895799999999999
 20
44.110900000000001
 30
0.0
 10
-10.895799999999999
 20
44.110900000000001
 30
0.0
 10
-10.895799999999999
 20
44.110900000000001
 30
0.0
 10
-10.824199999999999
 20
43.805
 30
0.0
 10
-10.7879
 20
43.926499999999997
 30
0.0
 10
-10.7879
 20
43.679400000000001
 30
0.0
 10
-10.7879
 20
43.679400000000001
 30
0.0
 10
-10.7879
 20
43.415700000000001
 30
0.0
 10
-12.081899999999999
 20
42.594799999999999
 30
0.0
 10
-12.081899999999999
 20
42.169800000000002
 30
0.0
 10
-12.081899999999999
 20
42.169800000000002
 30
0.0
 10
-12.081899999999999
 20
42.005800000000001
 30
0.0
 10
-11.069599999999999
 20
41.100000000000001
 30
0.0
 10
-10.895799999999999
 20
40.983600000000003
 30
0.0
 10
-10.895799999999999
 20
40.983600000000003
 30
0.0
 10
-10.2903
 20
41.388800000000003
 30
0.0
 10
-7.9962
 20
44.110900000000001
 30
0.0
 10
-7.5526999999999997
 20
44.110900000000001
 30
0.0
 10
-7.5526999999999997
 20
44.110900000000001
 30
0.0
 10
-7.5526999999999997
 20
44.110900000000001
 30
0.0
 10
-5.3960999999999997
 20
44.110900000000001
 30
0.0
 10
-5.3960999999999997
 20
44.110900000000001
 30
0.0
 10
-5.3960999999999997
 20
44.110900000000001
 30
0.0
 10
-5.3960999999999997
 20
44.110900000000001
 30
0.0
 10
-5.3960999999999997
 20
43.787399999999998
 30
0.0
 10
-5.3960999999999997
 20
43.787399999999998
 30
0.0
 10
-5.3960999999999997
 20
43.787399999999998
 30
0.0
 10
-5.3960999999999997
 20
43.452599999999997
 30
0.0
 10
-6.4652000000000003
 20
42.613799999999998
 30
0.0
 10
-6.6901000000000002
 20
42.277500000000003
 30
0.0
 10
-6.6901000000000002
 20
42.277500000000003
 30
0.0
 10
-6.6901000000000002
 20
42.277500000000003
 30
0.0
 10
-5.4801000000000002
 20
41.007300000000001
 30
0.0
 10
-5.4801000000000002
 20
41.007300000000001
 30
0.0
 10
-5.4801000000000002
 20
41.007300000000001
 30
0.0
 10
-4.8982999999999999
 20
41.388800000000003
 30
0.0
 10
-2.6044
 20
44.110900000000001
 30
0.0
 10
-2.1608000000000001
 20
44.110900000000001
 30
0.0
 10
-2.1608000000000001
 20
44.110900000000001
 30
0.0
 10
-2.1608000000000001
 20
44.110900000000001
 30
0.0
 10
-0.5434
 20
44.110900000000001
 30
0.0
 10
-0.5434
 20
44.110900000000001
 30
0.0
 10
-0.5434
 20
44.110900000000001
 30
0.0
 10
-0.4663
 20
43.186399999999999
 30
0.0
 10
-0.1685
 20
42.093299999999999
 30
0.0
 10
0.1364
 20
41.3399
 30
0.0
 10
0.1364
 20
41.3399
 30
0.0
 10
0.2976
 20
40.942100000000003
 30
0.0
 10
1.2898000000000001
 20
39.203299999999999
 30
0.0
 10
1.2898000000000001
 20
39.150300000000001
 30
0.0
 10
1.2898000000000001
 20
39.150300000000001
 30
0.0
 10
1.2898000000000001
 20
38.115699999999997
 30
0.0
 10
-0.0024
 20
37.856200000000001
 30
0.0
 10
-1.1902999999999999
 20
37.856200000000001
 30
0.0
 10
-1.1902999999999999
 20
37.856200000000001
 30
0.0
 10
-2.0583
 20
37.856400000000001
 30
0.0
 10
-4.3175999999999997
 20
38.162999999999997
 30
0.0
 10
-4.3175999999999997
 20
37.317100000000003
 30
0.0
 10
-4.3175999999999997
 20
37.317100000000003
 30
0.0
 10
-4.3175999999999997
 20
37.317100000000003
 30
0.0
 10
-4.3175999999999997
 20
35.807400000000001
 30
0.0
 10
-4.3175999999999997
 20
35.807400000000001
 30
0.0
 10
-4.3175999999999997
 20
35.807400000000001
 30
0.0
 10
-4.3175999999999997
 20
35.807400000000001
 30
0.0
 10
-2.1608000000000001
 20
35.807400000000001
 30
0.0
 10
-2.1608000000000001
 20
35.807400000000001
 30
0.0
 10
-2.1608000000000001
 20
35.807400000000001
 30
0.0
 10
-2.6229
 20
34.844499999999996
 30
0.0
 10
-3.0836000000000001
 20
33.9649
 30
0.0
 10
-4.5328999999999997
 20
33.973700000000001
 30
0.0
 10
-4.5328999999999997
 20
33.973700000000001
 30
0.0
 10
-5.4520999999999997
 20
33.979399999999998
 30
0.0
 10
-8.1998999999999995
 20
34.307000000000002
 30
0.0
 10
-8.1998999999999995
 20
33.434800000000003
 30
0.0
 10
-8.1998999999999995
 20
33.434800000000003
 30
0.0
 10
-8.1998999999999995
 20
33.434800000000003
 30
0.0
 10
-8.1998999999999995
 20
31.9252
 30
0.0
 10
-8.1998999999999995
 20
31.9252
 30
0.0
 10
-8.1998999999999995
 20
31.9252
 30
0.0
 10
-8.1998999999999995
 20
31.9252
 30
0.0
 10
-6.0430000000000001
 20
31.9252
 30
0.0
 10
-6.0430000000000001
 20
31.9252
 30
0.0
 10
-6.0430000000000001
 20
31.9252
 30
0.0
 10
-6.5397999999999996
 20
30.889800000000001
 30
0.0
 10
-6.7050999999999998
 20
30.885300000000001
 30
0.0
 10
-7.4718999999999998
 20
30.1188
 30
0.0
 10
-7.4718999999999998
 20
30.1188
 30
0.0
 10
-7.7927
 20
29.797999999999998
 30
0.0
 10
-8.7202999999999999
 20
28.690100000000001
 30
0.0
 10
-9.1702999999999992
 20
28.690100000000001
 30
0.0
 10
-9.1702999999999992
 20
28.690100000000001
 30
0.0
 10
-9.3827999999999996
 20
28.690100000000001
 30
0.0
 10
-9.4373000000000005
 20
29.121600000000001
 30
0.0
 10
-9.8176000000000005
 20
29.121600000000001
 30
0.0
 10
-9.8176000000000005
 20
29.121600000000001
 30
0.0
 10
-9.8537999999999997
 20
29.121600000000001
 30
0.0
 10
-11.146000000000001
 20
27.936699999999998
 30
0.0
 10
-11.219099999999999
 20
27.827200000000001
 30
0.0
 10
-11.219099999999999
 20
27.827200000000001
 30
0.0
 10
-11.057700000000001
 20
27.585899999999999
 30
0.0
 10
-10.7879
 20
27.448499999999999
 30
0.0
 10
-10.7879
 20
27.180299999999999
 30
0.0
 10
-10.7879
 20
27.180299999999999
 30
0.0
 10
-10.7879
 20
27.180299999999999
 30
0.0
 10
-10.7879
 20
26.748999999999999
 30
0.0
 10
-10.7879
 20
26.748999999999999
 30
0.0
 10
-10.7879
 20
26.748999999999999
 30
0.0
 10
-10.7879
 20
26.748999999999999
 30
0.0
 10
-11.2517
 20
26.466999999999999
 30
0.0
 10
-11.2517
 20
26.466999999999999
 30
0.0
 10
-11.2517
 20
26.466999999999999
 30
0.0
 10
-11.2517
 20
26.466999999999999
 30
0.0
 10
-9.9013000000000009
 20
25.0472
 30
0.0
 10
-9.9013000000000009
 20
25.0472
 30
0.0
 10
-9.9013000000000009
 20
25.0472
 30
0.0
 10
-9.9013000000000009
 20
25.0472
 30
0.0
 10
-9.1914999999999996
 20
25.692399999999999
 30
0.0
 10
-9.1914999999999996
 20
25.692399999999999
 30
0.0
 10
-9.1914999999999996
 20
25.692399999999999
 30
0.0
 10
-9.1914999999999996
 20
25.692399999999999
 30
0.0
 10
-8.4366000000000003
 20
25.001899999999999
 30
0.0
 10
-8.4366000000000003
 20
25.001899999999999
 30
0.0
 10
-8.4366000000000003
 20
25.001899999999999
 30
0.0
 10
-8.4366000000000003
 20
25.001899999999999
 30
0.0
 10
-6.9893000000000001
 20
26.5091
 30
0.0
 10
-6.9893000000000001
 20
26.5091
 30
0.0
 10
-6.9893000000000001
 20
26.5091
 30
0.0
 10
-6.9893000000000001
 20
26.5091
 30
0.0
 10
-7.6825000000000001
 20
27.267099999999999
 30
0.0
 10
-7.6825000000000001
 20
27.267099999999999
 30
0.0
 10
-7.6825000000000001
 20
27.267099999999999
 30
0.0
 10
-7.6825000000000001
 20
27.267099999999999
 30
0.0
 10
-4.4992999999999999
 20
30.382000000000001
 30
0.0
 10
-4.4992999999999999
 20
30.382000000000001
 30
0.0
 10
-4.4992999999999999
 20
30.382000000000001
 30
0.0
 10
-4.4992999999999999
 20
30.382000000000001
 30
0.0
 10
-4.4257
 20
28.1508
 30
0.0
 10
-4.4257
 20
28.1508
 30
0.0
 10
-4.4257
 20
28.1508
 30
0.0
 10
-4.4257
 20
28.1508
 30
0.0
 10
-2.2688000000000001
 20
28.1508
 30
0.0
 10
-2.2688000000000001
 20
28.1508
 30
0.0
 10
-2.2688000000000001
 20
28.1508
 30
0.0
 10
-2.2688000000000001
 20
28.1508
 30
0.0
 10
-2.2688000000000001
 20
32.464399999999998
 30
0.0
 10
-2.2688000000000001
 20
32.464399999999998
 30
0.0
 10
-2.2688000000000001
 20
32.464399999999998
 30
0.0
 10
-2.2688000000000001
 20
32.787199999999999
 30
0.0
 10
-0.8654
 20
34.103700000000003
 30
0.0
 10
-0.5434
 20
34.189799999999998
 30
0.0
 10
-0.5434
 20
34.189799999999998
 30
0.0
 10
-0.5434
 20
34.189799999999998
 30
0.0
 10
-0.5434
 20
32.032899999999998
 30
0.0
 10
-0.5434
 20
32.032899999999998
 30
0.0
 10
-0.5434
 20
32.032899999999998
 30
0.0
 10
-0.5434
 20
32.032899999999998
 30
0.0
 10
1.6134999999999999
 20
32.032899999999998
 30
0.0
 10
1.6134999999999999
 20
32.032899999999998
 30
0.0
 10
1.6134999999999999
 20
32.032899999999998
 30
0.0
 10
1.6134999999999999
 20
32.032899999999998
 30
0.0
 10
1.6134999999999999
 20
36.346299999999999
 30
0.0
 10
1.6134999999999999
 20
36.346299999999999
 30
0.0
 10
1.6134999999999999
 20
36.346299999999999
 30
0.0
 10
1.6134999999999999
 20
36.7286
 30
0.0
 10
2.5741999999999998
 20
37.411700000000003
 30
0.0
 10
2.7995999999999999
 20
37.7483
 30
0.0
 10
2.7995999999999999
 20
37.7483
 30
0.0
 10
3.9836
 20
36.9557
 30
0.0
 10
5.6942000000000004
 20
35.915300000000002
 30
0.0
 10
7.6523000000000003
 20
35.915300000000002
 30
0.0
 10
7.6523000000000003
 20
35.915300000000002
 30
0.0
 10
7.6523000000000003
 20
35.915300000000002
 30
0.0
 10
7.6523000000000003
 20
34.8369
 30
0.0
 10
7.6523000000000003
 20
34.8369
 30
0.0
 10
7.6523000000000003
 20
34.8369
 30
0.0
 10
7.6523000000000003
 20
33.3947
 30
0.0
 10
7.7263000000000002
 20
33.886499999999998
 30
0.0
 10
6.6007999999999996
 20
32.761099999999999
 30
0.0
 10
6.6007999999999996
 20
32.761099999999999
 30
0.0
 10
6.1948999999999996
 20
32.3553
 30
0.0
 10
5.2329999999999997
 20
31.1938
 30
0.0
 10
4.7407000000000004
 20
31.0625
 30
0.0
 10
4.7407000000000004
 20
31.0625
 30
0.0
 10
4.7836999999999996
 20
30.546500000000002
 30
0.0
 10
5.7712000000000003
 20
29.6935
 30
0.0
 10
6.1425999999999998
 20
29.444800000000001
 30
0.0
 10
6.1425999999999998
 20
29.444800000000001
 30
0.0
 10
6.1425999999999998
 20
29.444800000000001
 30
0.0
 10
7.6261999999999999
 20
30.980599999999999
 30
0.0
 10
7.6261999999999999
 20
30.980599999999999
 30
0.0
 10
7.6261999999999999
 20
30.980599999999999
 30
0.0
 10
7.6523000000000003
 20
28.5823
 30
0.0
 10
8.1525999999999996
 20
28.8124
 30
0.0
 10
6.8705999999999996
 20
27.5306
 30
0.0
 10
6.8705999999999996
 20
27.5306
 30
0.0
 10
6.5735999999999999
 20
27.233499999999999
 30
0.0
 10
4.7407000000000004
 20
25.5915
 30
0.0
 10
4.7407000000000004
 20
25.346800000000002
 30
0.0
 10
4.7407000000000004
 20
25.346800000000002
 30
0.0
 10
4.7407000000000004
 20
25.180399999999999
 30
0.0
 10
5.8517999999999999
 20
24.1755
 30
0.0
 10
6.0347
 20
24.053100000000001
 30
0.0
 10
6.0347
 20
24.053100000000001
 30
0.0
 10
6.0347
 20
24.053100000000001
 30
0.0
 10
7.6281999999999996
 20
25.587199999999999
 30
0.0
 10
7.6281999999999996
 20
25.587199999999999
 30
0.0
 10
7.6281999999999996
 20
25.587199999999999
 30
0.0
 10
7.6523000000000003
 20
23.371300000000002
 30
0.0
 10
8.1075999999999997
 20
23.267099999999999
 30
0.0
 10
6.9785000000000004
 20
22.138500000000001
 30
0.0
 10
6.9785000000000004
 20
22.138500000000001
 30
0.0
 10
6.6703999999999999
 20
21.8309
 30
0.0
 10
4.7407000000000004
 20
20.096299999999999
 30
0.0
 10
4.7407000000000004
 20
19.847100000000001
 30
0.0
 10
4.7407000000000004
 20
19.847100000000001
 30
0.0
 10
4.7407000000000004
 20
19.680800000000001
 30
0.0
 10
5.8517999999999999
 20
18.675999999999998
 30
0.0
 10
6.0347
 20
18.5533
 30
0.0
 10
6.0347
 20
18.5533
 30
0.0
 10
6.0347
 20
18.5533
 30
0.0
 10
7.6281999999999996
 20
20.087299999999999
 30
0.0
 10
7.6281999999999996
 20
20.087299999999999
 30
0.0
 10
7.6281999999999996
 20
20.087299999999999
 30
0.0
 10
7.6523000000000003
 20
18.8767
 30
0.0
 10
7.6546000000000003
 20
17.6904
 30
0.0
 10
7.6523000000000003
 20
16.504300000000001
 30
0.0
 10
7.6523000000000003
 20
16.504300000000001
 30
0.0
 10
7.6515000000000004
 20
16.165299999999998
 30
0.0
 10
7.7649999999999997
 20
14.894500000000001
 30
0.0
 10
7.7229000000000001
 20
14.821400000000001
 30
0.0
 10
7.7229000000000001
 20
14.821400000000001
 30
0.0
 10
7.5345000000000004
 20
14.4946
 30
0.0
 10
6.6817000000000002
 20
14.769500000000001
 30
0.0
 10
6.6817000000000002
 20
14.1319
 30
0.0
 10
6.6817000000000002
 20
14.1319
 30
0.0
 10
6.6817000000000002
 20
14.1319
 30
0.0
 10
6.6817000000000002
 20
13.295400000000001
 30
0.0
 10
6.6817000000000002
 20
13.295400000000001
 30
0.0
  0
SPLINE
  5
33
100
AcDbEntity
  8
RÚteg 1
 62
     7
100
AcDbSpline
210
0.0
220
0.0
230
1.0
 70
     1
 71
     3
 72
   316
 73
   312
 74
     0
 42
0.0000000001
 43
0.0000000001
 40
0.0
 40
0.0
 40
0.0
 40
0.0
 40
0.0128205128205128
 40
0.0128205128205128
 40
0.0128205128205128
 40
0.0128205128205128
 40
0.0256410256410256
 40
0.0256410256410256
 40
0.0256410256410256
 40
0.0256410256410256
 40
0.0384615384615385
 40
0.0384615384615385
 40
0.0384615384615385
 40
0.0384615384615385
 40
0.0512820512820513
 40
0.0512820512820513
 40
0.0512820512820513
 40
0.0512820512820513
 40
0.0641025641025641
 40
0.0641025641025641
 40
0.0641025641025641
 40
0.0641025641025641
 40
0.0769230769230769
 40
0.0769230769230769
 40
0.0769230769230769
 40
0.0769230769230769
 40
0.0897435897435897
 40
0.0897435897435897
 40
0.0897435897435897
 40
0.0897435897435897
 40
0.1025641025641026
 40
0.1025641025641026
 40
0.1025641025641026
 40
0.1025641025641026
 40
0.1153846153846154
 40
0.1153846153846154
 40
0.1153846153846154
 40
0.1153846153846154
 40
0.1282051282051282
 40
0.1282051282051282
 40
0.1282051282051282
 40
0.1282051282051282
 40
0.141025641025641
 40
0.141025641025641
 40
0.141025641025641
 40
0.141025641025641
 40
0.1538461538461539
 40
0.1538461538461539
 40
0.1538461538461539
 40
0.1538461538461539
 40
0.1666666666666667
 40
0.1666666666666667
 40
0.1666666666666667
 40
0.1666666666666667
 40
0.1794871794871795
 40
0.1794871794871795
 40
0.1794871794871795
 40
0.1794871794871795
 40
0.1923076923076924
 40
0.1923076923076924
 40
0.1923076923076924
 40
0.1923076923076924
 40
0.2051282051282052
 40
0.2051282051282052
 40
0.2051282051282052
 40
0.2051282051282052
 40
0.217948717948718
 40
0.217948717948718
 40
0.217948717948718
 40
0.217948717948718
 40
0.2307692307692308
 40
0.2307692307692308
 40
0.2307692307692308
 40
0.2307692307692308
 40
0.2435897435897437
 40
0.2435897435897437
 40
0.2435897435897437
 40
0.2435897435897437
 40
0.2564102564102565
 40
0.2564102564102565
 40
0.2564102564102565
 40
0.2564102564102565
 40
0.2692307692307693
 40
0.2692307692307693
 40
0.2692307692307693
 40
0.2692307692307693
 40
0.2820512820512822
 40
0.2820512820512822
 40
0.2820512820512822
 40
0.2820512820512822
 40
0.294871794871795
 40
0.294871794871795
 40
0.294871794871795
 40
0.294871794871795
 40
0.3076923076923078
 40
0.3076923076923078
 40
0.3076923076923078
 40
0.3076923076923078
 40
0.3205128205128207
 40
0.3205128205128207
 40
0.3205128205128207
 40
0.3205128205128207
 40
0.3333333333333335
 40
0.3333333333333335
 40
0.3333333333333335
 40
0.3333333333333335
 40
0.3461538461538463
 40
0.3461538461538463
 40
0.3461538461538463
 40
0.3461538461538463
 40
0.3589743589743591
 40
0.3589743589743591
 40
0.3589743589743591
 40
0.3589743589743591
 40
0.371794871794872
 40
0.371794871794872
 40
0.371794871794872
 40
0.371794871794872
 40
0.3846153846153848
 40
0.3846153846153848
 40
0.3846153846153848
 40
0.3846153846153848
 40
0.3974358974358976
 40
0.3974358974358976
 40
0.3974358974358976
 40
0.3974358974358976
 40
0.4102564102564105
 40
0.4102564102564105
 40
0.4102564102564105
 40
0.4102564102564105
 40
0.4230769230769233
 40
0.4230769230769233
 40
0.4230769230769233
 40
0.4230769230769233
 40
0.4358974358974361
 40
0.4358974358974361
 40
0.4358974358974361
 40
0.4358974358974361
 40
0.448717948717949
 40
0.448717948717949
 40
0.448717948717949
 40
0.448717948717949
 40
0.4615384615384618
 40
0.4615384615384618
 40
0.4615384615384618
 40
0.4615384615384618
 40
0.4743589743589746
 40
0.4743589743589746
 40
0.4743589743589746
 40
0.4743589743589746
 40
0.4871794871794875
 40
0.4871794871794875
 40
0.4871794871794875
 40
0.4871794871794875
 40
0.5000000000000002
 40
0.5000000000000002
 40
0.5000000000000002
 40
0.5000000000000002
 40
0.512820512820513
 40
0.512820512820513
 40
0.512820512820513
 40
0.512820512820513
 40
0.5256410256410258
 40
0.5256410256410258
 40
0.5256410256410258
 40
0.5256410256410258
 40
0.5384615384615386
 40
0.5384615384615386
 40
0.5384615384615386
 40
0.5384615384615386
 40
0.5512820512820513
 40
0.5512820512820513
 40
0.5512820512820513
 40
0.5512820512820513
 40
0.5641025641025641
 40
0.5641025641025641
 40
0.5641025641025641
 40
0.5641025641025641
 40
0.5769230769230769
 40
0.5769230769230769
 40
0.5769230769230769
 40
0.5769230769230769
 40
0.5897435897435897
 40
0.5897435897435897
 40
0.5897435897435897
 40
0.5897435897435897
 40
0.6025641025641024
 40
0.6025641025641024
 40
0.6025641025641024
 40
0.6025641025641024
 40
0.6153846153846152
 40
0.6153846153846152
 40
0.6153846153846152
 40
0.6153846153846152
 40
0.628205128205128
 40
0.628205128205128
 40
0.628205128205128
 40
0.628205128205128
 40
0.6410256410256408
 40
0.6410256410256408
 40
0.6410256410256408
 40
0.6410256410256408
 40
0.6538461538461535
 40
0.6538461538461535
 40
0.6538461538461535
 40
0.6538461538461535
 40
0.6666666666666663
 40
0.6666666666666663
 40
0.6666666666666663
 40
0.6666666666666663
 40
0.6794871794871791
 40
0.6794871794871791
 40
0.6794871794871791
 40
0.6794871794871791
 40
0.6923076923076919
 40
0.6923076923076919
 40
0.6923076923076919
 40
0.6923076923076919
 40
0.7051282051282046
 40
0.7051282051282046
 40
0.7051282051282046
 40
0.7051282051282046
 40
0.7179487179487174
 40
0.7179487179487174
 40
0.7179487179487174
 40
0.7179487179487174
 40
0.7307692307692302
 40
0.7307692307692302
 40
0.7307692307692302
 40
0.7307692307692302
 40
0.743589743589743
 40
0.743589743589743
 40
0.743589743589743
 40
0.743589743589743
 40
0.7564102564102557
 40
0.7564102564102557
 40
0.7564102564102557
 40
0.7564102564102557
 40
0.7692307692307685
 40
0.7692307692307685
 40
0.7692307692307685
 40
0.7692307692307685
 40
0.7820512820512813
 40
0.7820512820512813
 40
0.7820512820512813
 40
0.7820512820512813
 40
0.7948717948717941
 40
0.7948717948717941
 40
0.7948717948717941
 40
0.7948717948717941
 40
0.8076923076923068
 40
0.8076923076923068
 40
0.8076923076923068
 40
0.8076923076923068
 40
0.8205128205128196
 40
0.8205128205128196
 40
0.8205128205128196
 40
0.8205128205128196
 40
0.8333333333333324
 40
0.8333333333333324
 40
0.8333333333333324
 40
0.8333333333333324
 40
0.8461538461538452
 40
0.8461538461538452
 40
0.8461538461538452
 40
0.8461538461538452
 40
0.8589743589743579
 40
0.8589743589743579
 40
0.8589743589743579
 40
0.8589743589743579
 40
0.8717948717948707
 40
0.8717948717948707
 40
0.8717948717948707
 40
0.8717948717948707
 40
0.8846153846153835
 40
0.8846153846153835
 40
0.8846153846153835
 40
0.8846153846153835
 40
0.8974358974358963
 40
0.8974358974358963
 40
0.8974358974358963
 40
0.8974358974358963
 40
0.910256410256409
 40
0.910256410256409
 40
0.910256410256409
 40
0.910256410256409
 40
0.9230769230769218
 40
0.9230769230769218
 40
0.9230769230769218
 40
0.9230769230769218
 40
0.9358974358974346
 40
0.9358974358974346
 40
0.9358974358974346
 40
0.9358974358974346
 40
0.9487179487179474
 40
0.9487179487179474
 40
0.9487179487179474
 40
0.9487179487179474
 40
0.9615384615384601
 40
0.9615384615384601
 40
0.9615384615384601
 40
0.9615384615384601
 40
0.9743589743589729
 40
0.9743589743589729
 40
0.9743589743589729
 40
0.9743589743589729
 40
0.9871794871794857
 40
0.9871794871794857
 40
0.9871794871794857
 40
0.9871794871794857
 40
1.0
 40
1.0
 40
1.0
 40
1.0
 10
-22.377400000000002
 20
46.908200000000001
 30
0.0
 10
-20.98
 20
62.123899999999999
 30
0.0
 10
-8.5135000000000005
 20
74.139200000000002
 30
0.0
 10
6.8971
 20
74.827299999999994
 30
0.0
 10
6.8971
 20
74.827299999999994
 30
0.0
 10
6.8971
 20
74.827299999999994
 30
0.0
 10
6.8975
 20
74.629199999999997
 30
0.0
 10
6.8975
 20
74.629199999999997
 30
0.0
 10
6.8975
 20
74.629199999999997
 30
0.0
 10
6.8975
 20
74.629199999999997
 30
0.0
 10
6.8202999999999996
 20
73.775099999999995
 30
0.0
 10
6.8202999999999996
 20
73.775099999999995
 30
0.0
 10
6.8202999999999996
 20
73.775099999999995
 30
0.0
 10
6.8202999999999996
 20
73.775099999999995
 30
0.0
 10
7.9824999999999999
 20
73.468000000000004
 30
0.0
 10
7.9824999999999999
 20
73.468000000000004
 30
0.0
 10
7.9824999999999999
 20
73.468000000000004
 30
0.0
 10
7.9824999999999999
 20
73.468000000000004
 30
0.0
 10
7.9757999999999996
 20
69.776200000000003
 30
0.0
 10
7.9757999999999996
 20
69.776200000000003
 30
0.0
 10
7.9757999999999996
 20
69.776200000000003
 30
0.0
 10
7.9757999999999996
 20
69.298000000000002
 30
0.0
 10
7.9920999999999998
 20
68.266599999999997
 30
0.0
 10
7.5445000000000002
 20
68.266599999999997
 30
0.0
 10
7.5445000000000002
 20
68.266599999999997
 30
0.0
 10
7.2850000000000001
 20
68.266599999999997
 30
0.0
 10
6.5627000000000004
 20
69.4529
 30
0.0
 10
6.1425999999999998
 20
69.4529
 30
0.0
 10
6.1425999999999998
 20
69.4529
 30
0.0
 10
6.1214000000000004
 20
69.4529
 30
0.0
 10
4.8486000000000002
 20
68.376900000000006
 30
0.0
 10
4.8486000000000002
 20
68.158699999999996
 30
0.0
 10
4.8486000000000002
 20
68.158699999999996
 30
0.0
 10
4.8486000000000002
 20
67.8185
 30
0.0
 10
7.9757999999999996
 20
65.318100000000001
 30
0.0
 10
7.9757999999999996
 20
64.815799999999996
 30
0.0
 10
7.9757999999999996
 20
64.815799999999996
 30
0.0
 10
7.9757999999999996
 20
64.815799999999996
 30
0.0
 10
7.9757999999999996
 20
63.090299999999999
 30
0.0
 10
7.9757999999999996
 20
63.090299999999999
 30
0.0
 10
7.9757999999999996
 20
63.090299999999999
 30
0.0
 10
7.9757999999999996
 20
62.841900000000003
 30
0.0
 10
7.9009
 20
62.766800000000003
 30
0.0
 10
7.6523000000000003
 20
62.766800000000003
 30
0.0
 10
7.6523000000000003
 20
62.766800000000003
 30
0.0
 10
7.6523000000000003
 20
62.766800000000003
 30
0.0
 10
7.5445000000000002
 20
62.766800000000003
 30
0.0
 10
7.5445000000000002
 20
62.766800000000003
 30
0.0
 10
7.5445000000000002
 20
62.766800000000003
 30
0.0
 10
7.2872000000000003
 20
62.766800000000003
 30
0.0
 10
6.5373999999999999
 20
63.7607
 30
0.0
 10
6.2504
 20
63.953299999999999
 30
0.0
 10
6.2504
 20
63.953299999999999
 30
0.0
 10
5.9383999999999997
 20
63.7879
 30
0.0
 10
4.9562999999999997
 20
63.045400000000001
 30
0.0
 10
4.9562999999999997
 20
62.658999999999999
 30
0.0
 10
4.9562999999999997
 20
62.658999999999999
 30
0.0
 10
4.9562999999999997
 20
62.323399999999999
 30
0.0
 10
7.9757999999999996
 20
59.921700000000001
 30
0.0
 10
7.9757999999999996
 20
59.423999999999999
 30
0.0
 10
7.9757999999999996
 20
59.423999999999999
 30
0.0
 10
7.9757999999999996
 20
59.423999999999999
 30
0.0
 10
7.9757999999999996
 20
57.590600000000002
 30
0.0
 10
7.9757999999999996
 20
57.590600000000002
 30
0.0
 10
7.9757999999999996
 20
57.590600000000002
 30
0.0
 10
7.9757999999999996
 20
57.302300000000002
 30
0.0
 10
7.8201000000000001
 20
57.271700000000003
 30
0.0
 10
7.6523000000000003
 20
57.159199999999998
 30
0.0
 10
7.6523000000000003
 20
57.159199999999998
 30
0.0
 10
7.1673
 20
57.415900000000001
 30
0.0
 10
6.4175000000000004
 20
58.345599999999997
 30
0.0
 10
6.1425999999999998
 20
58.345599999999997
 30
0.0
 10
6.1425999999999998
 20
58.345599999999997
 30
0.0
 10
5.9786000000000001
 20
58.345599999999997
 30
0.0
 10
5.0728999999999997
 20
57.333100000000002
 30
0.0
 10
4.9562999999999997
 20
57.159199999999998
 30
0.0
 10
4.9562999999999997
 20
57.159199999999998
 30
0.0
 10
5.3403999999999998
 20
56.5854
 30
0.0
 10
7.8681000000000001
 20
54.462699999999998
 30
0.0
 10
7.8681000000000001
 20
54.0321
 30
0.0
 10
7.8681000000000001
 20
54.0321
 30
0.0
 10
7.8681000000000001
 20
54.0321
 30
0.0
 10
7.8681000000000001
 20
53.6006
 30
0.0
 10
7.8681000000000001
 20
53.6006
 30
0.0
 10
7.8681000000000001
 20
53.6006
 30
0.0
 10
7.8681000000000001
 20
53.295999999999999
 30
0.0
 10
7.6205999999999996
 20
53.184699999999999
 30
0.0
 10
7.4364999999999997
 20
53.061399999999999
 30
0.0
 10
7.4364999999999997
 20
53.061399999999999
 30
0.0
 10
5.1407999999999996
 20
53.061399999999999
 30
0.0
 10
3.6334
 20
51.4437
 30
0.0
 10
2.9075000000000002
 20
51.4437
 30
0.0
 10
2.9075000000000002
 20
51.4437
 30
0.0
 10
2.5842999999999998
 20
51.4437
 30
0.0
 10
1.9107000000000001
 20
52.591200000000001
 30
0.0
 10
1.5053000000000001
 20
52.737699999999997
 30
0.0
 10
1.5053000000000001
 20
52.737699999999997
 30
0.0
 10
1.5053000000000001
 20
52.737699999999997
 30
0.0
 10
1.5053000000000001
 20
57.051600000000001
 30
0.0
 10
1.5053000000000001
 20
57.051600000000001
 30
0.0
 10
1.5053000000000001
 20
57.051600000000001
 30
0.0
 10
1.5053000000000001
 20
57.051600000000001
 30
0.0
 10
-0.3305
 20
56.865699999999997
 30
0.0
 10
-0.3305
 20
56.865699999999997
 30
0.0
 10
-0.3305
 20
56.865699999999997
 30
0.0
 10
-0.3305
 20
56.865699999999997
 30
0.0
 10
-0.3277
 20
55.326000000000001
 30
0.0
 10
-0.3277
 20
55.326000000000001
 30
0.0
 10
-0.3277
 20
55.326000000000001
 30
0.0
 10
-0.3277
 20
55.077500000000001
 30
0.0
 10
-0.4026
 20
55.002400000000002
 30
0.0
 10
-0.6512
 20
55.002400000000002
 30
0.0
 10
-0.6512
 20
55.002400000000002
 30
0.0
 10
-0.769
 20
55.002400000000002
 30
0.0
 10
-2.2688000000000001
 20
56.408999999999999
 30
0.0
 10
-2.2688000000000001
 20
56.9437
 30
0.0
 10
-2.2688000000000001
 20
56.9437
 30
0.0
 10
-2.2688000000000001
 20
56.9437
 30
0.0
 10
-2.2688000000000001
 20
60.933599999999998
 30
0.0
 10
-2.2688000000000001
 20
60.933599999999998
 30
0.0
 10
-2.2688000000000001
 20
60.933599999999998
 30
0.0
 10
-2.2688000000000001
 20
60.933599999999998
 30
0.0
 10
-4.2126000000000001
 20
60.747100000000003
 30
0.0
 10
-4.2126000000000001
 20
60.747100000000003
 30
0.0
 10
-4.2126000000000001
 20
60.747100000000003
 30
0.0
 10
-4.2126000000000001
 20
60.747100000000003
 30
0.0
 10
-4.2098000000000004
 20
59.207999999999998
 30
0.0
 10
-4.2098000000000004
 20
59.207999999999998
 30
0.0
 10
-4.2098000000000004
 20
59.207999999999998
 30
0.0
 10
-4.2098000000000004
 20
58.959699999999998
 30
0.0
 10
-4.2849000000000004
 20
58.884599999999999
 30
0.0
 10
-4.5334000000000003
 20
58.884599999999999
 30
0.0
 10
-4.5334000000000003
 20
58.884599999999999
 30
0.0
 10
-4.7596999999999996
 20
58.884599999999999
 30
0.0
 10
-7.1215000000000002
 20
61.350299999999997
 30
0.0
 10
-7.1215000000000002
 20
61.688600000000001
 30
0.0
 10
-7.1215000000000002
 20
61.688600000000001
 30
0.0
 10
-7.1215000000000002
 20
61.7669
 30
0.0
 10
-6.5861000000000001
 20
62.276200000000003
 30
0.0
 10
-6.4744000000000002
 20
62.443300000000001
 30
0.0
 10
-6.4744000000000002
 20
62.443300000000001
 30
0.0
 10
-6.8487
 20
62.641300000000001
 30
0.0
 10
-7.7572000000000001
 20
63.413800000000002
 30
0.0
 10
-7.8762999999999996
 20
63.413800000000002
 30
0.0
 10
-7.8762999999999996
 20
63.413800000000002
 30
0.0
 10
-8.0888000000000009
 20
63.413800000000002
 30
0.0
 10
-8.1432000000000002
 20
62.982599999999998
 30
0.0
 10
-8.5233000000000008
 20
62.982599999999998
 30
0.0
 10
-8.5233000000000008
 20
62.982599999999998
 30
0.0
 10
-8.5233000000000008
 20
62.982599999999998
 30
0.0
 10
-8.7391000000000005
 20
62.982599999999998
 30
0.0
 10
-8.7391000000000005
 20
62.982599999999998
 30
0.0
 10
-8.7391000000000005
 20
62.982599999999998
 30
0.0
 10
-9.1357999999999997
 20
62.982599999999998
 30
0.0
 10
-8.9893999999999998
 20
63.305999999999997
 30
0.0
 10
-9.3861000000000008
 20
63.305999999999997
 30
0.0
 10
-9.3861000000000008
 20
63.305999999999997
 30
0.0
 10
-9.5700000000000003
 20
63.305999999999997
 30
0.0
 10
-10.5723
 20
62.331600000000002
 30
0.0
 10
-10.5723
 20
62.119700000000002
 30
0.0
 10
-10.5723
 20
62.119700000000002
 30
0.0
 10
-10.5723
 20
61.844099999999997
 30
0.0
 10
-10.033200000000001
 20
61.9587
 30
0.0
 10
-10.033200000000001
 20
61.472700000000003
 30
0.0
 10
-10.033200000000001
 20
61.472700000000003
 30
0.0
 10
-10.033200000000001
 20
61.1982
 30
0.0
 10
-10.3995
 20
60.975700000000003
 30
0.0
 10
-10.5723
 20
60.7179
 30
0.0
 10
-10.5723
 20
60.7179
 30
0.0
 10
-10.5723
 20
60.7179
 30
0.0
 10
-9.4118999999999993
 20
59.506
 30
0.0
 10
-9.4118999999999993
 20
59.506
 30
0.0
 10
-9.4118999999999993
 20
59.506
 30
0.0
 10
-9.4118999999999993
 20
59.506
 30
0.0
 10
-8.7141000000000002
 20
60.153700000000001
 30
0.0
 10
-8.7141000000000002
 20
60.153700000000001
 30
0.0
 10
-8.7141000000000002
 20
60.153700000000001
 30
0.0
 10
-8.7141000000000002
 20
60.153700000000001
 30
0.0
 10
-5.8251999999999997
 20
57.377400000000002
 30
0.0
 10
-5.8251999999999997
 20
57.377400000000002
 30
0.0
 10
-5.8251999999999997
 20
57.377400000000002
 30
0.0
 10
-5.8251999999999997
 20
57.377400000000002
 30
0.0
 10
-6.0586000000000002
 20
57.064399999999999
 30
0.0
 10
-6.0586000000000002
 20
57.064399999999999
 30
0.0
 10
-6.0586000000000002
 20
57.064399999999999
 30
0.0
 10
-6.0586000000000002
 20
57.064399999999999
 30
0.0
 10
-7.9861000000000004
 20
57.000399999999999
 30
0.0
 10
-7.9861000000000004
 20
57.000399999999999
 30
0.0
 10
-7.9861000000000004
 20
57.000399999999999
 30
0.0
 10
-7.9861000000000004
 20
57.000399999999999
 30
0.0
 10
-7.9843000000000002
 20
56.296500000000002
 30
0.0
 10
-7.9843000000000002
 20
56.296500000000002
 30
0.0
 10
-7.9843000000000002
 20
56.296500000000002
 30
0.0
 10
-7.9843000000000002
 20
56.296500000000002
 30
0.0
 10
-8.1049000000000007
 20
55.3279
 30
0.0
 10
-8.1049000000000007
 20
55.3279
 30
0.0
 10
-8.1049000000000007
 20
55.3279
 30
0.0
 10
-8.1049000000000007
 20
55.3279
 30
0.0
 10
-3.9943
 20
55.326000000000001
 30
0.0
 10
-3.9943
 20
55.326000000000001
 30
0.0
 10
-3.9943
 20
55.326000000000001
 30
0.0
 10
-3.7726000000000002
 20
55.326000000000001
 30
0.0
 10
-2.3048999999999999
 20
53.841500000000003
 30
0.0
 10
-1.9453
 20
53.6006
 30
0.0
 10
-1.9453
 20
53.6006
 30
0.0
 10
-1.9453
 20
53.6006
 30
0.0
 10
-2.1669
 20
53.172499999999999
 30
0.0
 10
-2.1669
 20
53.172499999999999
 30
0.0
 10
-2.1669
 20
53.172499999999999
 30
0.0
 10
-2.1669
 20
53.172499999999999
 30
0.0
 10
-4.1040999999999999
 20
53.118299999999998
 30
0.0
 10
-4.1040999999999999
 20
53.118299999999998
 30
0.0
 10
-4.1040999999999999
 20
53.118299999999998
 30
0.0
 10
-4.1040999999999999
 20
53.118299999999998
 30
0.0
 10
-4.1020000000000003
 20
52.414400000000001
 30
0.0
 10
-4.1020000000000003
 20
52.414400000000001
 30
0.0
 10
-4.1020000000000003
 20
52.414400000000001
 30
0.0
 10
-4.1020000000000003
 20
52.414400000000001
 30
0.0
 10
-4.2226999999999997
 20
51.445700000000002
 30
0.0
 10
-4.2226999999999997
 20
51.445700000000002
 30
0.0
 10
-4.2226999999999997
 20
51.445700000000002
 30
0.0
 10
-4.2226999999999997
 20
51.445700000000002
 30
0.0
 10
-0.112
 20
51.4437
 30
0.0
 10
-0.112
 20
51.4437
 30
0.0
 10
-0.112
 20
51.4437
 30
0.0
 10
0.1568
 20
51.4437
 30
0.0
 10
1.3979999999999999
 20
50.203000000000003
 30
0.0
 10
1.3979999999999999
 20
49.934100000000001
 30
0.0
 10
1.3979999999999999
 20
49.934100000000001
 30
0.0
 10
1.3979999999999999
 20
49.526899999999998
 30
0.0
 10
-0.0041
 20
47.261099999999999
 30
0.0
 10
-0.0041
 20
46.159799999999997
 30
0.0
 10
-0.0041
 20
46.159799999999997
 30
0.0
 10
-0.2263
 20
46.010899999999999
 30
0.0
 10
-0.2842
 20
45.836100000000002
 30
0.0
 10
-0.5434
 20
45.836100000000002
 30
0.0
 10
-0.5434
 20
45.836100000000002
 30
0.0
 10
-0.5434
 20
45.836100000000002
 30
0.0
 10
-1.8375999999999999
 20
45.836100000000002
 30
0.0
 10
-1.8375999999999999
 20
45.836100000000002
 30
0.0
 10
-1.8375999999999999
 20
45.836100000000002
 30
0.0
 10
-2.8182
 20
45.836100000000002
 30
0.0
 10
-4.6246999999999998
 20
48.747999999999998
 30
0.0
 10
-5.2882999999999996
 20
48.747999999999998
 30
0.0
 10
-5.2882999999999996
 20
48.747999999999998
 30
0.0
 10
-5.7130999999999998
 20
48.747999999999998
 30
0.0
 10
-6.1147999999999998
 20
47.823099999999997
 30
0.0
 10
-6.6901000000000002
 20
47.669499999999999
 30
0.0
 10
-6.6901000000000002
 20
47.669499999999999
 30
0.0
 10
-6.4733000000000001
 20
47.345799999999997
 30
0.0
 10
-5.2882999999999996
 20
46.406399999999998
 30
0.0
 10
-5.2882999999999996
 20
46.159799999999997
 30
0.0
 10
-5.2882999999999996
 20
46.159799999999997
 30
0.0
 10
-5.2882999999999996
 20
46.028399999999998
 30
0.0
 10
-5.5113000000000003
 20
45.836100000000002
 30
0.0
 10
-5.7195999999999998
 20
45.836100000000002
 30
0.0
 10
-5.7195999999999998
 20
45.836100000000002
 30
0.0
 10
-5.7195999999999998
 20
45.836100000000002
 30
0.0
 10
-7.5526999999999997
 20
45.836100000000002
 30
0.0
 10
-7.5526999999999997
 20
45.836100000000002
 30
0.0
 10
-7.5526999999999997
 20
45.836100000000002
 30
0.0
 10
-8.109
 20
45.836100000000002
 30
0.0
 10
-10.2316
 20
48.747999999999998
 30
0.0
 10
-10.7879
 20
48.747999999999998
 30
0.0
 10
-10.7879
 20
48.747999999999998
 30
0.0
 10
-11.106999999999999
 20
48.747999999999998
 30
0.0
 10
-11.917999999999999
 20
47.806800000000003
 30
0.0
 10
-12.081899999999999
 20
47.561799999999998
 30
0.0
 10
-12.081899999999999
 20
47.561799999999998
 30
0.0
 10
-11.8042
 20
47.146599999999999
 30
0.0
 10
-10.7879
 20
46.457900000000002
 30
0.0
 10
-10.7879
 20
46.159799999999997
 30
0.0
 10
-10.7879
 20
46.159799999999997
 30
0.0
 10
-10.7879
 20
45.9114
 30
0.0
 10
-10.863
 20
45.836100000000002
 30
0.0
 10
-11.111499999999999
 20
45.836100000000002
 30
0.0
 10
-11.111499999999999
 20
45.836100000000002
 30
0.0
 10
-11.111499999999999
 20
45.836100000000002
 30
0.0
 10
-13.0525
 20
45.836100000000002
 30
0.0
 10
-13.0525
 20
45.836100000000002
 30
0.0
 10
-13.0525
 20
45.836100000000002
 30
0.0
 10
-13.6089
 20
45.836100000000002
 30
0.0
 10
-15.731400000000001
 20
48.747999999999998
 30
0.0
 10
-16.2879
 20
48.747999999999998
 30
0.0
 10
-16.2879
 20
48.747999999999998
 30
0.0
 10
-16.319299999999998
 20
48.747999999999998
 30
0.0
 10
-17.509899999999998
 20
47.659999999999997
 30
0.0
 10
-17.581800000000001
 20
47.561799999999998
 30
0.0
 10
-17.581800000000001
 20
47.561799999999998
 30
0.0
 10
-17.304099999999998
 20
47.146599999999999
 30
0.0
 10
-16.2879
 20
46.457900000000002
 30
0.0
 10
-16.2879
 20
46.159799999999997
 30
0.0
 10
-16.2879
 20
46.159799999999997
 30
0.0
 10
-16.2879
 20
46.028399999999998
 30
0.0
 10
-16.5107
 20
45.836100000000002
 30
0.0
 10
-16.718900000000001
 20
45.836100000000002
 30
0.0
 10
-16.718900000000001
 20
45.836100000000002
 30
0.0
 10
-16.718900000000001
 20
45.836100000000002
 30
0.0
 10
-21.248200000000001
 20
45.836100000000002
 30
0.0
 10
-21.248200000000001
 20
45.836100000000002
 30
0.0
 10
-21.248200000000001
 20
45.836100000000002
 30
0.0
 10
-21.4968
 20
45.836100000000002
 30
0.0
 10
-21.5717
 20
45.9114
 30
0.0
 10
-21.5717
 20
46.159799999999997
 30
0.0
 10
-21.5717
 20
46.159799999999997
 30
0.0
 10
-21.5717
 20
46.159799999999997
 30
0.0
 10
-21.5717
 20
46.9146
 30
0.0
 10
-21.5717
 20
46.9146
 30
0.0
 10
-21.5717
 20
46.9146
 30
0.0
 10
-21.898
 20
46.907499999999999
 30
0.0
 10
-22.161899999999999
 20
46.910499999999999
 30
0.0
 10
-22.377400000000002
 20
46.908200000000001
 30
0.0
  0
SPLINE
  5
34
100
AcDbEntity
  8
RÚteg 1
 62
     7
100
AcDbSpline
210
0.0
220
0.0
230
1.0
 70
     1
 71
     3
 72
    28
 73
    24
 74
     0
 42
0.0000000001
 43
0.0000000001
 40
0.0
 40
0.0
 40
0.0
 40
0.0
 40
0.1666666666666667
 40
0.1666666666666667
 40
0.1666666666666667
 40
0.1666666666666667
 40
0.3333333333333333
 40
0.3333333333333333
 40
0.3333333333333333
 40
0.3333333333333333
 40
0.5
 40
0.5
 40
0.5
 40
0.5
 40
0.6666666666666666
 40
0.6666666666666666
 40
0.6666666666666666
 40
0.6666666666666666
 40
0.8333333333333333
 40
0.8333333333333333
 40
0.8333333333333333
 40
0.8333333333333333
 40
1.0
 40
1.0
 40
1.0
 40
1.0
 10
6.3319999999999999
 20
41.2256
 30
0.0
 10
6.3319999999999999
 20
41.2256
 30
0.0
 10
7.6386000000000003
 20
40.729900000000001
 30
0.0
 10
7.6386000000000003
 20
40.729900000000001
 30
0.0
 10
7.6386000000000003
 20
40.729900000000001
 30
0.0
 10
7.6386000000000003
 20
40.729900000000001
 30
0.0
 10
7.6523000000000003
 20
39.042499999999997
 30
0.0
 10
7.6523000000000003
 20
39.042499999999997
 30
0.0
 10
7.6523000000000003
 20
39.042499999999997
 30
0.0
 10
7.6523000000000003
 20
39.042499999999997
 30
0.0
 10
7.7729999999999997
 20
38.073999999999998
 30
0.0
 10
7.7729999999999997
 20
38.073999999999998
 30
0.0
 10
7.7729999999999997
 20
38.073999999999998
 30
0.0
 10
7.7729999999999997
 20
38.073999999999998
 30
0.0
 10
7.4172000000000002
 20
37.890700000000002
 30
0.0
 10
7.4172000000000002
 20
37.890700000000002
 30
0.0
 10
7.4172000000000002
 20
37.890700000000002
 30
0.0
 10
6.0414000000000003
 20
38.525700000000001
 30
0.0
 10
5.8335999999999997
 20
38.309800000000003
 30
0.0
 10
4.3910999999999998
 20
39.284300000000002
 30
0.0
 10
4.3910999999999998
 20
39.284300000000002
 30
0.0
 10
4.3910999999999998
 20
39.284300000000002
 30
0.0
 10
6.3319999999999999
 20
41.2256
 30
0.0
 10
6.3319999999999999
 20
41.2256
 30
0.0
  0
SPLINE
  5
35
100
AcDbEntity
  8
RÚteg 1
 62
     7
100
AcDbSpline
210
0.0
220
0.0
230
1.0
 70
     1
 71
     3
 72
    20
 73
    16
 74
     0
 42
0.0000000001
 43
0.0000000001
 40
0.0
 40
0.0
 40
0.0
 40
0.0
 40
0.25
 40
0.25
 40
0.25
 40
0.25
 40
0.5
 40
0.5
 40
0.5
 40
0.5
 40
0.75
 40
0.75
 40
0.75
 40
0.75
 40
1.0
 40
1.0
 40
1.0
 40
1.0
 10
12.265499999999999
 20
44.082500000000003
 30
0.0
 10
12.265499999999999
 20
44.082500000000003
 30
0.0
 10
14.8774
 20
44.110900000000001
 30
0.0
 10
14.8774
 20
44.110900000000001
 30
0.0
 10
14.8774
 20
44.110900000000001
 30
0.0
 10
14.968999999999999
 20
43.0107
 30
0.0
 10
14.5829
 20
41.292700000000004
 30
0.0
 10
13.799300000000001
 20
40.767899999999997
 30
0.0
 10
13.799300000000001
 20
40.767899999999997
 30
0.0
 10
13.799300000000001
 20
40.767899999999997
 30
0.0
 10
11.7956
 20
42.6935
 30
0.0
 10
11.7956
 20
42.6935
 30
0.0
 10
11.7956
 20
42.6935
 30
0.0
 10
11.7956
 20
42.6935
 30
0.0
 10
12.265499999999999
 20
44.082500000000003
 30
0.0
 10
12.265499999999999
 20
44.082500000000003
 30
0.0
  0
SPLINE
  5
36
100
AcDbEntity
  8
RÚteg 1
 62
     7
100
AcDbSpline
210
0.0
220
0.0
230
1.0
 70
     1
 71
     3
 72
    20
 73
    16
 74
     0
 42
0.0000000001
 43
0.0000000001
 40
0.0
 40
0.0
 40
0.0
 40
0.0
 40
0.25
 40
0.25
 40
0.25
 40
0.25
 40
0.5
 40
0.5
 40
0.5
 40
0.5
 40
0.75
 40
0.75
 40
0.75
 40
0.75
 40
1.0
 40
1.0
 40
1.0
 40
1.0
 10
4.5582000000000003
 20
42.136899999999997
 30
0.0
 10
4.2946
 20
41.8339
 30
0.0
 10
3.302
 20
40.767899999999997
 30
0.0
 10
2.9075000000000002
 20
40.767899999999997
 30
0.0
 10
2.9075000000000002
 20
40.767899999999997
 30
0.0
 10
2.4232999999999998
 20
40.767899999999997
 30
0.0
 10
1.6769000000000001
 20
43.348999999999997
 30
0.0
 10
1.6134999999999999
 20
44.110900000000001
 30
0.0
 10
1.6134999999999999
 20
44.110900000000001
 30
0.0
 10
1.6134999999999999
 20
44.110900000000001
 30
0.0
 10
4.0936000000000003
 20
44.110900000000001
 30
0.0
 10
4.0936000000000003
 20
44.110900000000001
 30
0.0
 10
4.0936000000000003
 20
44.110900000000001
 30
0.0
 10
4.5229999999999997
 20
44.110900000000001
 30
0.0
 10
4.9736000000000002
 20
42.615600000000001
 30
0.0
 10
4.5582000000000003
 20
42.136899999999997
 30
0.0
  0
SPLINE
  5
37
100
AcDbEntity
  8
RÚteg 1
 62
     7
100
AcDbSpline
210
0.0
220
0.0
230
1.0
 70
     1
 71
     3
 72
    28
 73
    24
 74
     0
 42
0.0000000001
 43
0.0000000001
 40
0.0
 40
0.0
 40
0.0
 40
0.0
 40
0.1666666666666667
 40
0.1666666666666667
 40
0.1666666666666667
 40
0.1666666666666667
 40
0.3333333333333333
 40
0.3333333333333333
 40
0.3333333333333333
 40
0.3333333333333333
 40
0.5
 40
0.5
 40
0.5
 40
0.5
 40
0.6666666666666666
 40
0.6666666666666666
 40
0.6666666666666666
 40
0.6666666666666666
 40
0.8333333333333333
 40
0.8333333333333333
 40
0.8333333333333333
 40
0.8333333333333333
 40
1.0
 40
1.0
 40
1.0
 40
1.0
 10
2.7913000000000001
 20
48.588900000000002
 30
0.0
 10
2.7913000000000001
 20
48.588900000000002
 30
0.0
 10
2.9075000000000002
 20
48.5321
 30
0.0
 10
2.9075000000000002
 20
48.5321
 30
0.0
 10
2.9075000000000002
 20
48.5321
 30
0.0
 10
3.2277999999999998
 20
48.317799999999998
 30
0.0
 10
4.9562999999999997
 20
46.7179
 30
0.0
 10
4.9562999999999997
 20
46.375500000000002
 30
0.0
 10
4.9562999999999997
 20
46.375500000000002
 30
0.0
 10
4.9562999999999997
 20
46.124000000000002
 30
0.0
 10
4.6688000000000001
 20
45.836100000000002
 30
0.0
 10
4.4173
 20
45.836100000000002
 30
0.0
 10
4.4173
 20
45.836100000000002
 30
0.0
 10
4.4173
 20
45.836100000000002
 30
0.0
 10
2.1528
 20
45.836100000000002
 30
0.0
 10
2.1528
 20
45.836100000000002
 30
0.0
 10
2.1528
 20
45.836100000000002
 30
0.0
 10
1.8153999999999999
 20
45.836100000000002
 30
0.0
 10
1.847
 20
46.029899999999998
 30
0.0
 10
1.6684000000000001
 20
46.293500000000002
 30
0.0
 10
1.6684000000000001
 20
46.293500000000002
 30
0.0
 10
1.6684000000000001
 20
46.293500000000002
 30
0.0
 10
2.7913000000000001
 20
48.588900000000002
 30
0.0
 10
2.7913000000000001
 20
48.588900000000002
 30
0.0
  0
SPLINE
  5
38
100
AcDbEntity
  8
RÚteg 1
 62
     7
100
AcDbSpline
210
0.0
220
0.0
230
1.0
 70
     1
 71
     3
 72
    28
 73
    24
 74
     0
 42
0.0000000001
 43
0.0000000001
 40
0.0
 40
0.0
 40
0.0
 40
0.0
 40
0.1666666666666667
 40
0.1666666666666667
 40
0.1666666666666667
 40
0.1666666666666667
 40
0.3333333333333333
 40
0.3333333333333333
 40
0.3333333333333333
 40
0.3333333333333333
 40
0.5
 40
0.5
 40
0.5
 40
0.5
 40
0.6666666666666666
 40
0.6666666666666666
 40
0.6666666666666666
 40
0.6666666666666666
 40
0.8333333333333333
 40
0.8333333333333333
 40
0.8333333333333333
 40
0.8333333333333333
 40
1.0
 40
1.0
 40
1.0
 40
1.0
 10
13.666700000000001
 20
48.557000000000002
 30
0.0
 10
14.1013
 20
48.257599999999996
 30
0.0
 10
14.7697
 20
46.934199999999997
 30
0.0
 10
14.7697
 20
46.267800000000001
 30
0.0
 10
14.7697
 20
46.267800000000001
 30
0.0
 10
14.7697
 20
46.116300000000003
 30
0.0
 10
14.6227
 20
46.051900000000003
 30
0.0
 10
14.446300000000001
 20
46.051900000000003
 30
0.0
 10
14.446300000000001
 20
46.051900000000003
 30
0.0
 10
14.446300000000001
 20
46.051900000000003
 30
0.0
 10
12.720700000000001
 20
46.051900000000003
 30
0.0
 10
12.720700000000001
 20
46.051900000000003
 30
0.0
 10
12.720700000000001
 20
46.051900000000003
 30
0.0
 10
12.3489
 20
46.051900000000003
 30
0.0
 10
12.303100000000001
 20
46.131700000000002
 30
0.0
 10
11.9657
 20
46.159799999999997
 30
0.0
 10
11.9657
 20
46.159799999999997
 30
0.0
 10
11.9657
 20
46.159799999999997
 30
0.0
 10
11.774699999999999
 20
46.674199999999999
 30
0.0
 10
11.774699999999999
 20
46.674199999999999
 30
0.0
 10
11.774699999999999
 20
46.674199999999999
 30
0.0
 10
11.774699999999999
 20
46.674199999999999
 30
0.0
 10
13.666700000000001
 20
48.557000000000002
 30
0.0
 10
13.666700000000001
 20
48.557000000000002
 30
0.0
  0
SPLINE
  5
39
100
AcDbEntity
  8
RÚteg 1
 62
     7
100
AcDbSpline
210
0.0
220
0.0
230
1.0
 70
     1
 71
     3
 72
    20
 73
    16
 74
     0
 42
0.0000000001
 43
0.0000000001
 40
0.0
 40
0.0
 40
0.0
 40
0.0
 40
0.25
 40
0.25
 40
0.25
 40
0.25
 40
0.5
 40
0.5
 40
0.5
 40
0.5
 40
0.75
 40
0.75
 40
0.75
 40
0.75
 40
1.0
 40
1.0
 40
1.0
 40
1.0
 10
9.8092000000000006
 20
51.228299999999997
 30
0.0
 10
9.8092000000000006
 20
51.228299999999997
 30
0.0
 10
12.213200000000001
 20
50.219200000000001
 30
0.0
 10
12.213200000000001
 20
50.219200000000001
 30
0.0
 10
12.213200000000001
 20
50.219200000000001
 30
0.0
 10
11.874499999999999
 20
49.509500000000003
 30
0.0
 10
11.076700000000001
 20
48.100900000000003
 30
0.0
 10
10.2403
 20
48.100900000000003
 30
0.0
 10
10.2403
 20
48.100900000000003
 30
0.0
 10
10.0945
 20
48.100900000000003
 30
0.0
 10
10.1805
 20
48.217399999999998
 30
0.0
 10
9.8092000000000006
 20
48.316600000000001
 30
0.0
 10
9.8092000000000006
 20
48.316600000000001
 30
0.0
 10
9.8092000000000006
 20
48.316600000000001
 30
0.0
 10
9.8092000000000006
 20
51.228299999999997
 30
0.0
 10
9.8092000000000006
 20
51.228299999999997
 30
0.0
  0
SPLINE
  5
3A
100
AcDbEntity
  8
RÚteg 1
 62
     7
100
AcDbSpline
210
0.0
220
0.0
230
1.0
 70
     1
 71
     3
 72
    32
 73
    28
 74
     0
 42
0.0000000001
 43
0.0000000001
 40
0.0
 40
0.0
 40
0.0
 40
0.0
 40
0.1428571428571429
 40
0.1428571428571429
 40
0.1428571428571429
 40
0.1428571428571429
 40
0.2857142857142857
 40
0.2857142857142857
 40
0.2857142857142857
 40
0.2857142857142857
 40
0.4285714285714286
 40
0.4285714285714286
 40
0.4285714285714286
 40
0.4285714285714286
 40
0.5714285714285714
 40
0.5714285714285714
 40
0.5714285714285714
 40
0.5714285714285714
 40
0.7142857142857142
 40
0.7142857142857142
 40
0.7142857142857142
 40
0.7142857142857142
 40
0.857142857142857
 40
0.857142857142857
 40
0.857142857142857
 40
0.857142857142857
 40
1.0
 40
1.0
 40
1.0
 40
1.0
 10
4.4173
 20
50.149900000000002
 30
0.0
 10
5.0738000000000003
 20
50.589599999999997
 30
0.0
 10
6.3712999999999997
 20
51.336100000000002
 30
0.0
 10
7.4364999999999997
 20
51.336100000000002
 30
0.0
 10
7.4364999999999997
 20
51.336100000000002
 30
0.0
 10
7.6882999999999999
 20
51.336100000000002
 30
0.0
 10
7.9757999999999996
 20
51.048099999999998
 30
0.0
 10
7.9757999999999996
 20
50.796799999999998
 30
0.0
 10
7.9757999999999996
 20
50.796799999999998
 30
0.0
 10
7.9757999999999996
 20
50.796799999999998
 30
0.0
 10
7.9757999999999996
 20
48.747999999999998
 30
0.0
 10
7.9757999999999996
 20
48.747999999999998
 30
0.0
 10
7.9757999999999996
 20
48.747999999999998
 30
0.0
 10
7.9757999999999996
 20
48.295499999999997
 30
0.0
 10
6.8552999999999997
 20
47.885300000000001
 30
0.0
 10
6.4661999999999997
 20
47.885300000000001
 30
0.0
 10
6.4661999999999997
 20
47.885300000000001
 30
0.0
 10
6.4661999999999997
 20
47.885300000000001
 30
0.0
 10
6.3585000000000003
 20
47.885300000000001
 30
0.0
 10
6.3585000000000003
 20
47.885300000000001
 30
0.0
 10
6.3585000000000003
 20
47.885300000000001
 30
0.0
 10
6.1148999999999996
 20
47.885300000000001
 30
0.0
 10
5.4665999999999997
 20
48.723399999999998
 30
0.0
 10
5.2530000000000001
 20
48.936599999999999
 30
0.0
 10
5.2530000000000001
 20
48.936599999999999
 30
0.0
 10
4.5627000000000004
 20
49.626800000000003
 30
0.0
 10
4.8310000000000004
 20
49.287300000000002
 30
0.0
 10
4.4173
 20
50.149900000000002
 30
0.0
  0
ENDSEC
  0
SECTION
  2
OBJECTS
  0
DICTIONARY
  5
19
100
AcDbDictionary
280
     0
281
     1
  3
ACAD_GROUP
350
1A
  3
ACAD_MLINESTYLE
350
1B
  3
ACAD_LAYOUT
350
1E
  3
ACAD_PLOTSETTINGS
350
22
  3
ACAD_PLOTSTYLENAME
350
1F
  3
ACAD_WIPEOUT_VARS
350
23
  0
DICTIONARY
  5
1A
102
{ACAD_REACTORS
330
19
102
}
100
AcDbDictionary
280
     0
281
     1
  0
DICTIONARY
  5
1B
102
{ACAD_REACTORS
330
19
102
}
100
AcDbDictionary
280
     0
281
     1
  3
Standard
350
1C
  0
MLINESTYLE
  5
1C
102
{ACAD_REACTORS
330
1B
102
}
100
AcDbMlineStyle
  2
Standard
 70
     0
  3

 62
     0
 51
90.0
 52
90.0
 71
     2
 49
0.5
 62
   256
  6
BYLAYER
 49
-0.5
 62
   256
  6
BYLAYER
  0
ACDBDICTIONARYWDFLT
  5
1F
102
{ACAD_REACTORS
330
19
102
}
100
AcDbDictionary
281
     1
  3
Normal
350
1D
100
AcDbDictionaryWithDefault
340
1D
  0
ACDBPLACEHOLDER
  5
1D
102
{ACAD_REACTORS
330
1F
102
}
  0
LAYOUT
  5
20
102
{ACAD_REACTORS
330
1E
102
}
100
AcDbPlotSettings
  1

  2

  4

  6

 40
0.0
 41
0.0
 42
0.0
 43
0.0
 44
0.0
 45
0.0
 46
0.0
 47
0.0
 48
0.0
 49
0.0
140
0.0
141
0.0
142
1.0
143
1.0
 70
  1024
 72
     0
 73
     0
 74
     0
  7

 75
     0
147
1.0
148
0.0
149
0.0
100
AcDbLayout
  1
Model
 70
     0
 71
     0
 10
0.0
 20
0.0
 11
0.0
 21
0.0
 12
0.0
 22
0.0
 32
0.0
 14
0.0
 24
0.0
 34
0.0
 15
0.0
 25
0.0
 35
0.0
146
0.0
 13
0.0
 23
0.0
 33
0.0
 16
0.0
 26
0.0
 36
0.0
 17
0.0
 27
0.0
 37
0.0
 76
     0
330
A
331
0
345
0
346
0
  0
LAYOUT
  5
21
102
{ACAD_REACTORS
330
1E
102
}
100
AcDbPlotSettings
  1

  2

  4

  6

 40
0.0
 41
0.0
 42
0.0
 43
0.0
 44
0.0
 45
0.0
 46
0.0
 47
0.0
 48
0.0
 49
0.0
140
0.0
141
0.0
142
1.0
143
1.0
 70
     0
 72
     0
 73
     0
 74
     0
  7

 75
     0
147
1.0
148
0.0
149
0.0
100
AcDbLayout
  1
Layout1
 70
     0
 71
     0
 10
0.0
 20
0.0
 11
0.0
 21
0.0
 12
0.0
 22
0.0
 32
0.0
 14
0.0
 24
0.0
 34
0.0
 15
0.0
 25
0.0
 35
0.0
146
0.0
 13
0.0
 23
0.0
 33
0.0
 16
0.0
 26
0.0
 36
0.0
 17
0.0
 27
0.0
 37
0.0
 76
     0
330
B
331
0
345
0
346
0
  0
DICTIONARY
  5
1E
102
{ACAD_REACTORS
330
19
102
}
100
AcDbDictionary
280
     0
281
     1
  3
Layout1
350
21
  3
Model
350
20
  0
DICTIONARY
  5
22
102
{ACAD_REACTORS
330
19
102
}
100
AcDbDictionary
280
     0
281
     1
  0
WIPEOUTVARIABLES
  5
23
100
AcDbWipeoutVariables
 70
     1
  0
ENDSEC
  0
EOF
