  0
SECTION
  2
HEADER
  9
$ACADVER
  1
AC1015
  9
$ACADMAINTVER
 70
     6
  9
$DWGCODEPAGE
  3
DOS850
  9
$INSBASE
 10
0.0
 20
0.0
 30
0.0
  9
$EXTMIN
 10
-105.8882
 20
15.0124
 30
1.000000E+20
  9
$EXTMAX
 10
34.9882
 20
95.3882
 30
-1.000000E+20
  9
$LIMMIN
 10
0.0
 20
0.0
  9
$LIMMAX
 10
0.0
 20
0.0
  9
$ORTHOMODE
 70
     0
  9
$REGENMODE
 70
     1
  9
$FILLMODE
 70
     1
  9
$QTEXTMODE
 70
     0
  9
$MIRRTEXT
 70
     1
  9
$LTSCALE
 40
1.0
  9
$ATTMODE
 70
     1
  9
$TEXTSIZE
 40
0.2
  9
$TRACEWID
 40
0.05
  9
$TEXTSTYLE
  7
Standard
  9
$CLAYER
  8
0
  9
$CELTYPE
  6
Continuous
  9
$CECOLOR
 62
   256
  9
$CELTSCALE
 40
1.0
  9
$DISPSILH
 70
     0
  9
$DIMSCALE
 40
1.0
  9
$DIMASZ
 40
0.18
  9
$DIMEXO
 40
0.0625
  9
$DIMDLI
 40
0.38
  9
$DIMRND
 40
0.0
  9
$DIMDLE
 40
0.0
  9
$DIMEXE
 40
0.18
  9
$DIMTP
 40
0.0
  9
$DIMTM
 40
0.0
  9
$DIMTXT
 40
0.18
  9
$DIMCEN
 40
0.09
  9
$DIMTSZ
 40
0.0
  9
$DIMTOL
 70
     0
  9
$DIMLIM
 70
     0
  9
$DIMTIH
 70
     1
  9
$DIMTOH
 70
     1
  9
$DIMSE1
 70
     0
  9
$DIMSE2
 70
     0
  9
$DIMTAD
 70
     0
  9
$DIMZIN
 70
     0
  9
$DIMBLK
  1

  9
$DIMASO
 70
     1
  9
$DIMSHO
 70
     1
  9
$DIMPOST
  1

  9
$DIMAPOST
  1

  9
$DIMALT
 70
     0
  9
$DIMALTD
 70
     2
  9
$DIMALTF
 40
25.4
  9
$DIMLFAC
 40
1.0
  9
$DIMTOFL
 70
     0
  9
$DIMTVP
 40
0.0
  9
$DIMTIX
 70
     0
  9
$DIMSOXD
 70
     0
  9
$DIMSAH
 70
     0
  9
$DIMBLK1
  1

  9
$DIMBLK2
  1

  9
$DIMSTYLE
  2
Standard
  9
$DIMCLRD
 70
     0
  9
$DIMCLRE
 70
     0
  9
$DIMCLRT
 70
     0
  9
$DIMTFAC
 40
1.0
  9
$DIMGAP
 40
0.09
  9
$DIMJUST
 70
     0
  9
$DIMSD1
 70
     0
  9
$DIMSD2
 70
     0
  9
$DIMTOLJ
 70
     1
  9
$DIMTZIN
 70
     0
  9
$DIMALTZ
 70
     0
  9
$DIMALTTZ
 70
     0
  9
$DIMUPT
 70
     0
  9
$DIMDEC
 70
     4
  9
$DIMTDEC
 70
     4
  9
$DIMALTU
 70
     2
  9
$DIMALTTD
 70
     2
  9
$DIMTXSTY
  7
Standard
  9
$DIMAUNIT
 70
     0
  9
$DIMADEC
 70
     0
  9
$DIMALTRND
 40
0.0
  9
$DIMAZIN
 70
     0
  9
$DIMDSEP
 70
     0
  9
$DIMATFIT
 70
     3
  9
$DIMFRAC
 70
     0
  9
$DIMLDRBLK
  1

  9
$DIMLUNIT
 70
     2
  9
$DIMLWD
 70
     0
  9
$DIMLWE
 70
     0
  9
$DIMTMOVE
 70
     0
  9
$LUNITS
 70
     2
  9
$LUPREC
 70
     4
  9
$SKETCHINC
 40
0.1
  9
$FILLETRAD
 40
0.0
  9
$AUNITS
 70
     0
  9
$AUPREC
 70
     0
  9
$MENU
  1
acad
  9
$ELEVATION
 40
0.0
  9
$PELEVATION
 40
0.0
  9
$THICKNESS
 40
0.0
  9
$LIMCHECK
 70
     0
  9
$CHAMFERA
 40
0.0
  9
$CHAMFERB
 40
0.0
  9
$CHAMFERC
 40
0.0
  9
$CHAMFERD
 40
0.0
  9
$SKPOLY
 70
     0
  9
$TDCREATE
 40
0.000000000
  9
$TDUCREATE
 40
0.000000000
  9
$TDUPDATE
 40
0.000000000
  9
$TDUUPDATE
 40
0.000000000
  9
$TDINDWG
 40
0.0000000000
  9
$TDUSRTIMER
 40
0.0000000000
  9
$USRTIMER
 70
     1
  9
$ANGBASE
 50
0.0
  9
$ANGDIR
 70
     0
  9
$PDMODE
 70
     0
  9
$PDSIZE
 40
0.0
  9
$PLINEWID
 40
0.0
  9
$SPLFRAME
 70
     0
  9
$SPLINETYPE
 70
     6
  9
$SPLINESEGS
 70
     8
  9
$HANDSEED
  5
60
  9
$SURFTAB1
 70
     6
  9
$SURFTAB2
 70
     6
  9
$SURFTYPE
 70
     6
  9
$SURFU
 70
     6
  9
$SURFV
 70
     6
  9
$UCSBASE
  2

  9
$UCSNAME
  2

  9
$UCSORG
 10
0.0
 20
0.0
 30
0.0
  9
$UCSXDIR
 10
1.0
 20
0.0
 30
0.0
  9
$UCSYDIR
 10
0.0
 20
1.0
 30
0.0
  9
$UCSORTHOREF
  2

  9
$UCSORTHOVIEW
 70
     0
  9
$UCSORGTOP
 10
0.0
 20
0.0
 30
0.0
  9
$UCSORGBOTTOM
 10
0.0
 20
0.0
 30
0.0
  9
$UCSORGLEFT
 10
0.0
 20
0.0
 30
0.0
  9
$UCSORGRIGHT
 10
0.0
 20
0.0
 30
0.0
  9
$UCSORGFRONT
 10
0.0
 20
0.0
 30
0.0
  9
$UCSORGBACK
 10
0.0
 20
0.0
 30
0.0
  9
$PUCSBASE
  2

  9
$PUCSNAME
  2

  9
$PUCSORG
 10
0.0
 20
0.0
 30
0.0
  9
$PUCSXDIR
 10
1.0
 20
0.0
 30
0.0
  9
$PUCSYDIR
 10
0.0
 20
1.0
 30
0.0
  9
$PUCSORTHOREF
  2

  9
$PUCSORTHOVIEW
 70
     0
  9
$PUCSORGTOP
 10
0.0
 20
0.0
 30
0.0
  9
$PUCSORGBOTTOM
 10
0.0
 20
0.0
 30
0.0
  9
$PUCSORGLEFT
 10
0.0
 20
0.0
 30
0.0
  9
$PUCSORGRIGHT
 10
0.0
 20
0.0
 30
0.0
  9
$PUCSORGFRONT
 10
0.0
 20
0.0
 30
0.0
  9
$PUCSORGBACK
 10
0.0
 20
0.0
 30
0.0
  9
$USERI1
 70
     0
  9
$USERI2
 70
     0
  9
$USERI3
 70
     0
  9
$USERI4
 70
     0
  9
$USERI5
 70
     0
  9
$USERR1
 40
0.0
  9
$USERR2
 40
0.0
  9
$USERR3
 40
0.0
  9
$USERR4
 40
0.0
  9
$USERR5
 40
0.0
  9
$WORLDVIEW
 70
     1
  9
$SHADEDGE
 70
     3
  9
$SHADEDIF
 70
    70
  9
$TILEMODE
 70
     1
  9
$MAXACTVP
 70
    16
  9
$PINSBASE
 10
0.0
 20
0.0
 30
0.0
  9
$PLIMCHECK
 70
     0
  9
$PEXTMIN
 10
1.000000E+20
 20
1.000000E+20
 30
1.000000E+20
  9
$PEXTMAX
 10
-1.000000E+20
 20
-1.000000E+20
 30
-1.000000E+20
  9
$PLIMMIN
 10
0.0
 20
0.0
  9
$PLIMMAX
 10
12.0
 20
9.0
  9
$UNITMODE
 70
     0
  9
$VISRETAIN
 70
     0
  9
$PLINEGEN
 70
     1
  9
$PSLTSCALE
 70
     0
  9
$TREEDEPTH
 70
  3020
  9
$CMLSTYLE
  2
Standard
  9
$CMLJUST
 70
     0
  9
$CMLSCALE
 40
1.0
  9
$PROXYGRAPHICS
 70
     0
  9
$MEASUREMENT
 70
     0
  9
$CELWEIGHT
370
     0
  9
$ENDCAPS
280
     0
  9
$JOINSTYLE
280
     0
  9
$LWDISPLAY
290
     0
  9
$INSUNITS
 70
     4
  9
$HYPERLINKBASE
  1

  9
$XEDIT
290
     1
  9
$CEPSNTYPE
380
     0
  9
$PSTYLEMODE
290
     1
  9
$FINGERPRINTGUID
  2

  9
$VERSIONGUID
  2

  9
$EXTNAMES
290
     1
  9
$PSVPSCALE
 40
0.0
  0
ENDSEC
  0
SECTION
  2
CLASSES
  0
CLASS
  1
LWPOLYLINE
  2
AcDbPolyline
  3
AutoCAD 2000
 90
    32768
280
     0
281
     1
  0
CLASS
  1
IMAGE
  2
AcDbRasterImage
  3
ISM
 90
    32895
280
     0
281
     1
  0
CLASS
  1
OLE2FRAME
  2
AcDbOle2Frame
  3
AutoCAD 2000
 90
    32768
280
     0
281
     1
  0
CLASS
  1
HATCH
  2
AcDbHatch
  3
AutoCAD 2000
 90
    32768
280
     0
281
     1
  0
CLASS
  1
DICTIONARYVAR
  2
AcDbDictionaryVar
  3
AutoCAD 2000
 90
    32768
280
     0
281
     0
  0
CLASS
  1
RASTERVARIABLES
  2
AcDbRasterVariables
  3
ISM
 90
    32768
280
     0
281
     0
  0
CLASS
  1
IMAGEDEF
  2
AcDbRasterImageDef
  3
ISM
 90
    32768
280
     0
281
     0
  0
CLASS
  1
IMAGEDEF_REACTOR
  2
AcDbRasterImageDefReactor
  3
ISM
 90
    32769
280
     0
281
     0
  0
CLASS
  1
IDBUFFER
  2
AcDbIdBuffer
  3
AutoCAD 2000
 90
    32768
280
     0
281
     0
  0
CLASS
  1
SPATIAL_FILTER
  2
AcDbSpatialFilter
  3
AutoCAD 2000
 90
    32768
280
     0
281
     0
  0
CLASS
  1
XRECORD
  2
AcDbXrecord
  3
AutoCAD 2000
 90
    32768
280
     0
281
     0
  0
CLASS
  1
SORTENTSTABLE
  2
AcDbSortentsTable
  3
AutoCAD 2000
 90
    32768
280
     0
281
     0
  0
CLASS
  1
LAYER_INDEX
  2
AcDbLayerIndex
  3
AutoCAD 2000
 90
    32768
280
     0
281
     0
  0
CLASS
  1
SPATIAL_INDEX
  2
AcDbSpatialIndex
  3
AutoCAD 2000
 90
    32768
280
     0
281
     0
  0
CLASS
  1
OBJECT_PTR
  2
CAseDLPNTableRecord
  3
"ASE-LPNTableRecord"
 90
    32769
280
     0
281
     0
  0
CLASS
  1
LAYOUT
  2
AcDbLayout
  3
AutoCAD 2000
 90
        0
280
     0
281
     0
  0
CLASS
  1
PLOTSETTINGS
  2
AcDbPlotSettings
  3
AutoCAD 2000
 90
    32768
280
     0
281
     0
  0
CLASS
  1
ACDBDICTIONARYWDFLT
  2
AcDbDictionaryWithDefault
  3
AutoCAD 2000
 90
        0
280
     0
281
     0
  0
CLASS
  1
ACDBPLACEHOLDER
  2
AcDbPlaceHolder
  3
AutoCAD 2000
 90
        0
280
     0
281
     0
  0
CLASS
  1
VBA_PROJECT
  2
AcDbVbaProject
  3
acadvba
 90
    32768
280
     0
281
     0
  0
CLASS
  1
WIPEOUT
  2
AcDbWipeout
  3
WipeOut|AutoCAD Express Tool|expresstools@autodesk.com
 90
    32895
280
     0
281
     1
  0
CLASS
  1
WIPEOUTVARIABLES
  2
AcDbWipeoutVariables
  3
WipeOut|AutoCAD Express Tool|expresstools@autodesk.com
 90
        0
280
     0
281
     0
  0
CLASS
  1
RTEXT
  2
RText
  3
RText|AutoCAD Express Tool|expresstools@autodesk.com
 90
    32768
280
     0
281
     1
  0
CLASS
  1
ARCALIGNEDTEXT
  2
AcDbArcAlignedText
  3
ATEXT|AutoCAD Express Tool|expresstools@autodesk.com
 90
    32768
280
     0
281
     1
  0
ENDSEC
  0
SECTION
  2
TABLES
  0
TABLE
  2
VPORT
  5
7
100
AcDbSymbolTable
 70
     1
  0
VPORT
  5
15
100
AcDbSymbolTableRecord
100
AcDbViewportTableRecord
  2
*ACTIVE
 70
     0
 10
0.0
 20
0.0
 11
1.0
 21
1.0
 12
6.591288
 22
4.579184
 13
0.0
 23
0.0
 14
1.0
 24
1.0
 15
0.0
 25
0.0
 16
0.0
 26
0.0
 36
1.0
 17
0.0
 27
0.0
 37
0.0
 40
9.158369
 41
0.688564
 42
50.0
 43
0.0
 44
0.0
 50
0.0
 51
0.0
 71
     0
 72
   100
 73
     1
 74
     1
 75
     0
 76
     0
 77
     0
 78
     0
281
     0
 65
     0
110
0.0
120
0.0
130
0.0
111
1.0
121
0.0
131
0.0
112
0.0
122
1.0
132
0.0
345
0
346
0
 79
     0
146
0.0
  0
ENDTAB
  0
TABLE
  2
LTYPE
  5
4
100
AcDbSymbolTable
 70
     3
  0
LTYPE
  5
11
100
AcDbSymbolTableRecord
100
AcDbLinetypeTableRecord
  2
ByBlock
 70
    64
  3

 72
    65
 73
     0
 40
0.0
  0
LTYPE
  5
12
100
AcDbSymbolTableRecord
100
AcDbLinetypeTableRecord
  2
ByLayer
 70
    64
  3

 72
    65
 73
     0
 40
0.0
  0
LTYPE
  5
13
100
AcDbSymbolTableRecord
100
AcDbLinetypeTableRecord
  2
Continuous
 70
    64
  3
Solid line
 72
    65
 73
     0
 40
0.0
  0
ENDTAB
  0
TABLE
  2
LAYER
  5
2
100
AcDbSymbolTable
 70
     2
  0
LAYER
  5
14
100
AcDbSymbolTableRecord
100
AcDbLayerTableRecord
  2
0
 70
     0
 62
     7
  6
Continuous
290
     1
370
    -3
390
1D
  0
LAYER
  5
24
100
AcDbSymbolTableRecord
100
AcDbLayerTableRecord
  2
RÚteg 1
 70
     0
 62
     7
  6
Continuous
290
     1
370
    -3
390
1F
  0
ENDTAB
  0
TABLE
  2
STYLE
  5
3
100
AcDbSymbolTable
 70
     1
  0
STYLE
  5
17
100
AcDbSymbolTableRecord
100
AcDbTextStyleTableRecord
  2
Standard
 70
     0
 40
0.0
 41
1.0
 50
0.0
 71
     0
 42
0.0
  3
txt
  4

  0
ENDTAB
  0
TABLE
  2
VIEW
  5
5
100
AcDbSymbolTable
 70
     0
  0
ENDTAB
  0
TABLE
  2
UCS
  5
6
100
AcDbSymbolTable
 70
     0
  0
ENDTAB
  0
TABLE
  2
APPID
  5
8
100
AcDbSymbolTable
 70
     1
  0
APPID
  5
16
100
AcDbSymbolTableRecord
100
AcDbRegAppTableRecord
  2
ACAD
 70
     0
  0
ENDTAB
  0
TABLE
  2
DIMSTYLE
  5
9
100
AcDbSymbolTable
 70
     1
100
AcDbDimStyleTable
 71
     0
  0
DIMSTYLE
105
18
100
AcDbSymbolTableRecord
100
AcDbDimStyleTableRecord
  2
Standard
 70
     0
  3

  4

 40
1.0
 41
0.18
 42
0.0625
 43
0.38
 44
0.18
 45
0.0
 46
0.0
 47
0.0
 48
0.0
 71
     0
 72
     0
 73
     1
 74
     1
 75
     0
 76
     0
 77
     0
 78
     0
 79
     0
140
0.18
141
0.09
142
0.0
143
25.4
144
1.0
145
0.0
146
1.0
147
0.09
148
0.0
170
     0
171
     2
172
     0
173
     0
174
     0
175
     0
176
     0
177
     0
178
     0
179
     0
271
     4
272
     4
273
     2
274
     2
275
     0
276
     0
277
     2
278
    46
279
     0
280
     0
281
     0
282
     0
283
     1
284
     0
285
     0
286
     0
288
     0
340
17
341
0
342
0
343
0
344
0
371
    -2
372
    -2
  0
ENDTAB
  0
TABLE
  2
BLOCK_RECORD
  5
1
100
AcDbSymbolTable
 70
     0
  0
BLOCK_RECORD
  5
A
100
AcDbSymbolTableRecord
100
AcDbBlockTableRecord
  2
*MODEL_SPACE
340
20
  0
BLOCK_RECORD
  5
B
100
AcDbSymbolTableRecord
100
AcDbBlockTableRecord
  2
*PAPER_SPACE
340
21
  0
ENDTAB
  0
ENDSEC
  0
SECTION
  2
BLOCKS
  0
BLOCK
  5
D
100
AcDbEntity
  8
0
100
AcDbBlockBegin
  2
*MODEL_SPACE
 70
     0
 10
0.0
 20
0.0
 30
0.0
  3
*MODEL_SPACE
  1

  0
ENDBLK
  5
E
100
AcDbEntity
  8
0
100
AcDbBlockEnd
  0
BLOCK
  5
F
100
AcDbEntity
 67
     1
  8
0
100
AcDbBlockBegin
  2
*PAPER_SPACE
 70
     0
 10
0.0
 20
0.0
 30
0.0
  3
*PAPER_SPACE
  1

  0
ENDBLK
  5
10
100
AcDbEntity
 67
     1
  8
0
100
AcDbBlockEnd
  0
ENDSEC
  0
SECTION
  2
ENTITIES
  0
SPLINE
  5
25
100
AcDbEntity
  8
RÚteg 1
 62
     7
100
AcDbSpline
210
0.0
220
0.0
230
1.0
 70
     1
 71
     3
 72
    52
 73
    48
 74
     0
 42
0.0000000001
 43
0.0000000001
 40
0.0
 40
0.0
 40
0.0
 40
0.0
 40
0.0833333333333333
 40
0.0833333333333333
 40
0.0833333333333333
 40
0.0833333333333333
 40
0.1666666666666667
 40
0.1666666666666667
 40
0.1666666666666667
 40
0.1666666666666667
 40
0.25
 40
0.25
 40
0.25
 40
0.25
 40
0.3333333333333333
 40
0.3333333333333333
 40
0.3333333333333333
 40
0.3333333333333333
 40
0.4166666666666666
 40
0.4166666666666666
 40
0.4166666666666666
 40
0.4166666666666666
 40
0.4999999999999999
 40
0.4999999999999999
 40
0.4999999999999999
 40
0.4999999999999999
 40
0.5833333333333333
 40
0.5833333333333333
 40
0.5833333333333333
 40
0.5833333333333333
 40
0.6666666666666666
 40
0.6666666666666666
 40
0.6666666666666666
 40
0.6666666666666666
 40
0.75
 40
0.75
 40
0.75
 40
0.75
 40
0.8333333333333334
 40
0.8333333333333334
 40
0.8333333333333334
 40
0.8333333333333334
 40
0.9166666666666667
 40
0.9166666666666667
 40
0.9166666666666667
 40
0.9166666666666667
 40
1.0
 40
1.0
 40
1.0
 40
1.0
 10
-67.791200000000003
 20
82.705100000000002
 30
0.0
 10
-50.983499999999999
 20
80.687299999999993
 30
0.0
 10
-37.950000000000003
 20
66.376599999999996
 30
0.0
 10
-37.950000000000003
 20
49.025599999999997
 30
0.0
 10
-37.950000000000003
 20
49.025599999999997
 30
0.0
 10
-37.950000000000003
 20
30.2926
 30
0.0
 10
-53.1419
 20
15.1006
 30
0.0
 10
-71.875100000000003
 20
15.1006
 30
0.0
 10
-71.875100000000003
 20
15.1006
 30
0.0
 10
-90.608099999999993
 20
15.1006
 30
0.0
 10
-105.8
 20
30.2926
 30
0.0
 10
-105.8
 20
49.025599999999997
 30
0.0
 10
-105.8
 20
49.025599999999997
 30
0.0
 10
-105.8
 20
66.376599999999996
 30
0.0
 10
-92.7667
 20
80.687299999999993
 30
0.0
 10
-75.958799999999997
 20
82.705100000000002
 30
0.0
 10
-75.958799999999997
 20
82.705100000000002
 30
0.0
 10
-75.958799999999997
 20
82.705100000000002
 30
0.0
 10
-75.958799999999997
 20
88.097300000000004
 30
0.0
 10
-75.958799999999997
 20
88.097300000000004
 30
0.0
 10
-75.958799999999997
 20
88.097300000000004
 30
0.0
 10
-75.958799999999997
 20
88.436300000000003
 30
0.0
 10
-75.7119
 20
88.720399999999998
 30
0.0
 10
-75.388999999999996
 20
88.779300000000006
 30
0.0
 10
-75.388999999999996
 20
88.779300000000006
 30
0.0
 10
-75.827100000000002
 20
89.442999999999998
 30
0.0
 10
-76.082400000000007
 20
90.238100000000003
 30
0.0
 10
-76.082400000000007
 20
91.092600000000004
 30
0.0
 10
-76.082400000000007
 20
91.092600000000004
 30
0.0
 10
-76.082400000000007
 20
93.416200000000003
 30
0.0
 10
-74.1982
 20
95.299999999999997
 30
0.0
 10
-71.875100000000003
 20
95.299999999999997
 30
0.0
 10
-71.875100000000003
 20
95.299999999999997
 30
0.0
 10
-69.551699999999997
 20
95.299999999999997
 30
0.0
 10
-67.667599999999993
 20
93.416200000000003
 30
0.0
 10
-67.667599999999993
 20
91.092600000000004
 30
0.0
 10
-67.667599999999993
 20
91.092600000000004
 30
0.0
 10
-67.667599999999993
 20
90.238100000000003
 30
0.0
 10
-67.922899999999998
 20
89.442999999999998
 30
0.0
 10
-68.361000000000004
 20
88.779300000000006
 30
0.0
 10
-68.361000000000004
 20
88.779300000000006
 30
0.0
 10
-68.037700000000001
 20
88.720399999999998
 30
0.0
 10
-67.791200000000003
 20
88.436300000000003
 30
0.0
 10
-67.791200000000003
 20
88.097300000000004
 30
0.0
 10
-67.791200000000003
 20
88.097300000000004
 30
0.0
 10
-67.791200000000003
 20
88.097300000000004
 30
0.0
 10
-67.791200000000003
 20
82.705100000000002
 30
0.0
 10
-67.791200000000003
 20
82.705100000000002
 30
0.0
  0
SPLINE
  5
26
100
AcDbEntity
  8
RÚteg 1
 62
     7
100
AcDbSpline
210
0.0
220
0.0
230
1.0
 70
     1
 71
     3
 72
    20
 73
    16
 74
     0
 42
0.0000000001
 43
0.0000000001
 40
0.0
 40
0.0
 40
0.0
 40
0.0
 40
0.25
 40
0.25
 40
0.25
 40
0.25
 40
0.5
 40
0.5
 40
0.5
 40
0.5
 40
0.75
 40
0.75
 40
0.75
 40
0.75
 40
1.0
 40
1.0
 40
1.0
 40
1.0
 10
-71.875100000000003
 20
93.349400000000003
 30
0.0
 10
-70.628900000000002
 20
93.349400000000003
 30
0.0
 10
-69.618300000000005
 20
92.338800000000006
 30
0.0
 10
-69.618300000000005
 20
91.092600000000004
 30
0.0
 10
-69.618300000000005
 20
91.092600000000004
 30
0.0
 10
-69.618300000000005
 20
89.846400000000003
 30
0.0
 10
-70.628900000000002
 20
88.836200000000005
 30
0.0
 10
-71.875100000000003
 20
88.836200000000005
 30
0.0
 10
-71.875100000000003
 20
88.836200000000005
 30
0.0
 10
-73.121099999999998
 20
88.836200000000005
 30
0.0
 10
-74.131699999999995
 20
89.846400000000003
 30
0.0
 10
-74.131699999999995
 20
91.092600000000004
 30
0.0
 10
-74.131699999999995
 20
91.092600000000004
 30
0.0
 10
-74.131699999999995
 20
92.338800000000006
 30
0.0
 10
-73.121099999999998
 20
93.349400000000003
 30
0.0
 10
-71.875100000000003
 20
93.349400000000003
 30
0.0
  0
SPLINE
  5
27
100
AcDbEntity
  8
RÚteg 1
 62
     7
100
AcDbSpline
210
0.0
220
0.0
230
1.0
 70
     1
 71
     3
 72
    36
 73
    32
 74
     0
 42
0.0000000001
 43
0.0000000001
 40
0.0
 40
0.0
 40
0.0
 40
0.0
 40
0.125
 40
0.125
 40
0.125
 40
0.125
 40
0.25
 40
0.25
 40
0.25
 40
0.25
 40
0.375
 40
0.375
 40
0.375
 40
0.375
 40
0.5
 40
0.5
 40
0.5
 40
0.5
 40
0.625
 40
0.625
 40
0.625
 40
0.625
 40
0.75
 40
0.75
 40
0.75
 40
0.75
 40
0.875
 40
0.875
 40
0.875
 40
0.875
 40
1.0
 40
1.0
 40
1.0
 40
1.0
 10
-94.378799999999998
 20
59.821199999999997
 30
0.0
 10
-94.378799999999998
 20
59.821199999999997
 30
0.0
 10
-94.378799999999998
 20
59.517099999999999
 30
0.0
 10
-94.378799999999998
 20
59.517099999999999
 30
0.0
 10
-94.378799999999998
 20
59.517099999999999
 30
0.0
 10
-94.378799999999998
 20
59.019399999999997
 30
0.0
 10
-94.1965
 20
58.604799999999997
 30
0.0
 10
-93.770399999999995
 20
58.604799999999997
 30
0.0
 10
-93.770399999999995
 20
58.604799999999997
 30
0.0
 10
-92.209999999999994
 20
58.604799999999997
 30
0.0
 10
-89.816900000000004
 20
61.081600000000002
 30
0.0
 10
-89.816900000000004
 20
62.862299999999998
 30
0.0
 10
-89.816900000000004
 20
62.862299999999998
 30
0.0
 10
-89.816900000000004
 20
62.862299999999998
 30
0.0
 10
-89.816900000000004
 20
63.1663
 30
0.0
 10
-89.816900000000004
 20
63.1663
 30
0.0
 10
-89.816900000000004
 20
63.1663
 30
0.0
 10
-89.816900000000004
 20
63.878
 30
0.0
 10
-90.321700000000007
 20
64.382800000000003
 30
0.0
 10
-91.033500000000004
 20
64.382800000000003
 30
0.0
 10
-91.033500000000004
 20
64.382800000000003
 30
0.0
 10
-91.033500000000004
 20
64.382800000000003
 30
0.0
 10
-91.641499999999994
 20
64.382800000000003
 30
0.0
 10
-91.641499999999994
 20
64.382800000000003
 30
0.0
 10
-91.641499999999994
 20
64.382800000000003
 30
0.0
 10
-92.944400000000002
 20
64.382800000000003
 30
0.0
 10
-92.334699999999998
 20
63.288800000000002
 30
0.0
 10
-92.941599999999994
 20
62.033499999999997
 30
0.0
 10
-92.941599999999994
 20
62.033499999999997
 30
0.0
 10
-93.450599999999994
 20
60.981299999999997
 30
0.0
 10
-94.378799999999998
 20
60.655000000000001
 30
0.0
 10
-94.378799999999998
 20
59.821199999999997
 30
0.0
  0
SPLINE
  5
28
100
AcDbEntity
  8
RÚteg 1
 62
     7
100
AcDbSpline
210
0.0
220
0.0
230
1.0
 70
     1
 71
     3
 72
    28
 73
    24
 74
     0
 42
0.0000000001
 43
0.0000000001
 40
0.0
 40
0.0
 40
0.0
 40
0.0
 40
0.1666666666666667
 40
0.1666666666666667
 40
0.1666666666666667
 40
0.1666666666666667
 40
0.3333333333333333
 40
0.3333333333333333
 40
0.3333333333333333
 40
0.3333333333333333
 40
0.5
 40
0.5
 40
0.5
 40
0.5
 40
0.6666666666666666
 40
0.6666666666666666
 40
0.6666666666666666
 40
0.6666666666666666
 40
0.8333333333333333
 40
0.8333333333333333
 40
0.8333333333333333
 40
0.8333333333333333
 40
1.0
 40
1.0
 40
1.0
 40
1.0
 10
-90.729299999999995
 20
37.013599999999997
 30
0.0
 10
-90.729299999999995
 20
38.730899999999998
 30
0.0
 10
-92.3613
 20
40.966799999999999
 30
0.0
 10
-93.770399999999995
 20
40.966799999999999
 30
0.0
 10
-93.770399999999995
 20
40.966799999999999
 30
0.0
 10
-93.770399999999995
 20
40.966799999999999
 30
0.0
 10
-94.0745
 20
40.966799999999999
 30
0.0
 10
-94.0745
 20
40.966799999999999
 30
0.0
 10
-94.0745
 20
40.966799999999999
 30
0.0
 10
-94.786299999999997
 20
40.966799999999999
 30
0.0
 10
-95.2911
 20
40.462400000000002
 30
0.0
 10
-95.2911
 20
39.750399999999999
 30
0.0
 10
-95.2911
 20
39.750399999999999
 30
0.0
 10
-95.2911
 20
38.877000000000002
 30
0.0
 10
-94.207700000000003
 20
38.444400000000002
 30
0.0
 10
-93.653000000000006
 20
37.435099999999998
 30
0.0
 10
-93.653000000000006
 20
37.435099999999998
 30
0.0
 10
-92.930499999999995
 20
36.121099999999998
 30
0.0
 10
-93.5608
 20
34.884900000000002
 30
0.0
 10
-92.249799999999993
 20
34.884900000000002
 30
0.0
 10
-92.249799999999993
 20
34.884900000000002
 30
0.0
 10
-91.266900000000007
 20
34.884900000000002
 30
0.0
 10
-90.729299999999995
 20
35.988599999999998
 30
0.0
 10
-90.729299999999995
 20
37.013599999999997
 30
0.0
  0
SPLINE
  5
29
100
AcDbEntity
  8
RÚteg 1
 62
     7
100
AcDbSpline
210
0.0
220
0.0
230
1.0
 70
     1
 71
     3
 72
    32
 73
    28
 74
     0
 42
0.0000000001
 43
0.0000000001
 40
0.0
 40
0.0
 40
0.0
 40
0.0
 40
0.1428571428571429
 40
0.1428571428571429
 40
0.1428571428571429
 40
0.1428571428571429
 40
0.2857142857142857
 40
0.2857142857142857
 40
0.2857142857142857
 40
0.2857142857142857
 40
0.4285714285714286
 40
0.4285714285714286
 40
0.4285714285714286
 40
0.4285714285714286
 40
0.5714285714285714
 40
0.5714285714285714
 40
0.5714285714285714
 40
0.5714285714285714
 40
0.7142857142857142
 40
0.7142857142857142
 40
0.7142857142857142
 40
0.7142857142857142
 40
0.857142857142857
 40
0.857142857142857
 40
0.857142857142857
 40
0.857142857142857
 40
1.0
 40
1.0
 40
1.0
 40
1.0
 10
-99.852400000000003
 20
64.991
 30
0.0
 10
-99.852400000000003
 20
64.991
 30
0.0
 10
-99.852400000000003
 20
64.382800000000003
 30
0.0
 10
-99.852400000000003
 20
64.382800000000003
 30
0.0
 10
-99.852400000000003
 20
64.382800000000003
 30
0.0
 10
-99.852400000000003
 20
63.397300000000001
 30
0.0
 10
-98.530799999999999
 20
62.558100000000003
 30
0.0
 10
-97.419700000000006
 20
62.558100000000003
 30
0.0
 10
-97.419700000000006
 20
62.558100000000003
 30
0.0
 10
-97.419700000000006
 20
62.558100000000003
 30
0.0
 10
-96.811400000000006
 20
62.558100000000003
 30
0.0
 10
-96.811400000000006
 20
62.558100000000003
 30
0.0
 10
-96.811400000000006
 20
62.558100000000003
 30
0.0
 10
-95.828199999999995
 20
62.558100000000003
 30
0.0
 10
-95.2911
 20
63.662100000000002
 30
0.0
 10
-95.2911
 20
64.686800000000005
 30
0.0
 10
-95.2911
 20
64.686800000000005
 30
0.0
 10
-95.2911
 20
64.686800000000005
 30
0.0
 10
-95.2911
 20
64.991
 30
0.0
 10
-95.2911
 20
64.991
 30
0.0
 10
-95.2911
 20
64.991
 30
0.0
 10
-95.2911
 20
66.219200000000001
 30
0.0
 10
-95.9529
 20
67.119500000000002
 30
0.0
 10
-97.115399999999994
 20
67.119500000000002
 30
0.0
 10
-97.115399999999994
 20
67.119500000000002
 30
0.0
 10
-98.302800000000005
 20
67.119500000000002
 30
0.0
 10
-99.852400000000003
 20
65.959299999999999
 30
0.0
 10
-99.852400000000003
 20
64.991
 30
0.0
  0
SPLINE
  5
2A
100
AcDbEntity
  8
RÚteg 1
 62
     7
100
AcDbSpline
210
0.0
220
0.0
230
1.0
 70
     1
 71
     3
 72
    32
 73
    28
 74
     0
 42
0.0000000001
 43
0.0000000001
 40
0.0
 40
0.0
 40
0.0
 40
0.0
 40
0.1428571428571429
 40
0.1428571428571429
 40
0.1428571428571429
 40
0.1428571428571429
 40
0.2857142857142857
 40
0.2857142857142857
 40
0.2857142857142857
 40
0.2857142857142857
 40
0.4285714285714286
 40
0.4285714285714286
 40
0.4285714285714286
 40
0.4285714285714286
 40
0.5714285714285714
 40
0.5714285714285714
 40
0.5714285714285714
 40
0.5714285714285714
 40
0.7142857142857142
 40
0.7142857142857142
 40
0.7142857142857142
 40
0.7142857142857142
 40
0.857142857142857
 40
0.857142857142857
 40
0.857142857142857
 40
0.857142857142857
 40
1.0
 40
1.0
 40
1.0
 40
1.0
 10
-43.289200000000001
 20
62.253799999999998
 30
0.0
 10
-43.289200000000001
 20
62.253799999999998
 30
0.0
 10
-43.289200000000001
 20
63.470399999999998
 30
0.0
 10
-43.289200000000001
 20
63.470399999999998
 30
0.0
 10
-43.289200000000001
 20
63.470399999999998
 30
0.0
 10
-43.771900000000002
 20
64.025800000000004
 30
0.0
 10
-44.855499999999999
 20
65.599199999999996
 30
0.0
 10
-45.7226
 20
65.599199999999996
 30
0.0
 10
-45.7226
 20
65.599199999999996
 30
0.0
 10
-45.7226
 20
65.599199999999996
 30
0.0
 10
-46.026299999999999
 20
65.599199999999996
 30
0.0
 10
-46.026299999999999
 20
65.599199999999996
 30
0.0
 10
-46.026299999999999
 20
65.599199999999996
 30
0.0
 10
-46.762300000000003
 20
65.599199999999996
 30
0.0
 10
-48.154899999999998
 20
64.206299999999999
 30
0.0
 10
-48.154899999999998
 20
63.470399999999998
 30
0.0
 10
-48.154899999999998
 20
63.470399999999998
 30
0.0
 10
-48.154899999999998
 20
62.359400000000001
 30
0.0
 10
-47.316000000000003
 20
61.037599999999998
 30
0.0
 10
-46.330300000000001
 20
61.037599999999998
 30
0.0
 10
-46.330300000000001
 20
61.037599999999998
 30
0.0
 10
-46.330300000000001
 20
61.037599999999998
 30
0.0
 10
-45.114100000000001
 20
61.037599999999998
 30
0.0
 10
-45.114100000000001
 20
61.037599999999998
 30
0.0
 10
-45.114100000000001
 20
61.037599999999998
 30
0.0
 10
-44.357799999999997
 20
61.037599999999998
 30
0.0
 10
-43.970599999999997
 20
61.798099999999998
 30
0.0
 10
-43.289200000000001
 20
62.253799999999998
 30
0.0
  0
SPLINE
  5
2B
100
AcDbEntity
  8
RÚteg 1
 62
     7
100
AcDbSpline
210
0.0
220
0.0
230
1.0
 70
     1
 71
     3
 72
    32
 73
    28
 74
     0
 42
0.0000000001
 43
0.0000000001
 40
0.0
 40
0.0
 40
0.0
 40
0.0
 40
0.1428571428571429
 40
0.1428571428571429
 40
0.1428571428571429
 40
0.1428571428571429
 40
0.2857142857142857
 40
0.2857142857142857
 40
0.2857142857142857
 40
0.2857142857142857
 40
0.4285714285714286
 40
0.4285714285714286
 40
0.4285714285714286
 40
0.4285714285714286
 40
0.5714285714285714
 40
0.5714285714285714
 40
0.5714285714285714
 40
0.5714285714285714
 40
0.7142857142857142
 40
0.7142857142857142
 40
0.7142857142857142
 40
0.7142857142857142
 40
0.857142857142857
 40
0.857142857142857
 40
0.857142857142857
 40
0.857142857142857
 40
1.0
 40
1.0
 40
1.0
 40
1.0
 10
-73.395700000000005
 20
79.283900000000003
 30
0.0
 10
-73.395700000000005
 20
79.283900000000003
 30
0.0
 10
-73.395700000000005
 20
78.675600000000003
 30
0.0
 10
-73.395700000000005
 20
78.675600000000003
 30
0.0
 10
-73.395700000000005
 20
78.675600000000003
 30
0.0
 10
-73.395700000000005
 20
77.374099999999999
 30
0.0
 10
-72.457899999999995
 20
76.242800000000003
 30
0.0
 10
-71.266900000000007
 20
76.242800000000003
 30
0.0
 10
-71.266900000000007
 20
76.242800000000003
 30
0.0
 10
-70.349599999999995
 20
76.242800000000003
 30
0.0
 10
-68.834000000000003
 20
77.482600000000005
 30
0.0
 10
-68.834000000000003
 20
78.371300000000005
 30
0.0
 10
-68.834000000000003
 20
78.371300000000005
 30
0.0
 10
-68.834000000000003
 20
78.371300000000005
 30
0.0
 10
-68.834000000000003
 20
79.283900000000003
 30
0.0
 10
-68.834000000000003
 20
79.283900000000003
 30
0.0
 10
-68.834000000000003
 20
79.283900000000003
 30
0.0
 10
-68.834000000000003
 20
80.266800000000003
 30
0.0
 10
-69.9375
 20
80.803899999999999
 30
0.0
 10
-70.962800000000001
 20
80.803899999999999
 30
0.0
 10
-70.962800000000001
 20
80.803899999999999
 30
0.0
 10
-70.962800000000001
 20
80.803899999999999
 30
0.0
 10
-71.875100000000003
 20
80.803899999999999
 30
0.0
 10
-71.875100000000003
 20
80.803899999999999
 30
0.0
 10
-71.875100000000003
 20
80.803899999999999
 30
0.0
 10
-72.584000000000003
 20
80.803899999999999
 30
0.0
 10
-73.395700000000005
 20
79.992500000000007
 30
0.0
 10
-73.395700000000005
 20
79.283900000000003
 30
0.0
  0
SPLINE
  5
2C
100
AcDbEntity
  8
RÚteg 1
 62
     7
100
AcDbSpline
210
0.0
220
0.0
230
1.0
 70
     1
 71
     3
 72
    32
 73
    28
 74
     0
 42
0.0000000001
 43
0.0000000001
 40
0.0
 40
0.0
 40
0.0
 40
0.0
 40
0.1428571428571429
 40
0.1428571428571429
 40
0.1428571428571429
 40
0.1428571428571429
 40
0.2857142857142857
 40
0.2857142857142857
 40
0.2857142857142857
 40
0.2857142857142857
 40
0.4285714285714286
 40
0.4285714285714286
 40
0.4285714285714286
 40
0.4285714285714286
 40
0.5714285714285714
 40
0.5714285714285714
 40
0.5714285714285714
 40
0.5714285714285714
 40
0.7142857142857142
 40
0.7142857142857142
 40
0.7142857142857142
 40
0.7142857142857142
 40
0.857142857142857
 40
0.857142857142857
 40
0.857142857142857
 40
0.857142857142857
 40
1.0
 40
1.0
 40
1.0
 40
1.0
 10
-98.0274
 20
32.756300000000003
 30
0.0
 10
-97.138999999999996
 20
32.756300000000003
 30
0.0
 10
-95.899000000000001
 20
34.271799999999999
 30
0.0
 10
-95.899000000000001
 20
35.189
 30
0.0
 10
-95.899000000000001
 20
35.189
 30
0.0
 10
-95.899000000000001
 20
36.380299999999998
 30
0.0
 10
-97.030699999999996
 20
37.317799999999998
 30
0.0
 10
-98.332099999999997
 20
37.317799999999998
 30
0.0
 10
-98.332099999999997
 20
37.317799999999998
 30
0.0
 10
-98.332099999999997
 20
37.317799999999998
 30
0.0
 10
-98.636099999999999
 20
37.317799999999998
 30
0.0
 10
-98.636099999999999
 20
37.317799999999998
 30
0.0
 10
-98.636099999999999
 20
37.317799999999998
 30
0.0
 10
-99.569599999999994
 20
37.317799999999998
 30
0.0
 10
-100.46080000000001
 20
37.036099999999998
 30
0.0
 10
-100.46080000000001
 20
36.101199999999999
 30
0.0
 10
-100.46080000000001
 20
36.101199999999999
 30
0.0
 10
-100.46080000000001
 20
36.101199999999999
 30
0.0
 10
-100.46080000000001
 20
34.884900000000002
 30
0.0
 10
-100.46080000000001
 20
34.884900000000002
 30
0.0
 10
-100.46080000000001
 20
34.884900000000002
 30
0.0
 10
-100.46080000000001
 20
33.860199999999999
 30
0.0
 10
-99.923400000000001
 20
32.756300000000003
 30
0.0
 10
-98.939899999999994
 20
32.756300000000003
 30
0.0
 10
-98.939899999999994
 20
32.756300000000003
 30
0.0
 10
-98.939899999999994
 20
32.756300000000003
 30
0.0
 10
-98.0274
 20
32.756300000000003
 30
0.0
 10
-98.0274
 20
32.756300000000003
 30
0.0
  0
SPLINE
  5
2D
100
AcDbEntity
  8
RÚteg 1
 62
     7
100
AcDbSpline
210
0.0
220
0.0
230
1.0
 70
     1
 71
     3
 72
    32
 73
    28
 74
     0
 42
0.0000000001
 43
0.0000000001
 40
0.0
 40
0.0
 40
0.0
 40
0.0
 40
0.1428571428571429
 40
0.1428571428571429
 40
0.1428571428571429
 40
0.1428571428571429
 40
0.2857142857142857
 40
0.2857142857142857
 40
0.2857142857142857
 40
0.2857142857142857
 40
0.4285714285714286
 40
0.4285714285714286
 40
0.4285714285714286
 40
0.4285714285714286
 40
0.5714285714285714
 40
0.5714285714285714
 40
0.5714285714285714
 40
0.5714285714285714
 40
0.7142857142857142
 40
0.7142857142857142
 40
0.7142857142857142
 40
0.7142857142857142
 40
0.857142857142857
 40
0.857142857142857
 40
0.857142857142857
 40
0.857142857142857
 40
1.0
 40
1.0
 40
1.0
 40
1.0
 10
-73.091399999999993
 20
17.247299999999999
 30
0.0
 10
-71.620400000000004
 20
17.247299999999999
 30
0.0
 10
-70.658600000000007
 20
18.2089
 30
0.0
 10
-70.658600000000007
 20
19.6798
 30
0.0
 10
-70.658600000000007
 20
19.6798
 30
0.0
 10
-70.658600000000007
 20
19.6798
 30
0.0
 10
-70.658600000000007
 20
19.983899999999998
 30
0.0
 10
-70.658600000000007
 20
19.983899999999998
 30
0.0
 10
-70.658600000000007
 20
19.983899999999998
 30
0.0
 10
-70.658600000000007
 20
20.9695
 30
0.0
 10
-71.980199999999996
 20
21.808399999999999
 30
0.0
 10
-73.091399999999993
 20
21.808399999999999
 30
0.0
 10
-73.091399999999993
 20
21.808399999999999
 30
0.0
 10
-73.091399999999993
 20
21.808399999999999
 30
0.0
 10
-73.6995
 20
21.808399999999999
 30
0.0
 10
-73.6995
 20
21.808399999999999
 30
0.0
 10
-73.6995
 20
21.808399999999999
 30
0.0
 10
-74.682699999999997
 20
21.808399999999999
 30
0.0
 10
-75.220200000000006
 20
20.704599999999999
 30
0.0
 10
-75.220200000000006
 20
19.6798
 30
0.0
 10
-75.220200000000006
 20
19.6798
 30
0.0
 10
-75.220200000000006
 20
19.6798
 30
0.0
 10
-75.220200000000006
 20
18.767700000000001
 30
0.0
 10
-75.220200000000006
 20
18.767700000000001
 30
0.0
 10
-75.220200000000006
 20
18.767700000000001
 30
0.0
 10
-75.220200000000006
 20
17.784300000000002
 30
0.0
 10
-74.116200000000006
 20
17.247299999999999
 30
0.0
 10
-73.091399999999993
 20
17.247299999999999
 30
0.0
  0
SPLINE
  5
2E
100
AcDbEntity
  8
RÚteg 1
 62
     7
100
AcDbSpline
210
0.0
220
0.0
230
1.0
 70
     1
 71
     3
 72
    36
 73
    32
 74
     0
 42
0.0000000001
 43
0.0000000001
 40
0.0
 40
0.0
 40
0.0
 40
0.0
 40
0.125
 40
0.125
 40
0.125
 40
0.125
 40
0.25
 40
0.25
 40
0.25
 40
0.25
 40
0.375
 40
0.375
 40
0.375
 40
0.375
 40
0.5
 40
0.5
 40
0.5
 40
0.5
 40
0.625
 40
0.625
 40
0.625
 40
0.625
 40
0.75
 40
0.75
 40
0.75
 40
0.75
 40
0.875
 40
0.875
 40
0.875
 40
0.875
 40
1.0
 40
1.0
 40
1.0
 40
1.0
 10
-51.804200000000002
 20
35.797199999999997
 30
0.0
 10
-51.220100000000002
 20
36.188400000000001
 30
0.0
 10
-49.6755
 20
37.3675
 30
0.0
 10
-49.6755
 20
38.229900000000001
 30
0.0
 10
-49.6755
 20
38.229900000000001
 30
0.0
 10
-49.6755
 20
38.729500000000002
 30
0.0
 10
-50.119399999999999
 20
39.750399999999999
 30
0.0
 10
-50.588000000000001
 20
39.750399999999999
 30
0.0
 10
-50.588000000000001
 20
39.750399999999999
 30
0.0
 10
-51.548000000000002
 20
39.750399999999999
 30
0.0
 10
-54.237000000000002
 20
38.119100000000003
 30
0.0
 10
-54.237000000000002
 20
37.013599999999997
 30
0.0
 10
-54.237000000000002
 20
37.013599999999997
 30
0.0
 10
-54.237000000000002
 20
37.013599999999997
 30
0.0
 10
-54.237000000000002
 20
34.580800000000004
 30
0.0
 10
-54.237000000000002
 20
34.580800000000004
 30
0.0
 10
-54.237000000000002
 20
34.580800000000004
 30
0.0
 10
-54.237000000000002
 20
33.880099999999999
 30
0.0
 10
-54.025399999999998
 20
33.668799999999997
 30
0.0
 10
-53.324800000000003
 20
33.668799999999997
 30
0.0
 10
-53.324800000000003
 20
33.668799999999997
 30
0.0
 10
-53.324800000000003
 20
33.668799999999997
 30
0.0
 10
-53.020699999999998
 20
33.668799999999997
 30
0.0
 10
-53.020699999999998
 20
33.668799999999997
 30
0.0
 10
-53.020699999999998
 20
33.668799999999997
 30
0.0
 10
-52.338900000000002
 20
33.668799999999997
 30
0.0
 10
-52.353299999999997
 20
33.909199999999998
 30
0.0
 10
-51.804200000000002
 20
34.276499999999999
 30
0.0
 10
-51.804200000000002
 20
34.276499999999999
 30
0.0
 10
-51.804200000000002
 20
34.276499999999999
 30
0.0
 10
-51.804200000000002
 20
35.797199999999997
 30
0.0
 10
-51.804200000000002
 20
35.797199999999997
 30
0.0
  0
SPLINE
  5
2F
100
AcDbEntity
  8
RÚteg 1
 62
     7
100
AcDbSpline
210
0.0
220
0.0
230
1.0
 70
     1
 71
     3
 72
    32
 73
    28
 74
     0
 42
0.0000000001
 43
0.0000000001
 40
0.0
 40
0.0
 40
0.0
 40
0.0
 40
0.1428571428571429
 40
0.1428571428571429
 40
0.1428571428571429
 40
0.1428571428571429
 40
0.2857142857142857
 40
0.2857142857142857
 40
0.2857142857142857
 40
0.2857142857142857
 40
0.4285714285714286
 40
0.4285714285714286
 40
0.4285714285714286
 40
0.4285714285714286
 40
0.5714285714285714
 40
0.5714285714285714
 40
0.5714285714285714
 40
0.5714285714285714
 40
0.7142857142857142
 40
0.7142857142857142
 40
0.7142857142857142
 40
0.7142857142857142
 40
0.857142857142857
 40
0.857142857142857
 40
0.857142857142857
 40
0.857142857142857
 40
1.0
 40
1.0
 40
1.0
 40
1.0
 10
-76.132499999999993
 20
25.761800000000001
 30
0.0
 10
-76.132499999999993
 20
25.2469
 30
0.0
 10
-75.727599999999995
 20
24.625499999999999
 30
0.0
 10
-75.524199999999993
 20
24.241499999999998
 30
0.0
 10
-75.524199999999993
 20
24.241499999999998
 30
0.0
 10
-74.098799999999997
 20
24.359999999999999
 30
0.0
 10
-74.020499999999998
 20
24.849699999999999
 30
0.0
 10
-72.483199999999997
 20
24.849699999999999
 30
0.0
 10
-72.483199999999997
 20
24.849699999999999
 30
0.0
 10
-71.901600000000002
 20
24.849699999999999
 30
0.0
 10
-72.275800000000004
 20
24.241499999999998
 30
0.0
 10
-71.266900000000007
 20
24.241499999999998
 30
0.0
 10
-71.266900000000007
 20
24.241499999999998
 30
0.0
 10
-71.266900000000007
 20
24.241499999999998
 30
0.0
 10
-70.962800000000001
 20
24.241499999999998
 30
0.0
 10
-70.962800000000001
 20
24.241499999999998
 30
0.0
 10
-70.962800000000001
 20
24.241499999999998
 30
0.0
 10
-70.375299999999996
 20
24.241499999999998
 30
0.0
 10
-69.746200000000002
 20
24.7835
 30
0.0
 10
-69.746200000000002
 20
25.153700000000001
 30
0.0
 10
-69.746200000000002
 20
25.153700000000001
 30
0.0
 10
-69.746200000000002
 20
26.298200000000001
 30
0.0
 10
-72.001400000000004
 20
28.194700000000001
 30
0.0
 10
-72.787199999999999
 20
28.194700000000001
 30
0.0
 10
-72.787199999999999
 20
28.194700000000001
 30
0.0
 10
-73.587900000000005
 20
28.194700000000001
 30
0.0
 10
-76.132499999999993
 20
26.734200000000001
 30
0.0
 10
-76.132499999999993
 20
25.761800000000001
 30
0.0
  0
SPLINE
  5
30
100
AcDbEntity
  8
RÚteg 1
 62
     7
100
AcDbSpline
210
0.0
220
0.0
230
1.0
 70
     1
 71
     3
 72
    28
 73
    24
 74
     0
 42
0.0000000001
 43
0.0000000001
 40
0.0
 40
0.0
 40
0.0
 40
0.0
 40
0.1666666666666667
 40
0.1666666666666667
 40
0.1666666666666667
 40
0.1666666666666667
 40
0.3333333333333333
 40
0.3333333333333333
 40
0.3333333333333333
 40
0.3333333333333333
 40
0.5
 40
0.5
 40
0.5
 40
0.5
 40
0.6666666666666666
 40
0.6666666666666666
 40
0.6666666666666666
 40
0.6666666666666666
 40
0.8333333333333333
 40
0.8333333333333333
 40
0.8333333333333333
 40
0.8333333333333333
 40
1.0
 40
1.0
 40
1.0
 40
1.0
 10
-74.611800000000002
 20
72.593500000000006
 30
0.0
 10
-74.611800000000002
 20
71.659800000000004
 30
0.0
 10
-72.319900000000004
 20
70.464799999999997
 30
0.0
 10
-71.266900000000007
 20
70.464799999999997
 30
0.0
 10
-71.266900000000007
 20
70.464799999999997
 30
0.0
 10
-70.044300000000007
 20
70.464799999999997
 30
0.0
 10
-68.859099999999998
 20
71.4893
 30
0.0
 10
-67.921700000000001
 20
71.985200000000006
 30
0.0
 10
-67.921700000000001
 20
71.985200000000006
 30
0.0
 10
-68.079599999999999
 20
72.663300000000007
 30
0.0
 10
-68.398300000000006
 20
74.114000000000004
 30
0.0
 10
-69.138199999999998
 20
74.114000000000004
 30
0.0
 10
-69.138199999999998
 20
74.114000000000004
 30
0.0
 10
-70.453400000000002
 20
74.114000000000004
 30
0.0
 10
-70.363600000000005
 20
73.505899999999997
 30
0.0
 10
-71.266900000000007
 20
73.505899999999997
 30
0.0
 10
-71.266900000000007
 20
73.505899999999997
 30
0.0
 10
-71.770300000000006
 20
73.505899999999997
 30
0.0
 10
-72.974800000000002
 20
74.195400000000006
 30
0.0
 10
-73.395700000000005
 20
74.418199999999999
 30
0.0
 10
-73.395700000000005
 20
74.418199999999999
 30
0.0
 10
-73.956199999999995
 20
74.042400000000001
 30
0.0
 10
-74.611800000000002
 20
73.532700000000006
 30
0.0
 10
-74.611800000000002
 20
72.593500000000006
 30
0.0
  0
SPLINE
  5
31
100
AcDbEntity
  8
RÚteg 1
 62
     7
100
AcDbSpline
210
0.0
220
0.0
230
1.0
 70
     1
 71
     3
 72
    20
 73
    16
 74
     0
 42
0.0000000001
 43
0.0000000001
 40
0.0
 40
0.0
 40
0.0
 40
0.0
 40
0.25
 40
0.25
 40
0.25
 40
0.25
 40
0.5
 40
0.5
 40
0.5
 40
0.5
 40
0.75
 40
0.75
 40
0.75
 40
0.75
 40
1.0
 40
1.0
 40
1.0
 40
1.0
 10
-49.371600000000001
 20
33.060200000000002
 30
0.0
 10
-49.371600000000001
 20
32.020899999999997
 30
0.0
 10
-47.851399999999998
 20
31.235600000000002
 30
0.0
 10
-46.634599999999999
 20
31.235600000000002
 30
0.0
 10
-46.634599999999999
 20
31.235600000000002
 30
0.0
 10
-45.443300000000001
 20
31.235600000000002
 30
0.0
 10
-44.505800000000001
 20
32.367100000000001
 30
0.0
 10
-44.505800000000001
 20
33.668799999999997
 30
0.0
 10
-44.505800000000001
 20
33.668799999999997
 30
0.0
 10
-44.505800000000001
 20
34.869900000000001
 30
0.0
 10
-45.886800000000001
 20
36.101199999999999
 30
0.0
 10
-47.242800000000003
 20
36.101199999999999
 30
0.0
 10
-47.242800000000003
 20
36.101199999999999
 30
0.0
 10
-48.424999999999997
 20
36.101199999999999
 30
0.0
 10
-49.371600000000001
 20
34.344499999999996
 30
0.0
 10
-49.371600000000001
 20
33.060200000000002
 30
0.0
  0
SPLINE
  5
32
100
AcDbEntity
  8
RÚteg 1
 62
     7
100
AcDbSpline
210
0.0
220
0.0
230
1.0
 70
     1
 71
     3
 72
    28
 73
    24
 74
     0
 42
0.0000000001
 43
0.0000000001
 40
0.0
 40
0.0
 40
0.0
 40
0.0
 40
0.1666666666666667
 40
0.1666666666666667
 40
0.1666666666666667
 40
0.1666666666666667
 40
0.3333333333333333
 40
0.3333333333333333
 40
0.3333333333333333
 40
0.3333333333333333
 40
0.5
 40
0.5
 40
0.5
 40
0.5
 40
0.6666666666666666
 40
0.6666666666666666
 40
0.6666666666666666
 40
0.6666666666666666
 40
0.8333333333333333
 40
0.8333333333333333
 40
0.8333333333333333
 40
0.8333333333333333
 40
1.0
 40
1.0
 40
1.0
 40
1.0
 10
-53.628900000000002
 20
61.646099999999997
 30
0.0
 10
-53.628900000000002
 20
61.646099999999997
 30
0.0
 10
-53.628900000000002
 20
60.429299999999998
 30
0.0
 10
-53.628900000000002
 20
60.429299999999998
 30
0.0
 10
-53.628900000000002
 20
60.429299999999998
 30
0.0
 10
-53.628900000000002
 20
58.838200000000001
 30
0.0
 10
-51.469900000000003
 20
57.084299999999999
 30
0.0
 10
-50.283799999999999
 20
57.084299999999999
 30
0.0
 10
-50.283799999999999
 20
57.084299999999999
 30
0.0
 10
-49.463000000000001
 20
57.084299999999999
 30
0.0
 10
-49.067399999999999
 20
57.893700000000003
 30
0.0
 10
-49.067399999999999
 20
58.604799999999997
 30
0.0
 10
-49.067399999999999
 20
58.604799999999997
 30
0.0
 10
-49.067399999999999
 20
59.9893
 30
0.0
 10
-50.588000000000001
 20
59.102200000000003
 30
0.0
 10
-50.588000000000001
 20
62.558100000000003
 30
0.0
 10
-50.588000000000001
 20
62.558100000000003
 30
0.0
 10
-50.832999999999998
 20
62.728499999999997
 30
0.0
 10
-51.3386
 20
63.1663
 30
0.0
 10
-51.5002
 20
63.1663
 30
0.0
 10
-51.5002
 20
63.1663
 30
0.0
 10
-52.525199999999998
 20
63.1663
 30
0.0
 10
-53.628900000000002
 20
62.628799999999998
 30
0.0
 10
-53.628900000000002
 20
61.646099999999997
 30
0.0
  0
SPLINE
  5
33
100
AcDbEntity
  8
RÚteg 1
 62
     7
100
AcDbSpline
210
0.0
220
0.0
230
1.0
 70
     1
 71
     3
 72
    32
 73
    28
 74
     0
 42
0.0000000001
 43
0.0000000001
 40
0.0
 40
0.0
 40
0.0
 40
0.0
 40
0.1428571428571429
 40
0.1428571428571429
 40
0.1428571428571429
 40
0.1428571428571429
 40
0.2857142857142857
 40
0.2857142857142857
 40
0.2857142857142857
 40
0.2857142857142857
 40
0.4285714285714286
 40
0.4285714285714286
 40
0.4285714285714286
 40
0.4285714285714286
 40
0.5714285714285714
 40
0.5714285714285714
 40
0.5714285714285714
 40
0.5714285714285714
 40
0.7142857142857142
 40
0.7142857142857142
 40
0.7142857142857142
 40
0.7142857142857142
 40
0.857142857142857
 40
0.857142857142857
 40
0.857142857142857
 40
0.857142857142857
 40
1.0
 40
1.0
 40
1.0
 40
1.0
 10
-57.277999999999999
 20
62.253799999999998
 30
0.0
 10
-57.277999999999999
 20
62.253799999999998
 30
0.0
 10
-57.277999999999999
 20
59.212899999999998
 30
0.0
 10
-57.277999999999999
 20
59.212899999999998
 30
0.0
 10
-57.277999999999999
 20
59.212899999999998
 30
0.0
 10
-57.277999999999999
 20
56.315399999999997
 30
0.0
 10
-54.605200000000004
 20
53.739199999999997
 30
0.0
 10
-52.108499999999999
 20
53.739199999999997
 30
0.0
 10
-52.108499999999999
 20
53.739199999999997
 30
0.0
 10
-51.639699999999998
 20
53.739199999999997
 30
0.0
 10
-51.195900000000002
 20
54.760199999999998
 30
0.0
 10
-51.195900000000002
 20
55.259599999999999
 30
0.0
 10
-51.195900000000002
 20
55.259599999999999
 30
0.0
 10
-51.195900000000002
 20
56.405700000000003
 30
0.0
 10
-53.520000000000003
 20
57.254600000000003
 30
0.0
 10
-54.471800000000002
 20
58.369799999999998
 30
0.0
 10
-54.471800000000002
 20
58.369799999999998
 30
0.0
 10
-56.008099999999999
 20
60.168900000000001
 30
0.0
 10
-54.159599999999998
 20
63.1663
 30
0.0
 10
-56.061700000000002
 20
63.1663
 30
0.0
 10
-56.061700000000002
 20
63.1663
 30
0.0
 10
-56.061700000000002
 20
63.1663
 30
0.0
 10
-56.365699999999997
 20
63.1663
 30
0.0
 10
-56.365699999999997
 20
63.1663
 30
0.0
 10
-56.365699999999997
 20
63.1663
 30
0.0
 10
-57.066400000000002
 20
63.1663
 30
0.0
 10
-57.277999999999999
 20
62.954799999999999
 30
0.0
 10
-57.277999999999999
 20
62.253799999999998
 30
0.0
  0
SPLINE
  5
34
100
AcDbEntity
  8
RÚteg 1
 62
     7
100
AcDbSpline
210
0.0
220
0.0
230
1.0
 70
     1
 71
     3
 72
    28
 73
    24
 74
     0
 42
0.0000000001
 43
0.0000000001
 40
0.0
 40
0.0
 40
0.0
 40
0.0
 40
0.1666666666666667
 40
0.1666666666666667
 40
0.1666666666666667
 40
0.1666666666666667
 40
0.3333333333333333
 40
0.3333333333333333
 40
0.3333333333333333
 40
0.3333333333333333
 40
0.5
 40
0.5
 40
0.5
 40
0.5
 40
0.6666666666666666
 40
0.6666666666666666
 40
0.6666666666666666
 40
0.6666666666666666
 40
0.8333333333333333
 40
0.8333333333333333
 40
0.8333333333333333
 40
0.8333333333333333
 40
1.0
 40
1.0
 40
1.0
 40
1.0
 10
-77.044799999999995
 20
27.890699999999999
 30
0.0
 10
-76.185900000000004
 20
27.890699999999999
 30
0.0
 10
-74.182599999999994
 20
29.411100000000001
 30
0.0
 10
-72.787199999999999
 20
29.411100000000001
 30
0.0
 10
-72.787199999999999
 20
29.411100000000001
 30
0.0
 10
-71.808999999999997
 20
29.411100000000001
 30
0.0
 10
-69.508099999999999
 20
27.586400000000001
 30
0.0
 10
-68.529899999999998
 20
27.586400000000001
 30
0.0
 10
-68.529899999999998
 20
27.586400000000001
 30
0.0
 10
-67.957599999999999
 20
27.586400000000001
 30
0.0
 10
-67.617500000000007
 20
28.708100000000002
 30
0.0
 10
-67.617500000000007
 20
29.411100000000001
 30
0.0
 10
-67.617500000000007
 20
29.411100000000001
 30
0.0
 10
-67.617500000000007
 20
30.232600000000001
 30
0.0
 10
-71.715999999999994
 20
32.451999999999998
 30
0.0
 10
-73.091399999999993
 20
32.451999999999998
 30
0.0
 10
-73.091399999999993
 20
32.451999999999998
 30
0.0
 10
-74.197100000000006
 20
32.451999999999998
 30
0.0
 10
-77.957099999999997
 20
30.466899999999999
 30
0.0
 10
-77.957099999999997
 20
29.411100000000001
 30
0.0
 10
-77.957099999999997
 20
29.411100000000001
 30
0.0
 10
-77.957099999999997
 20
28.9114
 30
0.0
 10
-77.513099999999994
 20
27.890699999999999
 30
0.0
 10
-77.044799999999995
 20
27.890699999999999
 30
0.0
  0
SPLINE
  5
35
100
AcDbEntity
  8
RÚteg 1
 62
     7
100
AcDbSpline
210
0.0
220
0.0
230
1.0
 70
     1
 71
     3
 72
    32
 73
    28
 74
     0
 42
0.0000000001
 43
0.0000000001
 40
0.0
 40
0.0
 40
0.0
 40
0.0
 40
0.1428571428571429
 40
0.1428571428571429
 40
0.1428571428571429
 40
0.1428571428571429
 40
0.2857142857142857
 40
0.2857142857142857
 40
0.2857142857142857
 40
0.2857142857142857
 40
0.4285714285714286
 40
0.4285714285714286
 40
0.4285714285714286
 40
0.4285714285714286
 40
0.5714285714285714
 40
0.5714285714285714
 40
0.5714285714285714
 40
0.5714285714285714
 40
0.7142857142857142
 40
0.7142857142857142
 40
0.7142857142857142
 40
0.7142857142857142
 40
0.857142857142857
 40
0.857142857142857
 40
0.857142857142857
 40
0.857142857142857
 40
1.0
 40
1.0
 40
1.0
 40
1.0
 10
-76.740899999999996
 20
69.2483
 30
0.0
 10
-76.740899999999996
 20
68.219999999999999
 30
0.0
 10
-71.920500000000004
 20
65.599199999999996
 30
0.0
 10
-71.570800000000006
 20
65.599199999999996
 30
0.0
 10
-71.570800000000006
 20
65.599199999999996
 30
0.0
 10
-70.6584
 20
65.599199999999996
 30
0.0
 10
-66.401300000000006
 20
67.913399999999996
 30
0.0
 10
-66.401300000000006
 20
68.640100000000004
 30
0.0
 10
-66.401300000000006
 20
68.640100000000004
 30
0.0
 10
-66.401300000000006
 20
69.461500000000001
 30
0.0
 10
-66.546300000000002
 20
69.478700000000003
 30
0.0
 10
-66.705200000000005
 20
70.160499999999999
 30
0.0
 10
-66.705200000000005
 20
70.160499999999999
 30
0.0
 10
-66.705200000000005
 20
70.160499999999999
 30
0.0
 10
-67.617500000000007
 20
70.160499999999999
 30
0.0
 10
-67.617500000000007
 20
70.160499999999999
 30
0.0
 10
-67.617500000000007
 20
70.160499999999999
 30
0.0
 10
-68.870900000000006
 20
70.160499999999999
 30
0.0
 10
-70.418700000000001
 20
68.944299999999998
 30
0.0
 10
-71.266900000000007
 20
68.944299999999998
 30
0.0
 10
-71.266900000000007
 20
68.944299999999998
 30
0.0
 10
-73.0274
 20
68.944299999999998
 30
0.0
 10
-74.415999999999997
 20
70.769099999999995
 30
0.0
 10
-75.524199999999993
 20
70.769099999999995
 30
0.0
 10
-75.524199999999993
 20
70.769099999999995
 30
0.0
 10
-75.851100000000002
 20
70.769099999999995
 30
0.0
 10
-76.740899999999996
 20
69.879499999999993
 30
0.0
 10
-76.740899999999996
 20
69.2483
 30
0.0
  0
SPLINE
  5
36
100
AcDbEntity
  8
RÚteg 1
 62
     7
100
AcDbSpline
210
0.0
220
0.0
230
1.0
 70
     1
 71
     3
 72
    32
 73
    28
 74
     0
 42
0.0000000001
 43
0.0000000001
 40
0.0
 40
0.0
 40
0.0
 40
0.0
 40
0.1428571428571429
 40
0.1428571428571429
 40
0.1428571428571429
 40
0.1428571428571429
 40
0.2857142857142857
 40
0.2857142857142857
 40
0.2857142857142857
 40
0.2857142857142857
 40
0.4285714285714286
 40
0.4285714285714286
 40
0.4285714285714286
 40
0.4285714285714286
 40
0.5714285714285714
 40
0.5714285714285714
 40
0.5714285714285714
 40
0.5714285714285714
 40
0.7142857142857142
 40
0.7142857142857142
 40
0.7142857142857142
 40
0.7142857142857142
 40
0.857142857142857
 40
0.857142857142857
 40
0.857142857142857
 40
0.857142857142857
 40
1.0
 40
1.0
 40
1.0
 40
1.0
 10
-55.7577
 20
34.580800000000004
 30
0.0
 10
-55.7577
 20
42.402900000000002
 30
0.0
 10
-51.804200000000002
 20
39.0899
 30
0.0
 10
-51.804200000000002
 20
41.575200000000002
 30
0.0
 10
-51.804200000000002
 20
41.575200000000002
 30
0.0
 10
-51.804200000000002
 20
41.575200000000002
 30
0.0
 10
-51.804200000000002
 20
41.879199999999997
 30
0.0
 10
-51.804200000000002
 20
41.879199999999997
 30
0.0
 10
-51.804200000000002
 20
41.879199999999997
 30
0.0
 10
-51.804200000000002
 20
42.591200000000001
 30
0.0
 10
-52.308999999999997
 20
43.095599999999997
 30
0.0
 10
-53.020699999999998
 20
43.095599999999997
 30
0.0
 10
-53.020699999999998
 20
43.095599999999997
 30
0.0
 10
-55.792700000000004
 20
43.095599999999997
 30
0.0
 10
-58.494700000000002
 20
39.974499999999999
 30
0.0
 10
-58.494700000000002
 20
36.709499999999998
 30
0.0
 10
-58.494700000000002
 20
36.709499999999998
 30
0.0
 10
-58.494700000000002
 20
36.709499999999998
 30
0.0
 10
-58.494700000000002
 20
34.884900000000002
 30
0.0
 10
-58.494700000000002
 20
34.884900000000002
 30
0.0
 10
-58.494700000000002
 20
34.884900000000002
 30
0.0
 10
-58.494700000000002
 20
34.297499999999999
 30
0.0
 10
-57.952500000000001
 20
33.668799999999997
 30
0.0
 10
-57.5822
 20
33.668799999999997
 30
0.0
 10
-57.5822
 20
33.668799999999997
 30
0.0
 10
-56.864899999999999
 20
33.668799999999997
 30
0.0
 10
-56.228999999999999
 20
34.265099999999997
 30
0.0
 10
-55.7577
 20
34.580800000000004
 30
0.0
  0
SPLINE
  5
37
100
AcDbEntity
  8
RÚteg 1
 62
     7
100
AcDbSpline
210
0.0
220
0.0
230
1.0
 70
     1
 71
     3
 72
    32
 73
    28
 74
     0
 42
0.0000000001
 43
0.0000000001
 40
0.0
 40
0.0
 40
0.0
 40
0.0
 40
0.1428571428571429
 40
0.1428571428571429
 40
0.1428571428571429
 40
0.1428571428571429
 40
0.2857142857142857
 40
0.2857142857142857
 40
0.2857142857142857
 40
0.2857142857142857
 40
0.4285714285714286
 40
0.4285714285714286
 40
0.4285714285714286
 40
0.4285714285714286
 40
0.5714285714285714
 40
0.5714285714285714
 40
0.5714285714285714
 40
0.5714285714285714
 40
0.7142857142857142
 40
0.7142857142857142
 40
0.7142857142857142
 40
0.7142857142857142
 40
0.857142857142857
 40
0.857142857142857
 40
0.857142857142857
 40
0.857142857142857
 40
1.0
 40
1.0
 40
1.0
 40
1.0
 10
-92.554000000000002
 20
56.780200000000001
 30
0.0
 10
-92.554000000000002
 20
55.958799999999997
 30
0.0
 10
-92.408600000000007
 20
55.941699999999997
 30
0.0
 10
-92.249799999999993
 20
55.259599999999999
 30
0.0
 10
-92.249799999999993
 20
55.259599999999999
 30
0.0
 10
-90.561099999999996
 20
55.259599999999999
 30
0.0
 10
-85.863900000000001
 20
57.070599999999999
 30
0.0
 10
-85.863900000000001
 20
58.300400000000003
 30
0.0
 10
-85.863900000000001
 20
58.300400000000003
 30
0.0
 10
-85.863900000000001
 20
58.300400000000003
 30
0.0
 10
-85.863900000000001
 20
62.558100000000003
 30
0.0
 10
-85.863900000000001
 20
62.558100000000003
 30
0.0
 10
-85.863900000000001
 20
62.558100000000003
 30
0.0
 10
-85.863900000000001
 20
63.491799999999998
 30
0.0
 10
-86.145200000000003
 20
64.382800000000003
 30
0.0
 10
-87.080100000000002
 20
64.382800000000003
 30
0.0
 10
-87.080100000000002
 20
64.382800000000003
 30
0.0
 10
-87.080100000000002
 20
64.382800000000003
 30
0.0
 10
-87.384299999999996
 20
64.382800000000003
 30
0.0
 10
-87.384299999999996
 20
64.382800000000003
 30
0.0
 10
-87.384299999999996
 20
64.382800000000003
 30
0.0
 10
-88.761799999999994
 20
64.382800000000003
 30
0.0
 10
-88.136600000000001
 20
61.293399999999998
 30
0.0
 10
-89.0304
 20
59.642800000000001
 30
0.0
 10
-89.0304
 20
59.642800000000001
 30
0.0
 10
-90.003799999999998
 20
57.846499999999999
 30
0.0
 10
-92.554000000000002
 20
58.420400000000001
 30
0.0
 10
-92.554000000000002
 20
56.780200000000001
 30
0.0
  0
SPLINE
  5
38
100
AcDbEntity
  8
RÚteg 1
 62
     7
100
AcDbSpline
210
0.0
220
0.0
230
1.0
 70
     1
 71
     3
 72
    44
 73
    40
 74
     0
 42
0.0000000001
 43
0.0000000001
 40
0.0
 40
0.0
 40
0.0
 40
0.0
 40
0.1
 40
0.1
 40
0.1
 40
0.1
 40
0.2
 40
0.2
 40
0.2
 40
0.2
 40
0.3
 40
0.3
 40
0.3
 40
0.3
 40
0.4
 40
0.4
 40
0.4
 40
0.4
 40
0.5
 40
0.5
 40
0.5
 40
0.5
 40
0.6
 40
0.6
 40
0.6
 40
0.6
 40
0.7
 40
0.7
 40
0.7
 40
0.7
 40
0.7999999999999999
 40
0.7999999999999999
 40
0.7999999999999999
 40
0.7999999999999999
 40
0.8999999999999999
 40
0.8999999999999999
 40
0.8999999999999999
 40
0.8999999999999999
 40
1.0
 40
1.0
 40
1.0
 40
1.0
 10
-88.350499999999997
 20
42.7376
 30
0.0
 10
-89.090500000000006
 20
43.216000000000001
 30
0.0
 10
-91.335400000000007
 20
44.616100000000003
 30
0.0
 10
-92.249799999999993
 20
44.616100000000003
 30
0.0
 10
-92.249799999999993
 20
44.616100000000003
 30
0.0
 10
-92.675799999999995
 20
44.616100000000003
 30
0.0
 10
-92.857699999999994
 20
44.201500000000003
 30
0.0
 10
-92.857699999999994
 20
43.703699999999998
 30
0.0
 10
-92.857699999999994
 20
43.703699999999998
 30
0.0
 10
-92.857699999999994
 20
43.703699999999998
 30
0.0
 10
-92.857699999999994
 20
43.095599999999997
 30
0.0
 10
-92.857699999999994
 20
43.095599999999997
 30
0.0
 10
-92.857699999999994
 20
43.095599999999997
 30
0.0
 10
-92.857699999999994
 20
41.7395
 30
0.0
 10
-90.4208
 20
40.793100000000003
 30
0.0
 10
-90.075599999999994
 20
40.404200000000003
 30
0.0
 10
-90.075599999999994
 20
40.404200000000003
 30
0.0
 10
-89.492999999999995
 20
39.747
 30
0.0
 10
-89.513000000000005
 20
36.852600000000002
 30
0.0
 10
-89.513000000000005
 20
35.493099999999998
 30
0.0
 10
-89.513000000000005
 20
35.493099999999998
 30
0.0
 10
-88.964100000000002
 20
35.125700000000002
 30
0.0
 10
-88.978300000000004
 20
34.884900000000002
 30
0.0
 10
-88.296300000000002
 20
34.884900000000002
 30
0.0
 10
-88.296300000000002
 20
34.884900000000002
 30
0.0
 10
-88.296300000000002
 20
34.884900000000002
 30
0.0
 10
-87.688400000000001
 20
34.884900000000002
 30
0.0
 10
-87.688400000000001
 20
34.884900000000002
 30
0.0
 10
-87.688400000000001
 20
34.884900000000002
 30
0.0
 10
-86.976399999999998
 20
34.884900000000002
 30
0.0
 10
-86.471999999999994
 20
35.389600000000002
 30
0.0
 10
-86.471999999999994
 20
36.101199999999999
 30
0.0
 10
-86.471999999999994
 20
36.101199999999999
 30
0.0
 10
-86.471999999999994
 20
36.101199999999999
 30
0.0
 10
-86.471999999999994
 20
38.838200000000001
 30
0.0
 10
-86.471999999999994
 20
38.838200000000001
 30
0.0
 10
-86.471999999999994
 20
38.838200000000001
 30
0.0
 10
-86.471999999999994
 20
41.1586
 30
0.0
 10
-86.877300000000005
 20
41.785600000000002
 30
0.0
 10
-88.350499999999997
 20
42.7376
 30
0.0
  0
SPLINE
  5
39
100
AcDbEntity
  8
RÚteg 1
 62
     7
100
AcDbSpline
210
0.0
220
0.0
230
1.0
 70
     1
 71
     3
 72
    36
 73
    32
 74
     0
 42
0.0000000001
 43
0.0000000001
 40
0.0
 40
0.0
 40
0.0
 40
0.0
 40
0.125
 40
0.125
 40
0.125
 40
0.125
 40
0.25
 40
0.25
 40
0.25
 40
0.25
 40
0.375
 40
0.375
 40
0.375
 40
0.375
 40
0.5
 40
0.5
 40
0.5
 40
0.5
 40
0.625
 40
0.625
 40
0.625
 40
0.625
 40
0.75
 40
0.75
 40
0.75
 40
0.75
 40
0.875
 40
0.875
 40
0.875
 40
0.875
 40
1.0
 40
1.0
 40
1.0
 40
1.0
 10
-60.015000000000001
 20
34.884900000000002
 30
0.0
 10
-60.015000000000001
 20
38.219099999999997
 30
0.0
 10
-60.242800000000003
 20
40.0899
 30
0.0
 10
-58.428699999999999
 20
41.813499999999998
 30
0.0
 10
-58.428699999999999
 20
41.813499999999998
 30
0.0
 10
-57.370100000000001
 20
42.819400000000002
 30
0.0
 10
-53.628900000000002
 20
44.236699999999999
 30
0.0
 10
-53.628900000000002
 20
45.224200000000003
 30
0.0
 10
-53.628900000000002
 20
45.224200000000003
 30
0.0
 10
-53.628900000000002
 20
45.224200000000003
 30
0.0
 10
-53.628900000000002
 20
45.528399999999998
 30
0.0
 10
-53.628900000000002
 20
45.528399999999998
 30
0.0
 10
-53.628900000000002
 20
45.528399999999998
 30
0.0
 10
-53.628900000000002
 20
46.240099999999998
 30
0.0
 10
-54.133499999999998
 20
46.744599999999998
 30
0.0
 10
-54.845399999999998
 20
46.744599999999998
 30
0.0
 10
-54.845399999999998
 20
46.744599999999998
 30
0.0
 10
-55.628300000000003
 20
46.744599999999998
 30
0.0
 10
-62.143799999999999
 20
43.348599999999998
 30
0.0
 10
-62.143799999999999
 20
42.487499999999997
 30
0.0
 10
-62.143799999999999
 20
42.487499999999997
 30
0.0
 10
-62.143799999999999
 20
42.487499999999997
 30
0.0
 10
-62.143799999999999
 20
35.189
 30
0.0
 10
-62.143799999999999
 20
35.189
 30
0.0
 10
-62.143799999999999
 20
35.189
 30
0.0
 10
-62.143799999999999
 20
34.488199999999999
 30
0.0
 10
-61.932099999999998
 20
34.276499999999999
 30
0.0
 10
-61.2318
 20
34.276499999999999
 30
0.0
 10
-61.2318
 20
34.276499999999999
 30
0.0
 10
-60.549599999999998
 20
34.276499999999999
 30
0.0
 10
-60.5642
 20
34.517400000000002
 30
0.0
 10
-60.015000000000001
 20
34.884900000000002
 30
0.0
  0
SPLINE
  5
3A
100
AcDbEntity
  8
RÚteg 1
 62
     7
100
AcDbSpline
210
0.0
220
0.0
230
1.0
 70
     1
 71
     3
 72
    32
 73
    28
 74
     0
 42
0.0000000001
 43
0.0000000001
 40
0.0
 40
0.0
 40
0.0
 40
0.0
 40
0.1428571428571429
 40
0.1428571428571429
 40
0.1428571428571429
 40
0.1428571428571429
 40
0.2857142857142857
 40
0.2857142857142857
 40
0.2857142857142857
 40
0.2857142857142857
 40
0.4285714285714286
 40
0.4285714285714286
 40
0.4285714285714286
 40
0.4285714285714286
 40
0.5714285714285714
 40
0.5714285714285714
 40
0.5714285714285714
 40
0.5714285714285714
 40
0.7142857142857142
 40
0.7142857142857142
 40
0.7142857142857142
 40
0.7142857142857142
 40
0.857142857142857
 40
0.857142857142857
 40
0.857142857142857
 40
0.857142857142857
 40
1.0
 40
1.0
 40
1.0
 40
1.0
 10
-84.647199999999998
 20
56.780200000000001
 30
0.0
 10
-85.900400000000005
 20
56.117199999999997
 30
0.0
 10
-90.729299999999995
 20
54.270000000000003
 30
0.0
 10
-90.729299999999995
 20
52.826599999999999
 30
0.0
 10
-90.729299999999995
 20
52.826599999999999
 30
0.0
 10
-90.729299999999995
 20
52.126399999999997
 30
0.0
 10
-90.517899999999997
 20
51.914700000000003
 30
0.0
 10
-89.816900000000004
 20
51.914700000000003
 30
0.0
 10
-89.816900000000004
 20
51.914700000000003
 30
0.0
 10
-87.726699999999994
 20
51.914700000000003
 30
0.0
 10
-83.880499999999998
 20
54.378100000000003
 30
0.0
 10
-82.296400000000006
 20
55.268300000000004
 30
0.0
 10
-82.296400000000006
 20
55.268300000000004
 30
0.0
 10
-82.296400000000006
 20
55.268300000000004
 30
0.0
 10
-81.606200000000001
 20
62.862299999999998
 30
0.0
 10
-81.606200000000001
 20
62.862299999999998
 30
0.0
 10
-81.606200000000001
 20
62.862299999999998
 30
0.0
 10
-81.606200000000001
 20
62.862299999999998
 30
0.0
 10
-81.606200000000001
 20
63.1663
 30
0.0
 10
-81.606200000000001
 20
63.1663
 30
0.0
 10
-81.606200000000001
 20
63.1663
 30
0.0
 10
-81.606200000000001
 20
63.987099999999998
 30
0.0
 10
-82.415899999999993
 20
64.382800000000003
 30
0.0
 10
-83.1267
 20
64.382800000000003
 30
0.0
 10
-83.1267
 20
64.382800000000003
 30
0.0
 10
-84.810199999999995
 20
64.382800000000003
 30
0.0
 10
-84.647199999999998
 20
58.747900000000001
 30
0.0
 10
-84.647199999999998
 20
56.780200000000001
 30
0.0
  0
SPLINE
  5
3B
100
AcDbEntity
  8
RÚteg 1
 62
     7
100
AcDbSpline
210
0.0
220
0.0
230
1.0
 70
     1
 71
     3
 72
    28
 73
    24
 74
     0
 42
0.0000000001
 43
0.0000000001
 40
0.0
 40
0.0
 40
0.0
 40
0.0
 40
0.1666666666666667
 40
0.1666666666666667
 40
0.1666666666666667
 40
0.1666666666666667
 40
0.3333333333333333
 40
0.3333333333333333
 40
0.3333333333333333
 40
0.3333333333333333
 40
0.5
 40
0.5
 40
0.5
 40
0.5
 40
0.6666666666666666
 40
0.6666666666666666
 40
0.6666666666666666
 40
0.6666666666666666
 40
0.8333333333333333
 40
0.8333333333333333
 40
0.8333333333333333
 40
0.8333333333333333
 40
1.0
 40
1.0
 40
1.0
 40
1.0
 10
-63.664200000000001
 20
51.306600000000003
 30
0.0
 10
-65.196200000000005
 20
51.306600000000003
 30
0.0
 10
-69.134799999999998
 20
49.708300000000001
 30
0.0
 10
-69.746200000000002
 20
48.873600000000003
 30
0.0
 10
-69.746200000000002
 20
48.873600000000003
 30
0.0
 10
-68.945599999999999
 20
48.4497
 30
0.0
 10
-64.521000000000001
 20
46.440899999999999
 30
0.0
 10
-63.664200000000001
 20
46.440899999999999
 30
0.0
 10
-63.664200000000001
 20
46.440899999999999
 30
0.0
 10
-63.664200000000001
 20
46.440899999999999
 30
0.0
 10
-61.839700000000001
 20
46.440899999999999
 30
0.0
 10
-61.839700000000001
 20
46.440899999999999
 30
0.0
 10
-61.839700000000001
 20
46.440899999999999
 30
0.0
 10
-60.488199999999999
 20
46.440899999999999
 30
0.0
 10
-57.519100000000002
 20
48.229900000000001
 30
0.0
 10
-56.061700000000002
 20
48.569200000000002
 30
0.0
 10
-56.061700000000002
 20
48.569200000000002
 30
0.0
 10
-56.635599999999997
 20
49.067799999999998
 30
0.0
 10
-61.218800000000002
 20
51.306600000000003
 30
0.0
 10
-62.143799999999999
 20
51.306600000000003
 30
0.0
 10
-62.143799999999999
 20
51.306600000000003
 30
0.0
 10
-62.143799999999999
 20
51.306600000000003
 30
0.0
 10
-63.664200000000001
 20
51.306600000000003
 30
0.0
 10
-63.664200000000001
 20
51.306600000000003
 30
0.0
  0
SPLINE
  5
3C
100
AcDbEntity
  8
RÚteg 1
 62
     7
100
AcDbSpline
210
0.0
220
0.0
230
1.0
 70
     1
 71
     3
 72
    32
 73
    28
 74
     0
 42
0.0000000001
 43
0.0000000001
 40
0.0
 40
0.0
 40
0.0
 40
0.0
 40
0.1428571428571429
 40
0.1428571428571429
 40
0.1428571428571429
 40
0.1428571428571429
 40
0.2857142857142857
 40
0.2857142857142857
 40
0.2857142857142857
 40
0.2857142857142857
 40
0.4285714285714286
 40
0.4285714285714286
 40
0.4285714285714286
 40
0.4285714285714286
 40
0.5714285714285714
 40
0.5714285714285714
 40
0.5714285714285714
 40
0.5714285714285714
 40
0.7142857142857142
 40
0.7142857142857142
 40
0.7142857142857142
 40
0.7142857142857142
 40
0.857142857142857
 40
0.857142857142857
 40
0.857142857142857
 40
0.857142857142857
 40
1.0
 40
1.0
 40
1.0
 40
1.0
 10
-78.880200000000002
 20
65.906000000000006
 30
0.0
 10
-77.477900000000005
 20
63.825299999999999
 30
0.0
 10
-73.921499999999995
 20
61.9773
 30
0.0
 10
-71.570800000000006
 20
60.733400000000003
 30
0.0
 10
-71.570800000000006
 20
60.733400000000003
 30
0.0
 10
-70.339399999999998
 20
61.384999999999998
 30
0.0
 10
-64.2727
 20
64.419899999999998
 30
0.0
 10
-64.2727
 20
65.599199999999996
 30
0.0
 10
-64.2727
 20
65.599199999999996
 30
0.0
 10
-64.2727
 20
66.299800000000005
 30
0.0
 10
-64.483999999999995
 20
66.511499999999998
 30
0.0
 10
-65.184700000000007
 20
66.511499999999998
 30
0.0
 10
-65.184700000000007
 20
66.511499999999998
 30
0.0
 10
-65.184700000000007
 20
66.511499999999998
 30
0.0
 10
-65.488900000000001
 20
66.511499999999998
 30
0.0
 10
-65.488900000000001
 20
66.511499999999998
 30
0.0
 10
-65.488900000000001
 20
66.511499999999998
 30
0.0
 10
-67.269099999999995
 20
66.511499999999998
 30
0.0
 10
-70.511499999999998
 20
64.078500000000005
 30
0.0
 10
-71.570800000000006
 20
64.078500000000005
 30
0.0
 10
-71.570800000000006
 20
64.078500000000005
 30
0.0
 10
-73.395200000000003
 20
64.078500000000005
 30
0.0
 10
-75.772999999999996
 20
67.361800000000002
 30
0.0
 10
-78.503299999999996
 20
67.408199999999994
 30
0.0
 10
-78.503299999999996
 20
67.408199999999994
 30
0.0
 10
-78.503299999999996
 20
67.408199999999994
 30
0.0
 10
-78.880200000000002
 20
65.906000000000006
 30
0.0
 10
-78.880200000000002
 20
65.906000000000006
 30
0.0
  0
SPLINE
  5
3D
100
AcDbEntity
  8
RÚteg 1
 62
     7
100
AcDbSpline
210
0.0
220
0.0
230
1.0
 70
     1
 71
     3
 72
    32
 73
    28
 74
     0
 42
0.0000000001
 43
0.0000000001
 40
0.0
 40
0.0
 40
0.0
 40
0.0
 40
0.1428571428571429
 40
0.1428571428571429
 40
0.1428571428571429
 40
0.1428571428571429
 40
0.2857142857142857
 40
0.2857142857142857
 40
0.2857142857142857
 40
0.2857142857142857
 40
0.4285714285714286
 40
0.4285714285714286
 40
0.4285714285714286
 40
0.4285714285714286
 40
0.5714285714285714
 40
0.5714285714285714
 40
0.5714285714285714
 40
0.5714285714285714
 40
0.7142857142857142
 40
0.7142857142857142
 40
0.7142857142857142
 40
0.7142857142857142
 40
0.857142857142857
 40
0.857142857142857
 40
0.857142857142857
 40
0.857142857142857
 40
1.0
 40
1.0
 40
1.0
 40
1.0
 10
-84.039100000000005
 20
34.884900000000002
 30
0.0
 10
-83.357299999999995
 20
34.884900000000002
 30
0.0
 10
-83.371499999999997
 20
35.125700000000002
 30
0.0
 10
-82.822599999999994
 20
35.493099999999998
 30
0.0
 10
-82.822599999999994
 20
35.493099999999998
 30
0.0
 10
-82.822599999999994
 20
35.493099999999998
 30
0.0
 10
-82.472200000000001
 20
43.093200000000003
 30
0.0
 10
-82.472200000000001
 20
43.093200000000003
 30
0.0
 10
-82.472200000000001
 20
43.093200000000003
 30
0.0
 10
-82.472200000000001
 20
43.093200000000003
 30
0.0
 10
-82.311099999999996
 20
43.407299999999999
 30
0.0
 10
-82.311099999999996
 20
43.407299999999999
 30
0.0
 10
-82.311099999999996
 20
43.407299999999999
 30
0.0
 10
-82.311099999999996
 20
43.407299999999999
 30
0.0
 10
-89.964600000000004
 20
48.500300000000003
 30
0.0
 10
-89.964600000000004
 20
48.500300000000003
 30
0.0
 10
-89.964600000000004
 20
48.500300000000003
 30
0.0
 10
-90.494100000000003
 20
46.868299999999998
 30
0.0
 10
-91.033500000000004
 20
47.497300000000003
 30
0.0
 10
-91.033500000000004
 20
46.440899999999999
 30
0.0
 10
-91.033500000000004
 20
46.440899999999999
 30
0.0
 10
-91.033500000000004
 20
45.666200000000003
 30
0.0
 10
-86.124899999999997
 20
42.7654
 30
0.0
 10
-85.255300000000005
 20
42.183199999999999
 30
0.0
 10
-85.255300000000005
 20
42.183199999999999
 30
0.0
 10
-85.255300000000005
 20
40.199199999999998
 30
0.0
 10
-85.979299999999995
 20
34.884900000000002
 30
0.0
 10
-84.039100000000005
 20
34.884900000000002
 30
0.0
  0
SPLINE
  5
3E
100
AcDbEntity
  8
RÚteg 1
 62
     7
100
AcDbSpline
210
0.0
220
0.0
230
1.0
 70
     1
 71
     3
 72
    20
 73
    16
 74
     0
 42
0.0000000001
 43
0.0000000001
 40
0.0
 40
0.0
 40
0.0
 40
0.0
 40
0.25
 40
0.25
 40
0.25
 40
0.25
 40
0.5
 40
0.5
 40
0.5
 40
0.5
 40
0.75
 40
0.75
 40
0.75
 40
0.75
 40
1.0
 40
1.0
 40
1.0
 40
1.0
 10
-79.477699999999999
 20
59.212899999999998
 30
0.0
 10
-79.477699999999999
 20
55.293700000000001
 30
0.0
 10
-76.110399999999998
 20
52.313899999999997
 30
0.0
 10
-73.091399999999993
 20
51.610300000000002
 30
0.0
 10
-73.091399999999993
 20
51.610300000000002
 30
0.0
 10
-73.091399999999993
 20
52.841500000000003
 30
0.0
 10
-73.791600000000003
 20
58.290599999999998
 30
0.0
 10
-74.244100000000003
 20
58.972499999999997
 30
0.0
 10
-74.244100000000003
 20
58.972499999999997
 30
0.0
 10
-74.821200000000005
 20
59.842399999999998
 30
0.0
 10
-78.2791
 20
62.458500000000001
 30
0.0
 10
-79.477699999999999
 20
62.558100000000003
 30
0.0
 10
-79.477699999999999
 20
62.558100000000003
 30
0.0
 10
-79.477699999999999
 20
62.558100000000003
 30
0.0
 10
-79.477699999999999
 20
59.212899999999998
 30
0.0
 10
-79.477699999999999
 20
59.212899999999998
 30
0.0
  0
SPLINE
  5
3F
100
AcDbEntity
  8
RÚteg 1
 62
     7
100
AcDbSpline
210
0.0
220
0.0
230
1.0
 70
     1
 71
     3
 72
    32
 73
    28
 74
     0
 42
0.0000000001
 43
0.0000000001
 40
0.0
 40
0.0
 40
0.0
 40
0.0
 40
0.1428571428571429
 40
0.1428571428571429
 40
0.1428571428571429
 40
0.1428571428571429
 40
0.2857142857142857
 40
0.2857142857142857
 40
0.2857142857142857
 40
0.2857142857142857
 40
0.4285714285714286
 40
0.4285714285714286
 40
0.4285714285714286
 40
0.4285714285714286
 40
0.5714285714285714
 40
0.5714285714285714
 40
0.5714285714285714
 40
0.5714285714285714
 40
0.7142857142857142
 40
0.7142857142857142
 40
0.7142857142857142
 40
0.7142857142857142
 40
0.857142857142857
 40
0.857142857142857
 40
0.857142857142857
 40
0.857142857142857
 40
1.0
 40
1.0
 40
1.0
 40
1.0
 10
-78.869200000000006
 20
31.5397
 30
0.0
 10
-77.810599999999994
 20
31.5397
 30
0.0
 10
-73.8459
 20
34.276499999999999
 30
0.0
 10
-72.787199999999999
 20
34.276499999999999
 30
0.0
 10
-72.787199999999999
 20
34.276499999999999
 30
0.0
 10
-72.079700000000003
 20
34.276499999999999
 30
0.0
 10
-68.133899999999997
 20
31.235600000000002
 30
0.0
 10
-66.401300000000006
 20
31.235600000000002
 30
0.0
 10
-66.401300000000006
 20
31.235600000000002
 30
0.0
 10
-65.700500000000005
 20
31.235600000000002
 30
0.0
 10
-65.488900000000001
 20
31.447099999999999
 30
0.0
 10
-65.488900000000001
 20
32.148099999999999
 30
0.0
 10
-65.488900000000001
 20
32.148099999999999
 30
0.0
 10
-65.488900000000001
 20
32.148099999999999
 30
0.0
 10
-65.488900000000001
 20
32.451999999999998
 30
0.0
 10
-65.488900000000001
 20
32.451999999999998
 30
0.0
 10
-65.488900000000001
 20
32.451999999999998
 30
0.0
 10
-65.488900000000001
 20
33.403300000000002
 30
0.0
 10
-71.386499999999998
 20
37.317799999999998
 30
0.0
 10
-72.483199999999997
 20
37.317799999999998
 30
0.0
 10
-72.483199999999997
 20
37.317799999999998
 30
0.0
 10
-73.840100000000007
 20
37.317799999999998
 30
0.0
 10
-80.085899999999995
 20
33.807200000000002
 30
0.0
 10
-80.085899999999995
 20
32.756300000000003
 30
0.0
 10
-80.085899999999995
 20
32.756300000000003
 30
0.0
 10
-80.085899999999995
 20
32.044499999999999
 30
0.0
 10
-79.581199999999995
 20
31.5397
 30
0.0
 10
-78.869200000000006
 20
31.5397
 30
0.0
  0
SPLINE
  5
40
100
AcDbEntity
  8
RÚteg 1
 62
     7
100
AcDbSpline
210
0.0
220
0.0
230
1.0
 70
     1
 71
     3
 72
    28
 73
    24
 74
     0
 42
0.0000000001
 43
0.0000000001
 40
0.0
 40
0.0
 40
0.0
 40
0.0
 40
0.1666666666666667
 40
0.1666666666666667
 40
0.1666666666666667
 40
0.1666666666666667
 40
0.3333333333333333
 40
0.3333333333333333
 40
0.3333333333333333
 40
0.3333333333333333
 40
0.5
 40
0.5
 40
0.5
 40
0.5
 40
0.6666666666666666
 40
0.6666666666666666
 40
0.6666666666666666
 40
0.6666666666666666
 40
0.8333333333333333
 40
0.8333333333333333
 40
0.8333333333333333
 40
0.8333333333333333
 40
1.0
 40
1.0
 40
1.0
 40
1.0
 10
-70.962800000000001
 20
42.183199999999999
 30
0.0
 10
-70.962800000000001
 20
40.054499999999997
 30
0.0
 10
-67.090999999999994
 20
35.797199999999997
 30
0.0
 10
-65.184700000000007
 20
35.797199999999997
 30
0.0
 10
-65.184700000000007
 20
35.797199999999997
 30
0.0
 10
-64.758600000000001
 20
35.797199999999997
 30
0.0
 10
-64.576700000000002
 20
36.2119
 30
0.0
 10
-64.576700000000002
 20
36.709499999999998
 30
0.0
 10
-64.576700000000002
 20
36.709499999999998
 30
0.0
 10
-64.576700000000002
 20
36.709499999999998
 30
0.0
 10
-64.576700000000002
 20
38.534300000000002
 30
0.0
 10
-64.576700000000002
 20
38.534300000000002
 30
0.0
 10
-64.576700000000002
 20
38.534300000000002
 30
0.0
 10
-64.576700000000002
 20
42.731400000000001
 30
0.0
 10
-68.090000000000003
 20
45.024700000000003
 30
0.0
 10
-70.658600000000007
 20
46.744599999999998
 30
0.0
 10
-70.658600000000007
 20
46.744599999999998
 30
0.0
 10
-71.056100000000001
 20
45.943300000000001
 30
0.0
 10
-70.962800000000001
 20
46.995199999999997
 30
0.0
 10
-70.962800000000001
 20
45.832299999999996
 30
0.0
 10
-70.962800000000001
 20
45.832299999999996
 30
0.0
 10
-70.962800000000001
 20
45.832299999999996
 30
0.0
 10
-70.962800000000001
 20
42.183199999999999
 30
0.0
 10
-70.962800000000001
 20
42.183199999999999
 30
0.0
  0
SPLINE
  5
41
100
AcDbEntity
  8
RÚteg 1
 62
     7
100
AcDbSpline
210
0.0
220
0.0
230
1.0
 70
     1
 71
     3
 72
    20
 73
    16
 74
     0
 42
0.0000000001
 43
0.0000000001
 40
0.0
 40
0.0
 40
0.0
 40
0.0
 40
0.25
 40
0.25
 40
0.25
 40
0.25
 40
0.5
 40
0.5
 40
0.5
 40
0.5
 40
0.75
 40
0.75
 40
0.75
 40
0.75
 40
1.0
 40
1.0
 40
1.0
 40
1.0
 10
-64.2727
 20
62.253799999999998
 30
0.0
 10
-68.870500000000007
 20
59.820999999999998
 30
0.0
 10
-70.658600000000007
 20
58.653300000000002
 30
0.0
 10
-70.658600000000007
 20
51.610300000000002
 30
0.0
 10
-70.658600000000007
 20
51.610300000000002
 30
0.0
 10
-65.719899999999996
 20
53.9801
 30
0.0
 10
-63.821800000000003
 20
54.878999999999998
 30
0.0
 10
-63.664200000000001
 20
61.9497
 30
0.0
 10
-63.664200000000001
 20
61.9497
 30
0.0
 10
-63.664200000000001
 20
61.9497
 30
0.0
 10
-63.9681
 20
62.558100000000003
 30
0.0
 10
-63.9681
 20
62.558100000000003
 30
0.0
 10
-63.9681
 20
62.558100000000003
 30
0.0
 10
-63.9681
 20
62.558100000000003
 30
0.0
 10
-64.2727
 20
62.253799999999998
 30
0.0
 10
-64.2727
 20
62.253799999999998
 30
0.0
  0
SPLINE
  5
42
100
AcDbEntity
  8
RÚteg 1
 62
     7
100
AcDbSpline
210
0.0
220
0.0
230
1.0
 70
     1
 71
     3
 72
    20
 73
    16
 74
     0
 42
0.0000000001
 43
0.0000000001
 40
0.0
 40
0.0
 40
0.0
 40
0.0
 40
0.25
 40
0.25
 40
0.25
 40
0.25
 40
0.5
 40
0.5
 40
0.5
 40
0.5
 40
0.75
 40
0.75
 40
0.75
 40
0.75
 40
1.0
 40
1.0
 40
1.0
 40
1.0
 10
-80.998000000000005
 20
52.218899999999998
 30
0.0
 10
-82.758399999999995
 20
52.218899999999998
 30
0.0
 10
-86.974199999999996
 20
50.548099999999998
 30
0.0
 10
-87.688400000000001
 20
49.481699999999996
 30
0.0
 10
-87.688400000000001
 20
49.481699999999996
 30
0.0
 10
-86.146699999999996
 20
48.6661
 30
0.0
 10
-83.209199999999996
 20
46.744599999999998
 30
0.0
 10
-80.998000000000005
 20
46.744599999999998
 30
0.0
 10
-80.998000000000005
 20
46.744599999999998
 30
0.0
 10
-79.671300000000002
 20
46.744599999999998
 30
0.0
 10
-75.155600000000007
 20
48.739699999999999
 30
0.0
 10
-74.611800000000002
 20
49.481699999999996
 30
0.0
 10
-74.611800000000002
 20
49.481699999999996
 30
0.0
 10
-76.148399999999995
 20
49.839799999999997
 30
0.0
 10
-79.825699999999998
 20
52.218899999999998
 30
0.0
 10
-80.998000000000005
 20
52.218899999999998
 30
0.0
  0
SPLINE
  5
43
100
AcDbEntity
  8
RÚteg 1
 62
     7
100
AcDbSpline
210
0.0
220
0.0
230
1.0
 70
     1
 71
     3
 72
    36
 73
    32
 74
     0
 42
0.0000000001
 43
0.0000000001
 40
0.0
 40
0.0
 40
0.0
 40
0.0
 40
0.125
 40
0.125
 40
0.125
 40
0.125
 40
0.25
 40
0.25
 40
0.25
 40
0.25
 40
0.375
 40
0.375
 40
0.375
 40
0.375
 40
0.5
 40
0.5
 40
0.5
 40
0.5
 40
0.625
 40
0.625
 40
0.625
 40
0.625
 40
0.75
 40
0.75
 40
0.75
 40
0.75
 40
0.875
 40
0.875
 40
0.875
 40
0.875
 40
1.0
 40
1.0
 40
1.0
 40
1.0
 10
-61.839700000000001
 20
61.9497
 30
0.0
 10
-61.839700000000001
 20
61.9497
 30
0.0
 10
-61.839700000000001
 20
54.955599999999997
 30
0.0
 10
-61.839700000000001
 20
54.955599999999997
 30
0.0
 10
-61.839700000000001
 20
54.955599999999997
 30
0.0
 10
-61.839700000000001
 20
53.888199999999998
 30
0.0
 10
-55.735599999999998
 20
50.6982
 30
0.0
 10
-54.237000000000002
 20
50.6982
 30
0.0
 10
-54.237000000000002
 20
50.6982
 30
0.0
 10
-53.5364
 20
50.6982
 30
0.0
 10
-53.324800000000003
 20
50.909700000000001
 30
0.0
 10
-53.324800000000003
 20
51.610300000000002
 30
0.0
 10
-53.324800000000003
 20
51.610300000000002
 30
0.0
 10
-53.324800000000003
 20
52.790900000000001
 30
0.0
 10
-58.047600000000003
 20
55.586100000000002
 30
0.0
 10
-59.160699999999999
 20
55.871699999999997
 30
0.0
 10
-59.160699999999999
 20
55.871699999999997
 30
0.0
 10
-59.160699999999999
 20
55.871699999999997
 30
0.0
 10
-58.798400000000001
 20
62.253799999999998
 30
0.0
 10
-58.798400000000001
 20
62.253799999999998
 30
0.0
 10
-58.798400000000001
 20
62.253799999999998
 30
0.0
 10
-58.751300000000001
 20
62.948799999999999
 30
0.0
 10
-59.052599999999998
 20
63.1663
 30
0.0
 10
-59.710999999999999
 20
63.1663
 30
0.0
 10
-59.710999999999999
 20
63.1663
 30
0.0
 10
-59.710999999999999
 20
63.1663
 30
0.0
 10
-60.6233
 20
63.1663
 30
0.0
 10
-60.6233
 20
63.1663
 30
0.0
 10
-60.6233
 20
63.1663
 30
0.0
 10
-61.334899999999998
 20
63.1663
 30
0.0
 10
-61.839700000000001
 20
62.661700000000003
 30
0.0
 10
-61.839700000000001
 20
61.9497
 30
0.0
  0
SPLINE
  5
44
100
AcDbEntity
  8
RÚteg 1
 62
     7
100
AcDbSpline
210
0.0
220
0.0
230
1.0
 70
     1
 71
     3
 72
    20
 73
    16
 74
     0
 42
0.0000000001
 43
0.0000000001
 40
0.0
 40
0.0
 40
0.0
 40
0.0
 40
0.25
 40
0.25
 40
0.25
 40
0.25
 40
0.5
 40
0.5
 40
0.5
 40
0.5
 40
0.75
 40
0.75
 40
0.75
 40
0.75
 40
1.0
 40
1.0
 40
1.0
 40
1.0
 10
-80.694000000000003
 20
35.797199999999997
 30
0.0
 10
-78.091999999999999
 20
36.403300000000002
 30
0.0
 10
-73.6995
 20
40.012300000000003
 30
0.0
 10
-73.6995
 20
43.399799999999999
 30
0.0
 10
-73.6995
 20
43.399799999999999
 30
0.0
 10
-73.6995
 20
43.399799999999999
 30
0.0
 10
-73.6995
 20
46.744599999999998
 30
0.0
 10
-73.6995
 20
46.744599999999998
 30
0.0
 10
-73.6995
 20
46.744599999999998
 30
0.0
 10
-75.010300000000001
 20
46.635899999999999
 30
0.0
 10
-78.620400000000004
 20
44.0306
 30
0.0
 10
-79.179400000000001
 20
43.101199999999999
 30
0.0
 10
-79.179400000000001
 20
43.101199999999999
 30
0.0
 10
-79.895099999999999
 20
41.910899999999998
 30
0.0
 10
-80.694000000000003
 20
37.732900000000001
 30
0.0
 10
-80.694000000000003
 20
35.797199999999997
 30
0.0
  0
SPLINE
  5
45
100
AcDbEntity
  8
RÚteg 1
 62
     7
100
AcDbSpline
210
0.0
220
0.0
230
1.0
 70
     1
 71
     3
 72
    60
 73
    56
 74
     0
 42
0.0000000001
 43
0.0000000001
 40
0.0
 40
0.0
 40
0.0
 40
0.0
 40
0.0714285714285714
 40
0.0714285714285714
 40
0.0714285714285714
 40
0.0714285714285714
 40
0.1428571428571429
 40
0.1428571428571429
 40
0.1428571428571429
 40
0.1428571428571429
 40
0.2142857142857143
 40
0.2142857142857143
 40
0.2142857142857143
 40
0.2142857142857143
 40
0.2857142857142857
 40
0.2857142857142857
 40
0.2857142857142857
 40
0.2857142857142857
 40
0.3571428571428571
 40
0.3571428571428571
 40
0.3571428571428571
 40
0.3571428571428571
 40
0.4285714285714285
 40
0.4285714285714285
 40
0.4285714285714285
 40
0.4285714285714285
 40
0.4999999999999999
 40
0.4999999999999999
 40
0.4999999999999999
 40
0.4999999999999999
 40
0.5714285714285713
 40
0.5714285714285713
 40
0.5714285714285713
 40
0.5714285714285713
 40
0.6428571428571427
 40
0.6428571428571427
 40
0.6428571428571427
 40
0.6428571428571427
 40
0.7142857142857141
 40
0.7142857142857141
 40
0.7142857142857141
 40
0.7142857142857141
 40
0.7857142857142855
 40
0.7857142857142855
 40
0.7857142857142855
 40
0.7857142857142855
 40
0.8571428571428569
 40
0.8571428571428569
 40
0.8571428571428569
 40
0.8571428571428569
 40
0.9285714285714283
 40
0.9285714285714283
 40
0.9285714285714283
 40
0.9285714285714283
 40
1.0
 40
1.0
 40
1.0
 40
1.0
 10
5.0587
 20
84.772599999999997
 30
0.0
 10
21.866800000000001
 20
82.754900000000006
 30
0.0
 10
34.899999999999999
 20
68.443899999999999
 30
0.0
 10
34.899999999999999
 20
51.093200000000003
 30
0.0
 10
34.899999999999999
 20
51.093200000000003
 30
0.0
 10
34.899999999999999
 20
32.359999999999999
 30
0.0
 10
19.708100000000002
 20
17.168099999999999
 30
0.0
 10
0.9751
 20
17.168099999999999
 30
0.0
 10
0.9751
 20
17.168099999999999
 30
0.0
 10
-17.758099999999999
 20
17.168099999999999
 30
0.0
 10
-32.950000000000003
 20
32.359999999999999
 30
0.0
 10
-32.950000000000003
 20
51.093200000000003
 30
0.0
 10
-32.950000000000003
 20
51.093200000000003
 30
0.0
 10
-32.950000000000003
 20
68.443899999999999
 30
0.0
 10
-19.916799999999999
 20
82.754900000000006
 30
0.0
 10
-3.1086999999999998
 20
84.772599999999997
 30
0.0
 10
-3.1086999999999998
 20
84.772599999999997
 30
0.0
 10
-3.1086999999999998
 20
84.772599999999997
 30
0.0
 10
-3.1086999999999998
 20
88.849999999999994
 30
0.0
 10
-3.1086999999999998
 20
88.849999999999994
 30
0.0
 10
-3.1086999999999998
 20
88.849999999999994
 30
0.0
 10
-3.1086999999999998
 20
89.190399999999997
 30
0.0
 10
-2.8302
 20
89.468699999999998
 30
0.0
 10
-2.4900000000000002
 20
89.468699999999998
 30
0.0
 10
-2.4900000000000002
 20
89.468699999999998
 30
0.0
 10
-2.4900000000000002
 20
89.468699999999998
 30
0.0
 10
-2.3018000000000001
 20
89.468699999999998
 30
0.0
 10
-2.3018000000000001
 20
89.468699999999998
 30
0.0
 10
-2.3018000000000001
 20
89.468699999999998
 30
0.0
 10
-2.6566000000000001
 20
90.050200000000004
 30
0.0
 10
-2.8611
 20
90.733199999999997
 30
0.0
 10
-2.8611
 20
91.463899999999995
 30
0.0
 10
-2.8611
 20
91.463899999999995
 30
0.0
 10
-2.8611
 20
93.5822
 30
0.0
 10
-1.1433
 20
95.299999999999997
 30
0.0
 10
0.9751
 20
95.299999999999997
 30
0.0
 10
0.9751
 20
95.299999999999997
 30
0.0
 10
3.0931999999999999
 20
95.299999999999997
 30
0.0
 10
4.8112000000000004
 20
93.5822
 30
0.0
 10
4.8112000000000004
 20
91.463899999999995
 30
0.0
 10
4.8112000000000004
 20
91.463899999999995
 30
0.0
 10
4.8112000000000004
 20
90.733199999999997
 30
0.0
 10
4.6066000000000003
 20
90.050200000000004
 30
0.0
 10
4.2518000000000002
 20
89.468699999999998
 30
0.0
 10
4.2518000000000002
 20
89.468699999999998
 30
0.0
 10
4.2518000000000002
 20
89.468699999999998
 30
0.0
 10
4.4400000000000004
 20
89.468699999999998
 30
0.0
 10
4.4400000000000004
 20
89.468699999999998
 30
0.0
 10
4.4400000000000004
 20
89.468699999999998
 30
0.0
 10
4.7801999999999998
 20
89.468699999999998
 30
0.0
 10
5.0587
 20
89.190399999999997
 30
0.0
 10
5.0587
 20
88.849999999999994
 30
0.0
 10
5.0587
 20
88.849999999999994
 30
0.0
 10
5.0587
 20
88.849999999999994
 30
0.0
 10
5.0587
 20
84.772599999999997
 30
0.0
 10
5.0587
 20
84.772599999999997
 30
0.0
  0
SPLINE
  5
46
100
AcDbEntity
  8
RÚteg 1
 62
     7
100
AcDbSpline
210
0.0
220
0.0
230
1.0
 70
     1
 71
     3
 72
    20
 73
    16
 74
     0
 42
0.0000000001
 43
0.0000000001
 40
0.0
 40
0.0
 40
0.0
 40
0.0
 40
0.25
 40
0.25
 40
0.25
 40
0.25
 40
0.5
 40
0.5
 40
0.5
 40
0.5
 40
0.75
 40
0.75
 40
0.75
 40
0.75
 40
1.0
 40
1.0
 40
1.0
 40
1.0
 10
0.9751
 20
93.349400000000003
 30
0.0
 10
2.0160999999999998
 20
93.349400000000003
 30
0.0
 10
2.8603999999999998
 20
92.505099999999999
 30
0.0
 10
2.8603999999999998
 20
91.463899999999995
 30
0.0
 10
2.8603999999999998
 20
91.463899999999995
 30
0.0
 10
2.8603999999999998
 20
90.422600000000003
 30
0.0
 10
2.0160999999999998
 20
89.578500000000005
 30
0.0
 10
0.9751
 20
89.578500000000005
 30
0.0
 10
0.9751
 20
89.578500000000005
 30
0.0
 10
-0.0661
 20
89.578500000000005
 30
0.0
 10
-0.9105
 20
90.422600000000003
 30
0.0
 10
-0.9105
 20
91.463899999999995
 30
0.0
 10
-0.9105
 20
91.463899999999995
 30
0.0
 10
-0.9105
 20
92.505099999999999
 30
0.0
 10
-0.0661
 20
93.349400000000003
 30
0.0
 10
0.9751
 20
93.349400000000003
 30
0.0
  0
SPLINE
  5
47
100
AcDbEntity
  8
RÚteg 1
 62
     7
100
AcDbSpline
210
0.0
220
0.0
230
1.0
 70
     1
 71
     3
 72
    40
 73
    36
 74
     0
 42
0.0000000001
 43
0.0000000001
 40
0.0
 40
0.0
 40
0.0
 40
0.0
 40
0.1111111111111111
 40
0.1111111111111111
 40
0.1111111111111111
 40
0.1111111111111111
 40
0.2222222222222222
 40
0.2222222222222222
 40
0.2222222222222222
 40
0.2222222222222222
 40
0.3333333333333333
 40
0.3333333333333333
 40
0.3333333333333333
 40
0.3333333333333333
 40
0.4444444444444444
 40
0.4444444444444444
 40
0.4444444444444444
 40
0.4444444444444444
 40
0.5555555555555556
 40
0.5555555555555556
 40
0.5555555555555556
 40
0.5555555555555556
 40
0.6666666666666667
 40
0.6666666666666667
 40
0.6666666666666667
 40
0.6666666666666667
 40
0.7777777777777779
 40
0.7777777777777779
 40
0.7777777777777779
 40
0.7777777777777779
 40
0.8888888888888891
 40
0.8888888888888891
 40
0.8888888888888891
 40
0.8888888888888891
 40
1.0
 40
1.0
 40
1.0
 40
1.0
 10
-0.4106
 20
19.489999999999998
 30
0.0
 10
-0.4106
 20
19.489999999999998
 30
0.0
 10
-5.8521999999999998
 20
28.8459
 30
0.0
 10
-5.8521999999999998
 20
28.8459
 30
0.0
 10
-5.8521999999999998
 20
28.8459
 30
0.0
 10
-5.8521999999999998
 20
28.8459
 30
0.0
 10
-1.6147
 20
34.378300000000003
 30
0.0
 10
-1.6147
 20
34.378300000000003
 30
0.0
 10
-1.6147
 20
34.378300000000003
 30
0.0
 10
-1.6147
 20
34.378300000000003
 30
0.0
 10
-3.9689999999999999
 20
37.085500000000003
 30
0.0
 10
-3.9689999999999999
 20
37.085500000000003
 30
0.0
 10
-3.9689999999999999
 20
37.085500000000003
 30
0.0
 10
-3.9689999999999999
 20
37.085500000000003
 30
0.0
 10
-10.795999999999999
 20
31.318000000000001
 30
0.0
 10
-10.795999999999999
 20
31.318000000000001
 30
0.0
 10
-10.795999999999999
 20
31.318000000000001
 30
0.0
 10
-10.795999999999999
 20
31.318000000000001
 30
0.0
 10
-8.9124999999999996
 20
40.028399999999998
 30
0.0
 10
-8.9124999999999996
 20
40.028399999999998
 30
0.0
 10
-8.9124999999999996
 20
40.028399999999998
 30
0.0
 10
-8.9124999999999996
 20
40.028399999999998
 30
0.0
 10
-11.9732
 20
40.616999999999997
 30
0.0
 10
-11.9732
 20
40.616999999999997
 30
0.0
 10
-11.9732
 20
40.616999999999997
 30
0.0
 10
-11.9732
 20
40.616999999999997
 30
0.0
 10
-14.6805
 20
34.378300000000003
 30
0.0
 10
-14.6805
 20
34.378300000000003
 30
0.0
 10
-14.6805
 20
34.378300000000003
 30
0.0
 10
-14.6805
 20
34.378300000000003
 30
0.0
 10
-25.944800000000001
 20
34.474600000000002
 30
0.0
 10
-25.944800000000001
 20
34.474600000000002
 30
0.0
 10
-25.944800000000001
 20
34.474600000000002
 30
0.0
 10
-20.596800000000002
 20
25.8325
 30
0.0
 10
-11.2042
 20
19.955500000000001
 30
0.0
 10
-0.4106
 20
19.489999999999998
 30
0.0
  0
SPLINE
  5
48
100
AcDbEntity
  8
RÚteg 1
 62
     7
100
AcDbSpline
210
0.0
220
0.0
230
1.0
 70
     1
 71
     3
 72
    44
 73
    40
 74
     0
 42
0.0000000001
 43
0.0000000001
 40
0.0
 40
0.0
 40
0.0
 40
0.0
 40
0.1
 40
0.1
 40
0.1
 40
0.1
 40
0.2
 40
0.2
 40
0.2
 40
0.2
 40
0.3
 40
0.3
 40
0.3
 40
0.3
 40
0.4
 40
0.4
 40
0.4
 40
0.4
 40
0.5
 40
0.5
 40
0.5
 40
0.5
 40
0.6
 40
0.6
 40
0.6
 40
0.6
 40
0.7
 40
0.7
 40
0.7
 40
0.7
 40
0.7999999999999999
 40
0.7999999999999999
 40
0.7999999999999999
 40
0.7999999999999999
 40
0.8999999999999999
 40
0.8999999999999999
 40
0.8999999999999999
 40
0.8999999999999999
 40
1.0
 40
1.0
 40
1.0
 40
1.0
 10
-27.162600000000001
 20
36.624099999999999
 30
0.0
 10
-27.162600000000001
 20
36.624099999999999
 30
0.0
 10
-21.389900000000001
 20
46.149299999999997
 30
0.0
 10
-21.389900000000001
 20
46.149299999999997
 30
0.0
 10
-21.389900000000001
 20
46.149299999999997
 30
0.0
 10
-21.389900000000001
 20
46.149299999999997
 30
0.0
 10
-15.0335
 20
44.972200000000001
 30
0.0
 10
-15.0335
 20
44.972200000000001
 30
0.0
 10
-15.0335
 20
44.972200000000001
 30
0.0
 10
-15.0335
 20
44.972200000000001
 30
0.0
 10
-13.974
 20
48.150500000000001
 30
0.0
 10
-13.974
 20
48.150500000000001
 30
0.0
 10
-13.974
 20
48.150500000000001
 30
0.0
 10
-13.974
 20
48.150500000000001
 30
0.0
 10
-22.0962
 20
51.564
 30
0.0
 10
-22.0962
 20
51.564
 30
0.0
 10
-22.0962
 20
51.564
 30
0.0
 10
-22.0962
 20
51.564
 30
0.0
 10
-13.856400000000001
 20
54.506700000000002
 30
0.0
 10
-13.856400000000001
 20
54.506700000000002
 30
0.0
 10
-13.856400000000001
 20
54.506700000000002
 30
0.0
 10
-13.856400000000001
 20
54.506700000000002
 30
0.0
 10
-15.0335
 20
57.214199999999998
 30
0.0
 10
-15.0335
 20
57.214199999999998
 30
0.0
 10
-15.0335
 20
57.214199999999998
 30
0.0
 10
-15.0335
 20
57.214199999999998
 30
0.0
 10
-21.0367
 20
56.507800000000003
 30
0.0
 10
-21.0367
 20
56.507800000000003
 30
0.0
 10
-21.0367
 20
56.507800000000003
 30
0.0
 10
-21.0367
 20
56.507800000000003
 30
0.0
 10
-26.819299999999998
 20
66.2102
 30
0.0
 10
-26.819299999999998
 20
66.2102
 30
0.0
 10
-26.819299999999998
 20
66.2102
 30
0.0
 10
-29.268000000000001
 20
61.718800000000002
 30
0.0
 10
-30.6601
 20
56.568199999999997
 30
0.0
 10
-30.6601
 20
51.093200000000003
 30
0.0
 10
-30.6601
 20
51.093200000000003
 30
0.0
 10
-30.6601
 20
45.8797
 30
0.0
 10
-29.3979
 20
40.9604
 30
0.0
 10
-27.162600000000001
 20
36.624099999999999
 30
0.0
  0
SPLINE
  5
49
100
AcDbEntity
  8
RÚteg 1
 62
     7
100
AcDbSpline
210
0.0
220
0.0
230
1.0
 70
     1
 71
     3
 72
    40
 73
    36
 74
     0
 42
0.0000000001
 43
0.0000000001
 40
0.0
 40
0.0
 40
0.0
 40
0.0
 40
0.1111111111111111
 40
0.1111111111111111
 40
0.1111111111111111
 40
0.1111111111111111
 40
0.2222222222222222
 40
0.2222222222222222
 40
0.2222222222222222
 40
0.2222222222222222
 40
0.3333333333333333
 40
0.3333333333333333
 40
0.3333333333333333
 40
0.3333333333333333
 40
0.4444444444444444
 40
0.4444444444444444
 40
0.4444444444444444
 40
0.4444444444444444
 40
0.5555555555555556
 40
0.5555555555555556
 40
0.5555555555555556
 40
0.5555555555555556
 40
0.6666666666666667
 40
0.6666666666666667
 40
0.6666666666666667
 40
0.6666666666666667
 40
0.7777777777777779
 40
0.7777777777777779
 40
0.7777777777777779
 40
0.7777777777777779
 40
0.8888888888888891
 40
0.8888888888888891
 40
0.8888888888888891
 40
0.8888888888888891
 40
1.0
 40
1.0
 40
1.0
 40
1.0
 10
-25.635200000000001
 20
68.204099999999997
 30
0.0
 10
-25.635200000000001
 20
68.204099999999997
 30
0.0
 10
-15.151199999999999
 20
68.396600000000007
 30
0.0
 10
-15.151199999999999
 20
68.396600000000007
 30
0.0
 10
-15.151199999999999
 20
68.396600000000007
 30
0.0
 10
-15.151199999999999
 20
68.396600000000007
 30
0.0
 10
-12.5617
 20
62.393300000000004
 30
0.0
 10
-12.5617
 20
62.393300000000004
 30
0.0
 10
-12.5617
 20
62.393300000000004
 30
0.0
 10
-12.5617
 20
62.393300000000004
 30
0.0
 10
-9.2658000000000005
 20
63.217399999999998
 30
0.0
 10
-9.2658000000000005
 20
63.217399999999998
 30
0.0
 10
-9.2658000000000005
 20
63.217399999999998
 30
0.0
 10
-9.2658000000000005
 20
63.217399999999998
 30
0.0
 10
-10.795999999999999
 20
72.045400000000001
 30
0.0
 10
-10.795999999999999
 20
72.045400000000001
 30
0.0
 10
-10.795999999999999
 20
72.045400000000001
 30
0.0
 10
-10.795999999999999
 20
72.045400000000001
 30
0.0
 10
-3.9689999999999999
 20
66.159999999999997
 30
0.0
 10
-3.9689999999999999
 20
66.159999999999997
 30
0.0
 10
-3.9689999999999999
 20
66.159999999999997
 30
0.0
 10
-3.9689999999999999
 20
66.159999999999997
 30
0.0
 10
-1.7323999999999999
 20
68.396600000000007
 30
0.0
 10
-1.7323999999999999
 20
68.396600000000007
 30
0.0
 10
-1.7323999999999999
 20
68.396600000000007
 30
0.0
 10
-1.7323999999999999
 20
68.396600000000007
 30
0.0
 10
-5.8521999999999998
 20
73.575599999999994
 30
0.0
 10
-5.8521999999999998
 20
73.575599999999994
 30
0.0
 10
-5.8521999999999998
 20
73.575599999999994
 30
0.0
 10
-5.8521999999999998
 20
73.575599999999994
 30
0.0
 10
-0.4373
 20
82.695099999999996
 30
0.0
 10
-0.4373
 20
82.695099999999996
 30
0.0
 10
-0.4373
 20
82.695099999999996
 30
0.0
 10
-11.014099999999999
 20
82.229900000000001
 30
0.0
 10
-20.243400000000001
 20
76.570499999999996
 30
0.0
 10
-25.635200000000001
 20
68.204099999999997
 30
0.0
  0
SPLINE
  5
4A
100
AcDbEntity
  8
RÚteg 1
 62
     7
100
AcDbSpline
210
0.0
220
0.0
230
1.0
 70
     1
 71
     3
 72
    40
 73
    36
 74
     0
 42
0.0000000001
 43
0.0000000001
 40
0.0
 40
0.0
 40
0.0
 40
0.0
 40
0.1111111111111111
 40
0.1111111111111111
 40
0.1111111111111111
 40
0.1111111111111111
 40
0.2222222222222222
 40
0.2222222222222222
 40
0.2222222222222222
 40
0.2222222222222222
 40
0.3333333333333333
 40
0.3333333333333333
 40
0.3333333333333333
 40
0.3333333333333333
 40
0.4444444444444444
 40
0.4444444444444444
 40
0.4444444444444444
 40
0.4444444444444444
 40
0.5555555555555556
 40
0.5555555555555556
 40
0.5555555555555556
 40
0.5555555555555556
 40
0.6666666666666667
 40
0.6666666666666667
 40
0.6666666666666667
 40
0.6666666666666667
 40
0.7777777777777779
 40
0.7777777777777779
 40
0.7777777777777779
 40
0.7777777777777779
 40
0.8888888888888891
 40
0.8888888888888891
 40
0.8888888888888891
 40
0.8888888888888891
 40
1.0
 40
1.0
 40
1.0
 40
1.0
 10
2.1981999999999999
 20
82.702299999999994
 30
0.0
 10
2.1981999999999999
 20
82.702299999999994
 30
0.0
 10
7.6844000000000001
 20
73.811300000000003
 30
0.0
 10
7.6844000000000001
 20
73.811300000000003
 30
0.0
 10
7.6844000000000001
 20
73.811300000000003
 30
0.0
 10
7.6844000000000001
 20
73.811300000000003
 30
0.0
 10
3.6823000000000001
 20
68.867199999999997
 30
0.0
 10
3.6823000000000001
 20
68.867199999999997
 30
0.0
 10
3.6823000000000001
 20
68.867199999999997
 30
0.0
 10
3.6823000000000001
 20
68.867199999999997
 30
0.0
 10
6.1542000000000003
 20
66.159999999999997
 30
0.0
 10
6.1542000000000003
 20
66.159999999999997
 30
0.0
 10
6.1542000000000003
 20
66.159999999999997
 30
0.0
 10
6.1542000000000003
 20
66.159999999999997
 30
0.0
 10
12.745900000000001
 20
71.927700000000002
 30
0.0
 10
12.745900000000001
 20
71.927700000000002
 30
0.0
 10
12.745900000000001
 20
71.927700000000002
 30
0.0
 10
12.745900000000001
 20
71.927700000000002
 30
0.0
 10
11.098000000000001
 20
63.570500000000003
 30
0.0
 10
11.098000000000001
 20
63.570500000000003
 30
0.0
 10
11.098000000000001
 20
63.570500000000003
 30
0.0
 10
11.098000000000001
 20
63.570500000000003
 30
0.0
 10
14.629300000000001
 20
62.628599999999999
 30
0.0
 10
14.629300000000001
 20
62.628599999999999
 30
0.0
 10
14.629300000000001
 20
62.628599999999999
 30
0.0
 10
14.629300000000001
 20
62.628599999999999
 30
0.0
 10
17.101199999999999
 20
68.631900000000002
 30
0.0
 10
17.101199999999999
 20
68.631900000000002
 30
0.0
 10
17.101199999999999
 20
68.631900000000002
 30
0.0
 10
17.101199999999999
 20
68.631900000000002
 30
0.0
 10
27.3035
 20
68.631900000000002
 30
0.0
 10
27.3035
 20
68.631900000000002
 30
0.0
 10
27.3035
 20
68.631900000000002
 30
0.0
 10
21.842500000000001
 20
76.811300000000003
 30
0.0
 10
12.6722
 20
82.303700000000006
 30
0.0
 10
2.1981999999999999
 20
82.702299999999994
 30
0.0
  0
SPLINE
  5
4B
100
AcDbEntity
  8
RÚteg 1
 62
     7
100
AcDbSpline
210
0.0
220
0.0
230
1.0
 70
     1
 71
     3
 72
    44
 73
    40
 74
     0
 42
0.0000000001
 43
0.0000000001
 40
0.0
 40
0.0
 40
0.0
 40
0.0
 40
0.1
 40
0.1
 40
0.1
 40
0.1
 40
0.2
 40
0.2
 40
0.2
 40
0.2
 40
0.3
 40
0.3
 40
0.3
 40
0.3
 40
0.4
 40
0.4
 40
0.4
 40
0.4
 40
0.5
 40
0.5
 40
0.5
 40
0.5
 40
0.6
 40
0.6
 40
0.6
 40
0.6
 40
0.7
 40
0.7
 40
0.7
 40
0.7
 40
0.7999999999999999
 40
0.7999999999999999
 40
0.7999999999999999
 40
0.7999999999999999
 40
0.8999999999999999
 40
0.8999999999999999
 40
0.8999999999999999
 40
0.8999999999999999
 40
1.0
 40
1.0
 40
1.0
 40
1.0
 10
28.641400000000001
 20
66.439099999999996
 30
0.0
 10
28.641400000000001
 20
66.439099999999996
 30
0.0
 10
23.4575
 20
56.743200000000002
 30
0.0
 10
23.4575
 20
56.743200000000002
 30
0.0
 10
23.4575
 20
56.743200000000002
 30
0.0
 10
23.4575
 20
56.743200000000002
 30
0.0
 10
16.983499999999999
 20
57.920299999999997
 30
0.0
 10
16.983499999999999
 20
57.920299999999997
 30
0.0
 10
16.983499999999999
 20
57.920299999999997
 30
0.0
 10
16.983499999999999
 20
57.920299999999997
 30
0.0
 10
16.041899999999998
 20
55.095300000000002
 30
0.0
 10
16.041899999999998
 20
55.095300000000002
 30
0.0
 10
16.041899999999998
 20
55.095300000000002
 30
0.0
 10
16.041899999999998
 20
55.095300000000002
 30
0.0
 10
24.5169
 20
51.799399999999999
 30
0.0
 10
24.5169
 20
51.799399999999999
 30
0.0
 10
24.5169
 20
51.799399999999999
 30
0.0
 10
24.5169
 20
51.799399999999999
 30
0.0
 10
16.159400000000002
 20
48.621299999999998
 30
0.0
 10
16.159400000000002
 20
48.621299999999998
 30
0.0
 10
16.159400000000002
 20
48.621299999999998
 30
0.0
 10
16.159400000000002
 20
48.621299999999998
 30
0.0
 10
16.8657
 20
45.913899999999998
 30
0.0
 10
16.8657
 20
45.913899999999998
 30
0.0
 10
16.8657
 20
45.913899999999998
 30
0.0
 10
16.8657
 20
45.913899999999998
 30
0.0
 10
23.222100000000001
 20
46.267000000000003
 30
0.0
 10
23.222100000000001
 20
46.267000000000003
 30
0.0
 10
23.222100000000001
 20
46.267000000000003
 30
0.0
 10
23.222100000000001
 20
46.267000000000003
 30
0.0
 10
29.108599999999999
 20
36.616900000000001
 30
0.0
 10
29.108599999999999
 20
36.616900000000001
 30
0.0
 10
29.108599999999999
 20
36.616900000000001
 30
0.0
 10
31.3459
 20
40.954999999999998
 30
0.0
 10
32.609900000000003
 20
45.8765
 30
0.0
 10
32.609900000000003
 20
51.093200000000003
 30
0.0
 10
32.609900000000003
 20
51.093200000000003
 30
0.0
 10
32.609900000000003
 20
56.661700000000003
 30
0.0
 10
31.168900000000001
 20
61.893900000000002
 30
0.0
 10
28.641400000000001
 20
66.439099999999996
 30
0.0
  0
SPLINE
  5
4C
100
AcDbEntity
  8
RÚteg 1
 62
     7
100
AcDbSpline
210
0.0
220
0.0
230
1.0
 70
     1
 71
     3
 72
    40
 73
    36
 74
     0
 42
0.0000000001
 43
0.0000000001
 40
0.0
 40
0.0
 40
0.0
 40
0.0
 40
0.1111111111111111
 40
0.1111111111111111
 40
0.1111111111111111
 40
0.1111111111111111
 40
0.2222222222222222
 40
0.2222222222222222
 40
0.2222222222222222
 40
0.2222222222222222
 40
0.3333333333333333
 40
0.3333333333333333
 40
0.3333333333333333
 40
0.3333333333333333
 40
0.4444444444444444
 40
0.4444444444444444
 40
0.4444444444444444
 40
0.4444444444444444
 40
0.5555555555555556
 40
0.5555555555555556
 40
0.5555555555555556
 40
0.5555555555555556
 40
0.6666666666666667
 40
0.6666666666666667
 40
0.6666666666666667
 40
0.6666666666666667
 40
0.7777777777777779
 40
0.7777777777777779
 40
0.7777777777777779
 40
0.7777777777777779
 40
0.8888888888888891
 40
0.8888888888888891
 40
0.8888888888888891
 40
0.8888888888888891
 40
1.0
 40
1.0
 40
1.0
 40
1.0
 10
27.949000000000002
 20
34.561599999999999
 30
0.0
 10
27.949000000000002
 20
34.561599999999999
 30
0.0
 10
17.219000000000001
 20
34.849299999999999
 30
0.0
 10
17.219000000000001
 20
34.849299999999999
 30
0.0
 10
17.219000000000001
 20
34.849299999999999
 30
0.0
 10
17.219000000000001
 20
34.849299999999999
 30
0.0
 10
14.864599999999999
 20
40.499299999999998
 30
0.0
 10
14.864599999999999
 20
40.499299999999998
 30
0.0
 10
14.864599999999999
 20
40.499299999999998
 30
0.0
 10
14.864599999999999
 20
40.499299999999998
 30
0.0
 10
11.098000000000001
 20
40.028399999999998
 30
0.0
 10
11.098000000000001
 20
40.028399999999998
 30
0.0
 10
11.098000000000001
 20
40.028399999999998
 30
0.0
 10
11.098000000000001
 20
40.028399999999998
 30
0.0
 10
12.8636
 20
31.5533
 30
0.0
 10
12.8636
 20
31.5533
 30
0.0
 10
12.8636
 20
31.5533
 30
0.0
 10
12.8636
 20
31.5533
 30
0.0
 10
5.9188000000000001
 20
36.968000000000004
 30
0.0
 10
5.9188000000000001
 20
36.968000000000004
 30
0.0
 10
5.9188000000000001
 20
36.968000000000004
 30
0.0
 10
5.9188000000000001
 20
36.968000000000004
 30
0.0
 10
3.5644999999999998
 20
34.496000000000002
 30
0.0
 10
3.5644999999999998
 20
34.496000000000002
 30
0.0
 10
3.5644999999999998
 20
34.496000000000002
 30
0.0
 10
3.5644999999999998
 20
34.496000000000002
 30
0.0
 10
7.5669000000000004
 20
29.317
 30
0.0
 10
7.5669000000000004
 20
29.317
 30
0.0
 10
7.5669000000000004
 20
29.317
 30
0.0
 10
7.5669000000000004
 20
29.317
 30
0.0
 10
2.0691999999999999
 20
19.478999999999999
 30
0.0
 10
2.0691999999999999
 20
19.478999999999999
 30
0.0
 10
2.0691999999999999
 20
19.478999999999999
 30
0.0
 10
13.0214
 20
19.851600000000001
 30
0.0
 10
22.562899999999999
 20
25.793099999999999
 30
0.0
 10
27.949000000000002
 20
34.561599999999999
 30
0.0
  0
SPLINE
  5
4D
100
AcDbEntity
  8
RÚteg 1
 62
     7
100
AcDbSpline
210
0.0
220
0.0
230
1.0
 70
     1
 71
     3
 72
    52
 73
    48
 74
     0
 42
0.0000000001
 43
0.0000000001
 40
0.0
 40
0.0
 40
0.0
 40
0.0
 40
0.0833333333333333
 40
0.0833333333333333
 40
0.0833333333333333
 40
0.0833333333333333
 40
0.1666666666666667
 40
0.1666666666666667
 40
0.1666666666666667
 40
0.1666666666666667
 40
0.25
 40
0.25
 40
0.25
 40
0.25
 40
0.3333333333333333
 40
0.3333333333333333
 40
0.3333333333333333
 40
0.3333333333333333
 40
0.4166666666666666
 40
0.4166666666666666
 40
0.4166666666666666
 40
0.4166666666666666
 40
0.4999999999999999
 40
0.4999999999999999
 40
0.4999999999999999
 40
0.4999999999999999
 40
0.5833333333333333
 40
0.5833333333333333
 40
0.5833333333333333
 40
0.5833333333333333
 40
0.6666666666666666
 40
0.6666666666666666
 40
0.6666666666666666
 40
0.6666666666666666
 40
0.75
 40
0.75
 40
0.75
 40
0.75
 40
0.8333333333333334
 40
0.8333333333333334
 40
0.8333333333333334
 40
0.8333333333333334
 40
0.9166666666666667
 40
0.9166666666666667
 40
0.9166666666666667
 40
0.9166666666666667
 40
1.0
 40
1.0
 40
1.0
 40
1.0
 10
1.0925
 20
58.391100000000002
 30
0.0
 10
1.0925
 20
58.391100000000002
 30
0.0
 10
3.3290999999999999
 20
55.213099999999997
 30
0.0
 10
3.3290999999999999
 20
55.213099999999997
 30
0.0
 10
3.3290999999999999
 20
55.213099999999997
 30
0.0
 10
3.3290999999999999
 20
55.213099999999997
 30
0.0
 10
6.7428999999999997
 20
55.095300000000002
 30
0.0
 10
6.7428999999999997
 20
55.095300000000002
 30
0.0
 10
6.7428999999999997
 20
55.095300000000002
 30
0.0
 10
6.7428999999999997
 20
55.095300000000002
 30
0.0
 10
4.9770000000000003
 20
51.210700000000003
 30
0.0
 10
4.9770000000000003
 20
51.210700000000003
 30
0.0
 10
4.9770000000000003
 20
51.210700000000003
 30
0.0
 10
4.9770000000000003
 20
51.210700000000003
 30
0.0
 10
6.9781000000000004
 20
48.150500000000001
 30
0.0
 10
6.9781000000000004
 20
48.150500000000001
 30
0.0
 10
6.9781000000000004
 20
48.150500000000001
 30
0.0
 10
6.9781000000000004
 20
48.150500000000001
 30
0.0
 10
3.3290999999999999
 20
48.150500000000001
 30
0.0
 10
3.3290999999999999
 20
48.150500000000001
 30
0.0
 10
3.3290999999999999
 20
48.150500000000001
 30
0.0
 10
3.3290999999999999
 20
48.150500000000001
 30
0.0
 10
1.0925
 20
44.5015
 30
0.0
 10
1.0925
 20
44.5015
 30
0.0
 10
1.0925
 20
44.5015
 30
0.0
 10
1.0925
 20
44.5015
 30
0.0
 10
-1.0261
 20
47.444000000000003
 30
0.0
 10
-1.0261
 20
47.444000000000003
 30
0.0
 10
-1.0261
 20
47.444000000000003
 30
0.0
 10
-1.0261
 20
47.444000000000003
 30
0.0
 10
-4.7927999999999997
 20
47.797199999999997
 30
0.0
 10
-4.7927999999999997
 20
47.797199999999997
 30
0.0
 10
-4.7927999999999997
 20
47.797199999999997
 30
0.0
 10
-4.7927999999999997
 20
47.797199999999997
 30
0.0
 10
-3.0270999999999999
 20
51.328499999999998
 30
0.0
 10
-3.0270999999999999
 20
51.328499999999998
 30
0.0
 10
-3.0270999999999999
 20
51.328499999999998
 30
0.0
 10
-3.0270999999999999
 20
51.328499999999998
 30
0.0
 10
-4.7927999999999997
 20
54.742100000000001
 30
0.0
 10
-4.7927999999999997
 20
54.742100000000001
 30
0.0
 10
-4.7927999999999997
 20
54.742100000000001
 30
0.0
 10
-4.7927999999999997
 20
54.742100000000001
 30
0.0
 10
-1.0261
 20
54.977499999999999
 30
0.0
 10
-1.0261
 20
54.977499999999999
 30
0.0
 10
-1.0261
 20
54.977499999999999
 30
0.0
 10
-1.0261
 20
54.977499999999999
 30
0.0
 10
1.0925
 20
58.391100000000002
 30
0.0
 10
1.0925
 20
58.391100000000002
 30
0.0
  0
SPLINE
  5
4E
100
AcDbEntity
  8
RÚteg 1
 62
     7
100
AcDbSpline
210
0.0
220
0.0
230
1.0
 70
     1
 71
     3
 72
    20
 73
    16
 74
     0
 42
0.0000000001
 43
0.0000000001
 40
0.0
 40
0.0
 40
0.0
 40
0.0
 40
0.25
 40
0.25
 40
0.25
 40
0.25
 40
0.5
 40
0.5
 40
0.5
 40
0.5
 40
0.75
 40
0.75
 40
0.75
 40
0.75
 40
1.0
 40
1.0
 40
1.0
 40
1.0
 10
8.3908000000000005
 20
39.439700000000002
 30
0.0
 10
8.3908000000000005
 20
39.439700000000002
 30
0.0
 10
8.3908000000000005
 20
44.5015
 30
0.0
 10
8.3908000000000005
 20
44.5015
 30
0.0
 10
8.3908000000000005
 20
44.5015
 30
0.0
 10
8.3908000000000005
 20
44.5015
 30
0.0
 10
4.5063000000000004
 20
45.678400000000003
 30
0.0
 10
4.5063000000000004
 20
45.678400000000003
 30
0.0
 10
4.5063000000000004
 20
45.678400000000003
 30
0.0
 10
4.5063000000000004
 20
45.678400000000003
 30
0.0
 10
3.5644999999999998
 20
42.147300000000001
 30
0.0
 10
3.5644999999999998
 20
42.147300000000001
 30
0.0
 10
3.5644999999999998
 20
42.147300000000001
 30
0.0
 10
3.5644999999999998
 20
42.147300000000001
 30
0.0
 10
8.3908000000000005
 20
39.439700000000002
 30
0.0
 10
8.3908000000000005
 20
39.439700000000002
 30
0.0
  0
SPLINE
  5
4F
100
AcDbEntity
  8
RÚteg 1
 62
     7
100
AcDbSpline
210
0.0
220
0.0
230
1.0
 70
     1
 71
     3
 72
    20
 73
    16
 74
     0
 42
0.0000000001
 43
0.0000000001
 40
0.0
 40
0.0
 40
0.0
 40
0.0
 40
0.25
 40
0.25
 40
0.25
 40
0.25
 40
0.5
 40
0.5
 40
0.5
 40
0.5
 40
0.75
 40
0.75
 40
0.75
 40
0.75
 40
1.0
 40
1.0
 40
1.0
 40
1.0
 10
9.6853999999999996
 20
46.620100000000001
 30
0.0
 10
9.6853999999999996
 20
46.620100000000001
 30
0.0
 10
13.452299999999999
 20
47.561900000000001
 30
0.0
 10
13.452299999999999
 20
47.561900000000001
 30
0.0
 10
13.452299999999999
 20
47.561900000000001
 30
0.0
 10
13.452299999999999
 20
47.561900000000001
 30
0.0
 10
14.3939
 20
43.677399999999999
 30
0.0
 10
14.3939
 20
43.677399999999999
 30
0.0
 10
14.3939
 20
43.677399999999999
 30
0.0
 10
14.3939
 20
43.677399999999999
 30
0.0
 10
10.9802
 20
42.853499999999997
 30
0.0
 10
10.9802
 20
42.853499999999997
 30
0.0
 10
10.9802
 20
42.853499999999997
 30
0.0
 10
10.9802
 20
42.853499999999997
 30
0.0
 10
9.6853999999999996
 20
46.620100000000001
 30
0.0
 10
9.6853999999999996
 20
46.620100000000001
 30
0.0
  0
SPLINE
  5
50
100
AcDbEntity
  8
RÚteg 1
 62
     7
100
AcDbSpline
210
0.0
220
0.0
230
1.0
 70
     1
 71
     3
 72
    20
 73
    16
 74
     0
 42
0.0000000001
 43
0.0000000001
 40
0.0
 40
0.0
 40
0.0
 40
0.0
 40
0.25
 40
0.25
 40
0.25
 40
0.25
 40
0.5
 40
0.5
 40
0.5
 40
0.5
 40
0.75
 40
0.75
 40
0.75
 40
0.75
 40
1.0
 40
1.0
 40
1.0
 40
1.0
 10
7.6844000000000001
 20
51.799399999999999
 30
0.0
 10
7.6844000000000001
 20
51.799399999999999
 30
0.0
 10
10.509499999999999
 20
49.209600000000002
 30
0.0
 10
10.509499999999999
 20
49.209600000000002
 30
0.0
 10
10.509499999999999
 20
49.209600000000002
 30
0.0
 10
10.509499999999999
 20
49.209600000000002
 30
0.0
 10
15.335699999999999
 20
51.799399999999999
 30
0.0
 10
15.335699999999999
 20
51.799399999999999
 30
0.0
 10
15.335699999999999
 20
51.799399999999999
 30
0.0
 10
15.335699999999999
 20
51.799399999999999
 30
0.0
 10
10.6273
 20
54.271299999999997
 30
0.0
 10
10.6273
 20
54.271299999999997
 30
0.0
 10
10.6273
 20
54.271299999999997
 30
0.0
 10
10.6273
 20
54.271299999999997
 30
0.0
 10
7.6844000000000001
 20
51.799399999999999
 30
0.0
 10
7.6844000000000001
 20
51.799399999999999
 30
0.0
  0
SPLINE
  5
51
100
AcDbEntity
  8
RÚteg 1
 62
     7
100
AcDbSpline
210
0.0
220
0.0
230
1.0
 70
     1
 71
     3
 72
    20
 73
    16
 74
     0
 42
0.0000000001
 43
0.0000000001
 40
0.0
 40
0.0
 40
0.0
 40
0.0
 40
0.25
 40
0.25
 40
0.25
 40
0.25
 40
0.5
 40
0.5
 40
0.5
 40
0.5
 40
0.75
 40
0.75
 40
0.75
 40
0.75
 40
1.0
 40
1.0
 40
1.0
 40
1.0
 10
9.8030000000000008
 20
56.743200000000002
 30
0.0
 10
9.8030000000000008
 20
56.743200000000002
 30
0.0
 10
10.6273
 20
60.2746
 30
0.0
 10
10.6273
 20
60.2746
 30
0.0
 10
10.6273
 20
60.2746
 30
0.0
 10
10.6273
 20
60.2746
 30
0.0
 10
14.3939
 20
59.332799999999999
 30
0.0
 10
14.3939
 20
59.332799999999999
 30
0.0
 10
14.3939
 20
59.332799999999999
 30
0.0
 10
14.3939
 20
59.332799999999999
 30
0.0
 10
13.452299999999999
 20
55.566000000000003
 30
0.0
 10
13.452299999999999
 20
55.566000000000003
 30
0.0
 10
13.452299999999999
 20
55.566000000000003
 30
0.0
 10
13.452299999999999
 20
55.566000000000003
 30
0.0
 10
9.8030000000000008
 20
56.743200000000002
 30
0.0
 10
9.8030000000000008
 20
56.743200000000002
 30
0.0
  0
SPLINE
  5
52
100
AcDbEntity
  8
RÚteg 1
 62
     7
100
AcDbSpline
210
0.0
220
0.0
230
1.0
 70
     1
 71
     3
 72
    20
 73
    16
 74
     0
 42
0.0000000001
 43
0.0000000001
 40
0.0
 40
0.0
 40
0.0
 40
0.0
 40
0.25
 40
0.25
 40
0.25
 40
0.25
 40
0.5
 40
0.5
 40
0.5
 40
0.5
 40
0.75
 40
0.75
 40
0.75
 40
0.75
 40
1.0
 40
1.0
 40
1.0
 40
1.0
 10
4.5063000000000004
 20
57.802599999999998
 30
0.0
 10
4.5063000000000004
 20
57.802599999999998
 30
0.0
 10
3.4470000000000001
 20
61.216200000000001
 30
0.0
 10
3.4470000000000001
 20
61.216200000000001
 30
0.0
 10
3.4470000000000001
 20
61.216200000000001
 30
0.0
 10
3.4470000000000001
 20
61.216200000000001
 30
0.0
 10
8.0373999999999999
 20
63.923499999999997
 30
0.0
 10
8.0373999999999999
 20
63.923499999999997
 30
0.0
 10
8.0373999999999999
 20
63.923499999999997
 30
0.0
 10
8.0373999999999999
 20
63.923499999999997
 30
0.0
 10
7.9199000000000002
 20
58.862000000000002
 30
0.0
 10
7.9199000000000002
 20
58.862000000000002
 30
0.0
 10
7.9199000000000002
 20
58.862000000000002
 30
0.0
 10
7.9199000000000002
 20
58.862000000000002
 30
0.0
 10
4.5063000000000004
 20
57.802599999999998
 30
0.0
 10
4.5063000000000004
 20
57.802599999999998
 30
0.0
  0
SPLINE
  5
53
100
AcDbEntity
  8
RÚteg 1
 62
     7
100
AcDbSpline
210
0.0
220
0.0
230
1.0
 70
     1
 71
     3
 72
    20
 73
    16
 74
     0
 42
0.0000000001
 43
0.0000000001
 40
0.0
 40
0.0
 40
0.0
 40
0.0
 40
0.25
 40
0.25
 40
0.25
 40
0.25
 40
0.5
 40
0.5
 40
0.5
 40
0.5
 40
0.75
 40
0.75
 40
0.75
 40
0.75
 40
1.0
 40
1.0
 40
1.0
 40
1.0
 10
1.2103999999999999
 20
61.451500000000003
 30
0.0
 10
1.2103999999999999
 20
61.451500000000003
 30
0.0
 10
-1.9679
 20
64.276499999999999
 30
0.0
 10
-1.9679
 20
64.276499999999999
 30
0.0
 10
-1.9679
 20
64.276499999999999
 30
0.0
 10
-1.9679
 20
64.276499999999999
 30
0.0
 10
1.2103999999999999
 20
66.983800000000002
 30
0.0
 10
1.2103999999999999
 20
66.983800000000002
 30
0.0
 10
1.2103999999999999
 20
66.983800000000002
 30
0.0
 10
1.2103999999999999
 20
66.983800000000002
 30
0.0
 10
3.7999000000000001
 20
64.394300000000001
 30
0.0
 10
3.7999000000000001
 20
64.394300000000001
 30
0.0
 10
3.7999000000000001
 20
64.394300000000001
 30
0.0
 10
3.7999000000000001
 20
64.394300000000001
 30
0.0
 10
1.2103999999999999
 20
61.451500000000003
 30
0.0
 10
1.2103999999999999
 20
61.451500000000003
 30
0.0
  0
SPLINE
  5
54
100
AcDbEntity
  8
RÚteg 1
 62
     7
100
AcDbSpline
210
0.0
220
0.0
230
1.0
 70
     1
 71
     3
 72
    20
 73
    16
 74
     0
 42
0.0000000001
 43
0.0000000001
 40
0.0
 40
0.0
 40
0.0
 40
0.0
 40
0.25
 40
0.25
 40
0.25
 40
0.25
 40
0.5
 40
0.5
 40
0.5
 40
0.5
 40
0.75
 40
0.75
 40
0.75
 40
0.75
 40
1.0
 40
1.0
 40
1.0
 40
1.0
 10
-2.4384000000000001
 20
57.449399999999997
 30
0.0
 10
-2.4384000000000001
 20
57.449399999999997
 30
0.0
 10
-5.4989999999999997
 20
58.509
 30
0.0
 10
-5.4989999999999997
 20
58.509
 30
0.0
 10
-5.4989999999999997
 20
58.509
 30
0.0
 10
-5.4989999999999997
 20
58.509
 30
0.0
 10
-6.0875000000000004
 20
63.805799999999998
 30
0.0
 10
-6.0875000000000004
 20
63.805799999999998
 30
0.0
 10
-6.0875000000000004
 20
63.805799999999998
 30
0.0
 10
-6.0875000000000004
 20
63.805799999999998
 30
0.0
 10
-1.4968999999999999
 20
60.745399999999997
 30
0.0
 10
-1.4968999999999999
 20
60.745399999999997
 30
0.0
 10
-1.4968999999999999
 20
60.745399999999997
 30
0.0
 10
-1.4968999999999999
 20
60.745399999999997
 30
0.0
 10
-2.4384000000000001
 20
57.449399999999997
 30
0.0
 10
-2.4384000000000001
 20
57.449399999999997
 30
0.0
  0
SPLINE
  5
55
100
AcDbEntity
  8
RÚteg 1
 62
     7
100
AcDbSpline
210
0.0
220
0.0
230
1.0
 70
     1
 71
     3
 72
    20
 73
    16
 74
     0
 42
0.0000000001
 43
0.0000000001
 40
0.0
 40
0.0
 40
0.0
 40
0.0
 40
0.25
 40
0.25
 40
0.25
 40
0.25
 40
0.5
 40
0.5
 40
0.5
 40
0.5
 40
0.75
 40
0.75
 40
0.75
 40
0.75
 40
1.0
 40
1.0
 40
1.0
 40
1.0
 10
-7.6177999999999999
 20
56.625500000000002
 30
0.0
 10
-7.6177999999999999
 20
56.625500000000002
 30
0.0
 10
-11.2668
 20
55.566000000000003
 30
0.0
 10
-11.2668
 20
55.566000000000003
 30
0.0
 10
-11.2668
 20
55.566000000000003
 30
0.0
 10
-11.2668
 20
55.566000000000003
 30
0.0
 10
-12.0907
 20
59.332799999999999
 30
0.0
 10
-12.0907
 20
59.332799999999999
 30
0.0
 10
-12.0907
 20
59.332799999999999
 30
0.0
 10
-12.0907
 20
59.332799999999999
 30
0.0
 10
-8.5595999999999997
 20
60.156599999999997
 30
0.0
 10
-8.5595999999999997
 20
60.156599999999997
 30
0.0
 10
-8.5595999999999997
 20
60.156599999999997
 30
0.0
 10
-8.5595999999999997
 20
60.156599999999997
 30
0.0
 10
-7.6177999999999999
 20
56.625500000000002
 30
0.0
 10
-7.6177999999999999
 20
56.625500000000002
 30
0.0
  0
SPLINE
  5
56
100
AcDbEntity
  8
RÚteg 1
 62
     7
100
AcDbSpline
210
0.0
220
0.0
230
1.0
 70
     1
 71
     3
 72
    20
 73
    16
 74
     0
 42
0.0000000001
 43
0.0000000001
 40
0.0
 40
0.0
 40
0.0
 40
0.0
 40
0.25
 40
0.25
 40
0.25
 40
0.25
 40
0.5
 40
0.5
 40
0.5
 40
0.5
 40
0.75
 40
0.75
 40
0.75
 40
0.75
 40
1.0
 40
1.0
 40
1.0
 40
1.0
 10
-5.7344999999999997
 20
51.681600000000003
 30
0.0
 10
-5.7344999999999997
 20
51.681600000000003
 30
0.0
 10
-8.0888000000000009
 20
49.209600000000002
 30
0.0
 10
-8.0888000000000009
 20
49.209600000000002
 30
0.0
 10
-8.0888000000000009
 20
49.209600000000002
 30
0.0
 10
-8.0888000000000009
 20
49.209600000000002
 30
0.0
 10
-13.032500000000001
 20
51.446300000000001
 30
0.0
 10
-13.032500000000001
 20
51.446300000000001
 30
0.0
 10
-13.032500000000001
 20
51.446300000000001
 30
0.0
 10
-13.032500000000001
 20
51.446300000000001
 30
0.0
 10
-7.9710000000000001
 20
53.918199999999999
 30
0.0
 10
-7.9710000000000001
 20
53.918199999999999
 30
0.0
 10
-7.9710000000000001
 20
53.918199999999999
 30
0.0
 10
-7.9710000000000001
 20
53.918199999999999
 30
0.0
 10
-5.7344999999999997
 20
51.681600000000003
 30
0.0
 10
-5.7344999999999997
 20
51.681600000000003
 30
0.0
  0
SPLINE
  5
57
100
AcDbEntity
  8
RÚteg 1
 62
     7
100
AcDbSpline
210
0.0
220
0.0
230
1.0
 70
     1
 71
     3
 72
    20
 73
    16
 74
     0
 42
0.0000000001
 43
0.0000000001
 40
0.0
 40
0.0
 40
0.0
 40
0.0
 40
0.25
 40
0.25
 40
0.25
 40
0.25
 40
0.5
 40
0.5
 40
0.5
 40
0.5
 40
0.75
 40
0.75
 40
0.75
 40
0.75
 40
1.0
 40
1.0
 40
1.0
 40
1.0
 10
-8.5595999999999997
 20
42.735700000000001
 30
0.0
 10
-8.5595999999999997
 20
42.735700000000001
 30
0.0
 10
-12.5617
 20
43.795099999999998
 30
0.0
 10
-12.5617
 20
43.795099999999998
 30
0.0
 10
-12.5617
 20
43.795099999999998
 30
0.0
 10
-12.5617
 20
43.795099999999998
 30
0.0
 10
-11.2668
 20
47.444000000000003
 30
0.0
 10
-11.2668
 20
47.444000000000003
 30
0.0
 10
-11.2668
 20
47.444000000000003
 30
0.0
 10
-11.2668
 20
47.444000000000003
 30
0.0
 10
-7.6177999999999999
 20
46.267000000000003
 30
0.0
 10
-7.6177999999999999
 20
46.267000000000003
 30
0.0
 10
-7.6177999999999999
 20
46.267000000000003
 30
0.0
 10
-7.6177999999999999
 20
46.267000000000003
 30
0.0
 10
-8.5595999999999997
 20
42.735700000000001
 30
0.0
 10
-8.5595999999999997
 20
42.735700000000001
 30
0.0
  0
SPLINE
  5
58
100
AcDbEntity
  8
RÚteg 1
 62
     7
100
AcDbSpline
210
0.0
220
0.0
230
1.0
 70
     1
 71
     3
 72
    20
 73
    16
 74
     0
 42
0.0000000001
 43
0.0000000001
 40
0.0
 40
0.0
 40
0.0
 40
0.0
 40
0.25
 40
0.25
 40
0.25
 40
0.25
 40
0.5
 40
0.5
 40
0.5
 40
0.5
 40
0.75
 40
0.75
 40
0.75
 40
0.75
 40
1.0
 40
1.0
 40
1.0
 40
1.0
 10
-6.0875000000000004
 20
39.086599999999997
 30
0.0
 10
-6.0875000000000004
 20
39.086599999999997
 30
0.0
 10
-1.6147
 20
42.147300000000001
 30
0.0
 10
-1.6147
 20
42.147300000000001
 30
0.0
 10
-1.6147
 20
42.147300000000001
 30
0.0
 10
-1.6147
 20
42.147300000000001
 30
0.0
 10
-2.5562999999999998
 20
45.442900000000002
 30
0.0
 10
-2.5562999999999998
 20
45.442900000000002
 30
0.0
 10
-2.5562999999999998
 20
45.442900000000002
 30
0.0
 10
-2.5562999999999998
 20
45.442900000000002
 30
0.0
 10
-5.8521999999999998
 20
44.619100000000003
 30
0.0
 10
-5.8521999999999998
 20
44.619100000000003
 30
0.0
 10
-5.8521999999999998
 20
44.619100000000003
 30
0.0
 10
-5.8521999999999998
 20
44.619100000000003
 30
0.0
 10
-6.0875000000000004
 20
39.086599999999997
 30
0.0
 10
-6.0875000000000004
 20
39.086599999999997
 30
0.0
  0
SPLINE
  5
59
100
AcDbEntity
  8
RÚteg 1
 62
     7
100
AcDbSpline
210
0.0
220
0.0
230
1.0
 70
     1
 71
     3
 72
    20
 73
    16
 74
     0
 42
0.0000000001
 43
0.0000000001
 40
0.0
 40
0.0
 40
0.0
 40
0.0
 40
0.25
 40
0.25
 40
0.25
 40
0.25
 40
0.5
 40
0.5
 40
0.5
 40
0.5
 40
0.75
 40
0.75
 40
0.75
 40
0.75
 40
1.0
 40
1.0
 40
1.0
 40
1.0
 10
0.8573
 20
36.026400000000002
 30
0.0
 10
0.8573
 20
36.026400000000002
 30
0.0
 10
-1.8501000000000001
 20
38.615900000000003
 30
0.0
 10
-1.8501000000000001
 20
38.615900000000003
 30
0.0
 10
-1.8501000000000001
 20
38.615900000000003
 30
0.0
 10
-1.8501000000000001
 20
38.615900000000003
 30
0.0
 10
0.8573
 20
41.323300000000003
 30
0.0
 10
0.8573
 20
41.323300000000003
 30
0.0
 10
0.8573
 20
41.323300000000003
 30
0.0
 10
0.8573
 20
41.323300000000003
 30
0.0
 10
3.5644999999999998
 20
38.851399999999998
 30
0.0
 10
3.5644999999999998
 20
38.851399999999998
 30
0.0
 10
3.5644999999999998
 20
38.851399999999998
 30
0.0
 10
3.5644999999999998
 20
38.851399999999998
 30
0.0
 10
0.8573
 20
36.026400000000002
 30
0.0
 10
0.8573
 20
36.026400000000002
 30
0.0
  0
SPLINE
  5
5A
100
AcDbEntity
  8
RÚteg 1
 62
     7
100
AcDbSpline
210
0.0
220
0.0
230
1.0
 70
     1
 71
     3
 72
    20
 73
    16
 74
     0
 42
0.0000000001
 43
0.0000000001
 40
0.0
 40
0.0
 40
0.0
 40
0.0
 40
0.25
 40
0.25
 40
0.25
 40
0.25
 40
0.5
 40
0.5
 40
0.5
 40
0.5
 40
0.75
 40
0.75
 40
0.75
 40
0.75
 40
1.0
 40
1.0
 40
1.0
 40
1.0
 10
17.219000000000001
 20
42.3825
 30
0.0
 10
17.219000000000001
 20
42.3825
 30
0.0
 10
22.2806
 20
42.029299999999999
 30
0.0
 10
22.2806
 20
42.029299999999999
 30
0.0
 10
22.2806
 20
42.029299999999999
 30
0.0
 10
22.2806
 20
42.029299999999999
 30
0.0
 10
24.9878
 20
37.791899999999998
 30
0.0
 10
24.9878
 20
37.791899999999998
 30
0.0
 10
24.9878
 20
37.791899999999998
 30
0.0
 10
24.9878
 20
37.791899999999998
 30
0.0
 10
19.926100000000002
 20
37.909599999999998
 30
0.0
 10
19.926100000000002
 20
37.909599999999998
 30
0.0
 10
19.926100000000002
 20
37.909599999999998
 30
0.0
 10
19.926100000000002
 20
37.909599999999998
 30
0.0
 10
17.219000000000001
 20
42.3825
 30
0.0
 10
17.219000000000001
 20
42.3825
 30
0.0
  0
SPLINE
  5
5B
100
AcDbEntity
  8
RÚteg 1
 62
     7
100
AcDbSpline
210
0.0
220
0.0
230
1.0
 70
     1
 71
     3
 72
    20
 73
    16
 74
     0
 42
0.0000000001
 43
0.0000000001
 40
0.0
 40
0.0
 40
0.0
 40
0.0
 40
0.25
 40
0.25
 40
0.25
 40
0.25
 40
0.5
 40
0.5
 40
0.5
 40
0.5
 40
0.75
 40
0.75
 40
0.75
 40
0.75
 40
1.0
 40
1.0
 40
1.0
 40
1.0
 10
17.219000000000001
 20
60.980699999999999
 30
0.0
 10
17.219000000000001
 20
60.980699999999999
 30
0.0
 10
19.808599999999998
 20
65.218199999999996
 30
0.0
 10
19.808599999999998
 20
65.218199999999996
 30
0.0
 10
19.808599999999998
 20
65.218199999999996
 30
0.0
 10
19.808599999999998
 20
65.218199999999996
 30
0.0
 10
24.634599999999999
 20
65.218199999999996
 30
0.0
 10
24.634599999999999
 20
65.218199999999996
 30
0.0
 10
24.634599999999999
 20
65.218199999999996
 30
0.0
 10
24.634599999999999
 20
65.218199999999996
 30
0.0
 10
22.2806
 20
61.098399999999998
 30
0.0
 10
22.2806
 20
61.098399999999998
 30
0.0
 10
22.2806
 20
61.098399999999998
 30
0.0
 10
22.2806
 20
61.098399999999998
 30
0.0
 10
17.219000000000001
 20
60.980699999999999
 30
0.0
 10
17.219000000000001
 20
60.980699999999999
 30
0.0
  0
SPLINE
  5
5C
100
AcDbEntity
  8
RÚteg 1
 62
     7
100
AcDbSpline
210
0.0
220
0.0
230
1.0
 70
     1
 71
     3
 72
    20
 73
    16
 74
     0
 42
0.0000000001
 43
0.0000000001
 40
0.0
 40
0.0
 40
0.0
 40
0.0
 40
0.25
 40
0.25
 40
0.25
 40
0.25
 40
0.5
 40
0.5
 40
0.5
 40
0.5
 40
0.75
 40
0.75
 40
0.75
 40
0.75
 40
1.0
 40
1.0
 40
1.0
 40
1.0
 10
0.8573
 20
70.397400000000005
 30
0.0
 10
0.8573
 20
70.397400000000005
 30
0.0
 10
-1.6147
 20
74.635099999999994
 30
0.0
 10
-1.6147
 20
74.635099999999994
 30
0.0
 10
-1.6147
 20
74.635099999999994
 30
0.0
 10
-1.6147
 20
74.635099999999994
 30
0.0
 10
0.8573
 20
78.872399999999999
 30
0.0
 10
0.8573
 20
78.872399999999999
 30
0.0
 10
0.8573
 20
78.872399999999999
 30
0.0
 10
0.8573
 20
78.872399999999999
 30
0.0
 10
3.6823000000000001
 20
74.870500000000007
 30
0.0
 10
3.6823000000000001
 20
74.870500000000007
 30
0.0
 10
3.6823000000000001
 20
74.870500000000007
 30
0.0
 10
3.6823000000000001
 20
74.870500000000007
 30
0.0
 10
0.8573
 20
70.397400000000005
 30
0.0
 10
0.8573
 20
70.397400000000005
 30
0.0
  0
SPLINE
  5
5D
100
AcDbEntity
  8
RÚteg 1
 62
     7
100
AcDbSpline
210
0.0
220
0.0
230
1.0
 70
     1
 71
     3
 72
    20
 73
    16
 74
     0
 42
0.0000000001
 43
0.0000000001
 40
0.0
 40
0.0
 40
0.0
 40
0.0
 40
0.25
 40
0.25
 40
0.25
 40
0.25
 40
0.5
 40
0.5
 40
0.5
 40
0.5
 40
0.75
 40
0.75
 40
0.75
 40
0.75
 40
1.0
 40
1.0
 40
1.0
 40
1.0
 10
-15.2691
 20
60.745399999999997
 30
0.0
 10
-15.2691
 20
60.745399999999997
 30
0.0
 10
-20.4483
 20
60.745399999999997
 30
0.0
 10
-20.4483
 20
60.745399999999997
 30
0.0
 10
-20.4483
 20
60.745399999999997
 30
0.0
 10
-20.4483
 20
60.745399999999997
 30
0.0
 10
-22.802399999999999
 20
65.453699999999998
 30
0.0
 10
-22.802399999999999
 20
65.453699999999998
 30
0.0
 10
-22.802399999999999
 20
65.453699999999998
 30
0.0
 10
-22.802399999999999
 20
65.453699999999998
 30
0.0
 10
-18.094200000000001
 20
65.218199999999996
 30
0.0
 10
-18.094200000000001
 20
65.218199999999996
 30
0.0
 10
-18.094200000000001
 20
65.218199999999996
 30
0.0
 10
-18.094200000000001
 20
65.218199999999996
 30
0.0
 10
-15.2691
 20
60.745399999999997
 30
0.0
 10
-15.2691
 20
60.745399999999997
 30
0.0
  0
SPLINE
  5
5E
100
AcDbEntity
  8
RÚteg 1
 62
     7
100
AcDbSpline
210
0.0
220
0.0
230
1.0
 70
     1
 71
     3
 72
    20
 73
    16
 74
     0
 42
0.0000000001
 43
0.0000000001
 40
0.0
 40
0.0
 40
0.0
 40
0.0
 40
0.25
 40
0.25
 40
0.25
 40
0.25
 40
0.5
 40
0.5
 40
0.5
 40
0.5
 40
0.75
 40
0.75
 40
0.75
 40
0.75
 40
1.0
 40
1.0
 40
1.0
 40
1.0
 10
-22.920200000000001
 20
37.674199999999999
 30
0.0
 10
-22.920200000000001
 20
37.674199999999999
 30
0.0
 10
-17.858599999999999
 20
37.674199999999999
 30
0.0
 10
-17.858599999999999
 20
37.674199999999999
 30
0.0
 10
-17.858599999999999
 20
37.674199999999999
 30
0.0
 10
-17.858599999999999
 20
37.674199999999999
 30
0.0
 10
-15.2691
 20
42.029299999999999
 30
0.0
 10
-15.2691
 20
42.029299999999999
 30
0.0
 10
-15.2691
 20
42.029299999999999
 30
0.0
 10
-15.2691
 20
42.029299999999999
 30
0.0
 10
-20.095099999999999
 20
42.029299999999999
 30
0.0
 10
-20.095099999999999
 20
42.029299999999999
 30
0.0
 10
-20.095099999999999
 20
42.029299999999999
 30
0.0
 10
-20.095099999999999
 20
42.029299999999999
 30
0.0
 10
-22.920200000000001
 20
37.674199999999999
 30
0.0
 10
-22.920200000000001
 20
37.674199999999999
 30
0.0
  0
SPLINE
  5
5F
100
AcDbEntity
  8
RÚteg 1
 62
     7
100
AcDbSpline
210
0.0
220
0.0
230
1.0
 70
     1
 71
     3
 72
    20
 73
    16
 74
     0
 42
0.0000000001
 43
0.0000000001
 40
0.0
 40
0.0
 40
0.0
 40
0.0
 40
0.25
 40
0.25
 40
0.25
 40
0.25
 40
0.5
 40
0.5
 40
0.5
 40
0.5
 40
0.75
 40
0.75
 40
0.75
 40
0.75
 40
1.0
 40
1.0
 40
1.0
 40
1.0
 10
0.9751
 20
23.902200000000001
 30
0.0
 10
0.9751
 20
23.902200000000001
 30
0.0
 10
-1.3793
 20
28.139600000000002
 30
0.0
 10
-1.3793
 20
28.139600000000002
 30
0.0
 10
-1.3793
 20
28.139600000000002
 30
0.0
 10
-1.3793
 20
28.139600000000002
 30
0.0
 10
0.9751
 20
32.377299999999998
 30
0.0
 10
0.9751
 20
32.377299999999998
 30
0.0
 10
0.9751
 20
32.377299999999998
 30
0.0
 10
0.9751
 20
32.377299999999998
 30
0.0
 10
3.5644999999999998
 20
28.2575
 30
0.0
 10
3.5644999999999998
 20
28.2575
 30
0.0
 10
3.5644999999999998
 20
28.2575
 30
0.0
 10
3.5644999999999998
 20
28.2575
 30
0.0
 10
0.9751
 20
23.902200000000001
 30
0.0
 10
0.9751
 20
23.902200000000001
 30
0.0
  0
ENDSEC
  0
SECTION
  2
OBJECTS
  0
DICTIONARY
  5
19
100
AcDbDictionary
280
     0
281
     1
  3
ACAD_GROUP
350
1A
  3
ACAD_MLINESTYLE
350
1B
  3
ACAD_LAYOUT
350
1E
  3
ACAD_PLOTSETTINGS
350
22
  3
ACAD_PLOTSTYLENAME
350
1F
  3
ACAD_WIPEOUT_VARS
350
23
  0
DICTIONARY
  5
1A
102
{ACAD_REACTORS
330
19
102
}
100
AcDbDictionary
280
     0
281
     1
  0
DICTIONARY
  5
1B
102
{ACAD_REACTORS
330
19
102
}
100
AcDbDictionary
280
     0
281
     1
  3
Standard
350
1C
  0
MLINESTYLE
  5
1C
102
{ACAD_REACTORS
330
1B
102
}
100
AcDbMlineStyle
  2
Standard
 70
     0
  3

 62
     0
 51
90.0
 52
90.0
 71
     2
 49
0.5
 62
   256
  6
BYLAYER
 49
-0.5
 62
   256
  6
BYLAYER
  0
ACDBDICTIONARYWDFLT
  5
1F
102
{ACAD_REACTORS
330
19
102
}
100
AcDbDictionary
281
     1
  3
Normal
350
1D
100
AcDbDictionaryWithDefault
340
1D
  0
ACDBPLACEHOLDER
  5
1D
102
{ACAD_REACTORS
330
1F
102
}
  0
LAYOUT
  5
20
102
{ACAD_REACTORS
330
1E
102
}
100
AcDbPlotSettings
  1

  2

  4

  6

 40
0.0
 41
0.0
 42
0.0
 43
0.0
 44
0.0
 45
0.0
 46
0.0
 47
0.0
 48
0.0
 49
0.0
140
0.0
141
0.0
142
1.0
143
1.0
 70
  1024
 72
     0
 73
     0
 74
     0
  7

 75
     0
147
1.0
148
0.0
149
0.0
100
AcDbLayout
  1
Model
 70
     0
 71
     0
 10
0.0
 20
0.0
 11
0.0
 21
0.0
 12
0.0
 22
0.0
 32
0.0
 14
0.0
 24
0.0
 34
0.0
 15
0.0
 25
0.0
 35
0.0
146
0.0
 13
0.0
 23
0.0
 33
0.0
 16
0.0
 26
0.0
 36
0.0
 17
0.0
 27
0.0
 37
0.0
 76
     0
330
A
331
0
345
0
346
0
  0
LAYOUT
  5
21
102
{ACAD_REACTORS
330
1E
102
}
100
AcDbPlotSettings
  1

  2

  4

  6

 40
0.0
 41
0.0
 42
0.0
 43
0.0
 44
0.0
 45
0.0
 46
0.0
 47
0.0
 48
0.0
 49
0.0
140
0.0
141
0.0
142
1.0
143
1.0
 70
     0
 72
     0
 73
     0
 74
     0
  7

 75
     0
147
1.0
148
0.0
149
0.0
100
AcDbLayout
  1
Layout1
 70
     0
 71
     0
 10
0.0
 20
0.0
 11
0.0
 21
0.0
 12
0.0
 22
0.0
 32
0.0
 14
0.0
 24
0.0
 34
0.0
 15
0.0
 25
0.0
 35
0.0
146
0.0
 13
0.0
 23
0.0
 33
0.0
 16
0.0
 26
0.0
 36
0.0
 17
0.0
 27
0.0
 37
0.0
 76
     0
330
B
331
0
345
0
346
0
  0
DICTIONARY
  5
1E
102
{ACAD_REACTORS
330
19
102
}
100
AcDbDictionary
280
     0
281
     1
  3
Layout1
350
21
  3
Model
350
20
  0
DICTIONARY
  5
22
102
{ACAD_REACTORS
330
19
102
}
100
AcDbDictionary
280
     0
281
     1
  0
WIPEOUTVARIABLES
  5
23
100
AcDbWipeoutVariables
 70
     1
  0
ENDSEC
  0
EOF
