  0
SECTION
  2
HEADER
  9
$ACADVER
  1
AC1015
  9
$ACADMAINTVER
 70
     6
  9
$DWGCODEPAGE
  3
DOS850
  9
$INSBASE
 10
0.0
 20
0.0
 30
0.0
  9
$EXTMIN
 10
-63.5882
 20
-2.3965
 30
1.000000E+20
  9
$EXTMAX
 10
2.1382
 20
71.5892
 30
-1.000000E+20
  9
$LIMMIN
 10
0.0
 20
0.0
  9
$LIMMAX
 10
0.0
 20
0.0
  9
$ORTHOMODE
 70
     0
  9
$REGENMODE
 70
     1
  9
$FILLMODE
 70
     1
  9
$QTEXTMODE
 70
     0
  9
$MIRRTEXT
 70
     1
  9
$LTSCALE
 40
1.0
  9
$ATTMODE
 70
     1
  9
$TEXTSIZE
 40
0.2
  9
$TRACEWID
 40
0.05
  9
$TEXTSTYLE
  7
Standard
  9
$CLAYER
  8
0
  9
$CELTYPE
  6
Continuous
  9
$CECOLOR
 62
   256
  9
$CELTSCALE
 40
1.0
  9
$DISPSILH
 70
     0
  9
$DIMSCALE
 40
1.0
  9
$DIMASZ
 40
0.18
  9
$DIMEXO
 40
0.0625
  9
$DIMDLI
 40
0.38
  9
$DIMRND
 40
0.0
  9
$DIMDLE
 40
0.0
  9
$DIMEXE
 40
0.18
  9
$DIMTP
 40
0.0
  9
$DIMTM
 40
0.0
  9
$DIMTXT
 40
0.18
  9
$DIMCEN
 40
0.09
  9
$DIMTSZ
 40
0.0
  9
$DIMTOL
 70
     0
  9
$DIMLIM
 70
     0
  9
$DIMTIH
 70
     1
  9
$DIMTOH
 70
     1
  9
$DIMSE1
 70
     0
  9
$DIMSE2
 70
     0
  9
$DIMTAD
 70
     0
  9
$DIMZIN
 70
     0
  9
$DIMBLK
  1

  9
$DIMASO
 70
     1
  9
$DIMSHO
 70
     1
  9
$DIMPOST
  1

  9
$DIMAPOST
  1

  9
$DIMALT
 70
     0
  9
$DIMALTD
 70
     2
  9
$DIMALTF
 40
25.4
  9
$DIMLFAC
 40
1.0
  9
$DIMTOFL
 70
     0
  9
$DIMTVP
 40
0.0
  9
$DIMTIX
 70
     0
  9
$DIMSOXD
 70
     0
  9
$DIMSAH
 70
     0
  9
$DIMBLK1
  1

  9
$DIMBLK2
  1

  9
$DIMSTYLE
  2
Standard
  9
$DIMCLRD
 70
     0
  9
$DIMCLRE
 70
     0
  9
$DIMCLRT
 70
     0
  9
$DIMTFAC
 40
1.0
  9
$DIMGAP
 40
0.09
  9
$DIMJUST
 70
     0
  9
$DIMSD1
 70
     0
  9
$DIMSD2
 70
     0
  9
$DIMTOLJ
 70
     1
  9
$DIMTZIN
 70
     0
  9
$DIMALTZ
 70
     0
  9
$DIMALTTZ
 70
     0
  9
$DIMUPT
 70
     0
  9
$DIMDEC
 70
     4
  9
$DIMTDEC
 70
     4
  9
$DIMALTU
 70
     2
  9
$DIMALTTD
 70
     2
  9
$DIMTXSTY
  7
Standard
  9
$DIMAUNIT
 70
     0
  9
$DIMADEC
 70
     0
  9
$DIMALTRND
 40
0.0
  9
$DIMAZIN
 70
     0
  9
$DIMDSEP
 70
     0
  9
$DIMATFIT
 70
     3
  9
$DIMFRAC
 70
     0
  9
$DIMLDRBLK
  1

  9
$DIMLUNIT
 70
     2
  9
$DIMLWD
 70
     0
  9
$DIMLWE
 70
     0
  9
$DIMTMOVE
 70
     0
  9
$LUNITS
 70
     2
  9
$LUPREC
 70
     4
  9
$SKETCHINC
 40
0.1
  9
$FILLETRAD
 40
0.0
  9
$AUNITS
 70
     0
  9
$AUPREC
 70
     0
  9
$MENU
  1
acad
  9
$ELEVATION
 40
0.0
  9
$PELEVATION
 40
0.0
  9
$THICKNESS
 40
0.0
  9
$LIMCHECK
 70
     0
  9
$CHAMFERA
 40
0.0
  9
$CHAMFERB
 40
0.0
  9
$CHAMFERC
 40
0.0
  9
$CHAMFERD
 40
0.0
  9
$SKPOLY
 70
     0
  9
$TDCREATE
 40
0.000000000
  9
$TDUCREATE
 40
0.000000000
  9
$TDUPDATE
 40
0.000000000
  9
$TDUUPDATE
 40
0.000000000
  9
$TDINDWG
 40
0.0000000000
  9
$TDUSRTIMER
 40
0.0000000000
  9
$USRTIMER
 70
     1
  9
$ANGBASE
 50
0.0
  9
$ANGDIR
 70
     0
  9
$PDMODE
 70
     0
  9
$PDSIZE
 40
0.0
  9
$PLINEWID
 40
0.0
  9
$SPLFRAME
 70
     0
  9
$SPLINETYPE
 70
     6
  9
$SPLINESEGS
 70
     8
  9
$HANDSEED
  5
77
  9
$SURFTAB1
 70
     6
  9
$SURFTAB2
 70
     6
  9
$SURFTYPE
 70
     6
  9
$SURFU
 70
     6
  9
$SURFV
 70
     6
  9
$UCSBASE
  2

  9
$UCSNAME
  2

  9
$UCSORG
 10
0.0
 20
0.0
 30
0.0
  9
$UCSXDIR
 10
1.0
 20
0.0
 30
0.0
  9
$UCSYDIR
 10
0.0
 20
1.0
 30
0.0
  9
$UCSORTHOREF
  2

  9
$UCSORTHOVIEW
 70
     0
  9
$UCSORGTOP
 10
0.0
 20
0.0
 30
0.0
  9
$UCSORGBOTTOM
 10
0.0
 20
0.0
 30
0.0
  9
$UCSORGLEFT
 10
0.0
 20
0.0
 30
0.0
  9
$UCSORGRIGHT
 10
0.0
 20
0.0
 30
0.0
  9
$UCSORGFRONT
 10
0.0
 20
0.0
 30
0.0
  9
$UCSORGBACK
 10
0.0
 20
0.0
 30
0.0
  9
$PUCSBASE
  2

  9
$PUCSNAME
  2

  9
$PUCSORG
 10
0.0
 20
0.0
 30
0.0
  9
$PUCSXDIR
 10
1.0
 20
0.0
 30
0.0
  9
$PUCSYDIR
 10
0.0
 20
1.0
 30
0.0
  9
$PUCSORTHOREF
  2

  9
$PUCSORTHOVIEW
 70
     0
  9
$PUCSORGTOP
 10
0.0
 20
0.0
 30
0.0
  9
$PUCSORGBOTTOM
 10
0.0
 20
0.0
 30
0.0
  9
$PUCSORGLEFT
 10
0.0
 20
0.0
 30
0.0
  9
$PUCSORGRIGHT
 10
0.0
 20
0.0
 30
0.0
  9
$PUCSORGFRONT
 10
0.0
 20
0.0
 30
0.0
  9
$PUCSORGBACK
 10
0.0
 20
0.0
 30
0.0
  9
$USERI1
 70
     0
  9
$USERI2
 70
     0
  9
$USERI3
 70
     0
  9
$USERI4
 70
     0
  9
$USERI5
 70
     0
  9
$USERR1
 40
0.0
  9
$USERR2
 40
0.0
  9
$USERR3
 40
0.0
  9
$USERR4
 40
0.0
  9
$USERR5
 40
0.0
  9
$WORLDVIEW
 70
     1
  9
$SHADEDGE
 70
     3
  9
$SHADEDIF
 70
    70
  9
$TILEMODE
 70
     1
  9
$MAXACTVP
 70
    16
  9
$PINSBASE
 10
0.0
 20
0.0
 30
0.0
  9
$PLIMCHECK
 70
     0
  9
$PEXTMIN
 10
1.000000E+20
 20
1.000000E+20
 30
1.000000E+20
  9
$PEXTMAX
 10
-1.000000E+20
 20
-1.000000E+20
 30
-1.000000E+20
  9
$PLIMMIN
 10
0.0
 20
0.0
  9
$PLIMMAX
 10
12.0
 20
9.0
  9
$UNITMODE
 70
     0
  9
$VISRETAIN
 70
     0
  9
$PLINEGEN
 70
     1
  9
$PSLTSCALE
 70
     0
  9
$TREEDEPTH
 70
  3020
  9
$CMLSTYLE
  2
Standard
  9
$CMLJUST
 70
     0
  9
$CMLSCALE
 40
1.0
  9
$PROXYGRAPHICS
 70
     0
  9
$MEASUREMENT
 70
     0
  9
$CELWEIGHT
370
     0
  9
$ENDCAPS
280
     0
  9
$JOINSTYLE
280
     0
  9
$LWDISPLAY
290
     0
  9
$INSUNITS
 70
     4
  9
$HYPERLINKBASE
  1

  9
$XEDIT
290
     1
  9
$CEPSNTYPE
380
     0
  9
$PSTYLEMODE
290
     1
  9
$FINGERPRINTGUID
  2

  9
$VERSIONGUID
  2

  9
$EXTNAMES
290
     1
  9
$PSVPSCALE
 40
0.0
  0
ENDSEC
  0
SECTION
  2
CLASSES
  0
CLASS
  1
LWPOLYLINE
  2
AcDbPolyline
  3
AutoCAD 2000
 90
    32768
280
     0
281
     1
  0
CLASS
  1
IMAGE
  2
AcDbRasterImage
  3
ISM
 90
    32895
280
     0
281
     1
  0
CLASS
  1
OLE2FRAME
  2
AcDbOle2Frame
  3
AutoCAD 2000
 90
    32768
280
     0
281
     1
  0
CLASS
  1
HATCH
  2
AcDbHatch
  3
AutoCAD 2000
 90
    32768
280
     0
281
     1
  0
CLASS
  1
DICTIONARYVAR
  2
AcDbDictionaryVar
  3
AutoCAD 2000
 90
    32768
280
     0
281
     0
  0
CLASS
  1
RASTERVARIABLES
  2
AcDbRasterVariables
  3
ISM
 90
    32768
280
     0
281
     0
  0
CLASS
  1
IMAGEDEF
  2
AcDbRasterImageDef
  3
ISM
 90
    32768
280
     0
281
     0
  0
CLASS
  1
IMAGEDEF_REACTOR
  2
AcDbRasterImageDefReactor
  3
ISM
 90
    32769
280
     0
281
     0
  0
CLASS
  1
IDBUFFER
  2
AcDbIdBuffer
  3
AutoCAD 2000
 90
    32768
280
     0
281
     0
  0
CLASS
  1
SPATIAL_FILTER
  2
AcDbSpatialFilter
  3
AutoCAD 2000
 90
    32768
280
     0
281
     0
  0
CLASS
  1
XRECORD
  2
AcDbXrecord
  3
AutoCAD 2000
 90
    32768
280
     0
281
     0
  0
CLASS
  1
SORTENTSTABLE
  2
AcDbSortentsTable
  3
AutoCAD 2000
 90
    32768
280
     0
281
     0
  0
CLASS
  1
LAYER_INDEX
  2
AcDbLayerIndex
  3
AutoCAD 2000
 90
    32768
280
     0
281
     0
  0
CLASS
  1
SPATIAL_INDEX
  2
AcDbSpatialIndex
  3
AutoCAD 2000
 90
    32768
280
     0
281
     0
  0
CLASS
  1
OBJECT_PTR
  2
CAseDLPNTableRecord
  3
"ASE-LPNTableRecord"
 90
    32769
280
     0
281
     0
  0
CLASS
  1
LAYOUT
  2
AcDbLayout
  3
AutoCAD 2000
 90
        0
280
     0
281
     0
  0
CLASS
  1
PLOTSETTINGS
  2
AcDbPlotSettings
  3
AutoCAD 2000
 90
    32768
280
     0
281
     0
  0
CLASS
  1
ACDBDICTIONARYWDFLT
  2
AcDbDictionaryWithDefault
  3
AutoCAD 2000
 90
        0
280
     0
281
     0
  0
CLASS
  1
ACDBPLACEHOLDER
  2
AcDbPlaceHolder
  3
AutoCAD 2000
 90
        0
280
     0
281
     0
  0
CLASS
  1
VBA_PROJECT
  2
AcDbVbaProject
  3
acadvba
 90
    32768
280
     0
281
     0
  0
CLASS
  1
WIPEOUT
  2
AcDbWipeout
  3
WipeOut|AutoCAD Express Tool|expresstools@autodesk.com
 90
    32895
280
     0
281
     1
  0
CLASS
  1
WIPEOUTVARIABLES
  2
AcDbWipeoutVariables
  3
WipeOut|AutoCAD Express Tool|expresstools@autodesk.com
 90
        0
280
     0
281
     0
  0
CLASS
  1
RTEXT
  2
RText
  3
RText|AutoCAD Express Tool|expresstools@autodesk.com
 90
    32768
280
     0
281
     1
  0
CLASS
  1
ARCALIGNEDTEXT
  2
AcDbArcAlignedText
  3
ATEXT|AutoCAD Express Tool|expresstools@autodesk.com
 90
    32768
280
     0
281
     1
  0
ENDSEC
  0
SECTION
  2
TABLES
  0
TABLE
  2
VPORT
  5
7
100
AcDbSymbolTable
 70
     1
  0
VPORT
  5
15
100
AcDbSymbolTableRecord
100
AcDbViewportTableRecord
  2
*ACTIVE
 70
     0
 10
0.0
 20
0.0
 11
1.0
 21
1.0
 12
6.591288
 22
4.579184
 13
0.0
 23
0.0
 14
1.0
 24
1.0
 15
0.0
 25
0.0
 16
0.0
 26
0.0
 36
1.0
 17
0.0
 27
0.0
 37
0.0
 40
9.158369
 41
0.688564
 42
50.0
 43
0.0
 44
0.0
 50
0.0
 51
0.0
 71
     0
 72
   100
 73
     1
 74
     1
 75
     0
 76
     0
 77
     0
 78
     0
281
     0
 65
     0
110
0.0
120
0.0
130
0.0
111
1.0
121
0.0
131
0.0
112
0.0
122
1.0
132
0.0
345
0
346
0
 79
     0
146
0.0
  0
ENDTAB
  0
TABLE
  2
LTYPE
  5
4
100
AcDbSymbolTable
 70
     3
  0
LTYPE
  5
11
100
AcDbSymbolTableRecord
100
AcDbLinetypeTableRecord
  2
ByBlock
 70
    64
  3

 72
    65
 73
     0
 40
0.0
  0
LTYPE
  5
12
100
AcDbSymbolTableRecord
100
AcDbLinetypeTableRecord
  2
ByLayer
 70
    64
  3

 72
    65
 73
     0
 40
0.0
  0
LTYPE
  5
13
100
AcDbSymbolTableRecord
100
AcDbLinetypeTableRecord
  2
Continuous
 70
    64
  3
Solid line
 72
    65
 73
     0
 40
0.0
  0
ENDTAB
  0
TABLE
  2
LAYER
  5
2
100
AcDbSymbolTable
 70
     2
  0
LAYER
  5
14
100
AcDbSymbolTableRecord
100
AcDbLayerTableRecord
  2
0
 70
     0
 62
     7
  6
Continuous
290
     1
370
    -3
390
1D
  0
LAYER
  5
24
100
AcDbSymbolTableRecord
100
AcDbLayerTableRecord
  2
RÚteg 1
 70
     0
 62
     7
  6
Continuous
290
     1
370
    -3
390
1F
  0
ENDTAB
  0
TABLE
  2
STYLE
  5
3
100
AcDbSymbolTable
 70
     1
  0
STYLE
  5
17
100
AcDbSymbolTableRecord
100
AcDbTextStyleTableRecord
  2
Standard
 70
     0
 40
0.0
 41
1.0
 50
0.0
 71
     0
 42
0.0
  3
txt
  4

  0
ENDTAB
  0
TABLE
  2
VIEW
  5
5
100
AcDbSymbolTable
 70
     0
  0
ENDTAB
  0
TABLE
  2
UCS
  5
6
100
AcDbSymbolTable
 70
     0
  0
ENDTAB
  0
TABLE
  2
APPID
  5
8
100
AcDbSymbolTable
 70
     1
  0
APPID
  5
16
100
AcDbSymbolTableRecord
100
AcDbRegAppTableRecord
  2
ACAD
 70
     0
  0
ENDTAB
  0
TABLE
  2
DIMSTYLE
  5
9
100
AcDbSymbolTable
 70
     1
100
AcDbDimStyleTable
 71
     0
  0
DIMSTYLE
105
18
100
AcDbSymbolTableRecord
100
AcDbDimStyleTableRecord
  2
Standard
 70
     0
  3

  4

 40
1.0
 41
0.18
 42
0.0625
 43
0.38
 44
0.18
 45
0.0
 46
0.0
 47
0.0
 48
0.0
 71
     0
 72
     0
 73
     1
 74
     1
 75
     0
 76
     0
 77
     0
 78
     0
 79
     0
140
0.18
141
0.09
142
0.0
143
25.4
144
1.0
145
0.0
146
1.0
147
0.09
148
0.0
170
     0
171
     2
172
     0
173
     0
174
     0
175
     0
176
     0
177
     0
178
     0
179
     0
271
     4
272
     4
273
     2
274
     2
275
     0
276
     0
277
     2
278
    46
279
     0
280
     0
281
     0
282
     0
283
     1
284
     0
285
     0
286
     0
288
     0
340
17
341
0
342
0
343
0
344
0
371
    -2
372
    -2
  0
ENDTAB
  0
TABLE
  2
BLOCK_RECORD
  5
1
100
AcDbSymbolTable
 70
     0
  0
BLOCK_RECORD
  5
A
100
AcDbSymbolTableRecord
100
AcDbBlockTableRecord
  2
*MODEL_SPACE
340
20
  0
BLOCK_RECORD
  5
B
100
AcDbSymbolTableRecord
100
AcDbBlockTableRecord
  2
*PAPER_SPACE
340
21
  0
ENDTAB
  0
ENDSEC
  0
SECTION
  2
BLOCKS
  0
BLOCK
  5
D
100
AcDbEntity
  8
0
100
AcDbBlockBegin
  2
*MODEL_SPACE
 70
     0
 10
0.0
 20
0.0
 30
0.0
  3
*MODEL_SPACE
  1

  0
ENDBLK
  5
E
100
AcDbEntity
  8
0
100
AcDbBlockEnd
  0
BLOCK
  5
F
100
AcDbEntity
 67
     1
  8
0
100
AcDbBlockBegin
  2
*PAPER_SPACE
 70
     0
 10
0.0
 20
0.0
 30
0.0
  3
*PAPER_SPACE
  1

  0
ENDBLK
  5
10
100
AcDbEntity
 67
     1
  8
0
100
AcDbBlockEnd
  0
ENDSEC
  0
SECTION
  2
ENTITIES
  0
SPLINE
  5
25
100
AcDbEntity
  8
RÚteg 1
 62
     7
100
AcDbSpline
210
0.0
220
0.0
230
1.0
 70
     1
 71
     3
 72
    60
 73
    56
 74
     0
 42
0.0000000001
 43
0.0000000001
 40
0.0
 40
0.0
 40
0.0
 40
0.0
 40
0.0714285714285714
 40
0.0714285714285714
 40
0.0714285714285714
 40
0.0714285714285714
 40
0.1428571428571429
 40
0.1428571428571429
 40
0.1428571428571429
 40
0.1428571428571429
 40
0.2142857142857143
 40
0.2142857142857143
 40
0.2142857142857143
 40
0.2142857142857143
 40
0.2857142857142857
 40
0.2857142857142857
 40
0.2857142857142857
 40
0.2857142857142857
 40
0.3571428571428571
 40
0.3571428571428571
 40
0.3571428571428571
 40
0.3571428571428571
 40
0.4285714285714285
 40
0.4285714285714285
 40
0.4285714285714285
 40
0.4285714285714285
 40
0.4999999999999999
 40
0.4999999999999999
 40
0.4999999999999999
 40
0.4999999999999999
 40
0.5714285714285713
 40
0.5714285714285713
 40
0.5714285714285713
 40
0.5714285714285713
 40
0.6428571428571427
 40
0.6428571428571427
 40
0.6428571428571427
 40
0.6428571428571427
 40
0.7142857142857141
 40
0.7142857142857141
 40
0.7142857142857141
 40
0.7142857142857141
 40
0.7857142857142855
 40
0.7857142857142855
 40
0.7857142857142855
 40
0.7857142857142855
 40
0.8571428571428569
 40
0.8571428571428569
 40
0.8571428571428569
 40
0.8571428571428569
 40
0.9285714285714283
 40
0.9285714285714283
 40
0.9285714285714283
 40
0.9285714285714283
 40
1.0
 40
1.0
 40
1.0
 40
1.0
 10
-25.4648
 20
62.819200000000002
 30
0.0
 10
-9.8667999999999996
 20
60.301499999999997
 30
0.0
 10
2.0499999999999998
 20
46.773899999999998
 30
0.0
 10
2.0499999999999998
 20
30.466699999999999
 30
0.0
 10
2.0499999999999998
 20
30.466699999999999
 30
0.0
 10
2.0499999999999998
 20
12.368600000000001
 30
0.0
 10
-12.626899999999999
 20
-2.3083
 30
0.0
 10
-30.725000000000001
 20
-2.3083
 30
0.0
 10
-30.725000000000001
 20
-2.3083
 30
0.0
 10
-48.823099999999997
 20
-2.3083
 30
0.0
 10
-63.5
 20
12.368600000000001
 30
0.0
 10
-63.5
 20
30.466699999999999
 30
0.0
 10
-63.5
 20
30.466699999999999
 30
0.0
 10
-63.5
 20
46.773899999999998
 30
0.0
 10
-51.583199999999998
 20
60.301499999999997
 30
0.0
 10
-35.985199999999999
 20
62.819200000000002
 30
0.0
 10
-35.985199999999999
 20
62.819200000000002
 30
0.0
 10
-35.985199999999999
 20
63.553899999999999
 30
0.0
 10
-35.985199999999999
 20
64.288300000000007
 30
0.0
 10
-35.985199999999999
 20
65.022900000000007
 30
0.0
 10
-35.985199999999999
 20
65.022900000000007
 30
0.0
 10
-35.985199999999999
 20
65.843599999999995
 30
0.0
 10
-35.313899999999997
 20
66.514899999999997
 30
0.0
 10
-34.493200000000002
 20
66.514899999999997
 30
0.0
 10
-34.493200000000002
 20
66.514899999999997
 30
0.0
 10
-34.169499999999999
 20
66.514899999999997
 30
0.0
 10
-33.845999999999997
 20
66.514899999999997
 30
0.0
 10
-33.522300000000001
 20
66.514899999999997
 30
0.0
 10
-33.522300000000001
 20
66.514899999999997
 30
0.0
 10
-33.826799999999999
 20
67.012600000000006
 30
0.0
 10
-34.002499999999998
 20
67.597499999999997
 30
0.0
 10
-34.002499999999998
 20
68.223500000000001
 30
0.0
 10
-34.002499999999998
 20
68.223500000000001
 30
0.0
 10
-34.002499999999998
 20
70.033100000000005
 30
0.0
 10
-32.534599999999998
 20
71.501000000000005
 30
0.0
 10
-30.725000000000001
 20
71.501000000000005
 30
0.0
 10
-30.725000000000001
 20
71.501000000000005
 30
0.0
 10
-28.915400000000002
 20
71.501000000000005
 30
0.0
 10
-27.447500000000002
 20
70.033100000000005
 30
0.0
 10
-27.447500000000002
 20
68.223500000000001
 30
0.0
 10
-27.447500000000002
 20
68.223500000000001
 30
0.0
 10
-27.447500000000002
 20
67.597499999999997
 30
0.0
 10
-27.623200000000001
 20
67.012600000000006
 30
0.0
 10
-27.927700000000002
 20
66.514899999999997
 30
0.0
 10
-27.927700000000002
 20
66.514899999999997
 30
0.0
 10
-27.603999999999999
 20
66.514899999999997
 30
0.0
 10
-27.2805
 20
66.514899999999997
 30
0.0
 10
-26.956800000000001
 20
66.514899999999997
 30
0.0
 10
-26.956800000000001
 20
66.514899999999997
 30
0.0
 10
-26.136099999999999
 20
66.514899999999997
 30
0.0
 10
-25.4648
 20
65.843599999999995
 30
0.0
 10
-25.4648
 20
65.022900000000007
 30
0.0
 10
-25.4648
 20
65.022900000000007
 30
0.0
 10
-25.4648
 20
64.288300000000007
 30
0.0
 10
-25.4648
 20
63.553899999999999
 30
0.0
 10
-25.4648
 20
62.819200000000002
 30
0.0
  0
SPLINE
  5
26
100
AcDbEntity
  8
RÚteg 1
 62
     7
100
AcDbSpline
210
0.0
220
0.0
230
1.0
 70
     1
 71
     3
 72
    80
 73
    76
 74
     0
 42
0.0000000001
 43
0.0000000001
 40
0.0
 40
0.0
 40
0.0
 40
0.0
 40
0.0526315789473684
 40
0.0526315789473684
 40
0.0526315789473684
 40
0.0526315789473684
 40
0.1052631578947368
 40
0.1052631578947368
 40
0.1052631578947368
 40
0.1052631578947368
 40
0.1578947368421053
 40
0.1578947368421053
 40
0.1578947368421053
 40
0.1578947368421053
 40
0.2105263157894737
 40
0.2105263157894737
 40
0.2105263157894737
 40
0.2105263157894737
 40
0.2631578947368421
 40
0.2631578947368421
 40
0.2631578947368421
 40
0.2631578947368421
 40
0.3157894736842105
 40
0.3157894736842105
 40
0.3157894736842105
 40
0.3157894736842105
 40
0.3684210526315789
 40
0.3684210526315789
 40
0.3684210526315789
 40
0.3684210526315789
 40
0.4210526315789474
 40
0.4210526315789474
 40
0.4210526315789474
 40
0.4210526315789474
 40
0.4736842105263158
 40
0.4736842105263158
 40
0.4736842105263158
 40
0.4736842105263158
 40
0.5263157894736842
 40
0.5263157894736842
 40
0.5263157894736842
 40
0.5263157894736842
 40
0.5789473684210527
 40
0.5789473684210527
 40
0.5789473684210527
 40
0.5789473684210527
 40
0.631578947368421
 40
0.631578947368421
 40
0.631578947368421
 40
0.631578947368421
 40
0.6842105263157894
 40
0.6842105263157894
 40
0.6842105263157894
 40
0.6842105263157894
 40
0.7368421052631577
 40
0.7368421052631577
 40
0.7368421052631577
 40
0.7368421052631577
 40
0.7894736842105261
 40
0.7894736842105261
 40
0.7894736842105261
 40
0.7894736842105261
 40
0.8421052631578945
 40
0.8421052631578945
 40
0.8421052631578945
 40
0.8421052631578945
 40
0.8947368421052628
 40
0.8947368421052628
 40
0.8947368421052628
 40
0.8947368421052628
 40
0.9473684210526312
 40
0.9473684210526312
 40
0.9473684210526312
 40
0.9473684210526312
 40
1.0
 40
1.0
 40
1.0
 40
1.0
 10
-31.657299999999999
 20
1.7634000000000001
 30
0.0
 10
-31.657299999999999
 20
1.7634000000000001
 30
0.0
 10
-31.267399999999999
 20
1.7634000000000001
 30
0.0
 10
-31.267399999999999
 20
1.7634000000000001
 30
0.0
 10
-31.267399999999999
 20
1.7634000000000001
 30
0.0
 10
-31.115300000000001
 20
2.0825999999999998
 30
0.0
 10
-31.589400000000001
 20
2.6305999999999998
 30
0.0
 10
-31.589400000000001
 20
3.1594000000000002
 30
0.0
 10
-31.589400000000001
 20
3.1594000000000002
 30
0.0
 10
-31.589400000000001
 20
3.3982999999999999
 30
0.0
 10
-31.388100000000001
 20
3.3797000000000001
 30
0.0
 10
-31.186800000000002
 20
3.4278
 30
0.0
 10
-31.186800000000002
 20
3.4278
 30
0.0
 10
-31.055199999999999
 20
2.9359000000000002
 30
0.0
 10
-29.643899999999999
 20
1.671
 30
0.0
 10
-29.038699999999999
 20
1.9512
 30
0.0
 10
-29.038699999999999
 20
1.9512
 30
0.0
 10
-29.7028
 20
2.6758999999999999
 30
0.0
 10
-30.366900000000001
 20
3.4007000000000001
 30
0.0
 10
-31.030999999999999
 20
4.1256000000000004
 30
0.0
 10
-31.030999999999999
 20
4.1256000000000004
 30
0.0
 10
-30.993400000000001
 20
4.1615000000000002
 30
0.0
 10
-30.9558
 20
4.1974
 30
0.0
 10
-30.918099999999999
 20
4.2333999999999996
 30
0.0
 10
-30.918099999999999
 20
4.2333999999999996
 30
0.0
 10
-30.783799999999999
 20
4.2333999999999996
 30
0.0
 10
-30.649799999999999
 20
4.2333999999999996
 30
0.0
 10
-30.515499999999999
 20
4.2333999999999996
 30
0.0
 10
-30.515499999999999
 20
4.2333999999999996
 30
0.0
 10
-29.645600000000002
 20
4.2333999999999996
 30
0.0
 10
-29.504000000000001
 20
3.8307000000000002
 30
0.0
 10
-28.501899999999999
 20
3.8307000000000002
 30
0.0
 10
-28.501899999999999
 20
3.8307000000000002
 30
0.0
 10
-28.462499999999999
 20
3.8624000000000001
 30
0.0
 10
-28.423200000000001
 20
3.8944999999999999
 30
0.0
 10
-28.384
 20
3.9262000000000001
 30
0.0
 10
-28.384
 20
3.9262000000000001
 30
0.0
 10
-28.665900000000001
 20
4.2732999999999999
 30
0.0
 10
-28.947600000000001
 20
4.6205999999999996
 30
0.0
 10
-29.229600000000001
 20
4.9676
 30
0.0
 10
-29.229600000000001
 20
4.9676
 30
0.0
 10
-29.925599999999999
 20
5.0044000000000004
 30
0.0
 10
-30.621600000000001
 20
5.0412999999999997
 30
0.0
 10
-31.317599999999999
 20
5.0781000000000001
 30
0.0
 10
-31.317599999999999
 20
5.0781000000000001
 30
0.0
 10
-31.450299999999999
 20
5.2321
 30
0.0
 10
-31.858000000000001
 20
5.7398999999999996
 30
0.0
 10
-31.858000000000001
 20
5.9786000000000001
 30
0.0
 10
-31.858000000000001
 20
5.9786000000000001
 30
0.0
 10
-31.858000000000001
 20
6.3334000000000001
 30
0.0
 10
-31.2577
 20
6.1708999999999996
 30
0.0
 10
-31.052399999999999
 20
7.0525000000000002
 30
0.0
 10
-31.052399999999999
 20
7.0525000000000002
 30
0.0
 10
-31.633800000000001
 20
6.9606000000000003
 30
0.0
 10
-32.214799999999997
 20
6.8682999999999996
 30
0.0
 10
-32.796100000000003
 20
6.7765000000000004
 30
0.0
 10
-32.796100000000003
 20
6.7765000000000004
 30
0.0
 10
-33.066699999999997
 20
5.9291
 30
0.0
 10
-33.107500000000002
 20
4.8878000000000004
 30
0.0
 10
-33.377899999999997
 20
4.0404999999999998
 30
0.0
 10
-33.377899999999997
 20
4.0404999999999998
 30
0.0
 10
-32.0139
 20
4.1524000000000001
 30
0.0
 10
-33.305900000000001
 20
4.8940000000000001
 30
0.0
 10
-32.260800000000003
 20
5.173
 30
0.0
 10
-32.260800000000003
 20
5.173
 30
0.0
 10
-32.1297
 20
4.9025999999999996
 30
0.0
 10
-31.9986
 20
4.6323999999999996
 30
0.0
 10
-31.8675
 20
4.3623000000000003
 30
0.0
 10
-31.8675
 20
4.3623000000000003
 30
0.0
 10
-31.920100000000001
 20
3.8281999999999998
 30
0.0
 10
-31.973400000000002
 20
3.2944
 30
0.0
 10
-32.026299999999999
 20
2.7604000000000002
 30
0.0
 10
-32.026299999999999
 20
2.7604000000000002
 30
0.0
 10
-32.035600000000002
 20
2.4236
 30
0.0
 10
-31.797699999999999
 20
2.1233
 30
0.0
 10
-31.657299999999999
 20
1.7634000000000001
 30
0.0
  0
SPLINE
  5
27
100
AcDbEntity
  8
RÚteg 1
 62
     7
100
AcDbSpline
210
0.0
220
0.0
230
1.0
 70
     1
 71
     3
 72
    28
 73
    24
 74
     0
 42
0.0000000001
 43
0.0000000001
 40
0.0
 40
0.0
 40
0.0
 40
0.0
 40
0.1666666666666667
 40
0.1666666666666667
 40
0.1666666666666667
 40
0.1666666666666667
 40
0.3333333333333333
 40
0.3333333333333333
 40
0.3333333333333333
 40
0.3333333333333333
 40
0.5
 40
0.5
 40
0.5
 40
0.5
 40
0.6666666666666666
 40
0.6666666666666666
 40
0.6666666666666666
 40
0.6666666666666666
 40
0.8333333333333333
 40
0.8333333333333333
 40
0.8333333333333333
 40
0.8333333333333333
 40
1.0
 40
1.0
 40
1.0
 40
1.0
 10
-33.125799999999998
 20
0.6726
 30
0.0
 10
-33.125799999999998
 20
0.6726
 30
0.0
 10
-33.125799999999998
 20
0.7074
 30
0.0
 10
-33.125799999999998
 20
0.7074
 30
0.0
 10
-33.125799999999998
 20
0.7074
 30
0.0
 10
-33.125799999999998
 20
0.7074
 30
0.0
 10
-33.200400000000002
 20
0.7429
 30
0.0
 10
-33.200400000000002
 20
0.7429
 30
0.0
 10
-33.200400000000002
 20
0.7429
 30
0.0
 10
-33.220599999999997
 20
1.6488
 30
0.0
 10
-33.839100000000002
 20
3.4119999999999999
 30
0.0
 10
-34.535600000000002
 20
3.7035
 30
0.0
 10
-34.535600000000002
 20
3.7035
 30
0.0
 10
-34.7926
 20
3.5051000000000001
 30
0.0
 10
-37.096699999999998
 20
3.7545999999999999
 30
0.0
 10
-37.497999999999998
 20
4.2081999999999997
 30
0.0
 10
-37.497999999999998
 20
4.2081999999999997
 30
0.0
 10
-37.448999999999998
 20
2.9641000000000002
 30
0.0
 10
-37.323500000000003
 20
1.3436999999999999
 30
0.0
 10
-37.441699999999997
 20
1.3341000000000001
 30
0.0
 10
-37.441699999999997
 20
1.3341000000000001
 30
0.0
 10
-36.038200000000003
 20
1.0117
 30
0.0
 10
-34.596899999999998
 20
0.7891
 30
0.0
 10
-33.125799999999998
 20
0.6726
 30
0.0
  0
SPLINE
  5
28
100
AcDbEntity
  8
RÚteg 1
 62
     7
100
AcDbSpline
210
0.0
220
0.0
230
1.0
 70
     1
 71
     3
 72
    32
 73
    28
 74
     0
 42
0.0000000001
 43
0.0000000001
 40
0.0
 40
0.0
 40
0.0
 40
0.0
 40
0.1428571428571429
 40
0.1428571428571429
 40
0.1428571428571429
 40
0.1428571428571429
 40
0.2857142857142857
 40
0.2857142857142857
 40
0.2857142857142857
 40
0.2857142857142857
 40
0.4285714285714286
 40
0.4285714285714286
 40
0.4285714285714286
 40
0.4285714285714286
 40
0.5714285714285714
 40
0.5714285714285714
 40
0.5714285714285714
 40
0.5714285714285714
 40
0.7142857142857142
 40
0.7142857142857142
 40
0.7142857142857142
 40
0.7142857142857142
 40
0.857142857142857
 40
0.857142857142857
 40
0.857142857142857
 40
0.857142857142857
 40
1.0
 40
1.0
 40
1.0
 40
1.0
 10
-37.899099999999997
 20
7.3212000000000002
 30
0.0
 10
-37.714399999999998
 20
7.2234999999999996
 30
0.0
 10
-36.975000000000001
 20
6.7839
 30
0.0
 10
-36.825000000000003
 20
6.7839
 30
0.0
 10
-36.825000000000003
 20
6.7839
 30
0.0
 10
-36.780200000000001
 20
6.7839
 30
0.0
 10
-36.735500000000002
 20
6.7839
 30
0.0
 10
-36.690899999999999
 20
6.7839
 30
0.0
 10
-36.690899999999999
 20
6.7839
 30
0.0
 10
-36.204000000000001
 20
6.7839
 30
0.0
 10
-35.941400000000002
 20
6.8967000000000001
 30
0.0
 10
-35.616799999999998
 20
7.0525000000000002
 30
0.0
 10
-35.616799999999998
 20
7.0525000000000002
 30
0.0
 10
-35.249299999999998
 20
6.7332000000000001
 30
0.0
 10
-33.993600000000001
 20
6.0406000000000004
 30
0.0
 10
-33.899799999999999
 20
5.9492000000000003
 30
0.0
 10
-33.899799999999999
 20
5.9492000000000003
 30
0.0
 10
-33.362000000000002
 20
5.4269999999999996
 30
0.0
 10
-33.775700000000001
 20
4.2333999999999996
 30
0.0
 10
-34.542900000000003
 20
4.2333999999999996
 30
0.0
 10
-34.542900000000003
 20
4.2333999999999996
 30
0.0
 10
-35.210900000000002
 20
4.2333999999999996
 30
0.0
 10
-35.655500000000004
 20
4.5881999999999996
 30
0.0
 10
-36.0197
 20
4.9044999999999996
 30
0.0
 10
-36.0197
 20
4.9044999999999996
 30
0.0
 10
-37.725999999999999
 20
4.0857999999999999
 30
0.0
 10
-39.262
 20
6.4082999999999997
 30
0.0
 10
-37.899099999999997
 20
7.3212000000000002
 30
0.0
  0
SPLINE
  5
29
100
AcDbEntity
  8
RÚteg 1
 62
     7
100
AcDbSpline
210
0.0
220
0.0
230
1.0
 70
     1
 71
     3
 72
    28
 73
    24
 74
     0
 42
0.0000000001
 43
0.0000000001
 40
0.0
 40
0.0
 40
0.0
 40
0.0
 40
0.1666666666666667
 40
0.1666666666666667
 40
0.1666666666666667
 40
0.1666666666666667
 40
0.3333333333333333
 40
0.3333333333333333
 40
0.3333333333333333
 40
0.3333333333333333
 40
0.5
 40
0.5
 40
0.5
 40
0.5
 40
0.6666666666666666
 40
0.6666666666666666
 40
0.6666666666666666
 40
0.6666666666666666
 40
0.8333333333333333
 40
0.8333333333333333
 40
0.8333333333333333
 40
0.8333333333333333
 40
1.0
 40
1.0
 40
1.0
 40
1.0
 10
-17.493400000000001
 20
5.9786000000000001
 30
0.0
 10
-18.209399999999999
 20
5.9786000000000001
 30
0.0
 10
-18.898800000000001
 20
6.1925999999999997
 30
0.0
 10
-19.614699999999999
 20
6.1925999999999997
 30
0.0
 10
-19.614699999999999
 20
6.1925999999999997
 30
0.0
 10
-20.307500000000001
 20
6.1970000000000001
 30
0.0
 10
-19.909700000000001
 20
6.6689999999999996
 30
0.0
 10
-19.909700000000001
 20
7.3212000000000002
 30
0.0
 10
-19.909700000000001
 20
7.3212000000000002
 30
0.0
 10
-19.7639
 20
7.4188999999999998
 30
0.0
 10
-19.454599999999999
 20
7.7263000000000002
 30
0.0
 10
-19.3734
 20
7.7130000000000001
 30
0.0
 10
-19.3734
 20
7.7130000000000001
 30
0.0
 10
-18.478100000000001
 20
7.7165999999999997
 30
0.0
 10
-17.583100000000002
 20
7.7203999999999997
 30
0.0
 10
-16.687799999999999
 20
7.7237999999999998
 30
0.0
 10
-16.687799999999999
 20
7.7237999999999998
 30
0.0
 10
-16.637599999999999
 20
7.5076000000000001
 30
0.0
 10
-16.419599999999999
 20
7.0557999999999996
 30
0.0
 10
-16.419599999999999
 20
7.0525000000000002
 30
0.0
 10
-16.419599999999999
 20
7.0525000000000002
 30
0.0
 10
-16.419599999999999
 20
6.5282999999999998
 30
0.0
 10
-16.857800000000001
 20
5.9744000000000002
 30
0.0
 10
-17.493400000000001
 20
5.9786000000000001
 30
0.0
  0
SPLINE
  5
2A
100
AcDbEntity
  8
RÚteg 1
 62
     7
100
AcDbSpline
210
0.0
220
0.0
230
1.0
 70
     1
 71
     3
 72
    36
 73
    32
 74
     0
 42
0.0000000001
 43
0.0000000001
 40
0.0
 40
0.0
 40
0.0
 40
0.0
 40
0.125
 40
0.125
 40
0.125
 40
0.125
 40
0.25
 40
0.25
 40
0.25
 40
0.25
 40
0.375
 40
0.375
 40
0.375
 40
0.375
 40
0.5
 40
0.5
 40
0.5
 40
0.5
 40
0.625
 40
0.625
 40
0.625
 40
0.625
 40
0.75
 40
0.75
 40
0.75
 40
0.75
 40
0.875
 40
0.875
 40
0.875
 40
0.875
 40
1.0
 40
1.0
 40
1.0
 40
1.0
 10
-42.384300000000003
 20
7.6970000000000001
 30
0.0
 10
-42.384300000000003
 20
7.7866
 30
0.0
 10
-42.384300000000003
 20
7.8760000000000003
 30
0.0
 10
-42.384300000000003
 20
7.9656000000000002
 30
0.0
 10
-42.384300000000003
 20
7.9656000000000002
 30
0.0
 10
-42.384300000000003
 20
8.2666000000000004
 30
0.0
 10
-42.277999999999999
 20
8.2600999999999996
 30
0.0
 10
-42.097499999999997
 20
8.4139999999999997
 30
0.0
 10
-42.097499999999997
 20
8.4139999999999997
 30
0.0
 10
-41.432400000000001
 20
8.5332000000000008
 30
0.0
 10
-41.114800000000002
 20
8.6788000000000007
 30
0.0
 10
-40.4497
 20
8.7978000000000005
 30
0.0
 10
-40.4497
 20
8.7978000000000005
 30
0.0
 10
-39.926099999999998
 20
8.6082000000000001
 30
0.0
 10
-39.864899999999999
 20
7.7568999999999999
 30
0.0
 10
-38.570399999999999
 20
7.4550999999999998
 30
0.0
 10
-38.570399999999999
 20
7.4550999999999998
 30
0.0
 10
-38.584200000000003
 20
6.8238000000000003
 30
0.0
 10
-39.025799999999997
 20
5.8444000000000003
 30
0.0
 10
-39.509999999999998
 20
5.8444000000000003
 30
0.0
 10
-39.509999999999998
 20
5.8444000000000003
 30
0.0
 10
-40.114899999999999
 20
5.8444000000000003
 30
0.0
 10
-40.853700000000003
 20
6.2862999999999998
 30
0.0
 10
-40.986699999999999
 20
6.7839
 30
0.0
 10
-40.986699999999999
 20
6.7839
 30
0.0
 10
-41.165599999999998
 20
6.7839
 30
0.0
 10
-41.344499999999996
 20
6.7839
 30
0.0
 10
-41.523600000000002
 20
6.7839
 30
0.0
 10
-41.523600000000002
 20
6.7839
 30
0.0
 10
-42.063600000000001
 20
6.7839
 30
0.0
 10
-42.384300000000003
 20
6.7084000000000001
 30
0.0
 10
-42.384300000000003
 20
7.6970000000000001
 30
0.0
  0
SPLINE
  5
2B
100
AcDbEntity
  8
RÚteg 1
 62
     7
100
AcDbSpline
210
0.0
220
0.0
230
1.0
 70
     1
 71
     3
 72
    56
 73
    52
 74
     0
 42
0.0000000001
 43
0.0000000001
 40
0.0
 40
0.0
 40
0.0
 40
0.0
 40
0.0769230769230769
 40
0.0769230769230769
 40
0.0769230769230769
 40
0.0769230769230769
 40
0.1538461538461539
 40
0.1538461538461539
 40
0.1538461538461539
 40
0.1538461538461539
 40
0.2307692307692308
 40
0.2307692307692308
 40
0.2307692307692308
 40
0.2307692307692308
 40
0.3076923076923077
 40
0.3076923076923077
 40
0.3076923076923077
 40
0.3076923076923077
 40
0.3846153846153846
 40
0.3846153846153846
 40
0.3846153846153846
 40
0.3846153846153846
 40
0.4615384615384616
 40
0.4615384615384616
 40
0.4615384615384616
 40
0.4615384615384616
 40
0.5384615384615386
 40
0.5384615384615386
 40
0.5384615384615386
 40
0.5384615384615386
 40
0.6153846153846154
 40
0.6153846153846154
 40
0.6153846153846154
 40
0.6153846153846154
 40
0.6923076923076923
 40
0.6923076923076923
 40
0.6923076923076923
 40
0.6923076923076923
 40
0.7692307692307692
 40
0.7692307692307692
 40
0.7692307692307692
 40
0.7692307692307692
 40
0.846153846153846
 40
0.846153846153846
 40
0.846153846153846
 40
0.846153846153846
 40
0.9230769230769229
 40
0.9230769230769229
 40
0.9230769230769229
 40
0.9230769230769229
 40
1.0
 40
1.0
 40
1.0
 40
1.0
 10
-13.023400000000001
 20
6.3827999999999996
 30
0.0
 10
-13.401899999999999
 20
6.3952999999999998
 30
0.0
 10
-13.479200000000001
 20
6.4829999999999997
 30
0.0
 10
-13.8687
 20
6.5156000000000001
 30
0.0
 10
-13.8687
 20
6.5156000000000001
 30
0.0
 10
-13.8687
 20
6.3367000000000004
 30
0.0
 10
-13.8687
 20
6.1577000000000002
 30
0.0
 10
-13.8687
 20
5.9786000000000001
 30
0.0
 10
-13.8687
 20
5.9786000000000001
 30
0.0
 10
-13.8687
 20
5.9028999999999998
 30
0.0
 10
-13.886200000000001
 20
5.8250999999999999
 30
0.0
 10
-13.9176
 20
5.7481999999999998
 30
0.0
 10
-13.9176
 20
5.7481999999999998
 30
0.0
 10
-14.276400000000001
 20
5.5037000000000003
 30
0.0
 10
-14.6412
 20
5.2678000000000003
 30
0.0
 10
-15.0105
 20
5.0388999999999999
 30
0.0
 10
-15.0105
 20
5.0388999999999999
 30
0.0
 10
-15.0327
 20
5.0388999999999999
 30
0.0
 10
-15.055
 20
5.0388999999999999
 30
0.0
 10
-15.0771
 20
5.0388999999999999
 30
0.0
 10
-15.0771
 20
5.0388999999999999
 30
0.0
 10
-15.601000000000001
 20
5.0388999999999999
 30
0.0
 10
-16.2852
 20
5.5510000000000002
 30
0.0
 10
-16.2852
 20
5.9786000000000001
 30
0.0
 10
-16.2852
 20
5.9786000000000001
 30
0.0
 10
-16.2852
 20
6.2797000000000001
 30
0.0
 10
-15.7018
 20
7.1723999999999997
 30
0.0
 10
-15.48
 20
7.3212000000000002
 30
0.0
 10
-15.48
 20
7.3212000000000002
 30
0.0
 10
-14.972899999999999
 20
7.2027999999999999
 30
0.0
 10
-14.640000000000001
 20
7.0525000000000002
 30
0.0
 10
-14.002800000000001
 20
7.0525000000000002
 30
0.0
 10
-14.002800000000001
 20
7.0525000000000002
 30
0.0
 10
-13.913600000000001
 20
7.0525000000000002
 30
0.0
 10
-13.824
 20
7.0525000000000002
 30
0.0
 10
-13.734500000000001
 20
7.0525000000000002
 30
0.0
 10
-13.734500000000001
 20
7.0525000000000002
 30
0.0
 10
-12.6289
 20
7.0525000000000002
 30
0.0
 10
-12.7446
 20
7.8449999999999998
 30
0.0
 10
-12.0776
 20
8.2942
 30
0.0
 10
-12.0776
 20
8.2942
 30
0.0
 10
-11.897399999999999
 20
8.0494000000000003
 30
0.0
 10
-11.7173
 20
7.8044000000000002
 30
0.0
 10
-11.537100000000001
 20
7.5594000000000001
 30
0.0
 10
-11.537100000000001
 20
7.5594000000000001
 30
0.0
 10
-11.5406
 20
7.5537000000000001
 30
0.0
 10
-11.5442
 20
7.5477999999999996
 30
0.0
 10
-11.5479
 20
7.5420999999999996
 30
0.0
 10
-11.5479
 20
7.5420999999999996
 30
0.0
 10
-12.027100000000001
 20
7.1406000000000001
 30
0.0
 10
-12.5191
 20
6.7541000000000002
 30
0.0
 10
-13.023400000000001
 20
6.3827999999999996
 30
0.0
  0
SPLINE
  5
2C
100
AcDbEntity
  8
RÚteg 1
 62
     7
100
AcDbSpline
210
0.0
220
0.0
230
1.0
 70
     1
 71
     3
 72
    36
 73
    32
 74
     0
 42
0.0000000001
 43
0.0000000001
 40
0.0
 40
0.0
 40
0.0
 40
0.0
 40
0.125
 40
0.125
 40
0.125
 40
0.125
 40
0.25
 40
0.25
 40
0.25
 40
0.25
 40
0.375
 40
0.375
 40
0.375
 40
0.375
 40
0.5
 40
0.5
 40
0.5
 40
0.5
 40
0.625
 40
0.625
 40
0.625
 40
0.625
 40
0.75
 40
0.75
 40
0.75
 40
0.75
 40
0.875
 40
0.875
 40
0.875
 40
0.875
 40
1.0
 40
1.0
 40
1.0
 40
1.0
 10
-31.186800000000002
 20
7.8581000000000003
 30
0.0
 10
-31.6098
 20
7.7594000000000003
 30
0.0
 10
-31.603899999999999
 20
7.6596000000000002
 30
0.0
 10
-31.9695
 20
7.5647000000000002
 30
0.0
 10
-31.9695
 20
7.5647000000000002
 30
0.0
 10
-32.425800000000002
 20
7.4466999999999999
 30
0.0
 10
-32.343800000000002
 20
7.7275
 30
0.0
 10
-32.849200000000003
 20
7.5171000000000001
 30
0.0
 10
-32.849200000000003
 20
7.5171000000000001
 30
0.0
 10
-33.2943
 20
7.3319000000000001
 30
0.0
 10
-33.081800000000001
 20
6.9968000000000004
 30
0.0
 10
-34.006300000000003
 20
6.9968000000000004
 30
0.0
 10
-34.006300000000003
 20
6.9968000000000004
 30
0.0
 10
-34.6997
 20
6.9968000000000004
 30
0.0
 10
-35.214100000000002
 20
8.1211000000000002
 30
0.0
 10
-35.214100000000002
 20
8.9319000000000006
 30
0.0
 10
-35.214100000000002
 20
8.9319000000000006
 30
0.0
 10
-35.214100000000002
 20
9.3111999999999995
 30
0.0
 10
-34.905999999999999
 20
9.4498999999999995
 30
0.0
 10
-34.677300000000002
 20
9.6031999999999993
 30
0.0
 10
-34.677300000000002
 20
9.6031999999999993
 30
0.0
 10
-32.930399999999999
 20
9.1961999999999993
 30
0.0
 10
-33.160899999999998
 20
9.4510000000000005
 30
0.0
 10
-31.858000000000001
 20
10.1401
 30
0.0
 10
-31.858000000000001
 20
10.1401
 30
0.0
 10
-31.540500000000002
 20
9.9276999999999997
 30
0.0
 10
-30.918099999999999
 20
9.4215
 30
0.0
 10
-30.918099999999999
 20
8.9319000000000006
 30
0.0
 10
-30.918099999999999
 20
8.9319000000000006
 30
0.0
 10
-30.918099999999999
 20
8.3515999999999995
 30
0.0
 10
-31.130600000000001
 20
8.5175000000000001
 30
0.0
 10
-31.186800000000002
 20
7.8581000000000003
 30
0.0
  0
SPLINE
  5
2D
100
AcDbEntity
  8
RÚteg 1
 62
     7
100
AcDbSpline
210
0.0
220
0.0
230
1.0
 70
     1
 71
     3
 72
    36
 73
    32
 74
     0
 42
0.0000000001
 43
0.0000000001
 40
0.0
 40
0.0
 40
0.0
 40
0.0
 40
0.125
 40
0.125
 40
0.125
 40
0.125
 40
0.25
 40
0.25
 40
0.25
 40
0.25
 40
0.375
 40
0.375
 40
0.375
 40
0.375
 40
0.5
 40
0.5
 40
0.5
 40
0.5
 40
0.625
 40
0.625
 40
0.625
 40
0.625
 40
0.75
 40
0.75
 40
0.75
 40
0.75
 40
0.875
 40
0.875
 40
0.875
 40
0.875
 40
1.0
 40
1.0
 40
1.0
 40
1.0
 10
-10.646699999999999
 20
8.5291999999999994
 30
0.0
 10
-10.9152
 20
8.5291999999999994
 30
0.0
 10
-11.1838
 20
8.5291999999999994
 30
0.0
 10
-11.452400000000001
 20
8.5291999999999994
 30
0.0
 10
-11.452400000000001
 20
8.5291999999999994
 30
0.0
 10
-11.452400000000001
 20
8.6636000000000006
 30
0.0
 10
-11.452400000000001
 20
8.7978000000000005
 30
0.0
 10
-11.452400000000001
 20
8.9319000000000006
 30
0.0
 10
-11.452400000000001
 20
8.9319000000000006
 30
0.0
 10
-11.452400000000001
 20
9.1082999999999998
 30
0.0
 10
-10.8371
 20
10.542999999999999
 30
0.0
 10
-10.378399999999999
 20
10.542999999999999
 30
0.0
 10
-10.378399999999999
 20
10.542999999999999
 30
0.0
 10
-10.1995
 20
10.542999999999999
 30
0.0
 10
-10.0204
 20
10.542999999999999
 30
0.0
 10
-9.8413000000000004
 20
10.542999999999999
 30
0.0
 10
-9.8413000000000004
 20
10.542999999999999
 30
0.0
 10
-9.6765000000000008
 20
9.9261999999999997
 30
0.0
 10
-9.4387000000000008
 20
10.2042
 30
0.0
 10
-9.4387000000000008
 20
9.7377000000000002
 30
0.0
 10
-9.4387000000000008
 20
9.7377000000000002
 30
0.0
 10
-9.4387000000000008
 20
9.6410999999999998
 30
0.0
 10
-9.4695
 20
9.5226000000000006
 30
0.0
 10
-9.5252999999999997
 20
9.3980999999999995
 30
0.0
 10
-9.5252999999999997
 20
9.3980999999999995
 30
0.0
 10
-9.8045000000000009
 20
9.1172000000000004
 30
0.0
 10
-10.090199999999999
 20
8.8422999999999998
 30
0.0
 10
-10.380599999999999
 20
8.5725999999999996
 30
0.0
 10
-10.380599999999999
 20
8.5725999999999996
 30
0.0
 10
-10.4665
 20
8.5446000000000009
 30
0.0
 10
-10.5557
 20
8.5291999999999994
 30
0.0
 10
-10.646699999999999
 20
8.5291999999999994
 30
0.0
  0
SPLINE
  5
2E
100
AcDbEntity
  8
RÚteg 1
 62
     7
100
AcDbSpline
210
0.0
220
0.0
230
1.0
 70
     1
 71
     3
 72
    32
 73
    28
 74
     0
 42
0.0000000001
 43
0.0000000001
 40
0.0
 40
0.0
 40
0.0
 40
0.0
 40
0.1428571428571429
 40
0.1428571428571429
 40
0.1428571428571429
 40
0.1428571428571429
 40
0.2857142857142857
 40
0.2857142857142857
 40
0.2857142857142857
 40
0.2857142857142857
 40
0.4285714285714286
 40
0.4285714285714286
 40
0.4285714285714286
 40
0.4285714285714286
 40
0.5714285714285714
 40
0.5714285714285714
 40
0.5714285714285714
 40
0.5714285714285714
 40
0.7142857142857142
 40
0.7142857142857142
 40
0.7142857142857142
 40
0.7142857142857142
 40
0.857142857142857
 40
0.857142857142857
 40
0.857142857142857
 40
0.857142857142857
 40
1.0
 40
1.0
 40
1.0
 40
1.0
 10
-16.419599999999999
 20
8.2606000000000002
 30
0.0
 10
-16.552
 20
8.3423999999999996
 30
0.0
 10
-16.6845
 20
8.4238999999999997
 30
0.0
 10
-16.817
 20
8.5053000000000001
 30
0.0
 10
-16.817
 20
8.5053000000000001
 30
0.0
 10
-17.3111
 20
8.4238999999999997
 30
0.0
 10
-17.805
 20
8.3423999999999996
 30
0.0
 10
-18.298999999999999
 20
8.2606000000000002
 30
0.0
 10
-18.298999999999999
 20
8.2606000000000002
 30
0.0
 10
-18.4438
 20
8.6196999999999999
 30
0.0
 10
-19.314599999999999
 20
8.9260999999999999
 30
0.0
 10
-18.556100000000001
 20
9.1776999999999997
 30
0.0
 10
-18.556100000000001
 20
9.1776999999999997
 30
0.0
 10
-17.825099999999999
 20
9.4199000000000002
 30
0.0
 10
-17.994700000000002
 20
9.0876999999999999
 30
0.0
 10
-17.225200000000001
 20
9.6031999999999993
 30
0.0
 10
-17.225200000000001
 20
9.6031999999999993
 30
0.0
 10
-15.716699999999999
 20
9.6031999999999993
 30
0.0
 10
-15.8447
 20
10.2743
 30
0.0
 10
-15.211399999999999
 20
10.2743
 30
0.0
 10
-15.211399999999999
 20
10.2743
 30
0.0
 10
-14.9519
 20
10.2743
 30
0.0
 10
-14.674200000000001
 20
10.0351
 30
0.0
 10
-14.674200000000001
 20
9.8717000000000006
 30
0.0
 10
-14.674200000000001
 20
9.8717000000000006
 30
0.0
 10
-14.674200000000001
 20
8.8757999999999999
 30
0.0
 10
-15.5878
 20
8.4544999999999995
 30
0.0
 10
-16.419599999999999
 20
8.2606000000000002
 30
0.0
  0
SPLINE
  5
2F
100
AcDbEntity
  8
RÚteg 1
 62
     7
100
AcDbSpline
210
0.0
220
0.0
230
1.0
 70
     1
 71
     3
 72
    40
 73
    36
 74
     0
 42
0.0000000001
 43
0.0000000001
 40
0.0
 40
0.0
 40
0.0
 40
0.0
 40
0.1111111111111111
 40
0.1111111111111111
 40
0.1111111111111111
 40
0.1111111111111111
 40
0.2222222222222222
 40
0.2222222222222222
 40
0.2222222222222222
 40
0.2222222222222222
 40
0.3333333333333333
 40
0.3333333333333333
 40
0.3333333333333333
 40
0.3333333333333333
 40
0.4444444444444444
 40
0.4444444444444444
 40
0.4444444444444444
 40
0.4444444444444444
 40
0.5555555555555556
 40
0.5555555555555556
 40
0.5555555555555556
 40
0.5555555555555556
 40
0.6666666666666667
 40
0.6666666666666667
 40
0.6666666666666667
 40
0.6666666666666667
 40
0.7777777777777779
 40
0.7777777777777779
 40
0.7777777777777779
 40
0.7777777777777779
 40
0.8888888888888891
 40
0.8888888888888891
 40
0.8888888888888891
 40
0.8888888888888891
 40
1.0
 40
1.0
 40
1.0
 40
1.0
 10
-13.8687
 20
7.5894000000000004
 30
0.0
 10
-13.9582
 20
7.5894000000000004
 30
0.0
 10
-14.047800000000001
 20
7.5894000000000004
 30
0.0
 10
-14.1373
 20
7.5894000000000004
 30
0.0
 10
-14.1373
 20
7.5894000000000004
 30
0.0
 10
-14.6241
 20
7.5894000000000004
 30
0.0
 10
-14.8865
 20
7.7022000000000004
 30
0.0
 10
-15.304500000000001
 20
7.9480000000000004
 30
0.0
 10
-15.304500000000001
 20
7.9480000000000004
 30
0.0
 10
-14.960100000000001
 20
8.2759
 30
0.0
 10
-14.6158
 20
8.6038999999999994
 30
0.0
 10
-14.2715
 20
8.9319000000000006
 30
0.0
 10
-14.2715
 20
8.9319000000000006
 30
0.0
 10
-14.2715
 20
9.1560000000000006
 30
0.0
 10
-14.2715
 20
9.3795999999999999
 30
0.0
 10
-14.2715
 20
9.6031999999999993
 30
0.0
 10
-14.2715
 20
9.6031999999999993
 30
0.0
 10
-13.7552
 20
9.9490999999999996
 30
0.0
 10
-13.7417
 20
9.8276000000000003
 30
0.0
 10
-13.1068
 20
10.0496
 30
0.0
 10
-13.1068
 20
10.0496
 30
0.0
 10
-12.4895
 20
10.264699999999999
 30
0.0
 10
-12.372199999999999
 20
10.811400000000001
 30
0.0
 10
-12.1235
 20
10.811400000000001
 30
0.0
 10
-12.1235
 20
10.811400000000001
 30
0.0
 10
-11.7561
 20
10.811400000000001
 30
0.0
 10
-11.452400000000001
 20
10.1342
 30
0.0
 10
-11.452400000000001
 20
10.006
 30
0.0
 10
-11.452400000000001
 20
10.006
 30
0.0
 10
-11.452400000000001
 20
9.1911000000000005
 30
0.0
 10
-12.1691
 20
9.0152999999999999
 30
0.0
 10
-12.809900000000001
 20
8.8059999999999992
 30
0.0
 10
-12.809900000000001
 20
8.8059999999999992
 30
0.0
 10
-13.422800000000001
 20
8.6059000000000001
 30
0.0
 10
-12.9871
 20
7.5894000000000004
 30
0.0
 10
-13.8687
 20
7.5894000000000004
 30
0.0
  0
SPLINE
  5
30
100
AcDbEntity
  8
RÚteg 1
 62
     7
100
AcDbSpline
210
0.0
220
0.0
230
1.0
 70
     1
 71
     3
 72
    40
 73
    36
 74
     0
 42
0.0000000001
 43
0.0000000001
 40
0.0
 40
0.0
 40
0.0
 40
0.0
 40
0.1111111111111111
 40
0.1111111111111111
 40
0.1111111111111111
 40
0.1111111111111111
 40
0.2222222222222222
 40
0.2222222222222222
 40
0.2222222222222222
 40
0.2222222222222222
 40
0.3333333333333333
 40
0.3333333333333333
 40
0.3333333333333333
 40
0.3333333333333333
 40
0.4444444444444444
 40
0.4444444444444444
 40
0.4444444444444444
 40
0.4444444444444444
 40
0.5555555555555556
 40
0.5555555555555556
 40
0.5555555555555556
 40
0.5555555555555556
 40
0.6666666666666667
 40
0.6666666666666667
 40
0.6666666666666667
 40
0.6666666666666667
 40
0.7777777777777779
 40
0.7777777777777779
 40
0.7777777777777779
 40
0.7777777777777779
 40
0.8888888888888891
 40
0.8888888888888891
 40
0.8888888888888891
 40
0.8888888888888891
 40
1.0
 40
1.0
 40
1.0
 40
1.0
 10
-34.677300000000002
 20
10.408799999999999
 30
0.0
 10
-35.169800000000002
 20
10.148
 30
0.0
 10
-35.382100000000001
 20
9.8979999999999997
 30
0.0
 10
-35.966000000000001
 20
9.8979999999999997
 30
0.0
 10
-35.966000000000001
 20
9.8979999999999997
 30
0.0
 10
-36.100299999999997
 20
9.8979999999999997
 30
0.0
 10
-36.154299999999999
 20
10.004899999999999
 30
0.0
 10
-36.288600000000002
 20
10.004899999999999
 30
0.0
 10
-36.288600000000002
 20
10.004899999999999
 30
0.0
 10
-36.4283
 20
10.390499999999999
 30
0.0
 10
-37.093400000000003
 20
10.376799999999999
 30
0.0
 10
-37.093400000000003
 20
10.811400000000001
 30
0.0
 10
-37.093400000000003
 20
10.811400000000001
 30
0.0
 10
-37.093400000000003
 20
10.945600000000001
 30
0.0
 10
-37.093400000000003
 20
11.0799
 30
0.0
 10
-37.093400000000003
 20
11.2143
 30
0.0
 10
-37.093400000000003
 20
11.2143
 30
0.0
 10
-37.063899999999997
 20
11.2249
 30
0.0
 10
-35.462600000000002
 20
12.153
 30
0.0
 10
-35.401699999999998
 20
12.2073
 30
0.0
 10
-35.401699999999998
 20
12.2073
 30
0.0
 10
-34.842399999999998
 20
12.702400000000001
 30
0.0
 10
-34.577599999999997
 20
13.35
 30
0.0
 10
-34.060200000000002
 20
13.8119
 30
0.0
 10
-34.060200000000002
 20
13.8119
 30
0.0
 10
-33.508000000000003
 20
12.8733
 30
0.0
 10
-32.9559
 20
11.9345
 30
0.0
 10
-32.4039
 20
10.995799999999999
 30
0.0
 10
-32.4039
 20
10.995799999999999
 30
0.0
 10
-32.356200000000001
 20
11.0237
 30
0.0
 10
-32.308199999999999
 20
11.0518
 30
0.0
 10
-32.260800000000003
 20
11.08
 30
0.0
 10
-32.260800000000003
 20
11.08
 30
0.0
 10
-32.380899999999997
 20
9.6343999999999994
 30
0.0
 10
-33.738500000000002
 20
10.19
 30
0.0
 10
-34.677300000000002
 20
10.408799999999999
 30
0.0
  0
SPLINE
  5
31
100
AcDbEntity
  8
RÚteg 1
 62
     7
100
AcDbSpline
210
0.0
220
0.0
230
1.0
 70
     1
 71
     3
 72
    60
 73
    56
 74
     0
 42
0.0000000001
 43
0.0000000001
 40
0.0
 40
0.0
 40
0.0
 40
0.0
 40
0.0714285714285714
 40
0.0714285714285714
 40
0.0714285714285714
 40
0.0714285714285714
 40
0.1428571428571429
 40
0.1428571428571429
 40
0.1428571428571429
 40
0.1428571428571429
 40
0.2142857142857143
 40
0.2142857142857143
 40
0.2142857142857143
 40
0.2142857142857143
 40
0.2857142857142857
 40
0.2857142857142857
 40
0.2857142857142857
 40
0.2857142857142857
 40
0.3571428571428571
 40
0.3571428571428571
 40
0.3571428571428571
 40
0.3571428571428571
 40
0.4285714285714285
 40
0.4285714285714285
 40
0.4285714285714285
 40
0.4285714285714285
 40
0.4999999999999999
 40
0.4999999999999999
 40
0.4999999999999999
 40
0.4999999999999999
 40
0.5714285714285713
 40
0.5714285714285713
 40
0.5714285714285713
 40
0.5714285714285713
 40
0.6428571428571427
 40
0.6428571428571427
 40
0.6428571428571427
 40
0.6428571428571427
 40
0.7142857142857141
 40
0.7142857142857141
 40
0.7142857142857141
 40
0.7142857142857141
 40
0.7857142857142855
 40
0.7857142857142855
 40
0.7857142857142855
 40
0.7857142857142855
 40
0.8571428571428569
 40
0.8571428571428569
 40
0.8571428571428569
 40
0.8571428571428569
 40
0.9285714285714283
 40
0.9285714285714283
 40
0.9285714285714283
 40
0.9285714285714283
 40
1.0
 40
1.0
 40
1.0
 40
1.0
 10
-42.060699999999997
 20
13.4962
 30
0.0
 10
-41.792099999999998
 20
13.4962
 30
0.0
 10
-41.523699999999998
 20
13.4962
 30
0.0
 10
-41.255299999999998
 20
13.4962
 30
0.0
 10
-41.255299999999998
 20
13.4962
 30
0.0
 10
-40.9741
 20
12.290100000000001
 30
0.0
 10
-39.627499999999998
 20
10.542999999999999
 30
0.0
 10
-38.0334
 20
10.542999999999999
 30
0.0
 10
-38.0334
 20
10.542999999999999
 30
0.0
 10
-36.801600000000001
 20
9.718
 30
0.0
 10
-37.464399999999998
 20
9.4968000000000004
 30
0.0
 10
-35.616799999999998
 20
9.0663999999999998
 30
0.0
 10
-35.616799999999998
 20
9.0663999999999998
 30
0.0
 10
-35.616799999999998
 20
8.8424999999999994
 30
0.0
 10
-35.616799999999998
 20
8.6187000000000005
 30
0.0
 10
-35.616799999999998
 20
8.3950999999999993
 30
0.0
 10
-35.616799999999998
 20
8.3950999999999993
 30
0.0
 10
-35.616799999999998
 20
8.0025999999999993
 30
0.0
 10
-36.285899999999998
 20
7.4550999999999998
 30
0.0
 10
-36.690899999999999
 20
7.4550999999999998
 30
0.0
 10
-36.690899999999999
 20
7.4550999999999998
 30
0.0
 10
-37.544400000000003
 20
7.4550999999999998
 30
0.0
 10
-37.3386
 20
7.8856000000000002
 30
0.0
 10
-37.905099999999997
 20
8.2797000000000001
 30
0.0
 10
-37.905099999999997
 20
8.2797000000000001
 30
0.0
 10
-38.216500000000003
 20
8.1838999999999995
 30
0.0
 10
-38.447299999999998
 20
8.3554999999999993
 30
0.0
 10
-38.758499999999998
 20
8.2596000000000007
 30
0.0
 10
-38.758499999999998
 20
8.2596000000000007
 30
0.0
 10
-38.920900000000003
 20
8.3453999999999997
 30
0.0
 10
-39.295499999999997
 20
8.6189999999999998
 30
0.0
 10
-39.397599999999997
 20
8.7483000000000004
 30
0.0
 10
-39.397599999999997
 20
8.7483000000000004
 30
0.0
 10
-39.4788
 20
8.8512000000000004
 30
0.0
 10
-39.912799999999997
 20
9.1601999999999997
 30
0.0
 10
-39.912799999999997
 20
9.2005999999999997
 30
0.0
 10
-39.912799999999997
 20
9.2005999999999997
 30
0.0
 10
-39.912799999999997
 20
11.368399999999999
 30
0.0
 10
-40.142099999999999
 20
9.2005999999999997
 30
0.0
 10
-41.523600000000002
 20
9.2005999999999997
 30
0.0
 10
-41.523600000000002
 20
9.2005999999999997
 30
0.0
 10
-42.200299999999999
 20
9.2005999999999997
 30
0.0
 10
-42.474699999999999
 20
9.5632000000000001
 30
0.0
 10
-42.711100000000002
 20
10.0266
 30
0.0
 10
-42.711100000000002
 20
10.0266
 30
0.0
 10
-42.910400000000003
 20
10.4176
 30
0.0
 10
-42.796900000000001
 20
10.648199999999999
 30
0.0
 10
-42.979199999999999
 20
10.832599999999999
 30
0.0
 10
-42.979199999999999
 20
10.832599999999999
 30
0.0
 10
-43.344799999999999
 20
11.202299999999999
 30
0.0
 10
-43.0212
 20
10.737299999999999
 30
0.0
 10
-43.252000000000002
 20
11.366400000000001
 30
0.0
 10
-43.252000000000002
 20
11.366400000000001
 30
0.0
 10
-43.738799999999998
 20
12.691800000000001
 30
0.0
 10
-43.3063
 20
13.4962
 30
0.0
 10
-42.060699999999997
 20
13.4962
 30
0.0
  0
SPLINE
  5
32
100
AcDbEntity
  8
RÚteg 1
 62
     7
100
AcDbSpline
210
0.0
220
0.0
230
1.0
 70
     1
 71
     3
 72
   144
 73
   140
 74
     0
 42
0.0000000001
 43
0.0000000001
 40
0.0
 40
0.0
 40
0.0
 40
0.0
 40
0.0285714285714286
 40
0.0285714285714286
 40
0.0285714285714286
 40
0.0285714285714286
 40
0.0571428571428571
 40
0.0571428571428571
 40
0.0571428571428571
 40
0.0571428571428571
 40
0.0857142857142857
 40
0.0857142857142857
 40
0.0857142857142857
 40
0.0857142857142857
 40
0.1142857142857143
 40
0.1142857142857143
 40
0.1142857142857143
 40
0.1142857142857143
 40
0.1428571428571429
 40
0.1428571428571429
 40
0.1428571428571429
 40
0.1428571428571429
 40
0.1714285714285714
 40
0.1714285714285714
 40
0.1714285714285714
 40
0.1714285714285714
 40
0.2
 40
0.2
 40
0.2
 40
0.2
 40
0.2285714285714286
 40
0.2285714285714286
 40
0.2285714285714286
 40
0.2285714285714286
 40
0.2571428571428572
 40
0.2571428571428572
 40
0.2571428571428572
 40
0.2571428571428572
 40
0.2857142857142858
 40
0.2857142857142858
 40
0.2857142857142858
 40
0.2857142857142858
 40
0.3142857142857143
 40
0.3142857142857143
 40
0.3142857142857143
 40
0.3142857142857143
 40
0.3428571428571429
 40
0.3428571428571429
 40
0.3428571428571429
 40
0.3428571428571429
 40
0.3714285714285715
 40
0.3714285714285715
 40
0.3714285714285715
 40
0.3714285714285715
 40
0.4000000000000001
 40
0.4000000000000001
 40
0.4000000000000001
 40
0.4000000000000001
 40
0.4285714285714287
 40
0.4285714285714287
 40
0.4285714285714287
 40
0.4285714285714287
 40
0.4571428571428572
 40
0.4571428571428572
 40
0.4571428571428572
 40
0.4571428571428572
 40
0.4857142857142858
 40
0.4857142857142858
 40
0.4857142857142858
 40
0.4857142857142858
 40
0.5142857142857144
 40
0.5142857142857144
 40
0.5142857142857144
 40
0.5142857142857144
 40
0.5428571428571429
 40
0.5428571428571429
 40
0.5428571428571429
 40
0.5428571428571429
 40
0.5714285714285715
 40
0.5714285714285715
 40
0.5714285714285715
 40
0.5714285714285715
 40
0.6000000000000001
 40
0.6000000000000001
 40
0.6000000000000001
 40
0.6000000000000001
 40
0.6285714285714287
 40
0.6285714285714287
 40
0.6285714285714287
 40
0.6285714285714287
 40
0.6571428571428573
 40
0.6571428571428573
 40
0.6571428571428573
 40
0.6571428571428573
 40
0.6857142857142858
 40
0.6857142857142858
 40
0.6857142857142858
 40
0.6857142857142858
 40
0.7142857142857144
 40
0.7142857142857144
 40
0.7142857142857144
 40
0.7142857142857144
 40
0.742857142857143
 40
0.742857142857143
 40
0.742857142857143
 40
0.742857142857143
 40
0.7714285714285716
 40
0.7714285714285716
 40
0.7714285714285716
 40
0.7714285714285716
 40
0.8000000000000002
 40
0.8000000000000002
 40
0.8000000000000002
 40
0.8000000000000002
 40
0.8285714285714287
 40
0.8285714285714287
 40
0.8285714285714287
 40
0.8285714285714287
 40
0.8571428571428573
 40
0.8571428571428573
 40
0.8571428571428573
 40
0.8571428571428573
 40
0.8857142857142859
 40
0.8857142857142859
 40
0.8857142857142859
 40
0.8857142857142859
 40
0.9142857142857145
 40
0.9142857142857145
 40
0.9142857142857145
 40
0.9142857142857145
 40
0.9428571428571431
 40
0.9428571428571431
 40
0.9428571428571431
 40
0.9428571428571431
 40
0.9714285714285716
 40
0.9714285714285716
 40
0.9714285714285716
 40
0.9714285714285716
 40
1.0
 40
1.0
 40
1.0
 40
1.0
 10
-50.518099999999997
 20
12.2881
 30
0.0
 10
-49.981299999999997
 20
12.333
 30
0.0
 10
-49.444299999999998
 20
12.3779
 30
0.0
 10
-48.907200000000003
 20
12.422499999999999
 30
0.0
 10
-48.907200000000003
 20
12.422499999999999
 30
0.0
 10
-47.792900000000003
 20
12.5351
 30
0.0
 10
-46.567999999999998
 20
11.6168
 30
0.0
 10
-46.2224
 20
11.6168
 30
0.0
 10
-46.2224
 20
11.6168
 30
0.0
 10
-46.132800000000003
 20
11.6168
 30
0.0
 10
-46.043199999999999
 20
11.6168
 30
0.0
 10
-45.954000000000001
 20
11.6168
 30
0.0
 10
-45.954000000000001
 20
11.6168
 30
0.0
 10
-45.591099999999997
 20
11.6168
 30
0.0
 10
-45.583500000000001
 20
11.681100000000001
 30
0.0
 10
-45.282699999999998
 20
11.751200000000001
 30
0.0
 10
-45.282699999999998
 20
11.751200000000001
 30
0.0
 10
-45.2789
 20
12.0999
 30
0.0
 10
-45.274900000000002
 20
12.4488
 30
0.0
 10
-45.271000000000001
 20
12.797599999999999
 30
0.0
 10
-45.271000000000001
 20
12.797599999999999
 30
0.0
 10
-45.006599999999999
 20
12.8962
 30
0.0
 10
-44.741799999999998
 20
12.994899999999999
 30
0.0
 10
-44.477200000000003
 20
13.0937
 30
0.0
 10
-44.477200000000003
 20
13.0937
 30
0.0
 10
-43.976999999999997
 20
12.148400000000001
 30
0.0
 10
-44.278399999999998
 20
10.9503
 30
0.0
 10
-43.264600000000002
 20
10.2746
 30
0.0
 10
-43.264600000000002
 20
10.2746
 30
0.0
 10
-43.221200000000003
 20
9.2901000000000007
 30
0.0
 10
-43.177900000000001
 20
8.3056999999999999
 30
0.0
 10
-43.134599999999999
 20
7.3212000000000002
 30
0.0
 10
-43.134599999999999
 20
7.3212000000000002
 30
0.0
 10
-43.887099999999997
 20
7.5218999999999996
 30
0.0
 10
-43.671599999999998
 20
8.3882999999999992
 30
0.0
 10
-43.671599999999998
 20
9.3347999999999995
 30
0.0
 10
-43.671599999999998
 20
9.3347999999999995
 30
0.0
 10
-43.8217
 20
9.5587
 30
0.0
 10
-44.815399999999997
 20
10.945600000000001
 30
0.0
 10
-45.014099999999999
 20
10.945600000000001
 30
0.0
 10
-45.014099999999999
 20
10.945600000000001
 30
0.0
 10
-45.241399999999999
 20
10.945600000000001
 30
0.0
 10
-45.515900000000002
 20
10.767099999999999
 30
0.0
 10
-45.685400000000001
 20
10.677300000000001
 30
0.0
 10
-45.685400000000001
 20
10.677300000000001
 30
0.0
 10
-45.700899999999997
 20
10.057399999999999
 30
0.0
 10
-45.716700000000003
 20
9.4374000000000002
 30
0.0
 10
-45.732300000000002
 20
8.8172999999999995
 30
0.0
 10
-45.732300000000002
 20
8.8172999999999995
 30
0.0
 10
-45.8523
 20
8.4551999999999996
 30
0.0
 10
-45.972299999999997
 20
8.0928000000000004
 30
0.0
 10
-46.092199999999998
 20
7.7304000000000004
 30
0.0
 10
-46.092199999999998
 20
7.7304000000000004
 30
0.0
 10
-46.3596
 20
7.5940000000000003
 30
0.0
 10
-46.626600000000003
 20
7.4574999999999996
 30
0.0
 10
-46.893500000000003
 20
7.3212000000000002
 30
0.0
 10
-46.893500000000003
 20
7.3212000000000002
 30
0.0
 10
-46.893500000000003
 20
7.4551999999999996
 30
0.0
 10
-46.893500000000003
 20
7.5895000000000001
 30
0.0
 10
-46.893500000000003
 20
7.7237999999999998
 30
0.0
 10
-46.893500000000003
 20
7.7237999999999998
 30
0.0
 10
-46.893500000000003
 20
8.0829000000000004
 30
0.0
 10
-46.6999
 20
8.1210000000000004
 30
0.0
 10
-46.509700000000002
 20
8.2631999999999994
 30
0.0
 10
-46.509700000000002
 20
8.2631999999999994
 30
0.0
 10
-46.458799999999997
 20
8.7545000000000002
 30
0.0
 10
-46.407600000000002
 20
9.2460000000000004
 30
0.0
 10
-46.356499999999997
 20
9.7377000000000002
 30
0.0
 10
-46.356499999999997
 20
9.7377000000000002
 30
0.0
 10
-46.356499999999997
 20
9.8270999999999997
 30
0.0
 10
-46.356499999999997
 20
9.9163999999999994
 30
0.0
 10
-46.356499999999997
 20
10.006
 30
0.0
 10
-46.356499999999997
 20
10.006
 30
0.0
 10
-46.356499999999997
 20
10.2256
 30
0.0
 10
-46.436999999999998
 20
10.408799999999999
 30
0.0
 10
-46.6252
 20
10.408799999999999
 30
0.0
 10
-46.6252
 20
10.408799999999999
 30
0.0
 10
-46.651000000000003
 20
10.408799999999999
 30
0.0
 10
-48.177500000000002
 20
9.6904000000000003
 30
0.0
 10
-48.504399999999997
 20
9.6031999999999993
 30
0.0
 10
-48.504399999999997
 20
9.6031999999999993
 30
0.0
 10
-48.504399999999997
 20
8.6248000000000005
 30
0.0
 10
-48.735900000000001
 20
7.5716000000000001
 30
0.0
 10
-49.314599999999999
 20
7.0622999999999996
 30
0.0
 10
-49.314599999999999
 20
7.0622999999999996
 30
0.0
 10
-49.441800000000001
 20
7.1631999999999998
 30
0.0
 10
-49.5685
 20
7.2644000000000002
 30
0.0
 10
-49.693800000000003
 20
7.3673000000000002
 30
0.0
 10
-49.693800000000003
 20
7.3673000000000002
 30
0.0
 10
-49.533999999999999
 20
7.7598000000000003
 30
0.0
 10
-49.310099999999998
 20
8.0930999999999997
 30
0.0
 10
-49.310099999999998
 20
8.2606000000000002
 30
0.0
 10
-49.310099999999998
 20
8.2606000000000002
 30
0.0
 10
-49.310099999999998
 20
8.5291999999999994
 30
0.0
 10
-49.310099999999998
 20
8.7978000000000005
 30
0.0
 10
-49.310099999999998
 20
9.0663999999999998
 30
0.0
 10
-49.310099999999998
 20
9.0663999999999998
 30
0.0
 10
-49.344200000000001
 20
9.1082000000000001
 30
0.0
 10
-49.378300000000003
 20
9.1501000000000001
 30
0.0
 10
-49.412199999999999
 20
9.1920999999999999
 30
0.0
 10
-49.412199999999999
 20
9.1920999999999999
 30
0.0
 10
-49.830399999999997
 20
8.8628
 30
0.0
 10
-50.248600000000003
 20
8.5334000000000003
 30
0.0
 10
-50.666699999999999
 20
8.2042000000000002
 30
0.0
 10
-50.666699999999999
 20
8.2042000000000002
 30
0.0
 10
-50.794199999999996
 20
8.3186
 30
0.0
 10
-50.9206
 20
8.4343000000000004
 30
0.0
 10
-51.046199999999999
 20
8.5509000000000004
 30
0.0
 10
-51.046199999999999
 20
8.5509000000000004
 30
0.0
 10
-50.252299999999998
 20
9.1776
 30
0.0
 10
-49.294899999999998
 20
9.6949000000000005
 30
0.0
 10
-49.175600000000003
 20
10.1401
 30
0.0
 10
-49.175600000000003
 20
10.1401
 30
0.0
 10
-49.444600000000001
 20
10.1533
 30
0.0
 10
-49.7134
 20
10.1662
 30
0.0
 10
-49.982300000000002
 20
10.1793
 30
0.0
 10
-49.982300000000002
 20
10.1793
 30
0.0
 10
-50.563600000000001
 20
10.1662
 30
0.0
 10
-51.145000000000003
 20
10.1533
 30
0.0
 10
-51.726399999999998
 20
10.1401
 30
0.0
 10
-51.726399999999998
 20
10.1401
 30
0.0
 10
-51.516100000000002
 20
10.537699999999999
 30
0.0
 10
-51.268599999999999
 20
10.811400000000001
 30
0.0
 10
-50.6526
 20
10.811400000000001
 30
0.0
 10
-50.6526
 20
10.811400000000001
 30
0.0
 10
-50.428800000000003
 20
10.811400000000001
 30
0.0
 10
-50.204799999999999
 20
10.811400000000001
 30
0.0
 10
-49.981499999999997
 20
10.811400000000001
 30
0.0
 10
-49.981499999999997
 20
10.811400000000001
 30
0.0
 10
-49.339399999999998
 20
10.811400000000001
 30
0.0
 10
-48.665199999999999
 20
10.614599999999999
 30
0.0
 10
-48.264899999999997
 20
10.4749
 30
0.0
 10
-48.264899999999997
 20
10.4749
 30
0.0
 10
-47.897300000000001
 20
10.632099999999999
 30
0.0
 10
-47.529699999999998
 20
10.7889
 30
0.0
 10
-47.161900000000003
 20
10.945600000000001
 30
0.0
 10
-47.161900000000003
 20
10.945600000000001
 30
0.0
 10
-47.931800000000003
 20
12.0952
 30
0.0
 10
-49.963000000000001
 20
11.5304
 30
0.0
 10
-50.518099999999997
 20
12.2881
 30
0.0
  0
SPLINE
  5
33
100
AcDbEntity
  8
RÚteg 1
 62
     7
100
AcDbSpline
210
0.0
220
0.0
230
1.0
 70
     1
 71
     3
 72
    28
 73
    24
 74
     0
 42
0.0000000001
 43
0.0000000001
 40
0.0
 40
0.0
 40
0.0
 40
0.0
 40
0.1666666666666667
 40
0.1666666666666667
 40
0.1666666666666667
 40
0.1666666666666667
 40
0.3333333333333333
 40
0.3333333333333333
 40
0.3333333333333333
 40
0.3333333333333333
 40
0.5
 40
0.5
 40
0.5
 40
0.5
 40
0.6666666666666666
 40
0.6666666666666666
 40
0.6666666666666666
 40
0.6666666666666666
 40
0.8333333333333333
 40
0.8333333333333333
 40
0.8333333333333333
 40
0.8333333333333333
 40
1.0
 40
1.0
 40
1.0
 40
1.0
 10
-45.999899999999997
 20
4.7718999999999996
 30
0.0
 10
-44.3078
 20
4.827
 30
0.0
 10
-43.085799999999999
 20
6.4447999999999999
 30
0.0
 10
-42.345300000000002
 20
6.3787000000000003
 30
0.0
 10
-42.345300000000002
 20
6.3787000000000003
 30
0.0
 10
-41.010100000000001
 20
6.2592999999999996
 30
0.0
 10
-41.408700000000003
 20
5.9645999999999999
 30
0.0
 10
-40.601399999999998
 20
5.3170000000000002
 30
0.0
 10
-40.601399999999998
 20
5.3170000000000002
 30
0.0
 10
-39.866900000000001
 20
4.7282999999999999
 30
0.0
 10
-38.9009
 20
6.0583
 30
0.0
 10
-38.873899999999999
 20
4.8479999999999999
 30
0.0
 10
-38.873899999999999
 20
4.8479999999999999
 30
0.0
 10
-39.976999999999997
 20
4.8528000000000002
 30
0.0
 10
-39.7196
 20
3.9737
 30
0.0
 10
-40.855600000000003
 20
3.6996000000000002
 30
0.0
 10
-40.855600000000003
 20
3.6996000000000002
 30
0.0
 10
-41.554600000000001
 20
3.6269
 30
0.0
 10
-42.179600000000001
 20
3.4891000000000001
 30
0.0
 10
-42.389000000000003
 20
2.9386999999999999
 30
0.0
 10
-42.389000000000003
 20
2.9386999999999999
 30
0.0
 10
-43.6387
 20
3.4689999999999999
 30
0.0
 10
-44.844099999999997
 20
4.0831999999999997
 30
0.0
 10
-45.999899999999997
 20
4.7718999999999996
 30
0.0
  0
SPLINE
  5
34
100
AcDbEntity
  8
RÚteg 1
 62
     7
100
AcDbSpline
210
0.0
220
0.0
230
1.0
 70
     1
 71
     3
 72
    20
 73
    16
 74
     0
 42
0.0000000001
 43
0.0000000001
 40
0.0
 40
0.0
 40
0.0
 40
0.0
 40
0.25
 40
0.25
 40
0.25
 40
0.25
 40
0.5
 40
0.5
 40
0.5
 40
0.5
 40
0.75
 40
0.75
 40
0.75
 40
0.75
 40
1.0
 40
1.0
 40
1.0
 40
1.0
 10
-40.215400000000002
 20
2.1158000000000001
 30
0.0
 10
-39.805500000000002
 20
3.0022000000000002
 30
0.0
 10
-39.540999999999997
 20
4.0990000000000002
 30
0.0
 10
-38.972900000000003
 20
4.0990000000000002
 30
0.0
 10
-38.972900000000003
 20
4.0990000000000002
 30
0.0
 10
-38.838700000000003
 20
4.0990000000000002
 30
0.0
 10
-38.704599999999999
 20
4.0990000000000002
 30
0.0
 10
-38.570399999999999
 20
4.0990000000000002
 30
0.0
 10
-38.570399999999999
 20
4.0990000000000002
 30
0.0
 10
-38.5976
 20
2.8704000000000001
 30
0.0
 10
-39.235100000000003
 20
2.4723999999999999
 30
0.0
 10
-39.663699999999999
 20
1.9365000000000001
 30
0.0
 10
-39.663699999999999
 20
1.9365000000000001
 30
0.0
 10
-39.848399999999998
 20
1.9944999999999999
 30
0.0
 10
-40.032200000000003
 20
2.0543
 30
0.0
 10
-40.215400000000002
 20
2.1158000000000001
 30
0.0
  0
SPLINE
  5
35
100
AcDbEntity
  8
RÚteg 1
 62
     7
100
AcDbSpline
210
0.0
220
0.0
230
1.0
 70
     1
 71
     3
 72
    76
 73
    72
 74
     0
 42
0.0000000001
 43
0.0000000001
 40
0.0
 40
0.0
 40
0.0
 40
0.0
 40
0.0555555555555556
 40
0.0555555555555556
 40
0.0555555555555556
 40
0.0555555555555556
 40
0.1111111111111111
 40
0.1111111111111111
 40
0.1111111111111111
 40
0.1111111111111111
 40
0.1666666666666667
 40
0.1666666666666667
 40
0.1666666666666667
 40
0.1666666666666667
 40
0.2222222222222222
 40
0.2222222222222222
 40
0.2222222222222222
 40
0.2222222222222222
 40
0.2777777777777778
 40
0.2777777777777778
 40
0.2777777777777778
 40
0.2777777777777778
 40
0.3333333333333334
 40
0.3333333333333334
 40
0.3333333333333334
 40
0.3333333333333334
 40
0.388888888888889
 40
0.388888888888889
 40
0.388888888888889
 40
0.388888888888889
 40
0.4444444444444445
 40
0.4444444444444445
 40
0.4444444444444445
 40
0.4444444444444445
 40
0.5000000000000001
 40
0.5000000000000001
 40
0.5000000000000001
 40
0.5000000000000001
 40
0.5555555555555557
 40
0.5555555555555557
 40
0.5555555555555557
 40
0.5555555555555557
 40
0.6111111111111113
 40
0.6111111111111113
 40
0.6111111111111113
 40
0.6111111111111113
 40
0.6666666666666669
 40
0.6666666666666669
 40
0.6666666666666669
 40
0.6666666666666669
 40
0.7222222222222224
 40
0.7222222222222224
 40
0.7222222222222224
 40
0.7222222222222224
 40
0.777777777777778
 40
0.777777777777778
 40
0.777777777777778
 40
0.777777777777778
 40
0.8333333333333336
 40
0.8333333333333336
 40
0.8333333333333336
 40
0.8333333333333336
 40
0.8888888888888892
 40
0.8888888888888892
 40
0.8888888888888892
 40
0.8888888888888892
 40
0.9444444444444448
 40
0.9444444444444448
 40
0.9444444444444448
 40
0.9444444444444448
 40
1.0
 40
1.0
 40
1.0
 40
1.0
 10
-27.0716
 20
0.7985
 30
0.0
 10
-27.3156
 20
1.0593999999999999
 30
0.0
 10
-27.562000000000001
 20
1.2809999999999999
 30
0.0
 10
-27.562000000000001
 20
1.5483
 30
0.0
 10
-27.562000000000001
 20
1.5483
 30
0.0
 10
-27.562000000000001
 20
1.7274
 30
0.0
 10
-27.562000000000001
 20
1.9063000000000001
 30
0.0
 10
-27.562000000000001
 20
2.0853000000000002
 30
0.0
 10
-27.562000000000001
 20
2.0853000000000002
 30
0.0
 10
-27.384799999999998
 20
2.1355
 30
0.0
 10
-27.2074
 20
2.1859000000000002
 30
0.0
 10
-27.030100000000001
 20
2.2360000000000002
 30
0.0
 10
-27.030100000000001
 20
2.2360000000000002
 30
0.0
 10
-27.123999999999999
 20
2.7216
 30
0.0
 10
-27.217700000000001
 20
3.2071999999999998
 30
0.0
 10
-27.311699999999998
 20
3.6926999999999999
 30
0.0
 10
-27.311699999999998
 20
3.6926999999999999
 30
0.0
 10
-27.129300000000001
 20
3.7483
 30
0.0
 10
-26.9467
 20
3.8043999999999998
 30
0.0
 10
-26.764299999999999
 20
3.8599999999999999
 30
0.0
 10
-26.764299999999999
 20
3.8599999999999999
 30
0.0
 10
-26.756399999999999
 20
6.0641999999999996
 30
0.0
 10
-29.5715
 20
6.7348999999999997
 30
0.0
 10
-30.194500000000001
 20
7.9126000000000003
 30
0.0
 10
-30.194500000000001
 20
7.9126000000000003
 30
0.0
 10
-30.140899999999998
 20
8.1341000000000001
 30
0.0
 10
-29.8462
 20
8.0345999999999993
 30
0.0
 10
-30.139900000000001
 20
8.4966000000000008
 30
0.0
 10
-30.139900000000001
 20
8.4966000000000008
 30
0.0
 10
-29.842600000000001
 20
8.4285999999999994
 30
0.0
 10
-29.7592
 20
8.6545000000000005
 30
0.0
 10
-29.4621
 20
8.5861999999999998
 30
0.0
 10
-29.4621
 20
8.5861999999999998
 30
0.0
 10
-29.428999999999998
 20
8.6172000000000004
 30
0.0
 10
-29.395900000000001
 20
8.6479999999999997
 30
0.0
 10
-29.3628
 20
8.6786999999999992
 30
0.0
 10
-29.3628
 20
8.6786999999999992
 30
0.0
 10
-29.430900000000001
 20
9.0322999999999993
 30
0.0
 10
-29.498999999999999
 20
9.3856000000000002
 30
0.0
 10
-29.5672
 20
9.7392000000000003
 30
0.0
 10
-29.5672
 20
9.7392000000000003
 30
0.0
 10
-29.416399999999999
 20
9.9478000000000009
 30
0.0
 10
-29.265599999999999
 20
10.1562
 30
0.0
 10
-29.114699999999999
 20
10.3649
 30
0.0
 10
-29.114699999999999
 20
10.3649
 30
0.0
 10
-28.453499999999998
 20
10.348800000000001
 30
0.0
 10
-28.500499999999999
 20
9.0191999999999997
 30
0.0
 10
-28.099
 20
8.2606000000000002
 30
0.0
 10
-28.099
 20
8.2606000000000002
 30
0.0
 10
-27.838999999999999
 20
8.4094999999999995
 30
0.0
 10
-27.579000000000001
 20
8.5579000000000001
 30
0.0
 10
-27.3188
 20
8.7064000000000004
 30
0.0
 10
-27.3188
 20
8.7064000000000004
 30
0.0
 10
-26.998100000000001
 20
7.6178999999999997
 30
0.0
 10
-26.677099999999999
 20
6.5294999999999996
 30
0.0
 10
-26.356400000000001
 20
5.4408000000000003
 30
0.0
 10
-26.356400000000001
 20
5.4408000000000003
 30
0.0
 10
-26.265799999999999
 20
5.4412000000000003
 30
0.0
 10
-26.175599999999999
 20
5.4413
 30
0.0
 10
-26.0852
 20
5.4416000000000002
 30
0.0
 10
-26.0852
 20
5.4416000000000002
 30
0.0
 10
-26.035
 20
5.6189
 30
0.0
 10
-25.9849
 20
5.7960000000000003
 30
0.0
 10
-25.9345
 20
5.9734999999999996
 30
0.0
 10
-25.9345
 20
5.9734999999999996
 30
0.0
 10
-25.047999999999998
 20
5.9025999999999996
 30
0.0
 10
-23.442
 20
3.3235000000000001
 30
0.0
 10
-21.758099999999999
 20
1.9456
 30
0.0
 10
-21.758099999999999
 20
1.9456
 30
0.0
 10
-23.4682
 20
1.4085000000000001
 30
0.0
 10
-25.244599999999998
 20
1.0214000000000001
 30
0.0
 10
-27.0716
 20
0.7985
 30
0.0
  0
SPLINE
  5
36
100
AcDbEntity
  8
RÚteg 1
 62
     7
100
AcDbSpline
210
0.0
220
0.0
230
1.0
 70
     1
 71
     3
 72
    32
 73
    28
 74
     0
 42
0.0000000001
 43
0.0000000001
 40
0.0
 40
0.0
 40
0.0
 40
0.0
 40
0.1428571428571429
 40
0.1428571428571429
 40
0.1428571428571429
 40
0.1428571428571429
 40
0.2857142857142857
 40
0.2857142857142857
 40
0.2857142857142857
 40
0.2857142857142857
 40
0.4285714285714286
 40
0.4285714285714286
 40
0.4285714285714286
 40
0.4285714285714286
 40
0.5714285714285714
 40
0.5714285714285714
 40
0.5714285714285714
 40
0.5714285714285714
 40
0.7142857142857142
 40
0.7142857142857142
 40
0.7142857142857142
 40
0.7142857142857142
 40
0.857142857142857
 40
0.857142857142857
 40
0.857142857142857
 40
0.857142857142857
 40
1.0
 40
1.0
 40
1.0
 40
1.0
 10
-20.7789
 20
2.2736000000000001
 30
0.0
 10
-20.9801
 20
2.6221999999999999
 30
0.0
 10
-21.140699999999999
 20
2.9550000000000001
 30
0.0
 10
-21.118200000000002
 20
3.9647000000000001
 30
0.0
 10
-21.118200000000002
 20
3.9647000000000001
 30
0.0
 10
-20.983899999999998
 20
3.9647000000000001
 30
0.0
 10
-20.849699999999999
 20
3.9647000000000001
 30
0.0
 10
-20.715299999999999
 20
3.9647000000000001
 30
0.0
 10
-20.715299999999999
 20
3.9647000000000001
 30
0.0
 10
-20.715299999999999
 20
4.5462999999999996
 30
0.0
 10
-20.715299999999999
 20
5.1284000000000001
 30
0.0
 10
-20.715299999999999
 20
5.7102000000000004
 30
0.0
 10
-20.715299999999999
 20
5.7102000000000004
 30
0.0
 10
-19.3794
 20
5.5239000000000003
 30
0.0
 10
-18.043500000000002
 20
5.3375000000000004
 30
0.0
 10
-16.707599999999999
 20
5.1510999999999996
 30
0.0
 10
-16.707599999999999
 20
5.1510999999999996
 30
0.0
 10
-16.7011
 20
5.2032999999999996
 30
0.0
 10
-16.694500000000001
 20
5.2553000000000001
 30
0.0
 10
-16.687799999999999
 20
5.3072999999999997
 30
0.0
 10
-16.687799999999999
 20
5.3072999999999997
 30
0.0
 10
-16.398800000000001
 20
5.056
 30
0.0
 10
-16.1021
 20
4.7912999999999997
 30
0.0
 10
-15.7288
 20
4.6071999999999997
 30
0.0
 10
-15.7288
 20
4.6071999999999997
 30
0.0
 10
-17.324300000000001
 20
3.6798000000000002
 30
0.0
 10
-19.014099999999999
 20
2.8967000000000001
 30
0.0
 10
-20.7789
 20
2.2736000000000001
 30
0.0
  0
SPLINE
  5
37
100
AcDbEntity
  8
RÚteg 1
 62
     7
100
AcDbSpline
210
0.0
220
0.0
230
1.0
 70
     1
 71
     3
 72
    72
 73
    68
 74
     0
 42
0.0000000001
 43
0.0000000001
 40
0.0
 40
0.0
 40
0.0
 40
0.0
 40
0.0588235294117647
 40
0.0588235294117647
 40
0.0588235294117647
 40
0.0588235294117647
 40
0.1176470588235294
 40
0.1176470588235294
 40
0.1176470588235294
 40
0.1176470588235294
 40
0.1764705882352941
 40
0.1764705882352941
 40
0.1764705882352941
 40
0.1764705882352941
 40
0.2352941176470588
 40
0.2352941176470588
 40
0.2352941176470588
 40
0.2352941176470588
 40
0.2941176470588235
 40
0.2941176470588235
 40
0.2941176470588235
 40
0.2941176470588235
 40
0.3529411764705883
 40
0.3529411764705883
 40
0.3529411764705883
 40
0.3529411764705883
 40
0.411764705882353
 40
0.411764705882353
 40
0.411764705882353
 40
0.411764705882353
 40
0.4705882352941177
 40
0.4705882352941177
 40
0.4705882352941177
 40
0.4705882352941177
 40
0.5294117647058824
 40
0.5294117647058824
 40
0.5294117647058824
 40
0.5294117647058824
 40
0.5882352941176471
 40
0.5882352941176471
 40
0.5882352941176471
 40
0.5882352941176471
 40
0.6470588235294118
 40
0.6470588235294118
 40
0.6470588235294118
 40
0.6470588235294118
 40
0.7058823529411765
 40
0.7058823529411765
 40
0.7058823529411765
 40
0.7058823529411765
 40
0.7647058823529412
 40
0.7647058823529412
 40
0.7647058823529412
 40
0.7647058823529412
 40
0.823529411764706
 40
0.823529411764706
 40
0.823529411764706
 40
0.823529411764706
 40
0.8823529411764707
 40
0.8823529411764707
 40
0.8823529411764707
 40
0.8823529411764707
 40
0.9411764705882354
 40
0.9411764705882354
 40
0.9411764705882354
 40
0.9411764705882354
 40
1.0
 40
1.0
 40
1.0
 40
1.0
 10
-8.8757000000000001
 20
10.0738
 30
0.0
 10
-9.0305999999999997
 20
10.4907
 30
0.0
 10
-9.3103999999999996
 20
10.972
 30
0.0
 10
-9.4387000000000008
 20
11.2143
 30
0.0
 10
-9.4387000000000008
 20
11.2143
 30
0.0
 10
-9.2052999999999994
 20
12.215299999999999
 30
0.0
 10
-8.9940999999999995
 20
13.3049
 30
0.0
 10
-8.6940000000000008
 20
14.3628
 30
0.0
 10
-8.6940000000000008
 20
14.3628
 30
0.0
 10
-8.4389000000000003
 20
15.2615
 30
0.0
 10
-7.1148999999999996
 20
15.505100000000001
 30
0.0
 10
-6.6193
 20
16.1812
 30
0.0
 10
-6.6193
 20
16.1812
 30
0.0
 10
-6.9282000000000004
 20
16.603000000000002
 30
0.0
 10
-7.1563999999999997
 20
16.387899999999998
 30
0.0
 10
-7.1563999999999997
 20
16.852499999999999
 30
0.0
 10
-7.1563999999999997
 20
16.852499999999999
 30
0.0
 10
-7.1563999999999997
 20
17.017600000000002
 30
0.0
 10
-4.2131999999999996
 20
19.010999999999999
 30
0.0
 10
-4.0689000000000002
 20
20.745899999999999
 30
0.0
 10
-4.0689000000000002
 20
20.745899999999999
 30
0.0
 10
-4.9130000000000003
 20
20.2989
 30
0.0
 10
-5.2801
 20
19.806100000000001
 30
0.0
 10
-6.6193
 20
19.806100000000001
 30
0.0
 10
-6.6193
 20
19.806100000000001
 30
0.0
 10
-7.0221999999999998
 20
19.806100000000001
 30
0.0
 10
-7.4249000000000001
 20
19.806100000000001
 30
0.0
 10
-7.8274999999999997
 20
19.806100000000001
 30
0.0
 10
-7.8274999999999997
 20
19.806100000000001
 30
0.0
 10
-7.7055999999999996
 20
20.125599999999999
 30
0.0
 10
-7.5837000000000003
 20
20.4451
 30
0.0
 10
-7.4619999999999997
 20
20.764500000000002
 30
0.0
 10
-7.4619999999999997
 20
20.764500000000002
 30
0.0
 10
-8.2680000000000007
 20
20.9422
 30
0.0
 10
-8.5622000000000007
 20
21.296600000000002
 30
0.0
 10
-9.2243999999999993
 20
21.4971
 30
0.0
 10
-9.2243999999999993
 20
21.4971
 30
0.0
 10
-10.0199
 20
21.738
 30
0.0
 10
-10.8462
 20
21.5261
 30
0.0
 10
-10.9153
 20
22.3566
 30
0.0
 10
-10.9153
 20
22.3566
 30
0.0
 10
-9.8832000000000004
 20
22.597200000000001
 30
0.0
 10
-9.7353000000000005
 20
23.565100000000001
 30
0.0
 10
-9.4387000000000008
 20
23.565100000000001
 30
0.0
 10
-9.4387000000000008
 20
23.565100000000001
 30
0.0
 10
-8.4382000000000001
 20
23.565100000000001
 30
0.0
 10
-8.1472999999999995
 20
22.759499999999999
 30
0.0
 10
-7.2904999999999998
 20
22.759499999999999
 30
0.0
 10
-7.2904999999999998
 20
22.759499999999999
 30
0.0
 10
-7.0669000000000004
 20
22.759499999999999
 30
0.0
 10
-6.8432000000000004
 20
22.759499999999999
 30
0.0
 10
-6.6193
 20
22.759499999999999
 30
0.0
 10
-6.6193
 20
22.759499999999999
 30
0.0
 10
-5.758
 20
22.759499999999999
 30
0.0
 10
-5.3463000000000003
 20
23.122299999999999
 30
0.0
 10
-5.0774999999999997
 20
23.682700000000001
 30
0.0
 10
-5.0774999999999997
 20
23.682700000000001
 30
0.0
 10
-3.3719000000000001
 20
23.5411
 30
0.0
 10
-1.8412999999999999
 20
23.3934
 30
0.0
 10
-1.7865
 20
25.847300000000001
 30
0.0
 10
-1.7865
 20
25.847300000000001
 30
0.0
 10
-1.4963
 20
26.000699999999998
 30
0.0
 10
-1.2101999999999999
 20
26.313800000000001
 30
0.0
 10
-1.0701000000000001
 20
26.697900000000001
 30
0.0
 10
-1.0701000000000001
 20
26.697900000000001
 30
0.0
 10
-1.8744000000000001
 20
20.310099999999998
 30
0.0
 10
-4.6958000000000002
 20
14.5497
 30
0.0
 10
-8.8757000000000001
 20
10.0738
 30
0.0
  0
SPLINE
  5
38
100
AcDbEntity
  8
RÚteg 1
 62
     7
100
AcDbSpline
210
0.0
220
0.0
230
1.0
 70
     1
 71
     3
 72
    24
 73
    20
 74
     0
 42
0.0000000001
 43
0.0000000001
 40
0.0
 40
0.0
 40
0.0
 40
0.0
 40
0.2
 40
0.2
 40
0.2
 40
0.2
 40
0.4
 40
0.4
 40
0.4
 40
0.4
 40
0.6000000000000001
 40
0.6000000000000001
 40
0.6000000000000001
 40
0.6000000000000001
 40
0.8
 40
0.8
 40
0.8
 40
0.8
 40
1.0
 40
1.0
 40
1.0
 40
1.0
 10
-1.1375
 20
34.724699999999999
 30
0.0
 10
-1.6492
 20
35.066899999999997
 30
0.0
 10
-2.1573000000000002
 20
35.4161
 30
0.0
 10
-2.5076000000000001
 20
35.851799999999997
 30
0.0
 10
-2.5076000000000001
 20
35.851799999999997
 30
0.0
 10
-2.8883000000000001
 20
36.733499999999999
 30
0.0
 10
-2.9887000000000001
 20
36.624000000000002
 30
0.0
 10
-3.4140000000000001
 20
37.375900000000001
 30
0.0
 10
-3.4140000000000001
 20
37.375900000000001
 30
0.0
 10
-3.5495000000000001
 20
37.656500000000001
 30
0.0
 10
-4.1864999999999997
 20
38.309399999999997
 30
0.0
 10
-4.4713000000000003
 20
38.734900000000003
 30
0.0
 10
-4.4713000000000003
 20
38.734900000000003
 30
0.0
 10
-4.1479999999999997
 20
38.972000000000001
 30
0.0
 10
-3.2246000000000001
 20
39.698399999999999
 30
0.0
 10
-2.5219
 20
40.384599999999999
 30
0.0
 10
-2.5219
 20
40.384599999999999
 30
0.0
 10
-1.8841000000000001
 20
38.5715
 30
0.0
 10
-1.4166000000000001
 20
36.678600000000003
 30
0.0
 10
-1.1375
 20
34.724699999999999
 30
0.0
  0
SPLINE
  5
39
100
AcDbEntity
  8
RÚteg 1
 62
     7
100
AcDbSpline
210
0.0
220
0.0
230
1.0
 70
     1
 71
     3
 72
   100
 73
    96
 74
     0
 42
0.0000000001
 43
0.0000000001
 40
0.0
 40
0.0
 40
0.0
 40
0.0
 40
0.0416666666666667
 40
0.0416666666666667
 40
0.0416666666666667
 40
0.0416666666666667
 40
0.0833333333333333
 40
0.0833333333333333
 40
0.0833333333333333
 40
0.0833333333333333
 40
0.125
 40
0.125
 40
0.125
 40
0.125
 40
0.1666666666666667
 40
0.1666666666666667
 40
0.1666666666666667
 40
0.1666666666666667
 40
0.2083333333333333
 40
0.2083333333333333
 40
0.2083333333333333
 40
0.2083333333333333
 40
0.25
 40
0.25
 40
0.25
 40
0.25
 40
0.2916666666666666
 40
0.2916666666666666
 40
0.2916666666666666
 40
0.2916666666666666
 40
0.3333333333333333
 40
0.3333333333333333
 40
0.3333333333333333
 40
0.3333333333333333
 40
0.375
 40
0.375
 40
0.375
 40
0.375
 40
0.4166666666666667
 40
0.4166666666666667
 40
0.4166666666666667
 40
0.4166666666666667
 40
0.4583333333333334
 40
0.4583333333333334
 40
0.4583333333333334
 40
0.4583333333333334
 40
0.5
 40
0.5
 40
0.5
 40
0.5
 40
0.5416666666666666
 40
0.5416666666666666
 40
0.5416666666666666
 40
0.5416666666666666
 40
0.5833333333333333
 40
0.5833333333333333
 40
0.5833333333333333
 40
0.5833333333333333
 40
0.6249999999999999
 40
0.6249999999999999
 40
0.6249999999999999
 40
0.6249999999999999
 40
0.6666666666666665
 40
0.6666666666666665
 40
0.6666666666666665
 40
0.6666666666666665
 40
0.7083333333333332
 40
0.7083333333333332
 40
0.7083333333333332
 40
0.7083333333333332
 40
0.7499999999999998
 40
0.7499999999999998
 40
0.7499999999999998
 40
0.7499999999999998
 40
0.7916666666666664
 40
0.7916666666666664
 40
0.7916666666666664
 40
0.7916666666666664
 40
0.833333333333333
 40
0.833333333333333
 40
0.833333333333333
 40
0.833333333333333
 40
0.8749999999999997
 40
0.8749999999999997
 40
0.8749999999999997
 40
0.8749999999999997
 40
0.9166666666666663
 40
0.9166666666666663
 40
0.9166666666666663
 40
0.9166666666666663
 40
0.9583333333333329
 40
0.9583333333333329
 40
0.9583333333333329
 40
0.9583333333333329
 40
1.0
 40
1.0
 40
1.0
 40
1.0
 10
-4.1310000000000002
 20
44.123199999999997
 30
0.0
 10
-4.3253000000000004
 20
44.008299999999998
 30
0.0
 10
-4.5105000000000004
 20
43.889099999999999
 30
0.0
 10
-4.6593999999999998
 20
43.755899999999997
 30
0.0
 10
-4.6593999999999998
 20
43.755899999999997
 30
0.0
 10
-4.9255000000000004
 20
43.517299999999999
 30
0.0
 10
-6.3422000000000001
 20
42.567700000000002
 30
0.0
 10
-6.6193
 20
42.493899999999996
 30
0.0
 10
-6.6193
 20
42.493899999999996
 30
0.0
 10
-6.6193
 20
42.314999999999998
 30
0.0
 10
-6.6193
 20
42.135899999999999
 30
0.0
 10
-6.6193
 20
41.956800000000001
 30
0.0
 10
-6.6193
 20
41.956800000000001
 30
0.0
 10
-6.6181999999999999
 20
41.904800000000002
 30
0.0
 10
-6.6170999999999998
 20
41.853099999999998
 30
0.0
 10
-6.6158999999999999
 20
41.801000000000002
 30
0.0
 10
-6.6158999999999999
 20
41.801000000000002
 30
0.0
 10
-5.8109000000000002
 20
41.819699999999997
 30
0.0
 10
-5.0057999999999998
 20
41.8384
 30
0.0
 10
-4.2005999999999997
 20
41.856999999999999
 30
0.0
 10
-4.2005999999999997
 20
41.856999999999999
 30
0.0
 10
-4.2465999999999999
 20
40.000500000000002
 30
0.0
 10
-6.4981999999999998
 20
41.204099999999997
 30
0.0
 10
-7.4249000000000001
 20
41.419800000000002
 30
0.0
 10
-7.4249000000000001
 20
41.419800000000002
 30
0.0
 10
-7.7306999999999997
 20
41.091299999999997
 30
0.0
 10
-8.0364000000000004
 20
40.7624
 30
0.0
 10
-8.3417999999999992
 20
40.433799999999998
 30
0.0
 10
-8.3417999999999992
 20
40.433799999999998
 30
0.0
 10
-8.3047000000000004
 20
40.404499999999999
 30
0.0
 10
-8.2675000000000001
 20
40.375100000000003
 30
0.0
 10
-8.2303999999999995
 20
40.3459
 30
0.0
 10
-8.2303999999999995
 20
40.3459
 30
0.0
 10
-7.1383999999999999
 20
40.3459
 30
0.0
 10
-5.1651999999999996
 20
39.609099999999998
 30
0.0
 10
-5.1425999999999998
 20
38.6006
 30
0.0
 10
-5.1425999999999998
 20
38.6006
 30
0.0
 10
-6.2221000000000002
 20
38.6006
 30
0.0
 10
-6.8567999999999998
 20
38.746699999999997
 30
0.0
 10
-7.4119000000000002
 20
39.284999999999997
 30
0.0
 10
-7.4119000000000002
 20
39.284999999999997
 30
0.0
 10
-8.0714000000000006
 20
39.9238
 30
0.0
 10
-9.3043999999999993
 20
39.468400000000003
 30
0.0
 10
-9.3043999999999993
 20
40.211599999999997
 30
0.0
 10
-9.3043999999999993
 20
40.211599999999997
 30
0.0
 10
-9.3043999999999993
 20
40.240099999999998
 30
0.0
 10
-8.8872
 20
42.561100000000003
 30
0.0
 10
-8.8190000000000008
 20
42.951099999999997
 30
0.0
 10
-8.8190000000000008
 20
42.951099999999997
 30
0.0
 10
-8.6241000000000003
 20
44.0702
 30
0.0
 10
-9.0114000000000001
 20
44.488300000000002
 30
0.0
 10
-9.0359999999999996
 20
45.581699999999998
 30
0.0
 10
-9.0359999999999996
 20
45.581699999999998
 30
0.0
 10
-8.8571000000000009
 20
45.581699999999998
 30
0.0
 10
-8.6778999999999993
 20
45.581699999999998
 30
0.0
 10
-8.4986999999999995
 20
45.581699999999998
 30
0.0
 10
-8.4986999999999995
 20
45.581699999999998
 30
0.0
 10
-8.3329000000000004
 20
45.235700000000001
 30
0.0
 10
-8.0241000000000007
 20
44.1374
 30
0.0
 10
-8.0962999999999994
 20
43.567799999999998
 30
0.0
 10
-8.0962999999999994
 20
43.567799999999998
 30
0.0
 10
-8.1858000000000004
 20
42.896700000000003
 30
0.0
 10
-8.2751000000000001
 20
42.2254
 30
0.0
 10
-8.3646999999999991
 20
41.554200000000002
 30
0.0
 10
-8.3646999999999991
 20
41.554200000000002
 30
0.0
 10
-8.0180000000000007
 20
41.592100000000002
 30
0.0
 10
-7.5067000000000004
 20
42.184800000000003
 30
0.0
 10
-7.2518000000000002
 20
42.454999999999998
 30
0.0
 10
-7.2518000000000002
 20
42.454999999999998
 30
0.0
 10
-6.7896000000000001
 20
42.944499999999998
 30
0.0
 10
-6.8620999999999999
 20
43.305599999999998
 30
0.0
 10
-6.7793000000000001
 20
43.725299999999997
 30
0.0
 10
-6.7793000000000001
 20
43.725299999999997
 30
0.0
 10
-6.5754000000000001
 20
44.7575
 30
0.0
 10
-6.3102
 20
45.936900000000001
 30
0.0
 10
-5.1736000000000004
 20
45.983199999999997
 30
0.0
 10
-5.1736000000000004
 20
45.983199999999997
 30
0.0
 10
-5.1651999999999996
 20
45.969000000000001
 30
0.0
 10
-5.1566999999999998
 20
45.955300000000001
 30
0.0
 10
-5.1482000000000001
 20
45.940899999999999
 30
0.0
 10
-5.1482000000000001
 20
45.940899999999999
 30
0.0
 10
-5.2413999999999996
 20
45.360300000000002
 30
0.0
 10
-6.2165999999999997
 20
44.807400000000001
 30
0.0
 10
-6.2165999999999997
 20
43.970399999999998
 30
0.0
 10
-6.2165999999999997
 20
43.970399999999998
 30
0.0
 10
-6.2165999999999997
 20
43.3005
 30
0.0
 10
-4.9656000000000002
 20
44.498199999999997
 30
0.0
 10
-4.7382
 20
44.640099999999997
 30
0.0
 10
-4.7382
 20
44.640099999999997
 30
0.0
 10
-4.6566000000000001
 20
44.691200000000002
 30
0.0
 10
-4.5734000000000004
 20
44.743000000000002
 30
0.0
 10
-4.4880000000000004
 20
44.794600000000003
 30
0.0
 10
-4.4880000000000004
 20
44.794600000000003
 30
0.0
 10
-4.3662999999999998
 20
44.572299999999998
 30
0.0
 10
-4.2472000000000003
 20
44.348700000000001
 30
0.0
 10
-4.1310000000000002
 20
44.123199999999997
 30
0.0
  0
SPLINE
  5
3A
100
AcDbEntity
  8
RÚteg 1
 62
     7
100
AcDbSpline
210
0.0
220
0.0
230
1.0
 70
     1
 71
     3
 72
   248
 73
   244
 74
     0
 42
0.0000000001
 43
0.0000000001
 40
0.0
 40
0.0
 40
0.0
 40
0.0
 40
0.0163934426229508
 40
0.0163934426229508
 40
0.0163934426229508
 40
0.0163934426229508
 40
0.0327868852459016
 40
0.0327868852459016
 40
0.0327868852459016
 40
0.0327868852459016
 40
0.0491803278688525
 40
0.0491803278688525
 40
0.0491803278688525
 40
0.0491803278688525
 40
0.0655737704918033
 40
0.0655737704918033
 40
0.0655737704918033
 40
0.0655737704918033
 40
0.0819672131147541
 40
0.0819672131147541
 40
0.0819672131147541
 40
0.0819672131147541
 40
0.0983606557377049
 40
0.0983606557377049
 40
0.0983606557377049
 40
0.0983606557377049
 40
0.1147540983606558
 40
0.1147540983606558
 40
0.1147540983606558
 40
0.1147540983606558
 40
0.1311475409836066
 40
0.1311475409836066
 40
0.1311475409836066
 40
0.1311475409836066
 40
0.1475409836065574
 40
0.1475409836065574
 40
0.1475409836065574
 40
0.1475409836065574
 40
0.1639344262295082
 40
0.1639344262295082
 40
0.1639344262295082
 40
0.1639344262295082
 40
0.180327868852459
 40
0.180327868852459
 40
0.180327868852459
 40
0.180327868852459
 40
0.1967213114754098
 40
0.1967213114754098
 40
0.1967213114754098
 40
0.1967213114754098
 40
0.2131147540983606
 40
0.2131147540983606
 40
0.2131147540983606
 40
0.2131147540983606
 40
0.2295081967213114
 40
0.2295081967213114
 40
0.2295081967213114
 40
0.2295081967213114
 40
0.2459016393442622
 40
0.2459016393442622
 40
0.2459016393442622
 40
0.2459016393442622
 40
0.2622950819672131
 40
0.2622950819672131
 40
0.2622950819672131
 40
0.2622950819672131
 40
0.2786885245901639
 40
0.2786885245901639
 40
0.2786885245901639
 40
0.2786885245901639
 40
0.2950819672131148
 40
0.2950819672131148
 40
0.2950819672131148
 40
0.2950819672131148
 40
0.3114754098360656
 40
0.3114754098360656
 40
0.3114754098360656
 40
0.3114754098360656
 40
0.3278688524590164
 40
0.3278688524590164
 40
0.3278688524590164
 40
0.3278688524590164
 40
0.3442622950819673
 40
0.3442622950819673
 40
0.3442622950819673
 40
0.3442622950819673
 40
0.3606557377049181
 40
0.3606557377049181
 40
0.3606557377049181
 40
0.3606557377049181
 40
0.3770491803278689
 40
0.3770491803278689
 40
0.3770491803278689
 40
0.3770491803278689
 40
0.3934426229508198
 40
0.3934426229508198
 40
0.3934426229508198
 40
0.3934426229508198
 40
0.4098360655737706
 40
0.4098360655737706
 40
0.4098360655737706
 40
0.4098360655737706
 40
0.4262295081967215
 40
0.4262295081967215
 40
0.4262295081967215
 40
0.4262295081967215
 40
0.4426229508196723
 40
0.4426229508196723
 40
0.4426229508196723
 40
0.4426229508196723
 40
0.4590163934426231
 40
0.4590163934426231
 40
0.4590163934426231
 40
0.4590163934426231
 40
0.475409836065574
 40
0.475409836065574
 40
0.475409836065574
 40
0.475409836065574
 40
0.4918032786885248
 40
0.4918032786885248
 40
0.4918032786885248
 40
0.4918032786885248
 40
0.5081967213114756
 40
0.5081967213114756
 40
0.5081967213114756
 40
0.5081967213114756
 40
0.5245901639344265
 40
0.5245901639344265
 40
0.5245901639344265
 40
0.5245901639344265
 40
0.5409836065573773
 40
0.5409836065573773
 40
0.5409836065573773
 40
0.5409836065573773
 40
0.5573770491803282
 40
0.5573770491803282
 40
0.5573770491803282
 40
0.5573770491803282
 40
0.573770491803279
 40
0.573770491803279
 40
0.573770491803279
 40
0.573770491803279
 40
0.5901639344262298
 40
0.5901639344262298
 40
0.5901639344262298
 40
0.5901639344262298
 40
0.6065573770491807
 40
0.6065573770491807
 40
0.6065573770491807
 40
0.6065573770491807
 40
0.6229508196721315
 40
0.6229508196721315
 40
0.6229508196721315
 40
0.6229508196721315
 40
0.6393442622950823
 40
0.6393442622950823
 40
0.6393442622950823
 40
0.6393442622950823
 40
0.6557377049180332
 40
0.6557377049180332
 40
0.6557377049180332
 40
0.6557377049180332
 40
0.672131147540984
 40
0.672131147540984
 40
0.672131147540984
 40
0.672131147540984
 40
0.6885245901639349
 40
0.6885245901639349
 40
0.6885245901639349
 40
0.6885245901639349
 40
0.7049180327868857
 40
0.7049180327868857
 40
0.7049180327868857
 40
0.7049180327868857
 40
0.7213114754098365
 40
0.7213114754098365
 40
0.7213114754098365
 40
0.7213114754098365
 40
0.7377049180327874
 40
0.7377049180327874
 40
0.7377049180327874
 40
0.7377049180327874
 40
0.7540983606557382
 40
0.7540983606557382
 40
0.7540983606557382
 40
0.7540983606557382
 40
0.7704918032786891
 40
0.7704918032786891
 40
0.7704918032786891
 40
0.7704918032786891
 40
0.7868852459016399
 40
0.7868852459016399
 40
0.7868852459016399
 40
0.7868852459016399
 40
0.8032786885245907
 40
0.8032786885245907
 40
0.8032786885245907
 40
0.8032786885245907
 40
0.8196721311475416
 40
0.8196721311475416
 40
0.8196721311475416
 40
0.8196721311475416
 40
0.8360655737704924
 40
0.8360655737704924
 40
0.8360655737704924
 40
0.8360655737704924
 40
0.8524590163934432
 40
0.8524590163934432
 40
0.8524590163934432
 40
0.8524590163934432
 40
0.8688524590163941
 40
0.8688524590163941
 40
0.8688524590163941
 40
0.8688524590163941
 40
0.8852459016393449
 40
0.8852459016393449
 40
0.8852459016393449
 40
0.8852459016393449
 40
0.9016393442622958
 40
0.9016393442622958
 40
0.9016393442622958
 40
0.9016393442622958
 40
0.9180327868852466
 40
0.9180327868852466
 40
0.9180327868852466
 40
0.9180327868852466
 40
0.9344262295081974
 40
0.9344262295081974
 40
0.9344262295081974
 40
0.9344262295081974
 40
0.9508196721311483
 40
0.9508196721311483
 40
0.9508196721311483
 40
0.9508196721311483
 40
0.9672131147540991
 40
0.9672131147540991
 40
0.9672131147540991
 40
0.9672131147540991
 40
0.9836065573770499
 40
0.9836065573770499
 40
0.9836065573770499
 40
0.9836065573770499
 40
1.0
 40
1.0
 40
1.0
 40
1.0
 10
-6.5087999999999999
 20
47.987099999999998
 30
0.0
 10
-6.7260999999999997
 20
47.905200000000001
 30
0.0
 10
-6.9436999999999998
 20
47.823399999999999
 30
0.0
 10
-7.1608999999999998
 20
47.741300000000003
 30
0.0
 10
-7.1608999999999998
 20
47.741300000000003
 30
0.0
 10
-7.2881
 20
47.843899999999998
 30
0.0
 10
-7.3926999999999996
 20
47.998100000000001
 30
0.0
 10
-7.6935000000000002
 20
47.998100000000001
 30
0.0
 10
-7.6935000000000002
 20
47.998100000000001
 30
0.0
 10
-7.9488000000000003
 20
47.998100000000001
 30
0.0
 10
-9.0394000000000005
 20
46.923999999999999
 30
0.0
 10
-9.3043999999999993
 20
46.923999999999999
 30
0.0
 10
-9.3043999999999993
 20
46.923999999999999
 30
0.0
 10
-9.3817000000000004
 20
46.923999999999999
 30
0.0
 10
-10.796900000000001
 20
48.248100000000001
 30
0.0
 10
-11.452400000000001
 20
48.400700000000001
 30
0.0
 10
-11.452400000000001
 20
48.400700000000001
 30
0.0
 10
-11.452400000000001
 20
48.132100000000001
 30
0.0
 10
-11.452400000000001
 20
47.863799999999998
 30
0.0
 10
-11.452400000000001
 20
47.595199999999998
 30
0.0
 10
-11.452400000000001
 20
47.595199999999998
 30
0.0
 10
-12.2773
 20
47.999699999999997
 30
0.0
 10
-13.102600000000001
 20
48.404400000000003
 30
0.0
 10
-13.9276
 20
48.808999999999997
 30
0.0
 10
-13.9276
 20
48.808999999999997
 30
0.0
 10
-13.9528
 20
48.762500000000003
 30
0.0
 10
-13.9779
 20
48.715800000000002
 30
0.0
 10
-14.002800000000001
 20
48.6691
 30
0.0
 10
-14.002800000000001
 20
48.6691
 30
0.0
 10
-14.002800000000001
 20
48.534999999999997
 30
0.0
 10
-14.002800000000001
 20
48.400700000000001
 30
0.0
 10
-14.002800000000001
 20
48.266500000000001
 30
0.0
 10
-14.002800000000001
 20
48.266500000000001
 30
0.0
 10
-14.002800000000001
 20
48.046700000000001
 30
0.0
 10
-14.083500000000001
 20
47.863799999999998
 30
0.0
 10
-14.2715
 20
47.863799999999998
 30
0.0
 10
-14.2715
 20
47.863799999999998
 30
0.0
 10
-14.918799999999999
 20
47.863799999999998
 30
0.0
 10
-15.2258
 20
48.266500000000001
 30
0.0
 10
-16.016500000000001
 20
48.266500000000001
 30
0.0
 10
-16.016500000000001
 20
48.266500000000001
 30
0.0
 10
-16.374600000000001
 20
48.266500000000001
 30
0.0
 10
-16.732800000000001
 20
48.266500000000001
 30
0.0
 10
-17.090800000000002
 20
48.266500000000001
 30
0.0
 10
-17.090800000000002
 20
48.266500000000001
 30
0.0
 10
-17.616099999999999
 20
48.266500000000001
 30
0.0
 10
-17.105599999999999
 20
48.063699999999997
 30
0.0
 10
-17.896000000000001
 20
47.998100000000001
 30
0.0
 10
-17.896000000000001
 20
47.998100000000001
 30
0.0
 10
-17.813400000000001
 20
47.726900000000001
 30
0.0
 10
-17.731000000000002
 20
47.455800000000004
 30
0.0
 10
-17.648199999999999
 20
47.184899999999999
 30
0.0
 10
-17.648199999999999
 20
47.184899999999999
 30
0.0
 10
-18.091699999999999
 20
46.499400000000001
 30
0.0
 10
-18.109300000000001
 20
46.628700000000002
 30
0.0
 10
-19.073799999999999
 20
46.490699999999997
 30
0.0
 10
-19.073799999999999
 20
46.490699999999997
 30
0.0
 10
-19.537299999999998
 20
46.424500000000002
 30
0.0
 10
-20.620100000000001
 20
45.984200000000001
 30
0.0
 10
-20.715299999999999
 20
45.984200000000001
 30
0.0
 10
-20.715299999999999
 20
45.984200000000001
 30
0.0
 10
-20.7867
 20
45.984200000000001
 30
0.0
 10
-21.010000000000002
 20
46.177599999999998
 30
0.0
 10
-21.118200000000002
 20
46.252800000000001
 30
0.0
 10
-21.118200000000002
 20
46.252800000000001
 30
0.0
 10
-21.595600000000001
 20
48.348999999999997
 30
0.0
 10
-22.072800000000001
 20
50.445500000000003
 30
0.0
 10
-22.5505
 20
52.541699999999999
 30
0.0
 10
-22.5505
 20
52.541699999999999
 30
0.0
 10
-22.6099
 20
52.548699999999997
 30
0.0
 10
-22.6693
 20
52.555500000000002
 30
0.0
 10
-22.729099999999999
 20
52.562399999999997
 30
0.0
 10
-22.729099999999999
 20
52.562399999999997
 30
0.0
 10
-22.729099999999999
 20
51.667499999999997
 30
0.0
 10
-22.729099999999999
 20
50.772199999999998
 30
0.0
 10
-22.729099999999999
 20
49.877400000000002
 30
0.0
 10
-22.729099999999999
 20
49.877400000000002
 30
0.0
 10
-22.729099999999999
 20
48.901000000000003
 30
0.0
 10
-23.343800000000002
 20
46.7348
 30
0.0
 10
-23.762699999999999
 20
45.675199999999997
 30
0.0
 10
-23.762699999999999
 20
45.675199999999997
 30
0.0
 10
-24.056799999999999
 20
44.9315
 30
0.0
 10
-24.260200000000001
 20
44.406599999999997
 30
0.0
 10
-24.555
 20
43.648400000000002
 30
0.0
 10
-24.555
 20
43.648400000000002
 30
0.0
 10
-24.798300000000001
 20
43.022500000000001
 30
0.0
 10
-24.821999999999999
 20
42.0364
 30
0.0
 10
-25.548300000000001
 20
41.956800000000001
 30
0.0
 10
-25.548300000000001
 20
41.956800000000001
 30
0.0
 10
-25.548300000000001
 20
43.210000000000001
 30
0.0
 10
-25.548300000000001
 20
44.462699999999998
 30
0.0
 10
-25.548300000000001
 20
45.715800000000002
 30
0.0
 10
-25.548300000000001
 20
45.715800000000002
 30
0.0
 10
-25.548300000000001
 20
47.167099999999998
 30
0.0
 10
-26.2195
 20
48.458399999999997
 30
0.0
 10
-26.2195
 20
49.743299999999998
 30
0.0
 10
-26.2195
 20
49.743299999999998
 30
0.0
 10
-26.732399999999998
 20
49.005099999999999
 30
0.0
 10
-26.4909
 20
48.044699999999999
 30
0.0
 10
-26.564699999999998
 20
47.618600000000001
 30
0.0
 10
-26.564699999999998
 20
47.618600000000001
 30
0.0
 10
-26.715499999999999
 20
46.744500000000002
 30
0.0
 10
-26.933700000000002
 20
46.209600000000002
 30
0.0
 10
-27.130700000000001
 20
45.418700000000001
 30
0.0
 10
-27.130700000000001
 20
45.418700000000001
 30
0.0
 10
-27.3521
 20
44.530099999999997
 30
0.0
 10
-28.760300000000001
 20
41.0
 30
0.0
 10
-28.770199999999999
 20
40.882899999999999
 30
0.0
 10
-28.770199999999999
 20
40.882899999999999
 30
0.0
 10
-29.402200000000001
 20
40.935400000000001
 30
0.0
 10
-29.7592
 20
41.806600000000003
 30
0.0
 10
-30.089500000000001
 20
42.248699999999999
 30
0.0
 10
-30.089500000000001
 20
42.248699999999999
 30
0.0
 10
-30.489999999999998
 20
42.7849
 30
0.0
 10
-30.918099999999999
 20
43.137799999999999
 30
0.0
 10
-31.4024
 20
43.6205
 30
0.0
 10
-31.4024
 20
43.6205
 30
0.0
 10
-32.306399999999996
 20
44.520800000000001
 30
0.0
 10
-33.125
 20
45.374699999999997
 30
0.0
 10
-34.014200000000002
 20
46.244399999999999
 30
0.0
 10
-34.014200000000002
 20
46.244399999999999
 30
0.0
 10
-34.995399999999997
 20
47.2044
 30
0.0
 10
-35.3444
 20
48.055999999999997
 30
0.0
 10
-36.3889
 20
49.105400000000003
 30
0.0
 10
-36.3889
 20
49.105400000000003
 30
0.0
 10
-37.079000000000001
 20
49.798499999999997
 30
0.0
 10
-38.622900000000001
 20
50.817100000000003
 30
0.0
 10
-39.912799999999997
 20
50.817100000000003
 30
0.0
 10
-39.912799999999997
 20
50.817100000000003
 30
0.0
 10
-40.315399999999997
 20
50.817100000000003
 30
0.0
 10
-40.718200000000003
 20
50.817100000000003
 30
0.0
 10
-41.120899999999999
 20
50.817100000000003
 30
0.0
 10
-41.120899999999999
 20
50.817100000000003
 30
0.0
 10
-43.3596
 20
50.817100000000003
 30
0.0
 10
-42.765599999999999
 20
49.515900000000002
 30
0.0
 10
-45.162599999999998
 20
50.400199999999998
 30
0.0
 10
-45.162599999999998
 20
50.400199999999998
 30
0.0
 10
-46.241599999999998
 20
50.798099999999998
 30
0.0
 10
-48.2303
 20
50.951500000000003
 30
0.0
 10
-49.712600000000002
 20
50.951500000000003
 30
0.0
 10
-49.712600000000002
 20
50.951500000000003
 30
0.0
 10
-49.996699999999997
 20
50.951500000000003
 30
0.0
 10
-49.889699999999998
 20
50.903300000000002
 30
0.0
 10
-50.249699999999997
 20
50.817100000000003
 30
0.0
 10
-50.249699999999997
 20
50.817100000000003
 30
0.0
 10
-49.866
 20
50.293300000000002
 30
0.0
 10
-49.000799999999998
 20
50.040799999999997
 30
0.0
 10
-48.504399999999997
 20
49.340400000000002
 30
0.0
 10
-48.504399999999997
 20
49.340400000000002
 30
0.0
 10
-48.071899999999999
 20
48.729900000000001
 30
0.0
 10
-47.551400000000001
 20
48.527999999999999
 30
0.0
 10
-46.984099999999998
 20
47.639000000000003
 30
0.0
 10
-46.984099999999998
 20
47.639000000000003
 30
0.0
 10
-45.705800000000004
 20
45.635399999999997
 30
0.0
 10
-47.027700000000003
 20
45.113599999999998
 30
0.0
 10
-47.027700000000003
 20
42.628100000000003
 30
0.0
 10
-47.027700000000003
 20
42.628100000000003
 30
0.0
 10
-47.027700000000003
 20
41.328699999999998
 30
0.0
 10
-47.033099999999997
 20
39.678899999999999
 30
0.0
 10
-46.4908
 20
38.869199999999999
 30
0.0
 10
-46.4908
 20
38.869199999999999
 30
0.0
 10
-45.9801
 20
35.598399999999998
 30
0.0
 10
-45.468899999999998
 20
32.327500000000001
 30
0.0
 10
-44.958100000000002
 20
29.0565
 30
0.0
 10
-44.958100000000002
 20
29.0565
 30
0.0
 10
-45.0306
 20
28.980399999999999
 30
0.0
 10
-45.103000000000002
 20
28.9038
 30
0.0
 10
-45.175400000000003
 20
28.827500000000001
 30
0.0
 10
-45.175400000000003
 20
28.827500000000001
 30
0.0
 10
-46.462800000000001
 20
29.1068
 30
0.0
 10
-47.911700000000003
 20
30.2774
 30
0.0
 10
-48.773000000000003
 20
30.2774
 30
0.0
 10
-48.773000000000003
 20
30.2774
 30
0.0
 10
-49.778700000000001
 20
30.2774
 30
0.0
 10
-49.9133
 20
30.094799999999999
 30
0.0
 10
-50.451900000000002
 20
29.620000000000001
 30
0.0
 10
-50.451900000000002
 20
29.620000000000001
 30
0.0
 10
-50.881900000000002
 20
29.241199999999999
 30
0.0
 10
-51.286299999999997
 20
29.120799999999999
 30
0.0
 10
-51.829599999999999
 20
28.635300000000001
 30
0.0
 10
-51.829599999999999
 20
28.635300000000001
 30
0.0
 10
-52.338200000000001
 20
28.180599999999998
 30
0.0
 10
-52.389099999999999
 20
27.595099999999999
 30
0.0
 10
-52.714700000000001
 20
27.238099999999999
 30
0.0
 10
-52.714700000000001
 20
27.238099999999999
 30
0.0
 10
-53.232500000000002
 20
26.670400000000001
 30
0.0
 10
-53.304299999999998
 20
26.632400000000001
 30
0.0
 10
-53.740000000000002
 20
25.981400000000001
 30
0.0
 10
-53.740000000000002
 20
25.981400000000001
 30
0.0
 10
-53.740000000000002
 20
25.7578
 30
0.0
 10
-54.141199999999998
 20
25.560500000000001
 30
0.0
 10
-54.141199999999998
 20
25.3369
 30
0.0
 10
-54.141199999999998
 20
25.3369
 30
0.0
 10
-54.414400000000001
 20
24.982600000000001
 30
0.0
 10
-54.286499999999997
 20
24.601600000000001
 30
0.0
 10
-54.559399999999997
 20
24.247
 30
0.0
 10
-54.559399999999997
 20
24.247
 30
0.0
 10
-54.689700000000002
 20
23.348500000000001
 30
0.0
 10
-54.8202
 20
22.450199999999999
 30
0.0
 10
-54.950499999999998
 20
21.551500000000001
 30
0.0
 10
-54.950499999999998
 20
21.551500000000001
 30
0.0
 10
-55.037100000000002
 20
21.047999999999998
 30
0.0
 10
-54.679900000000004
 20
20.753900000000002
 30
0.0
 10
-54.679900000000004
 20
20.209
 30
0.0
 10
-54.679900000000004
 20
20.209
 30
0.0
 10
-54.679900000000004
 20
19.952100000000002
 30
0.0
 10
-54.948500000000003
 20
20.117100000000001
 30
0.0
 10
-54.948500000000003
 20
19.671600000000002
 30
0.0
 10
-54.948500000000003
 20
19.671600000000002
 30
0.0
 10
-54.948500000000003
 20
19.448
 30
0.0
 10
-54.948500000000003
 20
19.224399999999999
 30
0.0
 10
-54.948500000000003
 20
19.000499999999999
 30
0.0
 10
-54.948500000000003
 20
19.000499999999999
 30
0.0
 10
-54.948500000000003
 20
18.226299999999998
 30
0.0
 10
-53.437600000000003
 20
16.912700000000001
 30
0.0
 10
-52.831499999999998
 20
16.311900000000001
 30
0.0
 10
-52.831499999999998
 20
16.311900000000001
 30
0.0
 10
-52.638399999999997
 20
16.120200000000001
 30
0.0
 10
-50.934399999999997
 20
13.9262
 30
0.0
 10
-50.920999999999999
 20
13.764900000000001
 30
0.0
 10
-50.920999999999999
 20
13.764900000000001
 30
0.0
 10
-51.611400000000003
 20
13.498200000000001
 30
0.0
 10
-52.302300000000002
 20
13.2319
 30
0.0
 10
-52.992699999999999
 20
12.965199999999999
 30
0.0
 10
-52.992699999999999
 20
12.965199999999999
 30
0.0
 10
-52.792299999999997
 20
12.881399999999999
 30
0.0
 10
-52.591999999999999
 20
12.798
 30
0.0
 10
-52.391599999999997
 20
12.714600000000001
 30
0.0
 10
-52.391599999999997
 20
12.714600000000001
 30
0.0
 10
-52.595399999999998
 20
11.841900000000001
 30
0.0
 10
-53.396599999999999
 20
12.0022
 30
0.0
 10
-53.657800000000002
 20
11.299099999999999
 30
0.0
 10
-53.657800000000002
 20
11.299099999999999
 30
0.0
 10
-58.000700000000002
 20
16.488299999999999
 30
0.0
 10
-60.6158
 20
23.1724
 30
0.0
 10
-60.6158
 20
30.466699999999999
 30
0.0
 10
-60.6158
 20
30.466699999999999
 30
0.0
 10
-60.6158
 20
46.972099999999998
 30
0.0
 10
-47.230400000000003
 20
60.357500000000002
 30
0.0
 10
-30.725000000000001
 20
60.357500000000002
 30
0.0
 10
-30.725000000000001
 20
60.357500000000002
 30
0.0
 10
-20.7638
 20
60.357500000000002
 30
0.0
 10
-11.9404
 20
55.481000000000002
 30
0.0
 10
-6.5087999999999999
 20
47.987099999999998
 30
0.0
  0
SPLINE
  5
3B
100
AcDbEntity
  8
RÚteg 1
 62
     7
100
AcDbSpline
210
0.0
220
0.0
230
1.0
 70
     1
 71
     3
 72
    40
 73
    36
 74
     0
 42
0.0000000001
 43
0.0000000001
 40
0.0
 40
0.0
 40
0.0
 40
0.0
 40
0.1111111111111111
 40
0.1111111111111111
 40
0.1111111111111111
 40
0.1111111111111111
 40
0.2222222222222222
 40
0.2222222222222222
 40
0.2222222222222222
 40
0.2222222222222222
 40
0.3333333333333333
 40
0.3333333333333333
 40
0.3333333333333333
 40
0.3333333333333333
 40
0.4444444444444444
 40
0.4444444444444444
 40
0.4444444444444444
 40
0.4444444444444444
 40
0.5555555555555556
 40
0.5555555555555556
 40
0.5555555555555556
 40
0.5555555555555556
 40
0.6666666666666667
 40
0.6666666666666667
 40
0.6666666666666667
 40
0.6666666666666667
 40
0.7777777777777779
 40
0.7777777777777779
 40
0.7777777777777779
 40
0.7777777777777779
 40
0.8888888888888891
 40
0.8888888888888891
 40
0.8888888888888891
 40
0.8888888888888891
 40
1.0
 40
1.0
 40
1.0
 40
1.0
 10
-13.236599999999999
 20
13.6189
 30
0.0
 10
-12.7402
 20
13.569100000000001
 30
0.0
 10
-12.2441
 20
13.519299999999999
 30
0.0
 10
-11.7478
 20
13.4695
 30
0.0
 10
-11.7478
 20
13.4695
 30
0.0
 10
-11.649100000000001
 20
13.389099999999999
 30
0.0
 10
-11.550700000000001
 20
13.3085
 30
0.0
 10
-11.452400000000001
 20
13.228
 30
0.0
 10
-11.452400000000001
 20
13.228
 30
0.0
 10
-11.918699999999999
 20
11.2263
 30
0.0
 10
-13.0633
 20
11.971399999999999
 30
0.0
 10
-13.0633
 20
11.2143
 30
0.0
 10
-13.0633
 20
11.2143
 30
0.0
 10
-13.0633
 20
11.035399999999999
 30
0.0
 10
-13.0633
 20
10.856299999999999
 30
0.0
 10
-13.0633
 20
10.677300000000001
 30
0.0
 10
-13.0633
 20
10.677300000000001
 30
0.0
 10
-13.513199999999999
 20
10.557
 30
0.0
 10
-13.6128
 20
10.2743
 30
0.0
 10
-14.002800000000001
 20
10.2743
 30
0.0
 10
-14.002800000000001
 20
10.2743
 30
0.0
 10
-14.4374
 20
10.2743
 30
0.0
 10
-14.8086
 20
10.645799999999999
 30
0.0
 10
-14.8086
 20
11.08
 30
0.0
 10
-14.8086
 20
11.08
 30
0.0
 10
-14.8086
 20
11.4183
 30
0.0
 10
-14.102
 20
12.669
 30
0.0
 10
-13.865500000000001
 20
12.8368
 30
0.0
 10
-13.865500000000001
 20
12.8368
 30
0.0
 10
-13.5501
 20
12.744400000000001
 30
0.0
 10
-13.2346
 20
12.652100000000001
 30
0.0
 10
-12.9193
 20
12.5596
 30
0.0
 10
-12.9193
 20
12.5596
 30
0.0
 10
-13.024900000000001
 20
12.9129
 30
0.0
 10
-13.1309
 20
13.2659
 30
0.0
 10
-13.236599999999999
 20
13.6189
 30
0.0
  0
SPLINE
  5
3C
100
AcDbEntity
  8
RÚteg 1
 62
     7
100
AcDbSpline
210
0.0
220
0.0
230
1.0
 70
     1
 71
     3
 72
    44
 73
    40
 74
     0
 42
0.0000000001
 43
0.0000000001
 40
0.0
 40
0.0
 40
0.0
 40
0.0
 40
0.1
 40
0.1
 40
0.1
 40
0.1
 40
0.2
 40
0.2
 40
0.2
 40
0.2
 40
0.3
 40
0.3
 40
0.3
 40
0.3
 40
0.4
 40
0.4
 40
0.4
 40
0.4
 40
0.5
 40
0.5
 40
0.5
 40
0.5
 40
0.6
 40
0.6
 40
0.6
 40
0.6
 40
0.7
 40
0.7
 40
0.7
 40
0.7
 40
0.7999999999999999
 40
0.7999999999999999
 40
0.7999999999999999
 40
0.7999999999999999
 40
0.8999999999999999
 40
0.8999999999999999
 40
0.8999999999999999
 40
0.8999999999999999
 40
1.0
 40
1.0
 40
1.0
 40
1.0
 10
-10.646699999999999
 20
14.1675
 30
0.0
 10
-10.646699999999999
 20
14.7377
 30
0.0
 10
-10.0593
 20
14.436199999999999
 30
0.0
 10
-9.4387000000000008
 20
14.436199999999999
 30
0.0
 10
-9.4387000000000008
 20
14.436199999999999
 30
0.0
 10
-9.3633000000000006
 20
14.328099999999999
 30
0.0
 10
-9.1699999999999999
 20
14.1046
 30
0.0
 10
-9.1699999999999999
 20
14.0334
 30
0.0
 10
-9.1699999999999999
 20
14.0334
 30
0.0
 10
-9.1699999999999999
 20
13.390000000000001
 30
0.0
 10
-9.7109000000000005
 20
13.0863
 30
0.0
 10
-9.9755000000000003
 20
12.6911
 30
0.0
 10
-9.9755000000000003
 20
12.6911
 30
0.0
 10
-9.9023000000000003
 20
12.3767
 30
0.0
 10
-9.8413000000000004
 20
12.294499999999999
 30
0.0
 10
-9.8413000000000004
 20
11.885400000000001
 30
0.0
 10
-9.8413000000000004
 20
11.885400000000001
 30
0.0
 10
-9.8413000000000004
 20
11.5062
 30
0.0
 10
-10.401400000000001
 20
11.08
 30
0.0
 10
-10.7811
 20
11.08
 30
0.0
 10
-10.7811
 20
11.08
 30
0.0
 10
-11.1378
 20
11.08
 30
0.0
 10
-11.854900000000001
 20
11.1868
 30
0.0
 10
-11.854900000000001
 20
11.4826
 30
0.0
 10
-11.854900000000001
 20
11.4826
 30
0.0
 10
-11.854900000000001
 20
11.8947
 30
0.0
 10
-11.0496
 20
12.413399999999999
 30
0.0
 10
-11.0496
 20
12.825100000000001
 30
0.0
 10
-11.0496
 20
12.825100000000001
 30
0.0
 10
-11.0472
 20
12.995200000000001
 30
0.0
 10
-11.045
 20
13.164999999999999
 30
0.0
 10
-11.0427
 20
13.334899999999999
 30
0.0
 10
-11.0427
 20
13.334899999999999
 30
0.0
 10
-10.821199999999999
 20
13.3888
 30
0.0
 10
-10.5998
 20
13.442500000000001
 30
0.0
 10
-10.378399999999999
 20
13.4962
 30
0.0
 10
-10.378399999999999
 20
13.4962
 30
0.0
 10
-10.5306
 20
14.0664
 30
0.0
 10
-10.646699999999999
 20
13.731199999999999
 30
0.0
 10
-10.646699999999999
 20
14.1675
 30
0.0
  0
SPLINE
  5
3D
100
AcDbEntity
  8
RÚteg 1
 62
     7
100
AcDbSpline
210
0.0
220
0.0
230
1.0
 70
     1
 71
     3
 72
    36
 73
    32
 74
     0
 42
0.0000000001
 43
0.0000000001
 40
0.0
 40
0.0
 40
0.0
 40
0.0
 40
0.125
 40
0.125
 40
0.125
 40
0.125
 40
0.25
 40
0.25
 40
0.25
 40
0.25
 40
0.375
 40
0.375
 40
0.375
 40
0.375
 40
0.5
 40
0.5
 40
0.5
 40
0.5
 40
0.625
 40
0.625
 40
0.625
 40
0.625
 40
0.75
 40
0.75
 40
0.75
 40
0.75
 40
0.875
 40
0.875
 40
0.875
 40
0.875
 40
1.0
 40
1.0
 40
1.0
 40
1.0
 10
-38.0334
 20
11.08
 30
0.0
 10
-38.837000000000003
 20
11.465400000000001
 30
0.0
 10
-38.581299999999999
 20
10.9377
 30
0.0
 10
-39.182699999999997
 20
11.809900000000001
 30
0.0
 10
-39.182699999999997
 20
11.809900000000001
 30
0.0
 10
-39.477400000000003
 20
12.236700000000001
 30
0.0
 10
-39.5595
 20
12.590299999999999
 30
0.0
 10
-40.102200000000003
 20
12.7165
 30
0.0
 10
-40.102200000000003
 20
12.7165
 30
0.0
 10
-40.102200000000003
 20
13.029999999999999
 30
0.0
 10
-40.4497
 20
13.048999999999999
 30
0.0
 10
-40.4497
 20
13.3622
 30
0.0
 10
-40.4497
 20
13.3622
 30
0.0
 10
-40.4497
 20
13.9747
 30
0.0
 10
-39.235900000000001
 20
14.087400000000001
 30
0.0
 10
-38.652999999999999
 20
14.250500000000001
 30
0.0
 10
-38.652999999999999
 20
14.250500000000001
 30
0.0
 10
-38.058399999999999
 20
14.416600000000001
 30
0.0
 10
-36.825000000000003
 20
14.9824
 30
0.0
 10
-36.825000000000003
 20
14.3018
 30
0.0
 10
-36.825000000000003
 20
14.3018
 30
0.0
 10
-36.825000000000003
 20
14.257099999999999
 30
0.0
 10
-36.825000000000003
 20
14.2125
 30
0.0
 10
-36.825000000000003
 20
14.1675
 30
0.0
 10
-36.825000000000003
 20
14.1675
 30
0.0
 10
-36.825000000000003
 20
14.0999
 30
0.0
 10
-37.282200000000003
 20
12.940799999999999
 30
0.0
 10
-37.3005
 20
12.418200000000001
 30
0.0
 10
-37.3005
 20
12.418200000000001
 30
0.0
 10
-37.329599999999999
 20
11.6038
 30
0.0
 10
-37.421599999999998
 20
11.611599999999999
 30
0.0
 10
-38.0334
 20
11.08
 30
0.0
  0
SPLINE
  5
3E
100
AcDbEntity
  8
RÚteg 1
 62
     7
100
AcDbSpline
210
0.0
220
0.0
230
1.0
 70
     1
 71
     3
 72
    52
 73
    48
 74
     0
 42
0.0000000001
 43
0.0000000001
 40
0.0
 40
0.0
 40
0.0
 40
0.0
 40
0.0833333333333333
 40
0.0833333333333333
 40
0.0833333333333333
 40
0.0833333333333333
 40
0.1666666666666667
 40
0.1666666666666667
 40
0.1666666666666667
 40
0.1666666666666667
 40
0.25
 40
0.25
 40
0.25
 40
0.25
 40
0.3333333333333333
 40
0.3333333333333333
 40
0.3333333333333333
 40
0.3333333333333333
 40
0.4166666666666666
 40
0.4166666666666666
 40
0.4166666666666666
 40
0.4166666666666666
 40
0.4999999999999999
 40
0.4999999999999999
 40
0.4999999999999999
 40
0.4999999999999999
 40
0.5833333333333333
 40
0.5833333333333333
 40
0.5833333333333333
 40
0.5833333333333333
 40
0.6666666666666666
 40
0.6666666666666666
 40
0.6666666666666666
 40
0.6666666666666666
 40
0.75
 40
0.75
 40
0.75
 40
0.75
 40
0.8333333333333334
 40
0.8333333333333334
 40
0.8333333333333334
 40
0.8333333333333334
 40
0.9166666666666667
 40
0.9166666666666667
 40
0.9166666666666667
 40
0.9166666666666667
 40
1.0
 40
1.0
 40
1.0
 40
1.0
 10
-36.5565
 20
16.4499
 30
0.0
 10
-36.601199999999999
 20
16.4499
 30
0.0
 10
-36.646000000000001
 20
16.4499
 30
0.0
 10
-36.690899999999999
 20
16.4499
 30
0.0
 10
-36.690899999999999
 20
16.4499
 30
0.0
 10
-38.380499999999998
 20
16.4499
 30
0.0
 10
-40.042299999999997
 20
16.163499999999999
 30
0.0
 10
-41.148800000000001
 20
15.5379
 30
0.0
 10
-41.148800000000001
 20
15.5379
 30
0.0
 10
-41.7791
 20
15.1816
 30
0.0
 10
-42.313499999999998
 20
15.064
 30
0.0
 10
-42.904000000000003
 20
14.608000000000001
 30
0.0
 10
-42.904000000000003
 20
14.608000000000001
 30
0.0
 10
-43.207500000000003
 20
14.373699999999999
 30
0.0
 10
-44.2029
 20
13.4962
 30
0.0
 10
-44.477200000000003
 20
13.4962
 30
0.0
 10
-44.477200000000003
 20
13.4962
 30
0.0
 10
-44.566699999999997
 20
13.4962
 30
0.0
 10
-44.656199999999998
 20
13.4962
 30
0.0
 10
-44.745600000000003
 20
13.4962
 30
0.0
 10
-44.745600000000003
 20
13.4962
 30
0.0
 10
-45.583500000000001
 20
13.4962
 30
0.0
 10
-47.617100000000001
 20
13.821899999999999
 30
0.0
 10
-47.698900000000002
 20
14.570399999999999
 30
0.0
 10
-47.698900000000002
 20
14.570399999999999
 30
0.0
 10
-43.022599999999997
 20
14.570399999999999
 30
0.0
 10
-43.837600000000002
 20
17.9267
 30
0.0
 10
-41.523600000000002
 20
17.9267
 30
0.0
 10
-41.523600000000002
 20
17.9267
 30
0.0
 10
-41.415599999999998
 20
18.0017
 30
0.0
 10
-41.192300000000003
 20
18.1951
 30
0.0
 10
-41.120899999999999
 20
18.1951
 30
0.0
 10
-41.120899999999999
 20
18.1951
 30
0.0
 10
-40.223100000000002
 20
18.1951
 30
0.0
 10
-38.510899999999999
 20
17.542400000000001
 30
0.0
 10
-37.347299999999997
 20
17.404800000000002
 30
0.0
 10
-37.347299999999997
 20
17.404800000000002
 30
0.0
 10
-36.8919
 20
16.989899999999999
 30
0.0
 10
-33.066000000000003
 20
17.364599999999999
 30
0.0
 10
-33.066000000000003
 20
17.255199999999999
 30
0.0
 10
-33.066000000000003
 20
17.255199999999999
 30
0.0
 10
-33.066000000000003
 20
16.599599999999999
 30
0.0
 10
-34.059399999999997
 20
16.357800000000001
 30
0.0
 10
-34.5595
 20
16.191400000000002
 30
0.0
 10
-34.5595
 20
16.191400000000002
 30
0.0
 10
-35.494799999999998
 20
15.8804
 30
0.0
 10
-35.5443
 20
16.4499
 30
0.0
 10
-36.5565
 20
16.4499
 30
0.0
  0
SPLINE
  5
3F
100
AcDbEntity
  8
RÚteg 1
 62
     7
100
AcDbSpline
210
0.0
220
0.0
230
1.0
 70
     1
 71
     3
 72
    40
 73
    36
 74
     0
 42
0.0000000001
 43
0.0000000001
 40
0.0
 40
0.0
 40
0.0
 40
0.0
 40
0.1111111111111111
 40
0.1111111111111111
 40
0.1111111111111111
 40
0.1111111111111111
 40
0.2222222222222222
 40
0.2222222222222222
 40
0.2222222222222222
 40
0.2222222222222222
 40
0.3333333333333333
 40
0.3333333333333333
 40
0.3333333333333333
 40
0.3333333333333333
 40
0.4444444444444444
 40
0.4444444444444444
 40
0.4444444444444444
 40
0.4444444444444444
 40
0.5555555555555556
 40
0.5555555555555556
 40
0.5555555555555556
 40
0.5555555555555556
 40
0.6666666666666667
 40
0.6666666666666667
 40
0.6666666666666667
 40
0.6666666666666667
 40
0.7777777777777779
 40
0.7777777777777779
 40
0.7777777777777779
 40
0.7777777777777779
 40
0.8888888888888891
 40
0.8888888888888891
 40
0.8888888888888891
 40
0.8888888888888891
 40
1.0
 40
1.0
 40
1.0
 40
1.0
 10
-49.609499999999997
 20
17.3658
 30
0.0
 10
-49.642299999999999
 20
16.5916
 30
0.0
 10
-49.184800000000003
 20
16.0623
 30
0.0
 10
-48.504399999999997
 20
15.644299999999999
 30
0.0
 10
-48.504399999999997
 20
15.644299999999999
 30
0.0
 10
-49.103499999999997
 20
14.5122
 30
0.0
 10
-49.483699999999999
 20
14.704700000000001
 30
0.0
 10
-50.786799999999999
 20
14.704700000000001
 30
0.0
 10
-50.786799999999999
 20
14.704700000000001
 30
0.0
 10
-51.4358
 20
15.674300000000001
 30
0.0
 10
-51.1355
 20
15.037100000000001
 30
0.0
 10
-51.614100000000001
 20
16.293900000000001
 30
0.0
 10
-51.614100000000001
 20
16.293900000000001
 30
0.0
 10
-51.797199999999997
 20
16.774799999999999
 30
0.0
 10
-52.8005
 20
16.732199999999999
 30
0.0
 10
-52.8005
 20
17.658000000000001
 30
0.0
 10
-52.8005
 20
17.658000000000001
 30
0.0
 10
-52.8005
 20
17.747599999999998
 30
0.0
 10
-52.8005
 20
17.8369
 30
0.0
 10
-52.8005
 20
17.9267
 30
0.0
 10
-52.8005
 20
17.9267
 30
0.0
 10
-52.8005
 20
18.224
 30
0.0
 10
-52.1188
 20
18.866499999999998
 30
0.0
 10
-51.994999999999997
 20
18.866499999999998
 30
0.0
 10
-51.994999999999997
 20
18.866499999999998
 30
0.0
 10
-51.569499999999998
 20
18.866499999999998
 30
0.0
 10
-51.140300000000003
 20
18.3292
 30
0.0
 10
-50.249699999999997
 20
18.3292
 30
0.0
 10
-50.249699999999997
 20
18.3292
 30
0.0
 10
-49.963500000000003
 20
18.325199999999999
 30
0.0
 10
-49.677300000000002
 20
18.321200000000001
 30
0.0
 10
-49.390799999999999
 20
18.3172
 30
0.0
 10
-49.390799999999999
 20
18.3172
 30
0.0
 10
-49.463700000000003
 20
17.9999
 30
0.0
 10
-49.5366
 20
17.6829
 30
0.0
 10
-49.609499999999997
 20
17.3658
 30
0.0
  0
SPLINE
  5
40
100
AcDbEntity
  8
RÚteg 1
 62
     7
100
AcDbSpline
210
0.0
220
0.0
230
1.0
 70
     1
 71
     3
 72
    12
 73
     8
 74
     0
 42
0.0000000001
 43
0.0000000001
 40
0.0
 40
0.0
 40
0.0
 40
0.0
 40
0.5
 40
0.5
 40
0.5
 40
0.5
 40
1.0
 40
1.0
 40
1.0
 40
1.0
 10
-30.649799999999999
 20
18.1951
 30
0.0
 10
-29.575700000000001
 20
18.418800000000001
 30
0.0
 10
-28.501899999999999
 20
18.642499999999998
 30
0.0
 10
-27.427700000000002
 20
18.866499999999998
 30
0.0
 10
-27.427700000000002
 20
18.866499999999998
 30
0.0
 10
-27.607099999999999
 20
17.7958
 30
0.0
 10
-30.588999999999999
 20
16.810700000000001
 30
0.0
 10
-30.649799999999999
 20
18.1951
 30
0.0
  0
SPLINE
  5
41
100
AcDbEntity
  8
RÚteg 1
 62
     7
100
AcDbSpline
210
0.0
220
0.0
230
1.0
 70
     1
 71
     3
 72
    48
 73
    44
 74
     0
 42
0.0000000001
 43
0.0000000001
 40
0.0
 40
0.0
 40
0.0
 40
0.0
 40
0.0909090909090909
 40
0.0909090909090909
 40
0.0909090909090909
 40
0.0909090909090909
 40
0.1818181818181818
 40
0.1818181818181818
 40
0.1818181818181818
 40
0.1818181818181818
 40
0.2727272727272727
 40
0.2727272727272727
 40
0.2727272727272727
 40
0.2727272727272727
 40
0.3636363636363637
 40
0.3636363636363637
 40
0.3636363636363637
 40
0.3636363636363637
 40
0.4545454545454546
 40
0.4545454545454546
 40
0.4545454545454546
 40
0.4545454545454546
 40
0.5454545454545455
 40
0.5454545454545455
 40
0.5454545454545455
 40
0.5454545454545455
 40
0.6363636363636365
 40
0.6363636363636365
 40
0.6363636363636365
 40
0.6363636363636365
 40
0.7272727272727274
 40
0.7272727272727274
 40
0.7272727272727274
 40
0.7272727272727274
 40
0.8181818181818183
 40
0.8181818181818183
 40
0.8181818181818183
 40
0.8181818181818183
 40
0.9090909090909093
 40
0.9090909090909093
 40
0.9090909090909093
 40
0.9090909090909093
 40
1.0
 40
1.0
 40
1.0
 40
1.0
 10
-30.3811
 20
13.3622
 30
0.0
 10
-30.069700000000001
 20
13.307700000000001
 30
0.0
 10
-29.758299999999998
 20
13.253500000000001
 30
0.0
 10
-29.446899999999999
 20
13.1989
 30
0.0
 10
-29.446899999999999
 20
13.1989
 30
0.0
 10
-29.398199999999999
 20
13.174300000000001
 30
0.0
 10
-29.349599999999999
 20
13.1495
 30
0.0
 10
-29.301100000000002
 20
13.1248
 30
0.0
 10
-29.301100000000002
 20
13.1248
 30
0.0
 10
-29.616499999999998
 20
12.756500000000001
 30
0.0
 10
-29.9315
 20
12.3881
 30
0.0
 10
-30.2469
 20
12.0198
 30
0.0
 10
-30.2469
 20
12.0198
 30
0.0
 10
-30.864699999999999
 20
12.942299999999999
 30
0.0
 10
-32.435499999999998
 20
14.7958
 30
0.0
 10
-33.603099999999998
 20
15.1075
 30
0.0
 10
-33.603099999999998
 20
15.1075
 30
0.0
 10
-33.195399999999999
 20
15.517099999999999
 30
0.0
 10
-31.965499999999999
 20
16.818100000000001
 30
0.0
 10
-32.126300000000001
 20
17.255199999999999
 30
0.0
 10
-32.126300000000001
 20
17.255199999999999
 30
0.0
 10
-31.757999999999999
 20
17.255199999999999
 30
0.0
 10
-29.990500000000001
 20
16.380400000000002
 30
0.0
 10
-29.5291
 20
16.2105
 30
0.0
 10
-29.5291
 20
16.2105
 30
0.0
 10
-29.634699999999999
 20
16.379300000000001
 30
0.0
 10
-29.740200000000002
 20
16.548200000000001
 30
0.0
 10
-29.845800000000001
 20
16.717300000000002
 30
0.0
 10
-29.845800000000001
 20
16.717300000000002
 30
0.0
 10
-29.864699999999999
 20
16.761600000000001
 30
0.0
 10
-29.883700000000001
 20
16.805700000000002
 30
0.0
 10
-29.9025
 20
16.850200000000001
 30
0.0
 10
-29.9025
 20
16.850200000000001
 30
0.0
 10
-28.130600000000001
 20
17.0471
 30
0.0
 10
-26.441199999999998
 20
18.068999999999999
 30
0.0
 10
-24.742799999999999
 20
19.000499999999999
 30
0.0
 10
-24.742799999999999
 20
19.000499999999999
 30
0.0
 10
-24.840599999999998
 20
18.634
 30
0.0
 10
-27.509
 20
17.1325
 30
0.0
 10
-28.040500000000002
 20
16.6601
 30
0.0
 10
-28.040500000000002
 20
16.6601
 30
0.0
 10
-28.4971
 20
16.254300000000001
 30
0.0
 10
-30.334299999999999
 20
13.9254
 30
0.0
 10
-30.3811
 20
13.3622
 30
0.0
  0
SPLINE
  5
42
100
AcDbEntity
  8
RÚteg 1
 62
     7
100
AcDbSpline
210
0.0
220
0.0
230
1.0
 70
     1
 71
     3
 72
   120
 73
   116
 74
     0
 42
0.0000000001
 43
0.0000000001
 40
0.0
 40
0.0
 40
0.0
 40
0.0
 40
0.0344827586206897
 40
0.0344827586206897
 40
0.0344827586206897
 40
0.0344827586206897
 40
0.0689655172413793
 40
0.0689655172413793
 40
0.0689655172413793
 40
0.0689655172413793
 40
0.103448275862069
 40
0.103448275862069
 40
0.103448275862069
 40
0.103448275862069
 40
0.1379310344827586
 40
0.1379310344827586
 40
0.1379310344827586
 40
0.1379310344827586
 40
0.1724137931034483
 40
0.1724137931034483
 40
0.1724137931034483
 40
0.1724137931034483
 40
0.206896551724138
 40
0.206896551724138
 40
0.206896551724138
 40
0.206896551724138
 40
0.2413793103448276
 40
0.2413793103448276
 40
0.2413793103448276
 40
0.2413793103448276
 40
0.2758620689655173
 40
0.2758620689655173
 40
0.2758620689655173
 40
0.2758620689655173
 40
0.310344827586207
 40
0.310344827586207
 40
0.310344827586207
 40
0.310344827586207
 40
0.3448275862068966
 40
0.3448275862068966
 40
0.3448275862068966
 40
0.3448275862068966
 40
0.3793103448275863
 40
0.3793103448275863
 40
0.3793103448275863
 40
0.3793103448275863
 40
0.413793103448276
 40
0.413793103448276
 40
0.413793103448276
 40
0.413793103448276
 40
0.4482758620689656
 40
0.4482758620689656
 40
0.4482758620689656
 40
0.4482758620689656
 40
0.4827586206896553
 40
0.4827586206896553
 40
0.4827586206896553
 40
0.4827586206896553
 40
0.517241379310345
 40
0.517241379310345
 40
0.517241379310345
 40
0.517241379310345
 40
0.5517241379310346
 40
0.5517241379310346
 40
0.5517241379310346
 40
0.5517241379310346
 40
0.5862068965517242
 40
0.5862068965517242
 40
0.5862068965517242
 40
0.5862068965517242
 40
0.6206896551724138
 40
0.6206896551724138
 40
0.6206896551724138
 40
0.6206896551724138
 40
0.6551724137931034
 40
0.6551724137931034
 40
0.6551724137931034
 40
0.6551724137931034
 40
0.689655172413793
 40
0.689655172413793
 40
0.689655172413793
 40
0.689655172413793
 40
0.7241379310344827
 40
0.7241379310344827
 40
0.7241379310344827
 40
0.7241379310344827
 40
0.7586206896551723
 40
0.7586206896551723
 40
0.7586206896551723
 40
0.7586206896551723
 40
0.7931034482758619
 40
0.7931034482758619
 40
0.7931034482758619
 40
0.7931034482758619
 40
0.8275862068965515
 40
0.8275862068965515
 40
0.8275862068965515
 40
0.8275862068965515
 40
0.8620689655172411
 40
0.8620689655172411
 40
0.8620689655172411
 40
0.8620689655172411
 40
0.8965517241379307
 40
0.8965517241379307
 40
0.8965517241379307
 40
0.8965517241379307
 40
0.9310344827586203
 40
0.9310344827586203
 40
0.9310344827586203
 40
0.9310344827586203
 40
0.9655172413793099
 40
0.9655172413793099
 40
0.9655172413793099
 40
0.9655172413793099
 40
1.0
 40
1.0
 40
1.0
 40
1.0
 10
-23.2852
 20
17.526900000000001
 30
0.0
 10
-21.149799999999999
 20
17.523800000000001
 30
0.0
 10
-18.1647
 20
16.428999999999998
 30
0.0
 10
-18.1647
 20
14.436199999999999
 30
0.0
 10
-18.1647
 20
14.436199999999999
 30
0.0
 10
-18.955100000000002
 20
14.6471
 30
0.0
 10
-20.281199999999998
 20
16.718399999999999
 30
0.0
 10
-22.460699999999999
 20
16.718399999999999
 30
0.0
 10
-22.460699999999999
 20
16.718399999999999
 30
0.0
 10
-22.639600000000002
 20
16.718399999999999
 30
0.0
 10
-22.8187
 20
16.718399999999999
 30
0.0
 10
-22.997699999999998
 20
16.718399999999999
 30
0.0
 10
-22.997699999999998
 20
16.718399999999999
 30
0.0
 10
-23.578600000000002
 20
16.718399999999999
 30
0.0
 10
-23.534600000000001
 20
14.897
 30
0.0
 10
-23.534600000000001
 20
14.3018
 30
0.0
 10
-23.534600000000001
 20
14.3018
 30
0.0
 10
-22.095500000000001
 20
14.1823
 30
0.0
 10
-19.809100000000001
 20
12.5825
 30
0.0
 10
-19.775700000000001
 20
11.08
 30
0.0
 10
-19.775700000000001
 20
11.08
 30
0.0
 10
-20.361899999999999
 20
11.1286
 30
0.0
 10
-21.178799999999999
 20
12.907
 30
0.0
 10
-23.128900000000002
 20
13.354699999999999
 30
0.0
 10
-23.128900000000002
 20
13.354699999999999
 30
0.0
 10
-23.263000000000002
 20
13.3127
 30
0.0
 10
-23.396699999999999
 20
13.2705
 30
0.0
 10
-23.5305
 20
13.228400000000001
 30
0.0
 10
-23.5305
 20
13.228400000000001
 30
0.0
 10
-23.487300000000001
 20
12.601800000000001
 30
0.0
 10
-23.4438
 20
11.975099999999999
 30
0.0
 10
-23.400300000000001
 20
11.3485
 30
0.0
 10
-23.400300000000001
 20
11.3485
 30
0.0
 10
-23.297899999999998
 20
10.4809
 30
0.0
 10
-21.118200000000002
 20
10.032
 30
0.0
 10
-21.118200000000002
 20
9.0663999999999998
 30
0.0
 10
-21.118200000000002
 20
9.0663999999999998
 30
0.0
 10
-21.118200000000002
 20
8.8424999999999994
 30
0.0
 10
-21.118200000000002
 20
8.6187000000000005
 30
0.0
 10
-21.118200000000002
 20
8.3950999999999993
 30
0.0
 10
-21.118200000000002
 20
8.3950999999999993
 30
0.0
 10
-21.150300000000001
 20
8.3623999999999992
 30
0.0
 10
-21.182600000000001
 20
8.3295999999999992
 30
0.0
 10
-21.2148
 20
8.2967999999999993
 30
0.0
 10
-21.2148
 20
8.2967999999999993
 30
0.0
 10
-21.8537
 20
8.8664000000000005
 30
0.0
 10
-22.492899999999999
 20
9.4360999999999997
 30
0.0
 10
-23.131900000000002
 20
10.006
 30
0.0
 10
-23.131900000000002
 20
10.006
 30
0.0
 10
-23.131900000000002
 20
9.7377000000000002
 30
0.0
 10
-23.131900000000002
 20
9.4687999999999999
 30
0.0
 10
-23.131900000000002
 20
9.2005999999999997
 30
0.0
 10
-23.131900000000002
 20
9.2005999999999997
 30
0.0
 10
-23.131900000000002
 20
8.3379999999999992
 30
0.0
 10
-22.2182
 20
6.2110000000000003
 30
0.0
 10
-22.1921
 20
5.0388999999999999
 30
0.0
 10
-22.1921
 20
5.0388999999999999
 30
0.0
 10
-23.417999999999999
 20
5.1407999999999996
 30
0.0
 10
-23.636700000000001
 20
8.8498000000000001
 30
0.0
 10
-23.9373
 20
10.1401
 30
0.0
 10
-23.9373
 20
10.1401
 30
0.0
 10
-25.5029
 20
9.3118999999999996
 30
0.0
 10
-24.769500000000001
 20
7.7074999999999996
 30
0.0
 10
-24.742799999999999
 20
6.5156000000000001
 30
0.0
 10
-24.742799999999999
 20
6.5156000000000001
 30
0.0
 10
-25.462199999999999
 20
6.5754999999999999
 30
0.0
 10
-25.682500000000001
 20
7.0970000000000004
 30
0.0
 10
-25.682500000000001
 20
7.8581000000000003
 30
0.0
 10
-25.682500000000001
 20
7.8581000000000003
 30
0.0
 10
-25.682500000000001
 20
7.9922000000000004
 30
0.0
 10
-25.682500000000001
 20
8.1265000000000001
 30
0.0
 10
-25.682500000000001
 20
8.2606000000000002
 30
0.0
 10
-25.682500000000001
 20
8.2606000000000002
 30
0.0
 10
-25.682500000000001
 20
9.7192000000000007
 30
0.0
 10
-24.468499999999999
 20
10.1525
 30
0.0
 10
-23.9192
 20
10.9474
 30
0.0
 10
-23.9192
 20
10.9474
 30
0.0
 10
-23.969799999999999
 20
11.662599999999999
 30
0.0
 10
-24.020800000000001
 20
12.378399999999999
 30
0.0
 10
-24.0715
 20
13.0937
 30
0.0
 10
-24.0715
 20
13.0937
 30
0.0
 10
-24.742799999999999
 20
12.914400000000001
 30
0.0
 10
-25.291599999999999
 20
12.013500000000001
 30
0.0
 10
-25.659800000000001
 20
11.4602
 30
0.0
 10
-25.659800000000001
 20
11.4602
 30
0.0
 10
-25.924399999999999
 20
11.062099999999999
 30
0.0
 10
-25.940100000000001
 20
10.5181
 30
0.0
 10
-26.194400000000002
 20
10.360300000000001
 30
0.0
 10
-26.194400000000002
 20
10.360300000000001
 30
0.0
 10
-26.858699999999999
 20
9.9474
 30
0.0
 10
-26.4344
 20
10.8241
 30
0.0
 10
-26.337599999999998
 20
11.0608
 30
0.0
 10
-26.337599999999998
 20
11.0608
 30
0.0
 10
-25.432099999999998
 20
13.2829
 30
0.0
 10
-24.2057
 20
12.787599999999999
 30
0.0
 10
-24.2057
 20
15.2417
 30
0.0
 10
-24.2057
 20
15.2417
 30
0.0
 10
-24.2057
 20
15.375999999999999
 30
0.0
 10
-24.2057
 20
15.5099
 30
0.0
 10
-24.2057
 20
15.644299999999999
 30
0.0
 10
-24.2057
 20
15.644299999999999
 30
0.0
 10
-26.047699999999999
 20
15.603400000000001
 30
0.0
 10
-27.107099999999999
 20
12.714
 30
0.0
 10
-27.696100000000001
 20
12.556699999999999
 30
0.0
 10
-27.696100000000001
 20
12.556699999999999
 30
0.0
 10
-28.107900000000001
 20
14.500999999999999
 30
0.0
 10
-25.3018
 20
15.6258
 30
0.0
 10
-24.0715
 20
16.4499
 30
0.0
 10
-24.0715
 20
16.4499
 30
0.0
 10
-24.0715
 20
17.5504
 30
0.0
 10
-23.844000000000001
 20
19.311499999999999
 30
0.0
 10
-22.961600000000001
 20
19.5318
 30
0.0
 10
-22.961600000000001
 20
19.5318
 30
0.0
 10
-23.069500000000001
 20
18.863399999999999
 30
0.0
 10
-23.177199999999999
 20
18.1951
 30
0.0
 10
-23.2852
 20
17.526900000000001
 30
0.0
  0
SPLINE
  5
43
100
AcDbEntity
  8
RÚteg 1
 62
     7
100
AcDbSpline
210
0.0
220
0.0
230
1.0
 70
     1
 71
     3
 72
    36
 73
    32
 74
     0
 42
0.0000000001
 43
0.0000000001
 40
0.0
 40
0.0
 40
0.0
 40
0.0
 40
0.125
 40
0.125
 40
0.125
 40
0.125
 40
0.25
 40
0.25
 40
0.25
 40
0.25
 40
0.375
 40
0.375
 40
0.375
 40
0.375
 40
0.5
 40
0.5
 40
0.5
 40
0.5
 40
0.625
 40
0.625
 40
0.625
 40
0.625
 40
0.75
 40
0.75
 40
0.75
 40
0.75
 40
0.875
 40
0.875
 40
0.875
 40
0.875
 40
1.0
 40
1.0
 40
1.0
 40
1.0
 10
-40.852600000000002
 20
20.0746
 30
0.0
 10
-40.852600000000002
 20
20.383800000000001
 30
0.0
 10
-40.759
 20
20.4773
 30
0.0
 10
-40.4497
 20
20.4773
 30
0.0
 10
-40.4497
 20
20.4773
 30
0.0
 10
-40.400599999999997
 20
20.4773
 30
0.0
 10
-38.121200000000002
 20
19.286799999999999
 30
0.0
 10
-37.767099999999999
 20
19.132400000000001
 30
0.0
 10
-37.767099999999999
 20
19.132400000000001
 30
0.0
 10
-37.228400000000001
 20
18.898
 30
0.0
 10
-35.180300000000003
 20
18.480699999999999
 30
0.0
 10
-34.4086
 20
18.4635
 30
0.0
 10
-34.4086
 20
18.4635
 30
0.0
 10
-34.4086
 20
18.284400000000002
 30
0.0
 10
-34.4086
 20
18.105599999999999
 30
0.0
 10
-34.4086
 20
17.9267
 30
0.0
 10
-34.4086
 20
17.9267
 30
0.0
 10
-34.721800000000002
 20
17.9267
 30
0.0
 10
-35.0351
 20
17.9267
 30
0.0
 10
-35.348399999999998
 20
17.9267
 30
0.0
 10
-35.348399999999998
 20
17.9267
 30
0.0
 10
-36.400599999999997
 20
17.9267
 30
0.0
 10
-37.323900000000002
 20
18.057500000000001
 30
0.0
 10
-38.2714
 20
18.2254
 30
0.0
 10
-38.2714
 20
18.2254
 30
0.0
 10
-38.962200000000003
 20
18.347999999999999
 30
0.0
 10
-40.308599999999998
 20
18.821100000000001
 30
0.0
 10
-40.852600000000002
 20
18.866499999999998
 30
0.0
 10
-40.852600000000002
 20
18.866499999999998
 30
0.0
 10
-40.852600000000002
 20
19.268999999999998
 30
0.0
 10
-40.852600000000002
 20
19.671700000000001
 30
0.0
 10
-40.852600000000002
 20
20.0746
 30
0.0
  0
SPLINE
  5
44
100
AcDbEntity
  8
RÚteg 1
 62
     7
100
AcDbSpline
210
0.0
220
0.0
230
1.0
 70
     1
 71
     3
 72
    36
 73
    32
 74
     0
 42
0.0000000001
 43
0.0000000001
 40
0.0
 40
0.0
 40
0.0
 40
0.0
 40
0.125
 40
0.125
 40
0.125
 40
0.125
 40
0.25
 40
0.25
 40
0.25
 40
0.25
 40
0.375
 40
0.375
 40
0.375
 40
0.375
 40
0.5
 40
0.5
 40
0.5
 40
0.5
 40
0.625
 40
0.625
 40
0.625
 40
0.625
 40
0.75
 40
0.75
 40
0.75
 40
0.75
 40
0.875
 40
0.875
 40
0.875
 40
0.875
 40
1.0
 40
1.0
 40
1.0
 40
1.0
 10
-49.175600000000003
 20
19.268999999999998
 30
0.0
 10
-49.175600000000003
 20
19.313700000000001
 30
0.0
 10
-49.175600000000003
 20
19.358499999999999
 30
0.0
 10
-49.175600000000003
 20
19.403400000000001
 30
0.0
 10
-49.175600000000003
 20
19.403400000000001
 30
0.0
 10
-49.175600000000003
 20
20.497399999999999
 30
0.0
 10
-48.464500000000001
 20
20.540900000000001
 30
0.0
 10
-47.698900000000002
 20
20.4773
 30
0.0
 10
-47.698900000000002
 20
20.4773
 30
0.0
 10
-47.409199999999998
 20
19.232399999999998
 30
0.0
 10
-46.148499999999999
 20
18.7591
 30
0.0
 10
-44.879899999999999
 20
18.4635
 30
0.0
 10
-44.879899999999999
 20
18.4635
 30
0.0
 10
-44.879899999999999
 20
18.284400000000002
 30
0.0
 10
-44.879899999999999
 20
18.105599999999999
 30
0.0
 10
-44.879899999999999
 20
17.9267
 30
0.0
 10
-44.879899999999999
 20
17.9267
 30
0.0
 10
-46.290199999999999
 20
17.8093
 30
0.0
 10
-47.508200000000002
 20
16.4499
 30
0.0
 10
-48.101900000000001
 20
16.4499
 30
0.0
 10
-48.101900000000001
 20
16.4499
 30
0.0
 10
-49.389699999999998
 20
16.4499
 30
0.0
 10
-49.081200000000003
 20
17.445499999999999
 30
0.0
 10
-48.6325
 20
18.2651
 30
0.0
 10
-48.6325
 20
18.2651
 30
0.0
 10
-48.589799999999997
 20
18.242000000000001
 30
0.0
 10
-48.5473
 20
18.218499999999999
 30
0.0
 10
-48.504399999999997
 20
18.1951
 30
0.0
 10
-48.504399999999997
 20
18.1951
 30
0.0
 10
-48.664200000000001
 20
18.433399999999999
 30
0.0
 10
-49.175600000000003
 20
18.963200000000001
 30
0.0
 10
-49.175600000000003
 20
19.268999999999998
 30
0.0
  0
SPLINE
  5
45
100
AcDbEntity
  8
RÚteg 1
 62
     7
100
AcDbSpline
210
0.0
220
0.0
230
1.0
 70
     1
 71
     3
 72
    24
 73
    20
 74
     0
 42
0.0000000001
 43
0.0000000001
 40
0.0
 40
0.0
 40
0.0
 40
0.0
 40
0.2
 40
0.2
 40
0.2
 40
0.2
 40
0.4
 40
0.4
 40
0.4
 40
0.4
 40
0.6000000000000001
 40
0.6000000000000001
 40
0.6000000000000001
 40
0.6000000000000001
 40
0.8
 40
0.8
 40
0.8
 40
0.8
 40
1.0
 40
1.0
 40
1.0
 40
1.0
 10
-42.194899999999997
 20
18.4635
 30
0.0
 10
-42.374099999999999
 20
18.4635
 30
0.0
 10
-42.552999999999997
 20
18.4635
 30
0.0
 10
-42.731999999999999
 20
18.4635
 30
0.0
 10
-42.731999999999999
 20
18.4635
 30
0.0
 10
-43.583300000000001
 20
18.4635
 30
0.0
 10
-43.940300000000001
 20
19.231000000000002
 30
0.0
 10
-43.940300000000001
 20
20.0746
 30
0.0
 10
-43.940300000000001
 20
20.0746
 30
0.0
 10
-43.940300000000001
 20
20.400500000000001
 30
0.0
 10
-43.253399999999999
 20
21.282599999999999
 30
0.0
 10
-42.866199999999999
 20
21.282599999999999
 30
0.0
 10
-42.866199999999999
 20
21.282599999999999
 30
0.0
 10
-42.731999999999999
 20
21.282599999999999
 30
0.0
 10
-42.597700000000003
 20
21.282599999999999
 30
0.0
 10
-42.4634
 20
21.282599999999999
 30
0.0
 10
-42.4634
 20
21.282599999999999
 30
0.0
 10
-41.031599999999997
 20
21.282599999999999
 30
0.0
 10
-41.011299999999999
 20
18.4635
 30
0.0
 10
-42.194899999999997
 20
18.4635
 30
0.0
  0
SPLINE
  5
46
100
AcDbEntity
  8
RÚteg 1
 62
     7
100
AcDbSpline
210
0.0
220
0.0
230
1.0
 70
     1
 71
     3
 72
    28
 73
    24
 74
     0
 42
0.0000000001
 43
0.0000000001
 40
0.0
 40
0.0
 40
0.0
 40
0.0
 40
0.1666666666666667
 40
0.1666666666666667
 40
0.1666666666666667
 40
0.1666666666666667
 40
0.3333333333333333
 40
0.3333333333333333
 40
0.3333333333333333
 40
0.3333333333333333
 40
0.5
 40
0.5
 40
0.5
 40
0.5
 40
0.6666666666666666
 40
0.6666666666666666
 40
0.6666666666666666
 40
0.6666666666666666
 40
0.8333333333333333
 40
0.8333333333333333
 40
0.8333333333333333
 40
0.8333333333333333
 40
1.0
 40
1.0
 40
1.0
 40
1.0
 10
-20.581299999999999
 20
20.0746
 30
0.0
 10
-20.966699999999999
 20
20.0746
 30
0.0
 10
-20.943999999999999
 20
20.3429
 30
0.0
 10
-21.7895
 20
20.3429
 30
0.0
 10
-21.7895
 20
20.3429
 30
0.0
 10
-21.8644
 20
20.4513
 30
0.0
 10
-22.0578
 20
20.674499999999998
 30
0.0
 10
-22.0578
 20
20.745899999999999
 30
0.0
 10
-22.0578
 20
20.745899999999999
 30
0.0
 10
-22.0578
 20
21.225000000000001
 30
0.0
 10
-20.508700000000001
 20
22.427900000000001
 30
0.0
 10
-20.3126
 20
23.162199999999999
 30
0.0
 10
-20.3126
 20
23.162199999999999
 30
0.0
 10
-20.174099999999999
 20
23.162500000000001
 30
0.0
 10
-20.035499999999999
 20
23.1633
 30
0.0
 10
-19.896999999999998
 20
23.163599999999999
 30
0.0
 10
-19.896999999999998
 20
23.163599999999999
 30
0.0
 10
-19.811800000000002
 20
22.492000000000001
 30
0.0
 10
-19.726600000000001
 20
21.8203
 30
0.0
 10
-19.641200000000001
 20
21.148599999999998
 30
0.0
 10
-19.641200000000001
 20
21.148599999999998
 30
0.0
 10
-19.790400000000002
 20
20.866900000000001
 30
0.0
 10
-20.2349
 20
20.0746
 30
0.0
 10
-20.581299999999999
 20
20.0746
 30
0.0
  0
SPLINE
  5
47
100
AcDbEntity
  8
RÚteg 1
 62
     7
100
AcDbSpline
210
0.0
220
0.0
230
1.0
 70
     1
 71
     3
 72
    44
 73
    40
 74
     0
 42
0.0000000001
 43
0.0000000001
 40
0.0
 40
0.0
 40
0.0
 40
0.0
 40
0.1
 40
0.1
 40
0.1
 40
0.1
 40
0.2
 40
0.2
 40
0.2
 40
0.2
 40
0.3
 40
0.3
 40
0.3
 40
0.3
 40
0.4
 40
0.4
 40
0.4
 40
0.4
 40
0.5
 40
0.5
 40
0.5
 40
0.5
 40
0.6
 40
0.6
 40
0.6
 40
0.6
 40
0.7
 40
0.7
 40
0.7
 40
0.7
 40
0.7999999999999999
 40
0.7999999999999999
 40
0.7999999999999999
 40
0.7999999999999999
 40
0.8999999999999999
 40
0.8999999999999999
 40
0.8999999999999999
 40
0.8999999999999999
 40
1.0
 40
1.0
 40
1.0
 40
1.0
 10
-52.397599999999997
 20
19.940200000000001
 30
0.0
 10
-52.397599999999997
 20
19.427099999999999
 30
0.0
 10
-52.438699999999997
 20
19.891400000000001
 30
0.0
 10
-52.240499999999997
 20
19.5181
 30
0.0
 10
-52.240499999999997
 20
19.5181
 30
0.0
 10
-52.6937
 20
18.9953
 30
0.0
 10
-53.146599999999999
 20
18.7133
 30
0.0
 10
-53.599699999999999
 20
18.190899999999999
 30
0.0
 10
-53.599699999999999
 20
18.190899999999999
 30
0.0
 10
-54.116199999999999
 20
18.467500000000001
 30
0.0
 10
-54.134500000000003
 20
18.429600000000001
 30
0.0
 10
-54.277099999999997
 20
19.000499999999999
 30
0.0
 10
-54.277099999999997
 20
19.000499999999999
 30
0.0
 10
-54.277099999999997
 20
19.179500000000001
 30
0.0
 10
-54.277099999999997
 20
19.358599999999999
 30
0.0
 10
-54.277099999999997
 20
19.537700000000001
 30
0.0
 10
-54.277099999999997
 20
19.537700000000001
 30
0.0
 10
-54.277099999999997
 20
19.947099999999999
 30
0.0
 10
-54.148200000000003
 20
20.0793
 30
0.0
 10
-54.008699999999997
 20
20.3429
 30
0.0
 10
-54.008699999999997
 20
20.3429
 30
0.0
 10
-54.261499999999998
 20
20.633800000000001
 30
0.0
 10
-54.5456
 20
20.872299999999999
 30
0.0
 10
-54.5456
 20
21.417000000000002
 30
0.0
 10
-54.5456
 20
21.417000000000002
 30
0.0
 10
-54.5456
 20
22.217400000000001
 30
0.0
 10
-54.0321
 20
22.6252
 30
0.0
 10
-53.203200000000002
 20
22.6252
 30
0.0
 10
-53.203200000000002
 20
22.6252
 30
0.0
 10
-52.709299999999999
 20
22.6252
 30
0.0
 10
-51.726399999999998
 20
22.201799999999999
 30
0.0
 10
-51.726399999999998
 20
21.685400000000001
 30
0.0
 10
-51.726399999999998
 20
21.685400000000001
 30
0.0
 10
-51.726399999999998
 20
21.640699999999999
 30
0.0
 10
-51.726399999999998
 20
21.5961
 30
0.0
 10
-51.726399999999998
 20
21.551500000000001
 30
0.0
 10
-51.726399999999998
 20
21.551500000000001
 30
0.0
 10
-51.726399999999998
 20
21.338999999999999
 30
0.0
 10
-52.397599999999997
 20
20.554099999999998
 30
0.0
 10
-52.397599999999997
 20
19.940200000000001
 30
0.0
  0
SPLINE
  5
48
100
AcDbEntity
  8
RÚteg 1
 62
     7
100
AcDbSpline
210
0.0
220
0.0
230
1.0
 70
     1
 71
     3
 72
   156
 73
   152
 74
     0
 42
0.0000000001
 43
0.0000000001
 40
0.0
 40
0.0
 40
0.0
 40
0.0
 40
0.0263157894736842
 40
0.0263157894736842
 40
0.0263157894736842
 40
0.0263157894736842
 40
0.0526315789473684
 40
0.0526315789473684
 40
0.0526315789473684
 40
0.0526315789473684
 40
0.0789473684210526
 40
0.0789473684210526
 40
0.0789473684210526
 40
0.0789473684210526
 40
0.1052631578947368
 40
0.1052631578947368
 40
0.1052631578947368
 40
0.1052631578947368
 40
0.1315789473684211
 40
0.1315789473684211
 40
0.1315789473684211
 40
0.1315789473684211
 40
0.1578947368421053
 40
0.1578947368421053
 40
0.1578947368421053
 40
0.1578947368421053
 40
0.1842105263157895
 40
0.1842105263157895
 40
0.1842105263157895
 40
0.1842105263157895
 40
0.2105263157894737
 40
0.2105263157894737
 40
0.2105263157894737
 40
0.2105263157894737
 40
0.2368421052631579
 40
0.2368421052631579
 40
0.2368421052631579
 40
0.2368421052631579
 40
0.2631578947368421
 40
0.2631578947368421
 40
0.2631578947368421
 40
0.2631578947368421
 40
0.2894736842105263
 40
0.2894736842105263
 40
0.2894736842105263
 40
0.2894736842105263
 40
0.3157894736842105
 40
0.3157894736842105
 40
0.3157894736842105
 40
0.3157894736842105
 40
0.3421052631578947
 40
0.3421052631578947
 40
0.3421052631578947
 40
0.3421052631578947
 40
0.3684210526315789
 40
0.3684210526315789
 40
0.3684210526315789
 40
0.3684210526315789
 40
0.3947368421052631
 40
0.3947368421052631
 40
0.3947368421052631
 40
0.3947368421052631
 40
0.4210526315789472
 40
0.4210526315789472
 40
0.4210526315789472
 40
0.4210526315789472
 40
0.4473684210526314
 40
0.4473684210526314
 40
0.4473684210526314
 40
0.4473684210526314
 40
0.4736842105263156
 40
0.4736842105263156
 40
0.4736842105263156
 40
0.4736842105263156
 40
0.4999999999999998
 40
0.4999999999999998
 40
0.4999999999999998
 40
0.4999999999999998
 40
0.526315789473684
 40
0.526315789473684
 40
0.526315789473684
 40
0.526315789473684
 40
0.5526315789473681
 40
0.5526315789473681
 40
0.5526315789473681
 40
0.5526315789473681
 40
0.5789473684210523
 40
0.5789473684210523
 40
0.5789473684210523
 40
0.5789473684210523
 40
0.6052631578947365
 40
0.6052631578947365
 40
0.6052631578947365
 40
0.6052631578947365
 40
0.6315789473684207
 40
0.6315789473684207
 40
0.6315789473684207
 40
0.6315789473684207
 40
0.6578947368421049
 40
0.6578947368421049
 40
0.6578947368421049
 40
0.6578947368421049
 40
0.6842105263157891
 40
0.6842105263157891
 40
0.6842105263157891
 40
0.6842105263157891
 40
0.7105263157894732
 40
0.7105263157894732
 40
0.7105263157894732
 40
0.7105263157894732
 40
0.7368421052631574
 40
0.7368421052631574
 40
0.7368421052631574
 40
0.7368421052631574
 40
0.7631578947368416
 40
0.7631578947368416
 40
0.7631578947368416
 40
0.7631578947368416
 40
0.7894736842105258
 40
0.7894736842105258
 40
0.7894736842105258
 40
0.7894736842105258
 40
0.81578947368421
 40
0.81578947368421
 40
0.81578947368421
 40
0.81578947368421
 40
0.8421052631578941
 40
0.8421052631578941
 40
0.8421052631578941
 40
0.8421052631578941
 40
0.8684210526315783
 40
0.8684210526315783
 40
0.8684210526315783
 40
0.8684210526315783
 40
0.8947368421052625
 40
0.8947368421052625
 40
0.8947368421052625
 40
0.8947368421052625
 40
0.9210526315789467
 40
0.9210526315789467
 40
0.9210526315789467
 40
0.9210526315789467
 40
0.9473684210526309
 40
0.9473684210526309
 40
0.9473684210526309
 40
0.9473684210526309
 40
0.973684210526315
 40
0.973684210526315
 40
0.973684210526315
 40
0.973684210526315
 40
1.0
 40
1.0
 40
1.0
 40
1.0
 10
-15.0771
 20
18.1951
 30
0.0
 10
-15.0771
 20
19.784199999999998
 30
0.0
 10
-14.1691
 20
20.766200000000001
 30
0.0
 10
-13.2004
 20
21.4099
 30
0.0
 10
-13.2004
 20
21.4099
 30
0.0
 10
-13.065
 20
21.3675
 30
0.0
 10
-12.93
 20
21.324999999999999
 30
0.0
 10
-12.7948
 20
21.282599999999999
 30
0.0
 10
-12.7948
 20
21.282599999999999
 30
0.0
 10
-13.171799999999999
 20
20.5702
 30
0.0
 10
-14.539999999999999
 20
19.369199999999999
 30
0.0
 10
-14.539999999999999
 20
18.1951
 30
0.0
 10
-14.539999999999999
 20
18.1951
 30
0.0
 10
-14.539999999999999
 20
18.006900000000002
 30
0.0
 10
-14.3569
 20
17.9267
 30
0.0
 10
-14.1373
 20
17.9267
 30
0.0
 10
-14.1373
 20
17.9267
 30
0.0
 10
-13.6449
 20
17.9267
 30
0.0
 10
-13.152699999999999
 20
17.9267
 30
0.0
 10
-12.660399999999999
 20
17.9267
 30
0.0
 10
-12.660399999999999
 20
17.9267
 30
0.0
 10
-11.901999999999999
 20
17.9267
 30
0.0
 10
-11.908200000000001
 20
20.028600000000001
 30
0.0
 10
-9.8413000000000004
 20
20.0746
 30
0.0
 10
-9.8413000000000004
 20
20.0746
 30
0.0
 10
-9.8071999999999999
 20
20.035900000000002
 30
0.0
 10
-9.7730999999999995
 20
19.997499999999999
 30
0.0
 10
-9.7390000000000008
 20
19.959
 30
0.0
 10
-9.7390000000000008
 20
19.959
 30
0.0
 10
-10.422499999999999
 20
19.3523
 30
0.0
 10
-11.106199999999999
 20
18.7455
 30
0.0
 10
-11.7897
 20
18.1386
 30
0.0
 10
-11.7897
 20
18.1386
 30
0.0
 10
-11.7613
 20
18.073499999999999
 30
0.0
 10
-11.732900000000001
 20
18.008400000000002
 30
0.0
 10
-11.7041
 20
17.943200000000001
 30
0.0
 10
-11.7041
 20
17.943200000000001
 30
0.0
 10
-10.6807
 20
18.071899999999999
 30
0.0
 10
-9.6569000000000003
 20
18.200700000000001
 30
0.0
 10
-8.6331000000000007
 20
18.3292
 30
0.0
 10
-8.6331000000000007
 20
18.3292
 30
0.0
 10
-8.8353000000000002
 20
17.572199999999999
 30
0.0
 10
-10.7502
 20
17.523800000000001
 30
0.0
 10
-11.721
 20
17.523800000000001
 30
0.0
 10
-11.721
 20
17.523800000000001
 30
0.0
 10
-11.302899999999999
 20
16.369800000000001
 30
0.0
 10
-9.8582000000000001
 20
17.042999999999999
 30
0.0
 10
-8.9016999999999999
 20
16.584099999999999
 30
0.0
 10
-8.9016999999999999
 20
16.584099999999999
 30
0.0
 10
-10.104900000000001
 20
14.942
 30
0.0
 10
-12.370100000000001
 20
17.390499999999999
 30
0.0
 10
-12.3911
 20
17.369499999999999
 30
0.0
 10
-12.3911
 20
17.369499999999999
 30
0.0
 10
-13.0182
 20
17.331399999999999
 30
0.0
 10
-13.6447
 20
17.293399999999998
 30
0.0
 10
-14.2715
 20
17.255199999999999
 30
0.0
 10
-14.2715
 20
17.255199999999999
 30
0.0
 10
-14.1378
 20
17.072900000000001
 30
0.0
 10
-13.1104
 20
16.109500000000001
 30
0.0
 10
-12.879300000000001
 20
15.9627
 30
0.0
 10
-12.879300000000001
 20
15.9627
 30
0.0
 10
-12.2217
 20
15.545400000000001
 30
0.0
 10
-11.241300000000001
 20
15.690899999999999
 30
0.0
 10
-11.0496
 20
14.973000000000001
 30
0.0
 10
-11.0496
 20
14.973000000000001
 30
0.0
 10
-11.3507
 20
14.9031
 30
0.0
 10
-11.3582
 20
14.838800000000001
 30
0.0
 10
-11.721
 20
14.838800000000001
 30
0.0
 10
-11.721
 20
14.838800000000001
 30
0.0
 10
-11.765700000000001
 20
14.838800000000001
 30
0.0
 10
-11.8103
 20
14.838800000000001
 30
0.0
 10
-11.854900000000001
 20
14.838800000000001
 30
0.0
 10
-11.854900000000001
 20
14.838800000000001
 30
0.0
 10
-13.624000000000001
 20
14.838800000000001
 30
0.0
 10
-14.6579
 20
17.255199999999999
 30
0.0
 10
-15.211399999999999
 20
17.255199999999999
 30
0.0
 10
-15.211399999999999
 20
17.255199999999999
 30
0.0
 10
-15.6587
 20
17.255199999999999
 30
0.0
 10
-16.106400000000001
 20
17.255199999999999
 30
0.0
 10
-16.553599999999999
 20
17.255199999999999
 30
0.0
 10
-16.553599999999999
 20
17.255199999999999
 30
0.0
 10
-16.358599999999999
 20
16.5245
 30
0.0
 10
-15.779999999999999
 20
15.978999999999999
 30
0.0
 10
-15.5571
 20
15.164
 30
0.0
 10
-15.5571
 20
15.164
 30
0.0
 10
-15.423999999999999
 20
14.6761
 30
0.0
 10
-15.411
 20
14.341799999999999
 30
0.0
 10
-15.268800000000001
 20
13.8416
 30
0.0
 10
-15.268800000000001
 20
13.8416
 30
0.0
 10
-15.0878
 20
13.206
 30
0.0
 10
-14.674200000000001
 20
12.9176
 30
0.0
 10
-14.674200000000001
 20
12.825100000000001
 30
0.0
 10
-14.674200000000001
 20
12.825100000000001
 30
0.0
 10
-14.674200000000001
 20
12.1145
 30
0.0
 10
-15.4693
 20
11.5214
 30
0.0
 10
-15.8119
 20
11.1435
 30
0.0
 10
-15.8119
 20
11.1435
 30
0.0
 10
-16.601400000000002
 20
10.2735
 30
0.0
 10
-15.6973
 20
10.1248
 30
0.0
 10
-17.493400000000001
 20
10.2743
 30
0.0
 10
-17.493400000000001
 20
10.2743
 30
0.0
 10
-17.6571
 20
10.976599999999999
 30
0.0
 10
-18.0304
 20
10.932399999999999
 30
0.0
 10
-18.0304
 20
11.6168
 30
0.0
 10
-18.0304
 20
11.6168
 30
0.0
 10
-18.0304
 20
12.427
 30
0.0
 10
-16.927099999999999
 20
11.670400000000001
 30
0.0
 10
-16.2852
 20
11.6168
 30
0.0
 10
-16.2852
 20
11.6168
 30
0.0
 10
-16.150200000000002
 20
12.1957
 30
0.0
 10
-15.8826
 20
12.3522
 30
0.0
 10
-15.8826
 20
13.0937
 30
0.0
 10
-15.8826
 20
13.0937
 30
0.0
 10
-15.8826
 20
13.183400000000001
 30
0.0
 10
-15.8826
 20
13.272600000000001
 30
0.0
 10
-15.8826
 20
13.3622
 30
0.0
 10
-15.8826
 20
13.3622
 30
0.0
 10
-15.8826
 20
16.469899999999999
 30
0.0
 10
-19.161000000000001
 20
18.475100000000001
 30
0.0
 10
-19.372900000000001
 20
19.268999999999998
 30
0.0
 10
-19.372900000000001
 20
19.268999999999998
 30
0.0
 10
-19.238900000000001
 20
19.268999999999998
 30
0.0
 10
-19.104600000000001
 20
19.268999999999998
 30
0.0
 10
-18.970199999999998
 20
19.268999999999998
 30
0.0
 10
-18.970199999999998
 20
19.268999999999998
 30
0.0
 10
-18.5246
 20
19.268999999999998
 30
0.0
 10
-18.689800000000002
 20
19.000499999999999
 30
0.0
 10
-18.433299999999999
 20
19.000499999999999
 30
0.0
 10
-18.433299999999999
 20
19.000499999999999
 30
0.0
 10
-18.029699999999998
 20
19.000499999999999
 30
0.0
 10
-17.682099999999998
 20
20.690100000000001
 30
0.0
 10
-17.206700000000001
 20
21.264700000000001
 30
0.0
 10
-17.206700000000001
 20
21.264700000000001
 30
0.0
 10
-16.805299999999999
 20
21.750299999999999
 30
0.0
 10
-15.7804
 20
22.816199999999998
 30
0.0
 10
-15.0771
 20
22.491099999999999
 30
0.0
 10
-15.0771
 20
22.491099999999999
 30
0.0
 10
-15.3949
 20
22.0166
 30
0.0
 10
-15.8011
 20
21.889700000000001
 30
0.0
 10
-16.2852
 20
21.282800000000002
 30
0.0
 10
-16.2852
 20
21.282800000000002
 30
0.0
 10
-16.695499999999999
 20
20.769200000000001
 30
0.0
 10
-16.9834
 20
20.497399999999999
 30
0.0
 10
-17.212700000000002
 20
19.793500000000002
 30
0.0
 10
-17.212700000000002
 20
19.793500000000002
 30
0.0
 10
-17.447500000000002
 20
19.0731
 30
0.0
 10
-17.694600000000001
 20
18.275300000000001
 30
0.0
 10
-16.9663
 20
18.1919
 30
0.0
 10
-16.9663
 20
18.1919
 30
0.0
 10
-16.001100000000001
 20
18.081299999999999
 30
0.0
 10
-15.800599999999999
 20
17.847899999999999
 30
0.0
 10
-15.0771
 20
18.1951
 30
0.0
  0
SPLINE
  5
49
100
AcDbEntity
  8
RÚteg 1
 62
     7
100
AcDbSpline
210
0.0
220
0.0
230
1.0
 70
     1
 71
     3
 72
    20
 73
    16
 74
     0
 42
0.0000000001
 43
0.0000000001
 40
0.0
 40
0.0
 40
0.0
 40
0.0
 40
0.25
 40
0.25
 40
0.25
 40
0.25
 40
0.5
 40
0.5
 40
0.5
 40
0.5
 40
0.75
 40
0.75
 40
0.75
 40
0.75
 40
1.0
 40
1.0
 40
1.0
 40
1.0
 10
-40.626600000000003
 20
23.1648
 30
0.0
 10
-40.433300000000003
 20
23.164000000000001
 30
0.0
 10
-40.239899999999999
 20
23.1631
 30
0.0
 10
-40.0471
 20
23.162199999999999
 30
0.0
 10
-40.0471
 20
23.162199999999999
 30
0.0
 10
-39.912199999999999
 20
21.931000000000001
 30
0.0
 10
-35.301400000000001
 20
20.050599999999999
 30
0.0
 10
-35.214100000000002
 20
19.000499999999999
 30
0.0
 10
-35.214100000000002
 20
19.000499999999999
 30
0.0
 10
-37.197800000000001
 20
19.000499999999999
 30
0.0
 10
-39.494500000000002
 20
20.4634
 30
0.0
 10
-40.742699999999999
 20
21.284099999999999
 30
0.0
 10
-40.742699999999999
 20
21.284099999999999
 30
0.0
 10
-40.703699999999998
 20
21.911200000000001
 30
0.0
 10
-40.665199999999999
 20
22.5381
 30
0.0
 10
-40.626600000000003
 20
23.1648
 30
0.0
  0
SPLINE
  5
4A
100
AcDbEntity
  8
RÚteg 1
 62
     7
100
AcDbSpline
210
0.0
220
0.0
230
1.0
 70
     1
 71
     3
 72
    48
 73
    44
 74
     0
 42
0.0000000001
 43
0.0000000001
 40
0.0
 40
0.0
 40
0.0
 40
0.0
 40
0.0909090909090909
 40
0.0909090909090909
 40
0.0909090909090909
 40
0.0909090909090909
 40
0.1818181818181818
 40
0.1818181818181818
 40
0.1818181818181818
 40
0.1818181818181818
 40
0.2727272727272727
 40
0.2727272727272727
 40
0.2727272727272727
 40
0.2727272727272727
 40
0.3636363636363637
 40
0.3636363636363637
 40
0.3636363636363637
 40
0.3636363636363637
 40
0.4545454545454546
 40
0.4545454545454546
 40
0.4545454545454546
 40
0.4545454545454546
 40
0.5454545454545455
 40
0.5454545454545455
 40
0.5454545454545455
 40
0.5454545454545455
 40
0.6363636363636365
 40
0.6363636363636365
 40
0.6363636363636365
 40
0.6363636363636365
 40
0.7272727272727274
 40
0.7272727272727274
 40
0.7272727272727274
 40
0.7272727272727274
 40
0.8181818181818183
 40
0.8181818181818183
 40
0.8181818181818183
 40
0.8181818181818183
 40
0.9090909090909093
 40
0.9090909090909093
 40
0.9090909090909093
 40
0.9090909090909093
 40
1.0
 40
1.0
 40
1.0
 40
1.0
 10
-48.773000000000003
 20
22.2225
 30
0.0
 10
-48.773000000000003
 20
22.177800000000001
 30
0.0
 10
-48.773000000000003
 20
22.133199999999999
 30
0.0
 10
-48.773000000000003
 20
22.0883
 30
0.0
 10
-48.773000000000003
 20
22.0883
 30
0.0
 10
-48.773000000000003
 20
21.679500000000001
 30
0.0
 10
-48.7121
 20
21.597200000000001
 30
0.0
 10
-48.6389
 20
21.282599999999999
 30
0.0
 10
-48.6389
 20
21.282599999999999
 30
0.0
 10
-48.886099999999999
 20
20.9133
 30
0.0
 10
-49.712600000000002
 20
20.4316
 30
0.0
 10
-49.712600000000002
 20
19.940200000000001
 30
0.0
 10
-49.712600000000002
 20
19.940200000000001
 30
0.0
 10
-49.712600000000002
 20
19.5824
 30
0.0
 10
-49.712600000000002
 20
19.224399999999999
 30
0.0
 10
-49.712600000000002
 20
18.866499999999998
 30
0.0
 10
-49.712600000000002
 20
18.866499999999998
 30
0.0
 10
-49.936599999999999
 20
18.866499999999998
 30
0.0
 10
-50.160200000000003
 20
18.866499999999998
 30
0.0
 10
-50.383899999999997
 20
18.866499999999998
 30
0.0
 10
-50.383899999999997
 20
18.866499999999998
 30
0.0
 10
-51.0124
 20
18.866499999999998
 30
0.0
 10
-51.726399999999998
 20
19.6828
 30
0.0
 10
-51.726399999999998
 20
20.0746
 30
0.0
 10
-51.726399999999998
 20
20.0746
 30
0.0
 10
-51.726399999999998
 20
20.209
 30
0.0
 10
-51.726399999999998
 20
20.3429
 30
0.0
 10
-51.726399999999998
 20
20.4773
 30
0.0
 10
-51.726399999999998
 20
20.4773
 30
0.0
 10
-51.726399999999998
 20
21.087199999999999
 30
0.0
 10
-51.439700000000002
 20
21.177399999999999
 30
0.0
 10
-51.189399999999999
 20
21.551500000000001
 30
0.0
 10
-51.189399999999999
 20
21.551500000000001
 30
0.0
 10
-51.221600000000002
 20
22.990100000000002
 30
0.0
 10
-51.587899999999998
 20
23.027200000000001
 30
0.0
 10
-50.347000000000001
 20
23.925899999999999
 30
0.0
 10
-50.347000000000001
 20
23.925899999999999
 30
0.0
 10
-49.732700000000001
 20
23.671399999999998
 30
0.0
 10
-49.118699999999997
 20
23.416799999999999
 30
0.0
 10
-48.504399999999997
 20
23.162199999999999
 30
0.0
 10
-48.504399999999997
 20
23.162199999999999
 30
0.0
 10
-48.524999999999999
 20
22.247
 30
0.0
 10
-48.773000000000003
 20
22.743300000000001
 30
0.0
 10
-48.773000000000003
 20
22.2225
 30
0.0
  0
SPLINE
  5
4B
100
AcDbEntity
  8
RÚteg 1
 62
     7
100
AcDbSpline
210
0.0
220
0.0
230
1.0
 70
     1
 71
     3
 72
    32
 73
    28
 74
     0
 42
0.0000000001
 43
0.0000000001
 40
0.0
 40
0.0
 40
0.0
 40
0.0
 40
0.1428571428571429
 40
0.1428571428571429
 40
0.1428571428571429
 40
0.1428571428571429
 40
0.2857142857142857
 40
0.2857142857142857
 40
0.2857142857142857
 40
0.2857142857142857
 40
0.4285714285714286
 40
0.4285714285714286
 40
0.4285714285714286
 40
0.4285714285714286
 40
0.5714285714285714
 40
0.5714285714285714
 40
0.5714285714285714
 40
0.5714285714285714
 40
0.7142857142857142
 40
0.7142857142857142
 40
0.7142857142857142
 40
0.7142857142857142
 40
0.857142857142857
 40
0.857142857142857
 40
0.857142857142857
 40
0.857142857142857
 40
1.0
 40
1.0
 40
1.0
 40
1.0
 10
-47.591999999999999
 20
23.672999999999998
 30
0.0
 10
-47.591999999999999
 20
24.2514
 30
0.0
 10
-47.033099999999997
 20
24.577400000000001
 30
0.0
 10
-46.6374
 20
24.745999999999999
 30
0.0
 10
-46.6374
 20
24.745999999999999
 30
0.0
 10
-46.319800000000001
 20
24.620799999999999
 30
0.0
 10
-46.002600000000001
 20
24.495699999999999
 30
0.0
 10
-45.685400000000001
 20
24.3704
 30
0.0
 10
-45.685400000000001
 20
24.3704
 30
0.0
 10
-45.625100000000003
 20
23.6477
 30
0.0
 10
-45.416800000000002
 20
23.977
 30
0.0
 10
-45.416800000000002
 20
23.699200000000001
 30
0.0
 10
-45.416800000000002
 20
23.699200000000001
 30
0.0
 10
-45.416800000000002
 20
23.224299999999999
 30
0.0
 10
-45.819600000000001
 20
23.293299999999999
 30
0.0
 10
-45.819600000000001
 20
23.027899999999999
 30
0.0
 10
-45.819600000000001
 20
23.027899999999999
 30
0.0
 10
-45.819600000000001
 20
22.3672
 30
0.0
 10
-45.173900000000003
 20
21.565899999999999
 30
0.0
 10
-45.014099999999999
 20
20.879899999999999
 30
0.0
 10
-45.014099999999999
 20
20.879899999999999
 30
0.0
 10
-47.257599999999996
 20
19.8034
 30
0.0
 10
-49.443100000000001
 20
21.680099999999999
 30
0.0
 10
-47.430599999999998
 20
23.027899999999999
 30
0.0
 10
-47.430599999999998
 20
23.027899999999999
 30
0.0
 10
-47.5702
 20
23.291799999999999
 30
0.0
 10
-47.591999999999999
 20
23.263500000000001
 30
0.0
 10
-47.591999999999999
 20
23.672999999999998
 30
0.0
  0
SPLINE
  5
4C
100
AcDbEntity
  8
RÚteg 1
 62
     7
100
AcDbSpline
210
0.0
220
0.0
230
1.0
 70
     1
 71
     3
 72
    20
 73
    16
 74
     0
 42
0.0000000001
 43
0.0000000001
 40
0.0
 40
0.0
 40
0.0
 40
0.0
 40
0.25
 40
0.25
 40
0.25
 40
0.25
 40
0.5
 40
0.5
 40
0.5
 40
0.5
 40
0.75
 40
0.75
 40
0.75
 40
0.75
 40
1.0
 40
1.0
 40
1.0
 40
1.0
 10
-18.970199999999998
 20
24.1021
 30
0.0
 10
-18.883199999999999
 20
24.178100000000001
 30
0.0
 10
-18.796500000000002
 20
24.254200000000001
 30
0.0
 10
-18.709399999999999
 20
24.330100000000002
 30
0.0
 10
-18.709399999999999
 20
24.330100000000002
 30
0.0
 10
-17.8567
 20
24.164400000000001
 30
0.0
 10
-17.003699999999998
 20
23.998999999999999
 30
0.0
 10
-16.151
 20
23.833300000000001
 30
0.0
 10
-16.151
 20
23.833300000000001
 30
0.0
 10
-16.3005
 20
23.2729
 30
0.0
 10
-17.581800000000001
 20
22.775500000000001
 30
0.0
 10
-18.162500000000001
 20
22.354199999999999
 30
0.0
 10
-18.162500000000001
 20
22.354199999999999
 30
0.0
 10
-19.4618
 20
21.412099999999999
 30
0.0
 10
-18.970199999999998
 20
22.511600000000001
 30
0.0
 10
-18.970199999999998
 20
24.1021
 30
0.0
  0
SPLINE
  5
4D
100
AcDbEntity
  8
RÚteg 1
 62
     7
100
AcDbSpline
210
0.0
220
0.0
230
1.0
 70
     1
 71
     3
 72
    24
 73
    20
 74
     0
 42
0.0000000001
 43
0.0000000001
 40
0.0
 40
0.0
 40
0.0
 40
0.0
 40
0.2
 40
0.2
 40
0.2
 40
0.2
 40
0.4
 40
0.4
 40
0.4
 40
0.4
 40
0.6000000000000001
 40
0.6000000000000001
 40
0.6000000000000001
 40
0.6000000000000001
 40
0.8
 40
0.8
 40
0.8
 40
0.8
 40
1.0
 40
1.0
 40
1.0
 40
1.0
 10
-25.011299999999999
 20
19.940200000000001
 30
0.0
 10
-24.9575
 20
20.5855
 30
0.0
 10
-23.552399999999999
 20
21.9998
 30
0.0
 10
-23.1312
 20
22.6248
 30
0.0
 10
-23.1312
 20
22.6248
 30
0.0
 10
-22.642099999999999
 20
23.350999999999999
 30
0.0
 10
-21.9496
 20
25.075399999999998
 30
0.0
 10
-21.249400000000001
 20
25.4497
 30
0.0
 10
-21.249400000000001
 20
25.4497
 30
0.0
 10
-20.8475
 20
25.224299999999999
 30
0.0
 10
-20.445900000000002
 20
24.998799999999999
 30
0.0
 10
-20.0441
 20
24.773299999999999
 30
0.0
 10
-20.0441
 20
24.773299999999999
 30
0.0
 10
-20.2119
 20
24.052499999999998
 30
0.0
 10
-21.568000000000001
 20
22.611499999999999
 30
0.0
 10
-22.0932
 20
21.9894
 30
0.0
 10
-22.0932
 20
21.9894
 30
0.0
 10
-22.844799999999999
 20
21.100000000000001
 30
0.0
 10
-23.726500000000001
 20
20.239599999999999
 30
0.0
 10
-25.011299999999999
 20
19.940200000000001
 30
0.0
  0
SPLINE
  5
4E
100
AcDbEntity
  8
RÚteg 1
 62
     7
100
AcDbSpline
210
0.0
220
0.0
230
1.0
 70
     1
 71
     3
 72
    32
 73
    28
 74
     0
 42
0.0000000001
 43
0.0000000001
 40
0.0
 40
0.0
 40
0.0
 40
0.0
 40
0.1428571428571429
 40
0.1428571428571429
 40
0.1428571428571429
 40
0.1428571428571429
 40
0.2857142857142857
 40
0.2857142857142857
 40
0.2857142857142857
 40
0.2857142857142857
 40
0.4285714285714286
 40
0.4285714285714286
 40
0.4285714285714286
 40
0.4285714285714286
 40
0.5714285714285714
 40
0.5714285714285714
 40
0.5714285714285714
 40
0.5714285714285714
 40
0.7142857142857142
 40
0.7142857142857142
 40
0.7142857142857142
 40
0.7142857142857142
 40
0.857142857142857
 40
0.857142857142857
 40
0.857142857142857
 40
0.857142857142857
 40
1.0
 40
1.0
 40
1.0
 40
1.0
 10
-8.4725999999999999
 20
24.992799999999999
 30
0.0
 10
-9.0543999999999993
 20
24.814
 30
0.0
 10
-9.3939000000000004
 20
24.549299999999999
 30
0.0
 10
-9.9755000000000003
 20
24.3704
 30
0.0
 10
-9.9755000000000003
 20
24.3704
 30
0.0
 10
-10.068099999999999
 20
23.972899999999999
 30
0.0
 10
-10.322800000000001
 20
23.430700000000002
 30
0.0
 10
-10.7811
 20
23.430700000000002
 30
0.0
 10
-10.7811
 20
23.430700000000002
 30
0.0
 10
-11.130000000000001
 20
23.4315
 30
0.0
 10
-11.4787
 20
23.432300000000001
 30
0.0
 10
-11.8278
 20
23.433199999999999
 30
0.0
 10
-11.8278
 20
23.433199999999999
 30
0.0
 10
-11.928800000000001
 20
24.149799999999999
 30
0.0
 10
-12.0298
 20
24.866199999999999
 30
0.0
 10
-12.1309
 20
25.582699999999999
 30
0.0
 10
-12.1309
 20
25.582699999999999
 30
0.0
 10
-12.039
 20
25.760400000000001
 30
0.0
 10
-11.947100000000001
 20
25.937899999999999
 30
0.0
 10
-11.854900000000001
 20
26.1158
 30
0.0
 10
-11.854900000000001
 20
26.1158
 30
0.0
 10
-10.071899999999999
 20
26.1158
 30
0.0
 10
-10.186500000000001
 20
25.903600000000001
 30
0.0
 10
-9.1699999999999999
 20
26.786999999999999
 30
0.0
 10
-9.1699999999999999
 20
26.786999999999999
 30
0.0
 10
-7.7855999999999996
 20
26.122499999999999
 30
0.0
 10
-8.4725999999999999
 20
26.6755
 30
0.0
 10
-8.4725999999999999
 20
24.992799999999999
 30
0.0
  0
SPLINE
  5
4F
100
AcDbEntity
  8
RÚteg 1
 62
     7
100
AcDbSpline
210
0.0
220
0.0
230
1.0
 70
     1
 71
     3
 72
    36
 73
    32
 74
     0
 42
0.0000000001
 43
0.0000000001
 40
0.0
 40
0.0
 40
0.0
 40
0.0
 40
0.125
 40
0.125
 40
0.125
 40
0.125
 40
0.25
 40
0.25
 40
0.25
 40
0.25
 40
0.375
 40
0.375
 40
0.375
 40
0.375
 40
0.5
 40
0.5
 40
0.5
 40
0.5
 40
0.625
 40
0.625
 40
0.625
 40
0.625
 40
0.75
 40
0.75
 40
0.75
 40
0.75
 40
0.875
 40
0.875
 40
0.875
 40
0.875
 40
1.0
 40
1.0
 40
1.0
 40
1.0
 10
-51.726399999999998
 20
22.759499999999999
 30
0.0
 10
-52.295900000000003
 20
22.806899999999999
 30
0.0
 10
-52.442300000000003
 20
23.162199999999999
 30
0.0
 10
-52.934699999999999
 20
23.162199999999999
 30
0.0
 10
-52.934699999999999
 20
23.162199999999999
 30
0.0
 10
-53.489699999999999
 20
23.162199999999999
 30
0.0
 10
-54.142899999999997
 20
22.7227
 30
0.0
 10
-54.142899999999997
 20
23.430700000000002
 30
0.0
 10
-54.142899999999997
 20
23.430700000000002
 30
0.0
 10
-54.142899999999997
 20
23.520199999999999
 30
0.0
 10
-54.142899999999997
 20
23.6098
 30
0.0
 10
-54.142899999999997
 20
23.699200000000001
 30
0.0
 10
-54.142899999999997
 20
23.699200000000001
 30
0.0
 10
-54.142899999999997
 20
24.422499999999999
 30
0.0
 10
-53.6417
 20
24.748100000000001
 30
0.0
 10
-53.203200000000002
 20
25.041699999999999
 30
0.0
 10
-53.203200000000002
 20
25.041699999999999
 30
0.0
 10
-53.203200000000002
 20
26.451000000000001
 30
0.0
 10
-53.073300000000003
 20
26.047799999999999
 30
0.0
 10
-52.531799999999997
 20
26.786999999999999
 30
0.0
 10
-52.531799999999997
 20
26.786999999999999
 30
0.0
 10
-51.5976
 20
26.3386
 30
0.0
 10
-51.270600000000002
 20
26.8673
 30
0.0
 10
-50.383899999999997
 20
25.847300000000001
 30
0.0
 10
-50.383899999999997
 20
25.847300000000001
 30
0.0
 10
-50.734400000000001
 20
25.116900000000001
 30
0.0
 10
-50.0062
 20
24.8445
 30
0.0
 10
-50.7286
 20
24.1782
 30
0.0
 10
-50.7286
 20
24.1782
 30
0.0
 10
-51.300600000000003
 20
23.650500000000001
 30
0.0
 10
-51.508800000000001
 20
23.693200000000001
 30
0.0
 10
-51.726399999999998
 20
22.759499999999999
 30
0.0
  0
SPLINE
  5
50
100
AcDbEntity
  8
RÚteg 1
 62
     7
100
AcDbSpline
210
0.0
220
0.0
230
1.0
 70
     1
 71
     3
 72
    40
 73
    36
 74
     0
 42
0.0000000001
 43
0.0000000001
 40
0.0
 40
0.0
 40
0.0
 40
0.0
 40
0.1111111111111111
 40
0.1111111111111111
 40
0.1111111111111111
 40
0.1111111111111111
 40
0.2222222222222222
 40
0.2222222222222222
 40
0.2222222222222222
 40
0.2222222222222222
 40
0.3333333333333333
 40
0.3333333333333333
 40
0.3333333333333333
 40
0.3333333333333333
 40
0.4444444444444444
 40
0.4444444444444444
 40
0.4444444444444444
 40
0.4444444444444444
 40
0.5555555555555556
 40
0.5555555555555556
 40
0.5555555555555556
 40
0.5555555555555556
 40
0.6666666666666667
 40
0.6666666666666667
 40
0.6666666666666667
 40
0.6666666666666667
 40
0.7777777777777779
 40
0.7777777777777779
 40
0.7777777777777779
 40
0.7777777777777779
 40
0.8888888888888891
 40
0.8888888888888891
 40
0.8888888888888891
 40
0.8888888888888891
 40
1.0
 40
1.0
 40
1.0
 40
1.0
 10
-45.819600000000001
 20
27.189599999999999
 30
0.0
 10
-45.543500000000002
 20
27.213100000000001
 30
0.0
 10
-45.267099999999999
 20
27.2361
 30
0.0
 10
-44.9908
 20
27.259599999999999
 30
0.0
 10
-44.9908
 20
27.259599999999999
 30
0.0
 10
-44.733400000000003
 20
27.6692
 30
0.0
 10
-44.475499999999997
 20
28.078499999999998
 30
0.0
 10
-44.2181
 20
28.488099999999999
 30
0.0
 10
-44.2181
 20
28.488099999999999
 30
0.0
 10
-44.1858
 20
28.448599999999999
 30
0.0
 10
-44.1539
 20
28.409300000000002
 30
0.0
 10
-44.121699999999997
 20
28.369499999999999
 30
0.0
 10
-44.121699999999997
 20
28.369499999999999
 30
0.0
 10
-43.6464
 20
27.5336
 30
0.0
 10
-43.170900000000003
 20
26.697900000000001
 30
0.0
 10
-42.695399999999999
 20
25.861999999999998
 30
0.0
 10
-42.695399999999999
 20
25.861999999999998
 30
0.0
 10
-42.7971
 20
24.9621
 30
0.0
 10
-42.898499999999999
 20
24.062100000000001
 30
0.0
 10
-43.000300000000003
 20
23.162199999999999
 30
0.0
 10
-43.000300000000003
 20
23.162199999999999
 30
0.0
 10
-43.059199999999997
 20
22.774100000000001
 30
0.0
 10
-43.170200000000001
 20
22.780000000000001
 30
0.0
 10
-43.292000000000002
 20
22.323499999999999
 30
0.0
 10
-43.292000000000002
 20
22.323499999999999
 30
0.0
 10
-43.821300000000001
 20
22.6479
 30
0.0
 10
-44.350700000000003
 20
22.972100000000001
 30
0.0
 10
-44.879899999999999
 20
23.296399999999998
 30
0.0
 10
-44.879899999999999
 20
23.296399999999998
 30
0.0
 10
-44.964700000000001
 20
24.316500000000001
 30
0.0
 10
-45.543599999999998
 20
24.689399999999999
 30
0.0
 10
-46.165999999999997
 20
25.232199999999999
 30
0.0
 10
-46.165999999999997
 20
25.232199999999999
 30
0.0
 10
-46.631300000000003
 20
25.779800000000002
 30
0.0
 10
-46.248100000000001
 20
27.082599999999999
 30
0.0
 10
-45.819600000000001
 20
27.189599999999999
 30
0.0
  0
SPLINE
  5
51
100
AcDbEntity
  8
RÚteg 1
 62
     7
100
AcDbSpline
210
0.0
220
0.0
230
1.0
 70
     1
 71
     3
 72
    36
 73
    32
 74
     0
 42
0.0000000001
 43
0.0000000001
 40
0.0
 40
0.0
 40
0.0
 40
0.0
 40
0.125
 40
0.125
 40
0.125
 40
0.125
 40
0.25
 40
0.25
 40
0.25
 40
0.25
 40
0.375
 40
0.375
 40
0.375
 40
0.375
 40
0.5
 40
0.5
 40
0.5
 40
0.5
 40
0.625
 40
0.625
 40
0.625
 40
0.625
 40
0.75
 40
0.75
 40
0.75
 40
0.75
 40
0.875
 40
0.875
 40
0.875
 40
0.875
 40
1.0
 40
1.0
 40
1.0
 40
1.0
 10
-5.6798000000000002
 20
23.699200000000001
 30
0.0
 10
-6.0766999999999998
 20
23.489000000000001
 30
0.0
 10
-6.3807
 20
23.162199999999999
 30
0.0
 10
-6.8879000000000001
 20
23.162199999999999
 30
0.0
 10
-6.8879000000000001
 20
23.162199999999999
 30
0.0
 10
-7.6924999999999999
 20
23.162199999999999
 30
0.0
 10
-8.0856999999999992
 20
23.440200000000001
 30
0.0
 10
-8.3843999999999994
 20
23.979399999999998
 30
0.0
 10
-8.3843999999999994
 20
23.979399999999998
 30
0.0
 10
-8.2323000000000004
 20
24.2974
 30
0.0
 10
-8.0802999999999994
 20
24.615400000000001
 30
0.0
 10
-7.9282000000000004
 20
24.933499999999999
 30
0.0
 10
-7.9282000000000004
 20
24.933499999999999
 30
0.0
 10
-7.7603999999999997
 20
25.417100000000001
 30
0.0
 10
-7.5928000000000004
 20
25.9008
 30
0.0
 10
-7.4249000000000001
 20
26.384
 30
0.0
 10
-7.4249000000000001
 20
26.384
 30
0.0
 10
-5.7895000000000003
 20
26.384
 30
0.0
 10
-6.6306000000000003
 20
27.107500000000002
 30
0.0
 10
-5.5965999999999996
 20
27.1936
 30
0.0
 10
-5.5965999999999996
 20
27.1936
 30
0.0
 10
-5.4520999999999997
 20
26.652699999999999
 30
0.0
 10
-5.0086000000000004
 20
27.053699999999999
 30
0.0
 10
-5.0086000000000004
 20
26.25
 30
0.0
 10
-5.0086000000000004
 20
26.25
 30
0.0
 10
-5.0086000000000004
 20
25.901800000000001
 30
0.0
 10
-5.4897999999999998
 20
25.6602
 30
0.0
 10
-5.6337999999999999
 20
25.1234
 30
0.0
 10
-5.6337999999999999
 20
25.1234
 30
0.0
 10
-5.6814
 20
24.946300000000001
 30
0.0
 10
-5.6727999999999996
 20
24.004300000000001
 30
0.0
 10
-5.6798000000000002
 20
23.699200000000001
 30
0.0
  0
SPLINE
  5
52
100
AcDbEntity
  8
RÚteg 1
 62
     7
100
AcDbSpline
210
0.0
220
0.0
230
1.0
 70
     1
 71
     3
 72
    40
 73
    36
 74
     0
 42
0.0000000001
 43
0.0000000001
 40
0.0
 40
0.0
 40
0.0
 40
0.0
 40
0.1111111111111111
 40
0.1111111111111111
 40
0.1111111111111111
 40
0.1111111111111111
 40
0.2222222222222222
 40
0.2222222222222222
 40
0.2222222222222222
 40
0.2222222222222222
 40
0.3333333333333333
 40
0.3333333333333333
 40
0.3333333333333333
 40
0.3333333333333333
 40
0.4444444444444444
 40
0.4444444444444444
 40
0.4444444444444444
 40
0.4444444444444444
 40
0.5555555555555556
 40
0.5555555555555556
 40
0.5555555555555556
 40
0.5555555555555556
 40
0.6666666666666667
 40
0.6666666666666667
 40
0.6666666666666667
 40
0.6666666666666667
 40
0.7777777777777779
 40
0.7777777777777779
 40
0.7777777777777779
 40
0.7777777777777779
 40
0.8888888888888891
 40
0.8888888888888891
 40
0.8888888888888891
 40
0.8888888888888891
 40
1.0
 40
1.0
 40
1.0
 40
1.0
 10
-2.3235000000000001
 20
25.847300000000001
 30
0.0
 10
-2.3235000000000001
 20
24.987200000000001
 30
0.0
 10
-2.5865999999999998
 20
24.236000000000001
 30
0.0
 10
-3.8001999999999998
 20
24.236000000000001
 30
0.0
 10
-3.8001999999999998
 20
24.236000000000001
 30
0.0
 10
-3.8898000000000001
 20
24.236000000000001
 30
0.0
 10
-3.9792000000000001
 20
24.236000000000001
 30
0.0
 10
-4.0689000000000002
 20
24.236000000000001
 30
0.0
 10
-4.0689000000000002
 20
24.236000000000001
 30
0.0
 10
-4.4809000000000001
 20
24.236000000000001
 30
0.0
 10
-4.8742000000000001
 20
24.360499999999998
 30
0.0
 10
-4.8742000000000001
 20
24.773299999999999
 30
0.0
 10
-4.8742000000000001
 20
24.773299999999999
 30
0.0
 10
-4.8742000000000001
 20
24.937200000000001
 30
0.0
 10
-4.3494000000000002
 20
26.838699999999999
 30
0.0
 10
-4.2537000000000003
 20
26.971900000000002
 30
0.0
 10
-4.2537000000000003
 20
26.971900000000002
 30
0.0
 10
-3.9367999999999999
 20
27.411799999999999
 30
0.0
 10
-2.9138000000000002
 20
27.492899999999999
 30
0.0
 10
-2.8380000000000001
 20
28.404
 30
0.0
 10
-2.8380000000000001
 20
28.404
 30
0.0
 10
-2.6804999999999999
 20
28.445599999999999
 30
0.0
 10
-2.6286
 20
28.666399999999999
 30
0.0
 10
-2.5918000000000001
 20
28.666399999999999
 30
0.0
 10
-2.5918000000000001
 20
28.666399999999999
 30
0.0
 10
-2.0865999999999998
 20
28.666399999999999
 30
0.0
 10
-2.3382000000000001
 20
28.577999999999999
 30
0.0
 10
-1.7865
 20
28.5321
 30
0.0
 10
-1.7865
 20
28.5321
 30
0.0
 10
-1.6623000000000001
 20
27.998899999999999
 30
0.0
 10
-1.3668
 20
27.438800000000001
 30
0.0
 10
-1.4915
 20
27.032299999999999
 30
0.0
 10
-1.4915
 20
27.032299999999999
 30
0.0
 10
-1.6383000000000001
 20
26.5535
 30
0.0
 10
-2.3235000000000001
 20
25.890499999999999
 30
0.0
 10
-2.3235000000000001
 20
25.847300000000001
 30
0.0
  0
SPLINE
  5
53
100
AcDbEntity
  8
RÚteg 1
 62
     7
100
AcDbSpline
210
0.0
220
0.0
230
1.0
 70
     1
 71
     3
 72
    36
 73
    32
 74
     0
 42
0.0000000001
 43
0.0000000001
 40
0.0
 40
0.0
 40
0.0
 40
0.0
 40
0.125
 40
0.125
 40
0.125
 40
0.125
 40
0.25
 40
0.25
 40
0.25
 40
0.25
 40
0.375
 40
0.375
 40
0.375
 40
0.375
 40
0.5
 40
0.5
 40
0.5
 40
0.5
 40
0.625
 40
0.625
 40
0.625
 40
0.625
 40
0.75
 40
0.75
 40
0.75
 40
0.75
 40
0.875
 40
0.875
 40
0.875
 40
0.875
 40
1.0
 40
1.0
 40
1.0
 40
1.0
 10
-46.566200000000002
 20
27.482800000000001
 30
0.0
 10
-47.203099999999999
 20
27.322099999999999
 30
0.0
 10
-47.043999999999997
 20
26.822399999999998
 30
0.0
 10
-46.893500000000003
 20
26.5185
 30
0.0
 10
-46.893500000000003
 20
26.5185
 30
0.0
 10
-46.893500000000003
 20
25.283799999999999
 30
0.0
 10
-46.802199999999999
 20
25.460799999999999
 30
0.0
 10
-47.508899999999997
 20
24.851600000000001
 30
0.0
 10
-47.508899999999997
 20
24.851600000000001
 30
0.0
 10
-48.034599999999998
 20
24.398399999999999
 30
0.0
 10
-47.996299999999998
 20
24.1997
 30
0.0
 10
-48.504399999999997
 20
23.859000000000002
 30
0.0
 10
-48.504399999999997
 20
23.859000000000002
 30
0.0
 10
-49.453800000000001
 20
24.311900000000001
 30
0.0
 10
-50.415399999999998
 20
25.769300000000001
 30
0.0
 10
-49.18
 20
27.059699999999999
 30
0.0
 10
-49.18
 20
27.059699999999999
 30
0.0
 10
-48.277299999999997
 20
27.509399999999999
 30
0.0
 10
-48.6599
 20
26.731300000000001
 30
0.0
 10
-48.222000000000001
 20
27.981000000000002
 30
0.0
 10
-48.222000000000001
 20
27.981000000000002
 30
0.0
 10
-47.740299999999998
 20
29.354600000000001
 30
0.0
 10
-46.901800000000001
 20
28.767499999999998
 30
0.0
 10
-45.713200000000001
 20
28.654800000000002
 30
0.0
 10
-45.713200000000001
 20
28.654800000000002
 30
0.0
 10
-45.615699999999997
 20
28.392199999999999
 30
0.0
 10
-45.517899999999997
 20
28.1296
 30
0.0
 10
-45.420499999999997
 20
27.866800000000001
 30
0.0
 10
-45.420499999999997
 20
27.866800000000001
 30
0.0
 10
-45.766599999999997
 20
27.6675
 30
0.0
 10
-46.219900000000003
 20
27.682200000000002
 30
0.0
 10
-46.566200000000002
 20
27.482800000000001
 30
0.0
  0
SPLINE
  5
54
100
AcDbEntity
  8
RÚteg 1
 62
     7
100
AcDbSpline
210
0.0
220
0.0
230
1.0
 70
     1
 71
     3
 72
    36
 73
    32
 74
     0
 42
0.0000000001
 43
0.0000000001
 40
0.0
 40
0.0
 40
0.0
 40
0.0
 40
0.125
 40
0.125
 40
0.125
 40
0.125
 40
0.25
 40
0.25
 40
0.25
 40
0.25
 40
0.375
 40
0.375
 40
0.375
 40
0.375
 40
0.5
 40
0.5
 40
0.5
 40
0.5
 40
0.625
 40
0.625
 40
0.625
 40
0.625
 40
0.75
 40
0.75
 40
0.75
 40
0.75
 40
0.875
 40
0.875
 40
0.875
 40
0.875
 40
1.0
 40
1.0
 40
1.0
 40
1.0
 10
-9.8413000000000004
 20
27.323799999999999
 30
0.0
 10
-9.8788999999999998
 20
26.8734
 30
0.0
 10
-10.3117
 20
26.5185
 30
0.0
 10
-10.512600000000001
 20
26.5185
 30
0.0
 10
-10.512600000000001
 20
26.5185
 30
0.0
 10
-11.1912
 20
26.5185
 30
0.0
 10
-11.2257
 20
26.7346
 30
0.0
 10
-11.8552
 20
26.786999999999999
 30
0.0
 10
-11.8552
 20
26.786999999999999
 30
0.0
 10
-11.944599999999999
 20
27.323799999999999
 30
0.0
 10
-12.0341
 20
27.860800000000001
 30
0.0
 10
-12.1235
 20
28.3979
 30
0.0
 10
-12.1235
 20
28.3979
 30
0.0
 10
-12.0337
 20
28.567499999999999
 30
0.0
 10
-11.9392
 20
28.934999999999999
 30
0.0
 10
-11.721
 20
28.934999999999999
 30
0.0
 10
-11.721
 20
28.934999999999999
 30
0.0
 10
-11.1403
 20
28.934999999999999
 30
0.0
 10
-11.1797
 20
28.666399999999999
 30
0.0
 10
-10.7811
 20
28.666399999999999
 30
0.0
 10
-10.7811
 20
28.666399999999999
 30
0.0
 10
-9.5737000000000005
 20
28.666399999999999
 30
0.0
 10
-9.2932000000000006
 20
29.832599999999999
 30
0.0
 10
-8.6331000000000007
 20
30.008800000000001
 30
0.0
 10
-8.6331000000000007
 20
30.008800000000001
 30
0.0
 10
-8.4966000000000008
 20
29.496500000000001
 30
0.0
 10
-8.2303999999999995
 20
29.314
 30
0.0
 10
-8.2303999999999995
 20
28.5321
 30
0.0
 10
-8.2303999999999995
 20
28.5321
 30
0.0
 10
-8.2303999999999995
 20
27.923500000000001
 30
0.0
 10
-9.1247000000000007
 20
27.383600000000001
 30
0.0
 10
-9.8413000000000004
 20
27.323799999999999
 30
0.0
  0
SPLINE
  5
55
100
AcDbEntity
  8
RÚteg 1
 62
     7
100
AcDbSpline
210
0.0
220
0.0
230
1.0
 70
     1
 71
     3
 72
    32
 73
    28
 74
     0
 42
0.0000000001
 43
0.0000000001
 40
0.0
 40
0.0
 40
0.0
 40
0.0
 40
0.1428571428571429
 40
0.1428571428571429
 40
0.1428571428571429
 40
0.1428571428571429
 40
0.2857142857142857
 40
0.2857142857142857
 40
0.2857142857142857
 40
0.2857142857142857
 40
0.4285714285714286
 40
0.4285714285714286
 40
0.4285714285714286
 40
0.4285714285714286
 40
0.5714285714285714
 40
0.5714285714285714
 40
0.5714285714285714
 40
0.5714285714285714
 40
0.7142857142857142
 40
0.7142857142857142
 40
0.7142857142857142
 40
0.7142857142857142
 40
0.857142857142857
 40
0.857142857142857
 40
0.857142857142857
 40
0.857142857142857
 40
1.0
 40
1.0
 40
1.0
 40
1.0
 10
-39.644199999999998
 20
28.666399999999999
 30
0.0
 10
-39.644199999999998
 20
28.845400000000001
 30
0.0
 10
-39.644199999999998
 20
29.0244
 30
0.0
 10
-39.644199999999998
 20
29.203399999999998
 30
0.0
 10
-39.644199999999998
 20
29.203399999999998
 30
0.0
 10
-38.991900000000001
 20
29.131900000000002
 30
0.0
 10
-37.595500000000001
 20
26.889900000000001
 30
0.0
 10
-36.959200000000003
 20
26.384
 30
0.0
 10
-36.959200000000003
 20
26.384
 30
0.0
 10
-35.950200000000002
 20
25.582100000000001
 30
0.0
 10
-34.923299999999998
 20
24.574999999999999
 30
0.0
 10
-33.4788
 20
24.243099999999998
 30
0.0
 10
-33.4788
 20
24.243099999999998
 30
0.0
 10
-33.207000000000001
 20
24.5989
 30
0.0
 10
-32.935099999999998
 20
24.9544
 30
0.0
 10
-32.663499999999999
 20
25.310099999999998
 30
0.0
 10
-32.663499999999999
 20
25.310099999999998
 30
0.0
 10
-32.485199999999999
 20
24.938600000000001
 30
0.0
 10
-32.566699999999997
 20
23.296399999999998
 30
0.0
 10
-33.200400000000002
 20
23.296399999999998
 30
0.0
 10
-33.200400000000002
 20
23.296399999999998
 30
0.0
 10
-33.2453
 20
23.296399999999998
 30
0.0
 10
-33.2898
 20
23.296399999999998
 30
0.0
 10
-33.334699999999998
 20
23.296399999999998
 30
0.0
 10
-33.334699999999998
 20
23.296399999999998
 30
0.0
 10
-35.0304
 20
23.296399999999998
 30
0.0
 10
-39.644199999999998
 20
27.5199
 30
0.0
 10
-39.644199999999998
 20
28.666399999999999
 30
0.0
  0
SPLINE
  5
56
100
AcDbEntity
  8
RÚteg 1
 62
     7
100
AcDbSpline
210
0.0
220
0.0
230
1.0
 70
     1
 71
     3
 72
    44
 73
    40
 74
     0
 42
0.0000000001
 43
0.0000000001
 40
0.0
 40
0.0
 40
0.0
 40
0.0
 40
0.1
 40
0.1
 40
0.1
 40
0.1
 40
0.2
 40
0.2
 40
0.2
 40
0.2
 40
0.3
 40
0.3
 40
0.3
 40
0.3
 40
0.4
 40
0.4
 40
0.4
 40
0.4
 40
0.5
 40
0.5
 40
0.5
 40
0.5
 40
0.6
 40
0.6
 40
0.6
 40
0.6
 40
0.7
 40
0.7
 40
0.7
 40
0.7
 40
0.7999999999999999
 40
0.7999999999999999
 40
0.7999999999999999
 40
0.7999999999999999
 40
0.8999999999999999
 40
0.8999999999999999
 40
0.8999999999999999
 40
0.8999999999999999
 40
1.0
 40
1.0
 40
1.0
 40
1.0
 10
-41.926499999999997
 20
29.337599999999998
 30
0.0
 10
-41.420499999999997
 20
28.998799999999999
 30
0.0
 10
-40.641800000000003
 20
27.4483
 30
0.0
 10
-40.159500000000001
 20
26.808700000000002
 30
0.0
 10
-40.159500000000001
 20
26.808700000000002
 30
0.0
 10
-39.528100000000002
 20
25.972000000000001
 30
0.0
 10
-38.859299999999998
 20
25.299199999999999
 30
0.0
 10
-38.069699999999997
 20
24.6023
 30
0.0
 10
-38.069699999999997
 20
24.6023
 30
0.0
 10
-36.319200000000002
 20
23.057300000000001
 30
0.0
 10
-34.909300000000002
 20
22.265999999999998
 30
0.0
 10
-32.740499999999997
 20
21.1112
 30
0.0
 10
-32.740499999999997
 20
21.1112
 30
0.0
 10
-32.449399999999997
 20
21.557600000000001
 30
0.0
 10
-32.1584
 20
22.003900000000002
 30
0.0
 10
-31.8675
 20
22.450299999999999
 30
0.0
 10
-31.8675
 20
22.450299999999999
 30
0.0
 10
-31.819400000000002
 20
22.4193
 30
0.0
 10
-31.7715
 20
22.387899999999998
 30
0.0
 10
-31.723600000000001
 20
22.3566
 30
0.0
 10
-31.723600000000001
 20
22.3566
 30
0.0
 10
-31.542200000000001
 20
21.978899999999999
 30
0.0
 10
-31.6081
 20
20.0746
 30
0.0
 10
-32.3947
 20
20.0746
 30
0.0
 10
-32.3947
 20
20.0746
 30
0.0
 10
-32.439500000000002
 20
20.0746
 30
0.0
 10
-32.484400000000001
 20
20.0746
 30
0.0
 10
-32.529200000000003
 20
20.0746
 30
0.0
 10
-32.529200000000003
 20
20.0746
 30
0.0
 10
-32.924599999999998
 20
20.0746
 30
0.0
 10
-35.313099999999999
 20
21.333200000000001
 30
0.0
 10
-35.749600000000001
 20
21.552700000000002
 30
0.0
 10
-35.749600000000001
 20
21.552700000000002
 30
0.0
 10
-36.567300000000003
 20
21.963699999999999
 30
0.0
 10
-37.711799999999997
 20
22.9617
 30
0.0
 10
-38.402700000000003
 20
23.597999999999999
 30
0.0
 10
-38.402700000000003
 20
23.597999999999999
 30
0.0
 10
-39.133400000000002
 20
24.2713
 30
0.0
 10
-42.642299999999999
 20
28.237200000000001
 30
0.0
 10
-41.926499999999997
 20
29.337599999999998
 30
0.0
  0
SPLINE
  5
57
100
AcDbEntity
  8
RÚteg 1
 62
     7
100
AcDbSpline
210
0.0
220
0.0
230
1.0
 70
     1
 71
     3
 72
    32
 73
    28
 74
     0
 42
0.0000000001
 43
0.0000000001
 40
0.0
 40
0.0
 40
0.0
 40
0.0
 40
0.1428571428571429
 40
0.1428571428571429
 40
0.1428571428571429
 40
0.1428571428571429
 40
0.2857142857142857
 40
0.2857142857142857
 40
0.2857142857142857
 40
0.2857142857142857
 40
0.4285714285714286
 40
0.4285714285714286
 40
0.4285714285714286
 40
0.4285714285714286
 40
0.5714285714285714
 40
0.5714285714285714
 40
0.5714285714285714
 40
0.5714285714285714
 40
0.7142857142857142
 40
0.7142857142857142
 40
0.7142857142857142
 40
0.7142857142857142
 40
0.857142857142857
 40
0.857142857142857
 40
0.857142857142857
 40
0.857142857142857
 40
1.0
 40
1.0
 40
1.0
 40
1.0
 10
-48.627099999999999
 20
28.0672
 30
0.0
 10
-49.1935
 20
27.632100000000001
 30
0.0
 10
-49.760300000000001
 20
27.197099999999999
 30
0.0
 10
-50.326599999999999
 20
26.7621
 30
0.0
 10
-50.326599999999999
 20
26.7621
 30
0.0
 10
-49.989899999999999
 20
26.742999999999999
 30
0.0
 10
-51.698
 20
27.4832
 30
0.0
 10
-52.129199999999997
 20
27.189599999999999
 30
0.0
 10
-52.129199999999997
 20
27.189599999999999
 30
0.0
 10
-52.106299999999997
 20
28.221299999999999
 30
0.0
 10
-50.783099999999997
 20
28.9422
 30
0.0
 10
-50.147100000000002
 20
28.6846
 30
0.0
 10
-50.147100000000002
 20
28.6846
 30
0.0
 10
-50.004300000000001
 20
29.005800000000001
 30
0.0
 10
-49.861499999999999
 20
29.327100000000002
 30
0.0
 10
-49.718899999999998
 20
29.648399999999999
 30
0.0
 10
-49.718899999999998
 20
29.648399999999999
 30
0.0
 10
-49.232199999999999
 20
29.717199999999998
 30
0.0
 10
-48.745399999999997
 20
29.785399999999999
 30
0.0
 10
-48.258699999999997
 20
29.853999999999999
 30
0.0
 10
-48.258699999999997
 20
29.853999999999999
 30
0.0
 10
-48.128999999999998
 20
29.688700000000001
 30
0.0
 10
-47.999099999999999
 20
29.523700000000002
 30
0.0
 10
-47.869199999999999
 20
29.358499999999999
 30
0.0
 10
-47.869199999999999
 20
29.358499999999999
 30
0.0
 10
-48.121699999999997
 20
28.928100000000001
 30
0.0
 10
-48.374499999999998
 20
28.497699999999998
 30
0.0
 10
-48.627099999999999
 20
28.0672
 30
0.0
  0
SPLINE
  5
58
100
AcDbEntity
  8
RÚteg 1
 62
     7
100
AcDbSpline
210
0.0
220
0.0
230
1.0
 70
     1
 71
     3
 72
    44
 73
    40
 74
     0
 42
0.0000000001
 43
0.0000000001
 40
0.0
 40
0.0
 40
0.0
 40
0.0
 40
0.1
 40
0.1
 40
0.1
 40
0.1
 40
0.2
 40
0.2
 40
0.2
 40
0.2
 40
0.3
 40
0.3
 40
0.3
 40
0.3
 40
0.4
 40
0.4
 40
0.4
 40
0.4
 40
0.5
 40
0.5
 40
0.5
 40
0.5
 40
0.6
 40
0.6
 40
0.6
 40
0.6
 40
0.7
 40
0.7
 40
0.7
 40
0.7
 40
0.7999999999999999
 40
0.7999999999999999
 40
0.7999999999999999
 40
0.7999999999999999
 40
0.8999999999999999
 40
0.8999999999999999
 40
0.8999999999999999
 40
0.8999999999999999
 40
1.0
 40
1.0
 40
1.0
 40
1.0
 10
-8.2303999999999995
 20
30.2774
 30
0.0
 10
-8.1127000000000002
 20
30.437899999999999
 30
0.0
 10
-6.9164000000000003
 20
31.216999999999999
 30
0.0
 10
-6.7537000000000003
 20
31.216999999999999
 30
0.0
 10
-6.7537000000000003
 20
31.216999999999999
 30
0.0
 10
-6.7089999999999996
 20
31.216999999999999
 30
0.0
 10
-6.6641000000000004
 20
31.216999999999999
 30
0.0
 10
-6.6193
 20
31.216999999999999
 30
0.0
 10
-6.6193
 20
31.216999999999999
 30
0.0
 10
-5.8204000000000002
 20
31.216999999999999
 30
0.0
 10
-5.3169000000000004
 20
29.730799999999999
 30
0.0
 10
-5.8739999999999997
 20
28.860700000000001
 30
0.0
 10
-5.8739999999999997
 20
28.860700000000001
 30
0.0
 10
-6.3822000000000001
 20
28.067299999999999
 30
0.0
 10
-6.2530999999999999
 20
28.834900000000001
 30
0.0
 10
-6.3887999999999998
 20
27.7455
 30
0.0
 10
-6.3887999999999998
 20
27.7455
 30
0.0
 10
-6.4509999999999996
 20
27.245999999999999
 30
0.0
 10
-6.766
 20
26.786999999999999
 30
0.0
 10
-7.4249000000000001
 20
26.786999999999999
 30
0.0
 10
-7.4249000000000001
 20
26.786999999999999
 30
0.0
 10
-7.6935000000000002
 20
26.786999999999999
 30
0.0
 10
-7.9618000000000002
 20
26.786999999999999
 30
0.0
 10
-8.2303999999999995
 20
26.786999999999999
 30
0.0
 10
-8.2303999999999995
 20
26.786999999999999
 30
0.0
 10
-8.2303999999999995
 20
26.965900000000001
 30
0.0
 10
-8.2303999999999995
 20
27.145
 30
0.0
 10
-8.2303999999999995
 20
27.323799999999999
 30
0.0
 10
-8.2303999999999995
 20
27.323799999999999
 30
0.0
 10
-8.2303999999999995
 20
27.817699999999999
 30
0.0
 10
-7.8274999999999997
 20
27.6357
 30
0.0
 10
-7.8274999999999997
 20
28.1295
 30
0.0
 10
-7.8274999999999997
 20
28.1295
 30
0.0
 10
-7.8274999999999997
 20
28.621600000000001
 30
0.0
 10
-7.8274999999999997
 20
29.114000000000001
 30
0.0
 10
-7.8274999999999997
 20
29.606200000000001
 30
0.0
 10
-7.8274999999999997
 20
29.606200000000001
 30
0.0
 10
-7.8274999999999997
 20
29.928699999999999
 30
0.0
 10
-8.0450999999999997
 20
30.000900000000001
 30
0.0
 10
-8.2303999999999995
 20
30.2774
 30
0.0
  0
SPLINE
  5
59
100
AcDbEntity
  8
RÚteg 1
 62
     7
100
AcDbSpline
210
0.0
220
0.0
230
1.0
 70
     1
 71
     3
 72
    16
 73
    12
 74
     0
 42
0.0000000001
 43
0.0000000001
 40
0.0
 40
0.0
 40
0.0
 40
0.0
 40
0.3333333333333333
 40
0.3333333333333333
 40
0.3333333333333333
 40
0.3333333333333333
 40
0.6666666666666666
 40
0.6666666666666666
 40
0.6666666666666666
 40
0.6666666666666666
 40
1.0
 40
1.0
 40
1.0
 40
1.0
 10
-21.2119
 20
31.4955
 30
0.0
 10
-20.099299999999999
 20
31.177700000000002
 30
0.0
 10
-19.641200000000001
 20
28.8323
 30
0.0
 10
-19.641200000000001
 20
27.323799999999999
 30
0.0
 10
-19.641200000000001
 20
27.323799999999999
 30
0.0
 10
-19.641200000000001
 20
26.854500000000002
 30
0.0
 10
-19.7713
 20
26.5839
 30
0.0
 10
-19.9666
 20
26.402999999999999
 30
0.0
 10
-19.9666
 20
26.402999999999999
 30
0.0
 10
-20.381699999999999
 20
28.1006
 30
0.0
 10
-20.796600000000002
 20
29.797999999999998
 30
0.0
 10
-21.2119
 20
31.4955
 30
0.0
  0
SPLINE
  5
5A
100
AcDbEntity
  8
RÚteg 1
 62
     7
100
AcDbSpline
210
0.0
220
0.0
230
1.0
 70
     1
 71
     3
 72
    28
 73
    24
 74
     0
 42
0.0000000001
 43
0.0000000001
 40
0.0
 40
0.0
 40
0.0
 40
0.0
 40
0.1666666666666667
 40
0.1666666666666667
 40
0.1666666666666667
 40
0.1666666666666667
 40
0.3333333333333333
 40
0.3333333333333333
 40
0.3333333333333333
 40
0.3333333333333333
 40
0.5
 40
0.5
 40
0.5
 40
0.5
 40
0.6666666666666666
 40
0.6666666666666666
 40
0.6666666666666666
 40
0.6666666666666666
 40
0.8333333333333333
 40
0.8333333333333333
 40
0.8333333333333333
 40
0.8333333333333333
 40
1.0
 40
1.0
 40
1.0
 40
1.0
 10
-12.660399999999999
 20
31.485600000000002
 30
0.0
 10
-12.660399999999999
 20
31.619900000000001
 30
0.0
 10
-12.660399999999999
 20
31.753900000000002
 30
0.0
 10
-12.660399999999999
 20
31.888300000000001
 30
0.0
 10
-12.660399999999999
 20
31.888300000000001
 30
0.0
 10
-11.9755
 20
31.873100000000001
 30
0.0
 10
-9.4387000000000008
 20
31.104700000000001
 30
0.0
 10
-9.4387000000000008
 20
30.545999999999999
 30
0.0
 10
-9.4387000000000008
 20
30.545999999999999
 30
0.0
 10
-9.4387000000000008
 20
30.501300000000001
 30
0.0
 10
-9.4387000000000008
 20
30.456399999999999
 30
0.0
 10
-9.4387000000000008
 20
30.4115
 30
0.0
 10
-9.4387000000000008
 20
30.4115
 30
0.0
 10
-9.4387000000000008
 20
30.018000000000001
 30
0.0
 10
-10.119
 20
29.337599999999998
 30
0.0
 10
-10.512600000000001
 20
29.337599999999998
 30
0.0
 10
-10.512600000000001
 20
29.337599999999998
 30
0.0
 10
-10.691599999999999
 20
29.337599999999998
 30
0.0
 10
-10.870699999999999
 20
29.337599999999998
 30
0.0
 10
-11.0496
 20
29.337599999999998
 30
0.0
 10
-11.0496
 20
29.337599999999998
 30
0.0
 10
-11.742699999999999
 20
29.337599999999998
 30
0.0
 10
-12.660399999999999
 20
30.744299999999999
 30
0.0
 10
-12.660399999999999
 20
31.485600000000002
 30
0.0
  0
SPLINE
  5
5B
100
AcDbEntity
  8
RÚteg 1
 62
     7
100
AcDbSpline
210
0.0
220
0.0
230
1.0
 70
     1
 71
     3
 72
    40
 73
    36
 74
     0
 42
0.0000000001
 43
0.0000000001
 40
0.0
 40
0.0
 40
0.0
 40
0.0
 40
0.1111111111111111
 40
0.1111111111111111
 40
0.1111111111111111
 40
0.1111111111111111
 40
0.2222222222222222
 40
0.2222222222222222
 40
0.2222222222222222
 40
0.2222222222222222
 40
0.3333333333333333
 40
0.3333333333333333
 40
0.3333333333333333
 40
0.3333333333333333
 40
0.4444444444444444
 40
0.4444444444444444
 40
0.4444444444444444
 40
0.4444444444444444
 40
0.5555555555555556
 40
0.5555555555555556
 40
0.5555555555555556
 40
0.5555555555555556
 40
0.6666666666666667
 40
0.6666666666666667
 40
0.6666666666666667
 40
0.6666666666666667
 40
0.7777777777777779
 40
0.7777777777777779
 40
0.7777777777777779
 40
0.7777777777777779
 40
0.8888888888888891
 40
0.8888888888888891
 40
0.8888888888888891
 40
0.8888888888888891
 40
1.0
 40
1.0
 40
1.0
 40
1.0
 10
-20.055700000000002
 20
32.020299999999999
 30
0.0
 10
-19.2559
 20
31.605499999999999
 30
0.0
 10
-18.298999999999999
 20
29.9237
 30
0.0
 10
-18.170000000000002
 20
28.6938
 30
0.0
 10
-18.170000000000002
 20
28.6938
 30
0.0
 10
-17.995999999999999
 20
27.8369
 30
0.0
 10
-17.821999999999999
 20
26.9802
 30
0.0
 10
-17.648199999999999
 20
26.1233
 30
0.0
 10
-17.648199999999999
 20
26.1233
 30
0.0
 10
-17.731000000000002
 20
25.852399999999999
 30
0.0
 10
-17.813400000000001
 20
25.581399999999999
 30
0.0
 10
-17.896000000000001
 20
25.310099999999998
 30
0.0
 10
-17.896000000000001
 20
25.310099999999998
 30
0.0
 10
-18.615200000000002
 20
25.502199999999998
 30
0.0
 10
-18.148
 20
26.718900000000001
 30
0.0
 10
-18.482600000000001
 20
27.677199999999999
 30
0.0
 10
-18.482600000000001
 20
27.677199999999999
 30
0.0
 10
-18.706700000000001
 20
28.318899999999999
 30
0.0
 10
-19.104399999999998
 20
29.332100000000001
 30
0.0
 10
-19.104399999999998
 20
30.008800000000001
 30
0.0
 10
-19.104399999999998
 20
30.008800000000001
 30
0.0
 10
-19.313199999999998
 20
30.148599999999998
 30
0.0
 10
-19.507300000000001
 20
30.186599999999999
 30
0.0
 10
-19.507300000000001
 20
30.545999999999999
 30
0.0
 10
-19.507300000000001
 20
30.545999999999999
 30
0.0
 10
-19.510100000000001
 20
30.671700000000001
 30
0.0
 10
-19.513500000000001
 20
30.797499999999999
 30
0.0
 10
-19.5169
 20
30.923400000000001
 30
0.0
 10
-19.5169
 20
30.923400000000001
 30
0.0
 10
-19.638400000000001
 20
30.9785
 30
0.0
 10
-19.759599999999999
 20
31.0334
 30
0.0
 10
-19.8811
 20
31.0883
 30
0.0
 10
-19.8811
 20
31.0883
 30
0.0
 10
-19.939299999999999
 20
31.399000000000001
 30
0.0
 10
-19.997499999999999
 20
31.709700000000002
 30
0.0
 10
-20.055700000000002
 20
32.020299999999999
 30
0.0
  0
SPLINE
  5
5C
100
AcDbEntity
  8
RÚteg 1
 62
     7
100
AcDbSpline
210
0.0
220
0.0
230
1.0
 70
     1
 71
     3
 72
    48
 73
    44
 74
     0
 42
0.0000000001
 43
0.0000000001
 40
0.0
 40
0.0
 40
0.0
 40
0.0
 40
0.0909090909090909
 40
0.0909090909090909
 40
0.0909090909090909
 40
0.0909090909090909
 40
0.1818181818181818
 40
0.1818181818181818
 40
0.1818181818181818
 40
0.1818181818181818
 40
0.2727272727272727
 40
0.2727272727272727
 40
0.2727272727272727
 40
0.2727272727272727
 40
0.3636363636363637
 40
0.3636363636363637
 40
0.3636363636363637
 40
0.3636363636363637
 40
0.4545454545454546
 40
0.4545454545454546
 40
0.4545454545454546
 40
0.4545454545454546
 40
0.5454545454545455
 40
0.5454545454545455
 40
0.5454545454545455
 40
0.5454545454545455
 40
0.6363636363636365
 40
0.6363636363636365
 40
0.6363636363636365
 40
0.6363636363636365
 40
0.7272727272727274
 40
0.7272727272727274
 40
0.7272727272727274
 40
0.7272727272727274
 40
0.8181818181818183
 40
0.8181818181818183
 40
0.8181818181818183
 40
0.8181818181818183
 40
0.9090909090909093
 40
0.9090909090909093
 40
0.9090909090909093
 40
0.9090909090909093
 40
1.0
 40
1.0
 40
1.0
 40
1.0
 10
-3.3976000000000002
 20
30.143000000000001
 30
0.0
 10
-3.3976000000000002
 20
29.5656
 30
0.0
 10
-3.2408999999999999
 20
29.415500000000002
 30
0.0
 10
-3.1288999999999998
 20
28.934999999999999
 30
0.0
 10
-3.1288999999999998
 20
28.934999999999999
 30
0.0
 10
-3.4535999999999998
 20
28.3215
 30
0.0
 10
-3.7816999999999998
 20
27.592500000000001
 30
0.0
 10
-4.7400000000000002
 20
27.592500000000001
 30
0.0
 10
-4.7400000000000002
 20
27.592500000000001
 30
0.0
 10
-4.8296999999999999
 20
27.592500000000001
 30
0.0
 10
-4.9188000000000001
 20
27.592500000000001
 30
0.0
 10
-5.0086000000000004
 20
27.592500000000001
 30
0.0
 10
-5.0086000000000004
 20
27.592500000000001
 30
0.0
 10
-5.4447999999999999
 20
27.592500000000001
 30
0.0
 10
-5.1097999999999999
 20
27.7087
 30
0.0
 10
-5.6798000000000002
 20
27.860800000000001
 30
0.0
 10
-5.6798000000000002
 20
27.860800000000001
 30
0.0
 10
-5.6590999999999996
 20
28.7851
 30
0.0
 10
-5.0086000000000004
 20
28.979700000000001
 30
0.0
 10
-5.0086000000000004
 20
29.740200000000002
 30
0.0
 10
-5.0086000000000004
 20
29.740200000000002
 30
0.0
 10
-5.0086000000000004
 20
29.829999999999998
 30
0.0
 10
-5.0086000000000004
 20
29.9193
 30
0.0
 10
-5.0086000000000004
 20
30.008800000000001
 30
0.0
 10
-5.0086000000000004
 20
30.008800000000001
 30
0.0
 10
-5.0086000000000004
 20
30.459
 30
0.0
 10
-5.3903999999999996
 20
30.279199999999999
 30
0.0
 10
-5.4112
 20
31.216999999999999
 30
0.0
 10
-5.4112
 20
31.216999999999999
 30
0.0
 10
-4.3243
 20
31.507300000000001
 30
0.0
 10
-4.3932000000000002
 20
32.962299999999999
 30
0.0
 10
-3.8001999999999998
 20
32.962299999999999
 30
0.0
 10
-3.8001999999999998
 20
32.962299999999999
 30
0.0
 10
-3.6659999999999999
 20
32.962299999999999
 30
0.0
 10
-3.5318000000000001
 20
32.962299999999999
 30
0.0
 10
-3.3976000000000002
 20
32.962299999999999
 30
0.0
 10
-3.3976000000000002
 20
32.962299999999999
 30
0.0
 10
-2.9060000000000001
 20
32.962299999999999
 30
0.0
 10
-2.6404999999999998
 20
31.872399999999999
 30
0.0
 10
-2.6528999999999998
 20
31.724399999999999
 30
0.0
 10
-2.6528999999999998
 20
31.724399999999999
 30
0.0
 10
-2.6987000000000001
 20
31.172499999999999
 30
0.0
 10
-3.3976000000000002
 20
30.160299999999999
 30
0.0
 10
-3.3976000000000002
 20
30.143000000000001
 30
0.0
  0
SPLINE
  5
5D
100
AcDbEntity
  8
RÚteg 1
 62
     7
100
AcDbSpline
210
0.0
220
0.0
230
1.0
 70
     1
 71
     3
 72
    20
 73
    16
 74
     0
 42
0.0000000001
 43
0.0000000001
 40
0.0
 40
0.0
 40
0.0
 40
0.0
 40
0.25
 40
0.25
 40
0.25
 40
0.25
 40
0.5
 40
0.5
 40
0.5
 40
0.5
 40
0.75
 40
0.75
 40
0.75
 40
0.75
 40
1.0
 40
1.0
 40
1.0
 40
1.0
 10
-30.734500000000001
 20
31.009699999999999
 30
0.0
 10
-30.712900000000001
 20
31.935199999999998
 30
0.0
 10
-29.495799999999999
 20
32.566099999999999
 30
0.0
 10
-28.904599999999999
 20
32.962299999999999
 30
0.0
 10
-28.904599999999999
 20
32.962299999999999
 30
0.0
 10
-28.251999999999999
 20
32.525399999999998
 30
0.0
 10
-27.786100000000001
 20
31.343299999999999
 30
0.0
 10
-28.321400000000001
 20
30.367899999999999
 30
0.0
 10
-28.321400000000001
 20
30.367899999999999
 30
0.0
 10
-28.6113
 20
30.9285
 30
0.0
 10
-28.9011
 20
31.488900000000001
 30
0.0
 10
-29.190999999999999
 20
32.049599999999998
 30
0.0
 10
-29.190999999999999
 20
32.049599999999998
 30
0.0
 10
-29.7056
 20
31.7028
 30
0.0
 10
-30.219899999999999
 20
31.356300000000001
 30
0.0
 10
-30.734500000000001
 20
31.009699999999999
 30
0.0
  0
SPLINE
  5
5E
100
AcDbEntity
  8
RÚteg 1
 62
     7
100
AcDbSpline
210
0.0
220
0.0
230
1.0
 70
     1
 71
     3
 72
   208
 73
   204
 74
     0
 42
0.0000000001
 43
0.0000000001
 40
0.0
 40
0.0
 40
0.0
 40
0.0
 40
0.0196078431372549
 40
0.0196078431372549
 40
0.0196078431372549
 40
0.0196078431372549
 40
0.0392156862745098
 40
0.0392156862745098
 40
0.0392156862745098
 40
0.0392156862745098
 40
0.0588235294117647
 40
0.0588235294117647
 40
0.0588235294117647
 40
0.0588235294117647
 40
0.0784313725490196
 40
0.0784313725490196
 40
0.0784313725490196
 40
0.0784313725490196
 40
0.0980392156862745
 40
0.0980392156862745
 40
0.0980392156862745
 40
0.0980392156862745
 40
0.1176470588235294
 40
0.1176470588235294
 40
0.1176470588235294
 40
0.1176470588235294
 40
0.1372549019607843
 40
0.1372549019607843
 40
0.1372549019607843
 40
0.1372549019607843
 40
0.1568627450980392
 40
0.1568627450980392
 40
0.1568627450980392
 40
0.1568627450980392
 40
0.1764705882352941
 40
0.1764705882352941
 40
0.1764705882352941
 40
0.1764705882352941
 40
0.196078431372549
 40
0.196078431372549
 40
0.196078431372549
 40
0.196078431372549
 40
0.2156862745098039
 40
0.2156862745098039
 40
0.2156862745098039
 40
0.2156862745098039
 40
0.2352941176470588
 40
0.2352941176470588
 40
0.2352941176470588
 40
0.2352941176470588
 40
0.2549019607843137
 40
0.2549019607843137
 40
0.2549019607843137
 40
0.2549019607843137
 40
0.2745098039215685
 40
0.2745098039215685
 40
0.2745098039215685
 40
0.2745098039215685
 40
0.2941176470588234
 40
0.2941176470588234
 40
0.2941176470588234
 40
0.2941176470588234
 40
0.3137254901960783
 40
0.3137254901960783
 40
0.3137254901960783
 40
0.3137254901960783
 40
0.3333333333333332
 40
0.3333333333333332
 40
0.3333333333333332
 40
0.3333333333333332
 40
0.3529411764705881
 40
0.3529411764705881
 40
0.3529411764705881
 40
0.3529411764705881
 40
0.372549019607843
 40
0.372549019607843
 40
0.372549019607843
 40
0.372549019607843
 40
0.3921568627450979
 40
0.3921568627450979
 40
0.3921568627450979
 40
0.3921568627450979
 40
0.4117647058823528
 40
0.4117647058823528
 40
0.4117647058823528
 40
0.4117647058823528
 40
0.4313725490196076
 40
0.4313725490196076
 40
0.4313725490196076
 40
0.4313725490196076
 40
0.4509803921568625
 40
0.4509803921568625
 40
0.4509803921568625
 40
0.4509803921568625
 40
0.4705882352941174
 40
0.4705882352941174
 40
0.4705882352941174
 40
0.4705882352941174
 40
0.4901960784313723
 40
0.4901960784313723
 40
0.4901960784313723
 40
0.4901960784313723
 40
0.5098039215686272
 40
0.5098039215686272
 40
0.5098039215686272
 40
0.5098039215686272
 40
0.5294117647058821
 40
0.5294117647058821
 40
0.5294117647058821
 40
0.5294117647058821
 40
0.5490196078431371
 40
0.5490196078431371
 40
0.5490196078431371
 40
0.5490196078431371
 40
0.568627450980392
 40
0.568627450980392
 40
0.568627450980392
 40
0.568627450980392
 40
0.588235294117647
 40
0.588235294117647
 40
0.588235294117647
 40
0.588235294117647
 40
0.6078431372549019
 40
0.6078431372549019
 40
0.6078431372549019
 40
0.6078431372549019
 40
0.6274509803921569
 40
0.6274509803921569
 40
0.6274509803921569
 40
0.6274509803921569
 40
0.6470588235294118
 40
0.6470588235294118
 40
0.6470588235294118
 40
0.6470588235294118
 40
0.6666666666666667
 40
0.6666666666666667
 40
0.6666666666666667
 40
0.6666666666666667
 40
0.6862745098039217
 40
0.6862745098039217
 40
0.6862745098039217
 40
0.6862745098039217
 40
0.7058823529411766
 40
0.7058823529411766
 40
0.7058823529411766
 40
0.7058823529411766
 40
0.7254901960784316
 40
0.7254901960784316
 40
0.7254901960784316
 40
0.7254901960784316
 40
0.7450980392156865
 40
0.7450980392156865
 40
0.7450980392156865
 40
0.7450980392156865
 40
0.7647058823529415
 40
0.7647058823529415
 40
0.7647058823529415
 40
0.7647058823529415
 40
0.7843137254901964
 40
0.7843137254901964
 40
0.7843137254901964
 40
0.7843137254901964
 40
0.8039215686274513
 40
0.8039215686274513
 40
0.8039215686274513
 40
0.8039215686274513
 40
0.8235294117647063
 40
0.8235294117647063
 40
0.8235294117647063
 40
0.8235294117647063
 40
0.8431372549019612
 40
0.8431372549019612
 40
0.8431372549019612
 40
0.8431372549019612
 40
0.8627450980392162
 40
0.8627450980392162
 40
0.8627450980392162
 40
0.8627450980392162
 40
0.8823529411764711
 40
0.8823529411764711
 40
0.8823529411764711
 40
0.8823529411764711
 40
0.9019607843137261
 40
0.9019607843137261
 40
0.9019607843137261
 40
0.9019607843137261
 40
0.921568627450981
 40
0.921568627450981
 40
0.921568627450981
 40
0.921568627450981
 40
0.941176470588236
 40
0.941176470588236
 40
0.941176470588236
 40
0.941176470588236
 40
0.9607843137254909
 40
0.9607843137254909
 40
0.9607843137254909
 40
0.9607843137254909
 40
0.9803921568627458
 40
0.9803921568627458
 40
0.9803921568627458
 40
0.9803921568627458
 40
1.0
 40
1.0
 40
1.0
 40
1.0
 10
-26.0852
 20
31.619900000000001
 30
0.0
 10
-25.940100000000001
 20
32.243400000000001
 30
0.0
 10
-24.2057
 20
33.309199999999997
 30
0.0
 10
-23.563500000000001
 20
33.348599999999998
 30
0.0
 10
-23.563500000000001
 20
33.348599999999998
 30
0.0
 10
-23.2834
 20
32.862200000000001
 30
0.0
 10
-23.003399999999999
 20
32.375599999999999
 30
0.0
 10
-22.723199999999999
 20
31.888999999999999
 30
0.0
 10
-22.723199999999999
 20
31.888999999999999
 30
0.0
 10
-22.591100000000001
 20
30.5016
 30
0.0
 10
-22.458600000000001
 20
29.1142
 30
0.0
 10
-22.3264
 20
27.726600000000001
 30
0.0
 10
-22.3264
 20
27.726600000000001
 30
0.0
 10
-22.328299999999999
 20
27.224299999999999
 30
0.0
 10
-22.330200000000001
 20
26.722000000000001
 30
0.0
 10
-22.3322
 20
26.2197
 30
0.0
 10
-22.3322
 20
26.2197
 30
0.0
 10
-22.553999999999998
 20
26.2745
 30
0.0
 10
-22.776
 20
26.3294
 30
0.0
 10
-22.997699999999998
 20
26.384
 30
0.0
 10
-22.997699999999998
 20
26.384
 30
0.0
 10
-22.979700000000001
 20
25.579699999999999
 30
0.0
 10
-22.729099999999999
 20
25.797899999999998
 30
0.0
 10
-22.729099999999999
 20
25.175899999999999
 30
0.0
 10
-22.729099999999999
 20
25.175899999999999
 30
0.0
 10
-22.729099999999999
 20
25.086500000000001
 30
0.0
 10
-22.729099999999999
 20
24.9969
 30
0.0
 10
-22.729099999999999
 20
24.907599999999999
 30
0.0
 10
-22.729099999999999
 20
24.907599999999999
 30
0.0
 10
-22.729099999999999
 20
24.536200000000001
 30
0.0
 10
-22.832599999999999
 20
24.584599999999998
 30
0.0
 10
-23.079699999999999
 20
24.533999999999999
 30
0.0
 10
-23.079699999999999
 20
24.533999999999999
 30
0.0
 10
-23.239000000000001
 20
24.746500000000001
 30
0.0
 10
-23.398399999999999
 20
24.959399999999999
 30
0.0
 10
-23.557400000000001
 20
25.172000000000001
 30
0.0
 10
-23.557400000000001
 20
25.172000000000001
 30
0.0
 10
-23.504999999999999
 20
24.8154
 30
0.0
 10
-23.4527
 20
24.4588
 30
0.0
 10
-23.400300000000001
 20
24.1021
 30
0.0
 10
-23.400300000000001
 20
24.1021
 30
0.0
 10
-23.360399999999998
 20
23.865600000000001
 30
0.0
 10
-23.539899999999999
 20
23.757300000000001
 30
0.0
 10
-23.717300000000002
 20
23.513000000000002
 30
0.0
 10
-23.717300000000002
 20
23.513000000000002
 30
0.0
 10
-23.818200000000001
 20
23.616299999999999
 30
0.0
 10
-23.9192
 20
23.7195
 30
0.0
 10
-24.020099999999999
 20
23.822900000000001
 30
0.0
 10
-24.020099999999999
 20
23.822900000000001
 30
0.0
 10
-24.126799999999999
 20
23.289400000000001
 30
0.0
 10
-24.2334
 20
22.7559
 30
0.0
 10
-24.34
 20
22.2225
 30
0.0
 10
-24.34
 20
22.2225
 30
0.0
 10
-24.519100000000002
 20
22.2225
 30
0.0
 10
-24.697900000000001
 20
22.2225
 30
0.0
 10
-24.877099999999999
 20
22.2225
 30
0.0
 10
-24.877099999999999
 20
22.2225
 30
0.0
 10
-24.877099999999999
 20
22.311900000000001
 30
0.0
 10
-24.877099999999999
 20
22.401599999999998
 30
0.0
 10
-24.877099999999999
 20
22.491099999999999
 30
0.0
 10
-24.877099999999999
 20
22.491099999999999
 30
0.0
 10
-24.9666
 20
22.491099999999999
 30
0.0
 10
-25.056000000000001
 20
22.491099999999999
 30
0.0
 10
-25.145700000000001
 20
22.491099999999999
 30
0.0
 10
-25.145700000000001
 20
22.491099999999999
 30
0.0
 10
-25.145700000000001
 20
21.733799999999999
 30
0.0
 10
-25.367799999999999
 20
21.035699999999999
 30
0.0
 10
-25.930599999999998
 20
20.8843
 30
0.0
 10
-25.930599999999998
 20
20.8843
 30
0.0
 10
-26.004999999999999
 20
21.1616
 30
0.0
 10
-26.0793
 20
21.438700000000001
 30
0.0
 10
-26.153500000000001
 20
21.715900000000001
 30
0.0
 10
-26.153500000000001
 20
21.715900000000001
 30
0.0
 10
-26.363800000000001
 20
21.2424
 30
0.0
 10
-26.574000000000002
 20
20.769100000000002
 30
0.0
 10
-26.784400000000002
 20
20.2956
 30
0.0
 10
-26.784400000000002
 20
20.2956
 30
0.0
 10
-26.872299999999999
 20
20.311299999999999
 30
0.0
 10
-26.9602
 20
20.327000000000002
 30
0.0
 10
-27.047999999999998
 20
20.342400000000001
 30
0.0
 10
-27.047999999999998
 20
20.342400000000001
 30
0.0
 10
-27.040199999999999
 20
20.656099999999999
 30
0.0
 10
-27.032699999999998
 20
20.9693
 30
0.0
 10
-27.024799999999999
 20
21.282599999999999
 30
0.0
 10
-27.024799999999999
 20
21.282599999999999
 30
0.0
 10
-27.513400000000001
 20
20.924900000000001
 30
0.0
 10
-27.642900000000001
 20
20.031300000000002
 30
0.0
 10
-28.635999999999999
 20
19.671600000000002
 30
0.0
 10
-28.635999999999999
 20
19.671600000000002
 30
0.0
 10
-28.638200000000001
 20
19.674199999999999
 30
0.0
 10
-28.770199999999999
 20
19.9221
 30
0.0
 10
-28.770199999999999
 20
19.940200000000001
 30
0.0
 10
-28.770199999999999
 20
19.940200000000001
 30
0.0
 10
-28.770199999999999
 20
19.973700000000001
 30
0.0
 10
-28.707599999999999
 20
20.1187
 30
0.0
 10
-28.6172
 20
20.315100000000001
 30
0.0
 10
-28.6172
 20
20.315100000000001
 30
0.0
 10
-28.723299999999998
 20
20.322600000000001
 30
0.0
 10
-28.8293
 20
20.330300000000001
 30
0.0
 10
-28.935400000000001
 20
20.337599999999998
 30
0.0
 10
-28.935400000000001
 20
20.337599999999998
 30
0.0
 10
-29.120699999999999
 20
19.8094
 30
0.0
 10
-29.3398
 20
19.393799999999999
 30
0.0
 10
-29.575700000000001
 20
19.268999999999998
 30
0.0
 10
-29.575700000000001
 20
19.268999999999998
 30
0.0
 10
-29.590699999999998
 20
19.636199999999999
 30
0.0
 10
-29.605799999999999
 20
20.0032
 30
0.0
 10
-29.620999999999999
 20
20.370200000000001
 30
0.0
 10
-29.620999999999999
 20
20.370200000000001
 30
0.0
 10
-29.874400000000001
 20
19.913599999999999
 30
0.0
 10
-30.127700000000001
 20
19.4573
 30
0.0
 10
-30.3811
 20
19.000499999999999
 30
0.0
 10
-30.3811
 20
19.000499999999999
 30
0.0
 10
-31.036799999999999
 20
19.1755
 30
0.0
 10
-30.9544
 20
22.095600000000001
 30
0.0
 10
-31.197700000000001
 20
22.7484
 30
0.0
 10
-31.197700000000001
 20
22.7484
 30
0.0
 10
-31.8127
 20
24.397200000000002
 30
0.0
 10
-31.992100000000001
 20
23.9711
 30
0.0
 10
-31.992100000000001
 20
26.384
 30
0.0
 10
-31.992100000000001
 20
26.384
 30
0.0
 10
-31.992100000000001
 20
26.831600000000002
 30
0.0
 10
-31.992100000000001
 20
27.279199999999999
 30
0.0
 10
-31.992100000000001
 20
27.726600000000001
 30
0.0
 10
-31.992100000000001
 20
27.726600000000001
 30
0.0
 10
-31.992100000000001
 20
28.5307
 30
0.0
 10
-31.733599999999999
 20
28.528199999999998
 30
0.0
 10
-31.589400000000001
 20
29.069099999999999
 30
0.0
 10
-31.589400000000001
 20
29.069099999999999
 30
0.0
 10
-31.455100000000002
 20
29.069099999999999
 30
0.0
 10
-31.320900000000002
 20
29.069099999999999
 30
0.0
 10
-31.186800000000002
 20
29.069099999999999
 30
0.0
 10
-31.186800000000002
 20
29.069099999999999
 30
0.0
 10
-31.144300000000001
 20
29.026700000000002
 30
0.0
 10
-31.1021
 20
28.984000000000002
 30
0.0
 10
-31.059699999999999
 20
28.941600000000001
 30
0.0
 10
-31.059699999999999
 20
28.941600000000001
 30
0.0
 10
-30.9679
 20
29.073499999999999
 30
0.0
 10
-30.875900000000001
 20
29.2056
 30
0.0
 10
-30.783799999999999
 20
29.337599999999998
 30
0.0
 10
-30.783799999999999
 20
29.337599999999998
 30
0.0
 10
-30.649799999999999
 20
29.337599999999998
 30
0.0
 10
-30.515499999999999
 20
29.337599999999998
 30
0.0
 10
-30.3811
 20
29.337599999999998
 30
0.0
 10
-30.3811
 20
29.337599999999998
 30
0.0
 10
-30.3811
 20
29.114000000000001
 30
0.0
 10
-30.3811
 20
28.890000000000001
 30
0.0
 10
-30.3811
 20
28.666399999999999
 30
0.0
 10
-30.3811
 20
28.666399999999999
 30
0.0
 10
-30.1282
 20
28.676300000000001
 30
0.0
 10
-29.875599999999999
 20
28.686
 30
0.0
 10
-29.622900000000001
 20
28.695900000000002
 30
0.0
 10
-29.622900000000001
 20
28.695900000000002
 30
0.0
 10
-29.5078
 20
28.830100000000002
 30
0.0
 10
-29.3933
 20
28.963899999999999
 30
0.0
 10
-29.278500000000001
 20
29.097799999999999
 30
0.0
 10
-29.278500000000001
 20
29.097799999999999
 30
0.0
 10
-29.148299999999999
 20
28.947700000000001
 30
0.0
 10
-29.0184
 20
28.7973
 30
0.0
 10
-28.888400000000001
 20
28.646799999999999
 30
0.0
 10
-28.888400000000001
 20
28.646799999999999
 30
0.0
 10
-28.759399999999999
 20
28.742999999999999
 30
0.0
 10
-28.630500000000001
 20
28.838899999999999
 30
0.0
 10
-28.501899999999999
 20
28.934999999999999
 30
0.0
 10
-28.501899999999999
 20
28.934999999999999
 30
0.0
 10
-28.259399999999999
 20
28.772400000000001
 30
0.0
 10
-28.265799999999999
 20
28.666399999999999
 30
0.0
 10
-27.9648
 20
28.666399999999999
 30
0.0
 10
-27.9648
 20
28.666399999999999
 30
0.0
 10
-27.241199999999999
 20
28.666399999999999
 30
0.0
 10
-27.4832
 20
29.0747
 30
0.0
 10
-26.921299999999999
 20
28.831
 30
0.0
 10
-26.921299999999999
 20
28.831
 30
0.0
 10
-26.684999999999999
 20
29.0457
 30
0.0
 10
-26.448499999999999
 20
29.260200000000001
 30
0.0
 10
-26.2121
 20
29.474799999999998
 30
0.0
 10
-26.2121
 20
29.474799999999998
 30
0.0
 10
-26.169699999999999
 20
29.339200000000002
 30
0.0
 10
-26.127400000000002
 20
29.203800000000001
 30
0.0
 10
-26.084900000000001
 20
29.0684
 30
0.0
 10
-26.084900000000001
 20
29.0684
 30
0.0
 10
-25.771699999999999
 20
29.158000000000001
 30
0.0
 10
-25.4587
 20
29.247900000000001
 30
0.0
 10
-25.145700000000001
 20
29.337599999999998
 30
0.0
 10
-25.145700000000001
 20
29.337599999999998
 30
0.0
 10
-25.005600000000001
 20
29.861999999999998
 30
0.0
 10
-24.429600000000001
 20
30.011500000000002
 30
0.0
 10
-23.9373
 20
30.143000000000001
 30
0.0
 10
-23.9373
 20
30.143000000000001
 30
0.0
 10
-23.9057
 20
29.988600000000002
 30
0.0
 10
-23.874099999999999
 20
29.834299999999999
 30
0.0
 10
-23.842700000000001
 20
29.6799
 30
0.0
 10
-23.842700000000001
 20
29.6799
 30
0.0
 10
-23.605899999999998
 20
30.058199999999999
 30
0.0
 10
-23.3688
 20
30.436199999999999
 30
0.0
 10
-23.131900000000002
 20
30.814399999999999
 30
0.0
 10
-23.131900000000002
 20
30.814399999999999
 30
0.0
 10
-23.273800000000001
 20
31.1099
 30
0.0
 10
-23.452500000000001
 20
32.156799999999997
 30
0.0
 10
-23.8032
 20
32.156799999999997
 30
0.0
 10
-23.8032
 20
32.156799999999997
 30
0.0
 10
-24.7486
 20
32.156799999999997
 30
0.0
 10
-25.3765
 20
31.6357
 30
0.0
 10
-26.0852
 20
31.619900000000001
 30
0.0
  0
SPLINE
  5
5F
100
AcDbEntity
  8
RÚteg 1
 62
     7
100
AcDbSpline
210
0.0
220
0.0
230
1.0
 70
     1
 71
     3
 72
    48
 73
    44
 74
     0
 42
0.0000000001
 43
0.0000000001
 40
0.0
 40
0.0
 40
0.0
 40
0.0
 40
0.0909090909090909
 40
0.0909090909090909
 40
0.0909090909090909
 40
0.0909090909090909
 40
0.1818181818181818
 40
0.1818181818181818
 40
0.1818181818181818
 40
0.1818181818181818
 40
0.2727272727272727
 40
0.2727272727272727
 40
0.2727272727272727
 40
0.2727272727272727
 40
0.3636363636363637
 40
0.3636363636363637
 40
0.3636363636363637
 40
0.3636363636363637
 40
0.4545454545454546
 40
0.4545454545454546
 40
0.4545454545454546
 40
0.4545454545454546
 40
0.5454545454545455
 40
0.5454545454545455
 40
0.5454545454545455
 40
0.5454545454545455
 40
0.6363636363636365
 40
0.6363636363636365
 40
0.6363636363636365
 40
0.6363636363636365
 40
0.7272727272727274
 40
0.7272727272727274
 40
0.7272727272727274
 40
0.7272727272727274
 40
0.8181818181818183
 40
0.8181818181818183
 40
0.8181818181818183
 40
0.8181818181818183
 40
0.9090909090909093
 40
0.9090909090909093
 40
0.9090909090909093
 40
0.9090909090909093
 40
1.0
 40
1.0
 40
1.0
 40
1.0
 10
-12.7948
 20
24.236000000000001
 30
0.0
 10
-12.7948
 20
24.1021
 30
0.0
 10
-12.7948
 20
23.967700000000001
 30
0.0
 10
-12.7948
 20
23.833300000000001
 30
0.0
 10
-12.7948
 20
23.833300000000001
 30
0.0
 10
-13.1541
 20
23.823399999999999
 30
0.0
 10
-13.513500000000001
 20
23.812999999999999
 30
0.0
 10
-13.8725
 20
23.803100000000001
 30
0.0
 10
-13.8725
 20
23.803100000000001
 30
0.0
 10
-14.3635
 20
23.857900000000001
 30
0.0
 10
-14.8546
 20
23.912700000000001
 30
0.0
 10
-15.3454
 20
23.967700000000001
 30
0.0
 10
-15.3454
 20
23.967700000000001
 30
0.0
 10
-15.5243
 20
24.735199999999999
 30
0.0
 10
-15.7743
 20
26.307500000000001
 30
0.0
 10
-15.8835
 20
27.054600000000001
 30
0.0
 10
-15.8835
 20
27.054600000000001
 30
0.0
 10
-15.963200000000001
 20
27.601800000000001
 30
0.0
 10
-16.7272
 20
29.771899999999999
 30
0.0
 10
-16.645199999999999
 20
30.0017
 30
0.0
 10
-16.645199999999999
 20
30.0017
 30
0.0
 10
-16.525099999999998
 20
30.899000000000001
 30
0.0
 10
-16.4053
 20
31.796500000000002
 30
0.0
 10
-16.2852
 20
32.693600000000004
 30
0.0
 10
-16.2852
 20
32.693600000000004
 30
0.0
 10
-16.2852
 20
33.5886
 30
0.0
 10
-16.2852
 20
34.483899999999998
 30
0.0
 10
-16.2852
 20
35.378700000000002
 30
0.0
 10
-16.2852
 20
35.378700000000002
 30
0.0
 10
-15.712300000000001
 20
35.331099999999999
 30
0.0
 10
-14.548
 20
33.996699999999997
 30
0.0
 10
-14.226100000000001
 20
33.544600000000003
 30
0.0
 10
-14.226100000000001
 20
33.544600000000003
 30
0.0
 10
-13.424200000000001
 20
32.418199999999999
 30
0.0
 10
-13.973699999999999
 20
31.821200000000001
 30
0.0
 10
-14.0984
 20
30.756599999999999
 30
0.0
 10
-14.0984
 20
30.756599999999999
 30
0.0
 10
-14.2193
 20
29.724
 30
0.0
 10
-14.0038
 20
28.197700000000001
 30
0.0
 10
-13.8217
 20
27.236799999999999
 30
0.0
 10
-13.8217
 20
27.236799999999999
 30
0.0
 10
-13.658300000000001
 20
26.376000000000001
 30
0.0
 10
-12.7948
 20
25.093399999999999
 30
0.0
 10
-12.7948
 20
24.236000000000001
 30
0.0
  0
SPLINE
  5
60
100
AcDbEntity
  8
RÚteg 1
 62
     7
100
AcDbSpline
210
0.0
220
0.0
230
1.0
 70
     1
 71
     3
 72
   120
 73
   116
 74
     0
 42
0.0000000001
 43
0.0000000001
 40
0.0
 40
0.0
 40
0.0
 40
0.0
 40
0.0344827586206897
 40
0.0344827586206897
 40
0.0344827586206897
 40
0.0344827586206897
 40
0.0689655172413793
 40
0.0689655172413793
 40
0.0689655172413793
 40
0.0689655172413793
 40
0.103448275862069
 40
0.103448275862069
 40
0.103448275862069
 40
0.103448275862069
 40
0.1379310344827586
 40
0.1379310344827586
 40
0.1379310344827586
 40
0.1379310344827586
 40
0.1724137931034483
 40
0.1724137931034483
 40
0.1724137931034483
 40
0.1724137931034483
 40
0.206896551724138
 40
0.206896551724138
 40
0.206896551724138
 40
0.206896551724138
 40
0.2413793103448276
 40
0.2413793103448276
 40
0.2413793103448276
 40
0.2413793103448276
 40
0.2758620689655173
 40
0.2758620689655173
 40
0.2758620689655173
 40
0.2758620689655173
 40
0.310344827586207
 40
0.310344827586207
 40
0.310344827586207
 40
0.310344827586207
 40
0.3448275862068966
 40
0.3448275862068966
 40
0.3448275862068966
 40
0.3448275862068966
 40
0.3793103448275863
 40
0.3793103448275863
 40
0.3793103448275863
 40
0.3793103448275863
 40
0.413793103448276
 40
0.413793103448276
 40
0.413793103448276
 40
0.413793103448276
 40
0.4482758620689656
 40
0.4482758620689656
 40
0.4482758620689656
 40
0.4482758620689656
 40
0.4827586206896553
 40
0.4827586206896553
 40
0.4827586206896553
 40
0.4827586206896553
 40
0.517241379310345
 40
0.517241379310345
 40
0.517241379310345
 40
0.517241379310345
 40
0.5517241379310346
 40
0.5517241379310346
 40
0.5517241379310346
 40
0.5517241379310346
 40
0.5862068965517242
 40
0.5862068965517242
 40
0.5862068965517242
 40
0.5862068965517242
 40
0.6206896551724138
 40
0.6206896551724138
 40
0.6206896551724138
 40
0.6206896551724138
 40
0.6551724137931034
 40
0.6551724137931034
 40
0.6551724137931034
 40
0.6551724137931034
 40
0.689655172413793
 40
0.689655172413793
 40
0.689655172413793
 40
0.689655172413793
 40
0.7241379310344827
 40
0.7241379310344827
 40
0.7241379310344827
 40
0.7241379310344827
 40
0.7586206896551723
 40
0.7586206896551723
 40
0.7586206896551723
 40
0.7586206896551723
 40
0.7931034482758619
 40
0.7931034482758619
 40
0.7931034482758619
 40
0.7931034482758619
 40
0.8275862068965515
 40
0.8275862068965515
 40
0.8275862068965515
 40
0.8275862068965515
 40
0.8620689655172411
 40
0.8620689655172411
 40
0.8620689655172411
 40
0.8620689655172411
 40
0.8965517241379307
 40
0.8965517241379307
 40
0.8965517241379307
 40
0.8965517241379307
 40
0.9310344827586203
 40
0.9310344827586203
 40
0.9310344827586203
 40
0.9310344827586203
 40
0.9655172413793099
 40
0.9655172413793099
 40
0.9655172413793099
 40
0.9655172413793099
 40
1.0
 40
1.0
 40
1.0
 40
1.0
 10
-44.477200000000003
 20
33.230699999999999
 30
0.0
 10
-44.348500000000001
 20
33.232599999999998
 30
0.0
 10
-44.219700000000003
 20
33.234299999999998
 30
0.0
 10
-44.090899999999998
 20
33.235900000000001
 30
0.0
 10
-44.090899999999998
 20
33.235900000000001
 30
0.0
 10
-44.026800000000001
 20
33.441699999999997
 30
0.0
 10
-43.962600000000002
 20
33.6477
 30
0.0
 10
-43.898800000000001
 20
33.853200000000001
 30
0.0
 10
-43.898800000000001
 20
33.853200000000001
 30
0.0
 10
-43.664900000000003
 20
33.739800000000002
 30
0.0
 10
-43.430999999999997
 20
33.626100000000001
 30
0.0
 10
-43.197400000000002
 20
33.512599999999999
 30
0.0
 10
-43.197400000000002
 20
33.512599999999999
 30
0.0
 10
-43.184199999999997
 20
33.438499999999998
 30
0.0
 10
-43.171199999999999
 20
33.364600000000003
 30
0.0
 10
-43.158000000000001
 20
33.290399999999998
 30
0.0
 10
-43.158000000000001
 20
33.290399999999998
 30
0.0
 10
-43.052799999999998
 20
33.512500000000003
 30
0.0
 10
-42.947200000000002
 20
33.734699999999997
 30
0.0
 10
-42.841799999999999
 20
33.956800000000001
 30
0.0
 10
-42.841799999999999
 20
33.956800000000001
 30
0.0
 10
-42.581400000000002
 20
33.848999999999997
 30
0.0
 10
-42.321199999999997
 20
33.741199999999999
 30
0.0
 10
-42.060699999999997
 20
33.633600000000001
 30
0.0
 10
-42.060699999999997
 20
33.633600000000001
 30
0.0
 10
-42.058500000000002
 20
33.778700000000001
 30
0.0
 10
-42.0565
 20
33.923400000000001
 30
0.0
 10
-42.054299999999998
 20
34.068399999999997
 30
0.0
 10
-42.054299999999998
 20
34.068399999999997
 30
0.0
 10
-41.786000000000001
 20
34.0122
 30
0.0
 10
-41.517699999999998
 20
33.956200000000003
 30
0.0
 10
-41.249299999999998
 20
33.899799999999999
 30
0.0
 10
-41.249299999999998
 20
33.899799999999999
 30
0.0
 10
-41.147100000000002
 20
34.143700000000003
 30
0.0
 10
-41.044899999999998
 20
34.3874
 30
0.0
 10
-40.942900000000002
 20
34.631399999999999
 30
0.0
 10
-40.942900000000002
 20
34.631399999999999
 30
0.0
 10
-40.725999999999999
 20
34.475299999999997
 30
0.0
 10
-40.509300000000003
 20
34.319400000000002
 30
0.0
 10
-40.292299999999997
 20
34.1633
 30
0.0
 10
-40.292299999999997
 20
34.1633
 30
0.0
 10
-40.210500000000003
 20
34.478999999999999
 30
0.0
 10
-40.128700000000002
 20
34.794800000000002
 30
0.0
 10
-40.0471
 20
35.110199999999999
 30
0.0
 10
-40.0471
 20
35.110199999999999
 30
0.0
 10
-39.553699999999999
 20
34.978700000000003
 30
0.0
 10
-39.163499999999999
 20
33.292000000000002
 30
0.0
 10
-38.9345
 20
32.732500000000002
 30
0.0
 10
-38.9345
 20
32.732500000000002
 30
0.0
 10
-38.638599999999997
 20
32.009300000000003
 30
0.0
 10
-38.084600000000002
 20
31.190200000000001
 30
0.0
 10
-37.6768
 20
30.499600000000001
 30
0.0
 10
-37.6768
 20
30.499600000000001
 30
0.0
 10
-36.804099999999998
 20
29.021999999999998
 30
0.0
 10
-35.509
 20
27.8508
 30
0.0
 10
-34.006
 20
27.055399999999999
 30
0.0
 10
-34.006
 20
27.055399999999999
 30
0.0
 10
-33.886099999999999
 20
27.569199999999999
 30
0.0
 10
-33.525599999999997
 20
28.348600000000001
 30
0.0
 10
-32.931800000000003
 20
28.3979
 30
0.0
 10
-32.931800000000003
 20
28.3979
 30
0.0
 10
-32.989600000000003
 20
27.704999999999998
 30
0.0
 10
-33.471400000000003
 20
26.1158
 30
0.0
 10
-34.140000000000001
 20
26.1158
 30
0.0
 10
-34.140000000000001
 20
26.1158
 30
0.0
 10
-35.018099999999997
 20
26.1158
 30
0.0
 10
-36.833100000000002
 20
28.080300000000001
 30
0.0
 10
-37.341700000000003
 20
28.686800000000002
 30
0.0
 10
-37.341700000000003
 20
28.686800000000002
 30
0.0
 10
-37.721699999999998
 20
29.139900000000001
 30
0.0
 10
-38.289700000000003
 20
29.857299999999999
 30
0.0
 10
-38.627000000000002
 20
30.354900000000001
 30
0.0
 10
-38.627000000000002
 20
30.354900000000001
 30
0.0
 10
-38.929099999999998
 20
30.8003
 30
0.0
 10
-39.349699999999999
 20
32.075200000000002
 30
0.0
 10
-39.644199999999998
 20
32.291200000000003
 30
0.0
 10
-39.644199999999998
 20
32.291200000000003
 30
0.0
 10
-39.671700000000001
 20
31.051200000000001
 30
0.0
 10
-40.012999999999998
 20
31.689399999999999
 30
0.0
 10
-40.722299999999997
 20
31.209599999999998
 30
0.0
 10
-40.722299999999997
 20
31.209599999999998
 30
0.0
 10
-40.899900000000002
 20
31.3017
 30
0.0
 10
-41.077500000000001
 20
31.3935
 30
0.0
 10
-41.255299999999998
 20
31.485600000000002
 30
0.0
 10
-41.255299999999998
 20
31.485600000000002
 30
0.0
 10
-41.264699999999998
 20
31.376100000000001
 30
0.0
 10
-41.274099999999997
 20
31.266500000000001
 30
0.0
 10
-41.283499999999997
 20
31.1568
 30
0.0
 10
-41.283499999999997
 20
31.1568
 30
0.0
 10
-41.497900000000001
 20
31.266500000000001
 30
0.0
 10
-41.7121
 20
31.376100000000001
 30
0.0
 10
-41.926499999999997
 20
31.485600000000002
 30
0.0
 10
-41.926499999999997
 20
31.485600000000002
 30
0.0
 10
-42.090200000000003
 20
31.3935
 30
0.0
 10
-42.07
 20
31.351199999999999
 30
0.0
 10
-42.329099999999997
 20
31.351199999999999
 30
0.0
 10
-42.329099999999997
 20
31.351199999999999
 30
0.0
 10
-42.636499999999998
 20
31.351199999999999
 30
0.0
 10
-42.485199999999999
 20
31.396699999999999
 30
0.0
 10
-42.866199999999999
 20
31.485600000000002
 30
0.0
 10
-42.866199999999999
 20
31.485600000000002
 30
0.0
 10
-42.887799999999999
 20
31.225200000000001
 30
0.0
 10
-42.859900000000003
 20
30.948599999999999
 30
0.0
 10
-43.134599999999999
 20
30.948599999999999
 30
0.0
 10
-43.134599999999999
 20
30.948599999999999
 30
0.0
 10
-43.570999999999998
 20
30.948599999999999
 30
0.0
 10
-43.2361
 20
31.065000000000001
 30
0.0
 10
-43.758800000000001
 20
31.1873
 30
0.0
 10
-43.758800000000001
 20
31.1873
 30
0.0
 10
-43.864100000000001
 20
31.062899999999999
 30
0.0
 10
-43.969099999999997
 20
30.938800000000001
 30
0.0
 10
-44.0745
 20
30.814399999999999
 30
0.0
 10
-44.0745
 20
30.814399999999999
 30
0.0
 10
-44.3795
 20
31.0379
 30
0.0
 10
-45.348599999999998
 20
33.230699999999999
 30
0.0
 10
-44.477200000000003
 20
33.230699999999999
 30
0.0
  0
SPLINE
  5
61
100
AcDbEntity
  8
RÚteg 1
 62
     7
100
AcDbSpline
210
0.0
220
0.0
230
1.0
 70
     1
 71
     3
 72
    52
 73
    48
 74
     0
 42
0.0000000001
 43
0.0000000001
 40
0.0
 40
0.0
 40
0.0
 40
0.0
 40
0.0833333333333333
 40
0.0833333333333333
 40
0.0833333333333333
 40
0.0833333333333333
 40
0.1666666666666667
 40
0.1666666666666667
 40
0.1666666666666667
 40
0.1666666666666667
 40
0.25
 40
0.25
 40
0.25
 40
0.25
 40
0.3333333333333333
 40
0.3333333333333333
 40
0.3333333333333333
 40
0.3333333333333333
 40
0.4166666666666666
 40
0.4166666666666666
 40
0.4166666666666666
 40
0.4166666666666666
 40
0.4999999999999999
 40
0.4999999999999999
 40
0.4999999999999999
 40
0.4999999999999999
 40
0.5833333333333333
 40
0.5833333333333333
 40
0.5833333333333333
 40
0.5833333333333333
 40
0.6666666666666666
 40
0.6666666666666666
 40
0.6666666666666666
 40
0.6666666666666666
 40
0.75
 40
0.75
 40
0.75
 40
0.75
 40
0.8333333333333334
 40
0.8333333333333334
 40
0.8333333333333334
 40
0.8333333333333334
 40
0.9166666666666667
 40
0.9166666666666667
 40
0.9166666666666667
 40
0.9166666666666667
 40
1.0
 40
1.0
 40
1.0
 40
1.0
 10
-1.1152
 20
32.156799999999997
 30
0.0
 10
-1.0811999999999999
 20
32.009399999999999
 30
0.0
 10
-0.9507
 20
31.629200000000001
 30
0.0
 10
-0.8478
 20
31.334199999999999
 30
0.0
 10
-0.8478
 20
31.334199999999999
 30
0.0
 10
-0.8391
 20
31.045999999999999
 30
0.0
 10
-0.8342000000000001
 20
30.756900000000002
 30
0.0
 10
-0.8342000000000001
 20
30.466699999999999
 30
0.0
 10
-0.8342000000000001
 20
30.466699999999999
 30
0.0
 10
-0.8342000000000001
 20
30.302700000000002
 30
0.0
 10
-0.8373
 20
30.139700000000001
 30
0.0
 10
-0.8404
 20
29.976400000000002
 30
0.0
 10
-0.8404
 20
29.976400000000002
 30
0.0
 10
-0.9815
 20
29.6386
 30
0.0
 10
-1.2279
 20
29.337599999999998
 30
0.0
 10
-1.5181
 20
29.337599999999998
 30
0.0
 10
-1.5181
 20
29.337599999999998
 30
0.0
 10
-1.8758999999999999
 20
29.337599999999998
 30
0.0
 10
-2.234
 20
29.337599999999998
 30
0.0
 10
-2.5918000000000001
 20
29.337599999999998
 30
0.0
 10
-2.5918000000000001
 20
29.337599999999998
 30
0.0
 10
-2.6339000000000001
 20
29.494900000000001
 30
0.0
 10
-2.7265000000000001
 20
29.703399999999998
 30
0.0
 10
-2.7265000000000001
 20
29.740200000000002
 30
0.0
 10
-2.7265000000000001
 20
29.740200000000002
 30
0.0
 10
-2.7265000000000001
 20
30.467700000000001
 30
0.0
 10
-2.1894
 20
30.892299999999999
 30
0.0
 10
-2.1894
 20
31.619900000000001
 30
0.0
 10
-2.1894
 20
31.619900000000001
 30
0.0
 10
-2.1894
 20
32.392099999999999
 30
0.0
 10
-2.5918000000000001
 20
32.727699999999999
 30
0.0
 10
-2.5918000000000001
 20
33.096400000000003
 30
0.0
 10
-2.5918000000000001
 20
33.096400000000003
 30
0.0
 10
-2.5918000000000001
 20
33.355800000000002
 30
0.0
 10
-1.7437
 20
34.422400000000003
 30
0.0
 10
-1.5243
 20
34.549599999999998
 30
0.0
 10
-1.5243
 20
34.549599999999998
 30
0.0
 10
-1.3831
 20
34.521099999999997
 30
0.0
 10
-1.2421
 20
34.4923
 30
0.0
 10
-1.1011
 20
34.463500000000003
 30
0.0
 10
-1.1011
 20
34.463500000000003
 30
0.0
 10
-1.0156000000000001
 20
33.825400000000002
 30
0.0
 10
-0.951
 20
33.180900000000001
 30
0.0
 10
-0.9066
 20
32.530999999999999
 30
0.0
 10
-0.9066
 20
32.530999999999999
 30
0.0
 10
-0.9964
 20
32.369
 30
0.0
 10
-1.0790999999999999
 20
32.225099999999998
 30
0.0
 10
-1.1152
 20
32.156799999999997
 30
0.0
  0
SPLINE
  5
62
100
AcDbEntity
  8
RÚteg 1
 62
     7
100
AcDbSpline
210
0.0
220
0.0
230
1.0
 70
     1
 71
     3
 72
    28
 73
    24
 74
     0
 42
0.0000000001
 43
0.0000000001
 40
0.0
 40
0.0
 40
0.0
 40
0.0
 40
0.1666666666666667
 40
0.1666666666666667
 40
0.1666666666666667
 40
0.1666666666666667
 40
0.3333333333333333
 40
0.3333333333333333
 40
0.3333333333333333
 40
0.3333333333333333
 40
0.5
 40
0.5
 40
0.5
 40
0.5
 40
0.6666666666666666
 40
0.6666666666666666
 40
0.6666666666666666
 40
0.6666666666666666
 40
0.8333333333333333
 40
0.8333333333333333
 40
0.8333333333333333
 40
0.8333333333333333
 40
1.0
 40
1.0
 40
1.0
 40
1.0
 10
-17.761900000000001
 20
31.082799999999999
 30
0.0
 10
-17.796900000000001
 20
31.502700000000001
 30
0.0
 10
-17.896000000000001
 20
31.559699999999999
 30
0.0
 10
-17.896000000000001
 20
32.022599999999997
 30
0.0
 10
-17.896000000000001
 20
32.022599999999997
 30
0.0
 10
-17.896000000000001
 20
32.0672
 30
0.0
 10
-17.896000000000001
 20
32.112099999999998
 30
0.0
 10
-17.896000000000001
 20
32.156799999999997
 30
0.0
 10
-17.896000000000001
 20
32.156799999999997
 30
0.0
 10
-17.896000000000001
 20
32.1907
 30
0.0
 10
-17.157900000000001
 20
34.686999999999998
 30
0.0
 10
-17.090800000000002
 20
34.975900000000003
 30
0.0
 10
-17.090800000000002
 20
34.975900000000003
 30
0.0
 10
-16.881699999999999
 20
34.835900000000002
 30
0.0
 10
-16.687799999999999
 20
34.797899999999998
 30
0.0
 10
-16.687799999999999
 20
34.438899999999997
 30
0.0
 10
-16.687799999999999
 20
34.438899999999997
 30
0.0
 10
-16.687799999999999
 20
34.394100000000002
 30
0.0
 10
-16.687799999999999
 20
34.349499999999999
 30
0.0
 10
-16.687799999999999
 20
34.304900000000004
 30
0.0
 10
-16.687799999999999
 20
34.304900000000004
 30
0.0
 10
-16.687799999999999
 20
33.267400000000002
 30
0.0
 10
-16.714200000000002
 20
31.106200000000001
 30
0.0
 10
-17.761900000000001
 20
31.082799999999999
 30
0.0
  0
SPLINE
  5
63
100
AcDbEntity
  8
RÚteg 1
 62
     7
100
AcDbSpline
210
0.0
220
0.0
230
1.0
 70
     1
 71
     3
 72
    20
 73
    16
 74
     0
 42
0.0000000001
 43
0.0000000001
 40
0.0
 40
0.0
 40
0.0
 40
0.0
 40
0.25
 40
0.25
 40
0.25
 40
0.25
 40
0.5
 40
0.5
 40
0.5
 40
0.5
 40
0.75
 40
0.75
 40
0.75
 40
0.75
 40
1.0
 40
1.0
 40
1.0
 40
1.0
 10
-9.7071000000000005
 20
32.828099999999999
 30
0.0
 10
-10.557499999999999
 20
33.096499999999999
 30
0.0
 10
-11.4077
 20
33.365099999999998
 30
0.0
 10
-12.257899999999999
 20
33.633600000000001
 30
0.0
 10
-12.257899999999999
 20
33.633600000000001
 30
0.0
 10
-12.257899999999999
 20
33.812600000000003
 30
0.0
 10
-12.257899999999999
 20
33.991399999999999
 30
0.0
 10
-12.257899999999999
 20
34.1706
 30
0.0
 10
-12.257899999999999
 20
34.1706
 30
0.0
 10
-11.5069
 20
34.232900000000001
 30
0.0
 10
-10.8399
 20
34.975900000000003
 30
0.0
 10
-10.378399999999999
 20
34.975900000000003
 30
0.0
 10
-10.378399999999999
 20
34.975900000000003
 30
0.0
 10
-9.6129999999999995
 20
34.975900000000003
 30
0.0
 10
-9.5624000000000002
 20
33.448700000000002
 30
0.0
 10
-9.7071000000000005
 20
32.828099999999999
 30
0.0
  0
SPLINE
  5
64
100
AcDbEntity
  8
RÚteg 1
 62
     7
100
AcDbSpline
210
0.0
220
0.0
230
1.0
 70
     1
 71
     3
 72
    40
 73
    36
 74
     0
 42
0.0000000001
 43
0.0000000001
 40
0.0
 40
0.0
 40
0.0
 40
0.0
 40
0.1111111111111111
 40
0.1111111111111111
 40
0.1111111111111111
 40
0.1111111111111111
 40
0.2222222222222222
 40
0.2222222222222222
 40
0.2222222222222222
 40
0.2222222222222222
 40
0.3333333333333333
 40
0.3333333333333333
 40
0.3333333333333333
 40
0.3333333333333333
 40
0.4444444444444444
 40
0.4444444444444444
 40
0.4444444444444444
 40
0.4444444444444444
 40
0.5555555555555556
 40
0.5555555555555556
 40
0.5555555555555556
 40
0.5555555555555556
 40
0.6666666666666667
 40
0.6666666666666667
 40
0.6666666666666667
 40
0.6666666666666667
 40
0.7777777777777779
 40
0.7777777777777779
 40
0.7777777777777779
 40
0.7777777777777779
 40
0.8888888888888891
 40
0.8888888888888891
 40
0.8888888888888891
 40
0.8888888888888891
 40
1.0
 40
1.0
 40
1.0
 40
1.0
 10
-38.436
 20
34.1706
 30
0.0
 10
-38.436
 20
34.215299999999999
 30
0.0
 10
-38.436
 20
34.259999999999998
 30
0.0
 10
-38.436
 20
34.304900000000004
 30
0.0
 10
-38.436
 20
34.304900000000004
 30
0.0
 10
-38.436
 20
34.676099999999998
 30
0.0
 10
-38.332299999999996
 20
34.627400000000002
 30
0.0
 10
-38.0334
 20
34.707500000000003
 30
0.0
 10
-38.0334
 20
34.707500000000003
 30
0.0
 10
-37.770699999999998
 20
33.724200000000003
 30
0.0
 10
-35.383299999999998
 20
30.3583
 30
0.0
 10
-34.4923
 20
30.321400000000001
 30
0.0
 10
-34.4923
 20
30.321400000000001
 30
0.0
 10
-34.157699999999998
 20
30.960100000000001
 30
0.0
 10
-33.822800000000001
 20
31.598500000000001
 30
0.0
 10
-33.488100000000003
 20
32.237299999999998
 30
0.0
 10
-33.488100000000003
 20
32.237299999999998
 30
0.0
 10
-33.436999999999998
 20
32.210500000000003
 30
0.0
 10
-33.385800000000003
 20
32.183599999999998
 30
0.0
 10
-33.334699999999998
 20
32.156799999999997
 30
0.0
 10
-33.334699999999998
 20
32.156799999999997
 30
0.0
 10
-33.334699999999998
 20
31.9329
 30
0.0
 10
-33.334699999999998
 20
31.709199999999999
 30
0.0
 10
-33.334699999999998
 20
31.485600000000002
 30
0.0
 10
-33.334699999999998
 20
31.485600000000002
 30
0.0
 10
-33.334699999999998
 20
30.859300000000001
 30
0.0
 10
-33.603099999999998
 20
31.064599999999999
 30
0.0
 10
-33.657299999999999
 20
30.180800000000001
 30
0.0
 10
-33.657299999999999
 20
30.180800000000001
 30
0.0
 10
-33.952300000000001
 20
29.810400000000001
 30
0.0
 10
-34.247500000000002
 20
29.439800000000002
 30
0.0
 10
-34.542900000000003
 20
29.069099999999999
 30
0.0
 10
-34.542900000000003
 20
29.069099999999999
 30
0.0
 10
-35.759500000000003
 20
29.883700000000001
 30
0.0
 10
-38.436
 20
32.339199999999998
 30
0.0
 10
-38.436
 20
34.1706
 30
0.0
  0
SPLINE
  5
65
100
AcDbEntity
  8
RÚteg 1
 62
     7
100
AcDbSpline
210
0.0
220
0.0
230
1.0
 70
     1
 71
     3
 72
    36
 73
    32
 74
     0
 42
0.0000000001
 43
0.0000000001
 40
0.0
 40
0.0
 40
0.0
 40
0.0
 40
0.125
 40
0.125
 40
0.125
 40
0.125
 40
0.25
 40
0.25
 40
0.25
 40
0.25
 40
0.375
 40
0.375
 40
0.375
 40
0.375
 40
0.5
 40
0.5
 40
0.5
 40
0.5
 40
0.625
 40
0.625
 40
0.625
 40
0.625
 40
0.75
 40
0.75
 40
0.75
 40
0.75
 40
0.875
 40
0.875
 40
0.875
 40
0.875
 40
1.0
 40
1.0
 40
1.0
 40
1.0
 10
-5.476
 20
33.897199999999998
 30
0.0
 10
-5.2473999999999998
 20
33.702500000000001
 30
0.0
 10
-4.8742000000000001
 20
33.574800000000003
 30
0.0
 10
-4.8742000000000001
 20
33.096400000000003
 30
0.0
 10
-4.8742000000000001
 20
33.096400000000003
 30
0.0
 10
-4.8742000000000001
 20
31.844200000000001
 30
0.0
 10
-5.3849999999999998
 20
32.071199999999997
 30
0.0
 10
-5.8207000000000004
 20
31.4558
 30
0.0
 10
-5.8207000000000004
 20
31.4558
 30
0.0
 10
-6.0282
 20
31.5029
 30
0.0
 10
-7.1143999999999998
 20
31.5657
 30
0.0
 10
-6.7567000000000004
 20
31.791
 30
0.0
 10
-6.7567000000000004
 20
31.791
 30
0.0
 10
-6.9339000000000004
 20
32.418199999999999
 30
0.0
 10
-7.1108000000000002
 20
33.045200000000001
 30
0.0
 10
-7.2877000000000001
 20
33.672199999999997
 30
0.0
 10
-7.2877000000000001
 20
33.672199999999997
 30
0.0
 10
-7.3333000000000004
 20
33.659399999999998
 30
0.0
 10
-7.3792
 20
33.646299999999997
 30
0.0
 10
-7.4249000000000001
 20
33.633600000000001
 30
0.0
 10
-7.4249000000000001
 20
33.633600000000001
 30
0.0
 10
-7.4249000000000001
 20
34.801200000000001
 30
0.0
 10
-7.2793000000000001
 20
35.915700000000001
 30
0.0
 10
-6.0824999999999996
 20
35.915700000000001
 30
0.0
 10
-6.0824999999999996
 20
35.915700000000001
 30
0.0
 10
-5.7027999999999999
 20
35.915700000000001
 30
0.0
 10
-5.6018999999999997
 20
35.529299999999999
 30
0.0
 10
-5.3853999999999997
 20
35.242699999999999
 30
0.0
 10
-5.3853999999999997
 20
35.242699999999999
 30
0.0
 10
-5.4156000000000004
 20
34.794199999999996
 30
0.0
 10
-5.4459999999999997
 20
34.345599999999997
 30
0.0
 10
-5.476
 20
33.897199999999998
 30
0.0
  0
SPLINE
  5
66
100
AcDbEntity
  8
RÚteg 1
 62
     7
100
AcDbSpline
210
0.0
220
0.0
230
1.0
 70
     1
 71
     3
 72
    32
 73
    28
 74
     0
 42
0.0000000001
 43
0.0000000001
 40
0.0
 40
0.0
 40
0.0
 40
0.0
 40
0.1428571428571429
 40
0.1428571428571429
 40
0.1428571428571429
 40
0.1428571428571429
 40
0.2857142857142857
 40
0.2857142857142857
 40
0.2857142857142857
 40
0.2857142857142857
 40
0.4285714285714286
 40
0.4285714285714286
 40
0.4285714285714286
 40
0.4285714285714286
 40
0.5714285714285714
 40
0.5714285714285714
 40
0.5714285714285714
 40
0.5714285714285714
 40
0.7142857142857142
 40
0.7142857142857142
 40
0.7142857142857142
 40
0.7142857142857142
 40
0.857142857142857
 40
0.857142857142857
 40
0.857142857142857
 40
0.857142857142857
 40
1.0
 40
1.0
 40
1.0
 40
1.0
 10
-30.3811
 20
32.962299999999999
 30
0.0
 10
-30.293399999999998
 20
34.017299999999999
 30
0.0
 10
-28.634599999999999
 20
34.818800000000003
 30
0.0
 10
-27.8306
 20
35.244500000000002
 30
0.0
 10
-27.8306
 20
35.244500000000002
 30
0.0
 10
-27.082599999999999
 20
34.594200000000001
 30
0.0
 10
-27.285499999999999
 20
34.750100000000003
 30
0.0
 10
-27.149000000000001
 20
33.5092
 30
0.0
 10
-27.149000000000001
 20
33.5092
 30
0.0
 10
-27.078099999999999
 20
32.860900000000001
 30
0.0
 10
-26.6494
 20
31.7197
 30
0.0
 10
-27.562000000000001
 20
31.619900000000001
 30
0.0
 10
-27.562000000000001
 20
31.619900000000001
 30
0.0
 10
-27.562000000000001
 20
32.0672
 30
0.0
 10
-27.562000000000001
 20
32.514899999999997
 30
0.0
 10
-27.562000000000001
 20
32.962299999999999
 30
0.0
 10
-27.562000000000001
 20
32.962299999999999
 30
0.0
 10
-27.562000000000001
 20
33.111400000000003
 30
0.0
 10
-27.786100000000001
 20
33.869
 30
0.0
 10
-27.853100000000001
 20
34.026600000000002
 30
0.0
 10
-27.853100000000001
 20
34.026600000000002
 30
0.0
 10
-28.031199999999998
 20
34.444000000000003
 30
0.0
 10
-28.170999999999999
 20
34.2104
 30
0.0
 10
-28.59
 20
33.993600000000001
 30
0.0
 10
-28.59
 20
33.993600000000001
 30
0.0
 10
-29.130400000000002
 20
33.713700000000003
 30
0.0
 10
-29.926100000000002
 20
33.000100000000003
 30
0.0
 10
-30.3811
 20
32.962299999999999
 30
0.0
  0
SPLINE
  5
67
100
AcDbEntity
  8
RÚteg 1
 62
     7
100
AcDbSpline
210
0.0
220
0.0
230
1.0
 70
     1
 71
     3
 72
    48
 73
    44
 74
     0
 42
0.0000000001
 43
0.0000000001
 40
0.0
 40
0.0
 40
0.0
 40
0.0
 40
0.0909090909090909
 40
0.0909090909090909
 40
0.0909090909090909
 40
0.0909090909090909
 40
0.1818181818181818
 40
0.1818181818181818
 40
0.1818181818181818
 40
0.1818181818181818
 40
0.2727272727272727
 40
0.2727272727272727
 40
0.2727272727272727
 40
0.2727272727272727
 40
0.3636363636363637
 40
0.3636363636363637
 40
0.3636363636363637
 40
0.3636363636363637
 40
0.4545454545454546
 40
0.4545454545454546
 40
0.4545454545454546
 40
0.4545454545454546
 40
0.5454545454545455
 40
0.5454545454545455
 40
0.5454545454545455
 40
0.5454545454545455
 40
0.6363636363636365
 40
0.6363636363636365
 40
0.6363636363636365
 40
0.6363636363636365
 40
0.7272727272727274
 40
0.7272727272727274
 40
0.7272727272727274
 40
0.7272727272727274
 40
0.8181818181818183
 40
0.8181818181818183
 40
0.8181818181818183
 40
0.8181818181818183
 40
0.9090909090909093
 40
0.9090909090909093
 40
0.9090909090909093
 40
0.9090909090909093
 40
1.0
 40
1.0
 40
1.0
 40
1.0
 10
-9.8413000000000004
 20
35.378700000000002
 30
0.0
 10
-9.8413000000000004
 20
35.749899999999997
 30
0.0
 10
-9.3938000000000006
 20
36.4527
 30
0.0
 10
-9.0359999999999996
 20
36.4527
 30
0.0
 10
-9.0359999999999996
 20
36.4527
 30
0.0
 10
-8.5755999999999997
 20
36.4527
 30
0.0
 10
-7.8274999999999997
 20
35.811999999999998
 30
0.0
 10
-7.8274999999999997
 20
35.378700000000002
 30
0.0
 10
-7.8274999999999997
 20
35.378700000000002
 30
0.0
 10
-7.8274999999999997
 20
35.1999
 30
0.0
 10
-7.8274999999999997
 20
35.020600000000002
 30
0.0
 10
-7.8274999999999997
 20
34.841900000000003
 30
0.0
 10
-7.8274999999999997
 20
34.841900000000003
 30
0.0
 10
-7.8274999999999997
 20
34.780700000000003
 30
0.0
 10
-8.2750000000000004
 20
33.954700000000003
 30
0.0
 10
-8.3646999999999991
 20
33.767699999999998
 30
0.0
 10
-8.3646999999999991
 20
33.767699999999998
 30
0.0
 10
-7.9070999999999998
 20
33.525700000000001
 30
0.0
 10
-7.4249000000000001
 20
33.108800000000002
 30
0.0
 10
-7.4249000000000001
 20
32.4253
 30
0.0
 10
-7.4249000000000001
 20
32.4253
 30
0.0
 10
-7.4249000000000001
 20
32.291200000000003
 30
0.0
 10
-7.4249000000000001
 20
32.156799999999997
 30
0.0
 10
-7.4249000000000001
 20
32.022599999999997
 30
0.0
 10
-7.4249000000000001
 20
32.022599999999997
 30
0.0
 10
-7.4249000000000001
 20
31.724799999999998
 30
0.0
 10
-7.9059999999999997
 20
30.948599999999999
 30
0.0
 10
-8.3646999999999991
 20
30.948599999999999
 30
0.0
 10
-8.3646999999999991
 20
30.948599999999999
 30
0.0
 10
-8.4634
 20
30.948599999999999
 30
0.0
 10
-9.0343999999999998
 20
31.6999
 30
0.0
 10
-9.0916999999999994
 20
31.838999999999999
 30
0.0
 10
-9.0916999999999994
 20
31.838999999999999
 30
0.0
 10
-9.2594999999999992
 20
32.245199999999997
 30
0.0
 10
-9.0359999999999996
 20
32.740400000000001
 30
0.0
 10
-9.0359999999999996
 20
33.364899999999999
 30
0.0
 10
-9.0359999999999996
 20
33.364899999999999
 30
0.0
 10
-9.0359999999999996
 20
33.7774
 30
0.0
 10
-9.1808999999999994
 20
34.2395
 30
0.0
 10
-9.2431000000000001
 20
34.473399999999998
 30
0.0
 10
-9.2431000000000001
 20
34.473399999999998
 30
0.0
 10
-9.2787000000000006
 20
34.607300000000002
 30
0.0
 10
-9.8413000000000004
 20
35.349899999999998
 30
0.0
 10
-9.8413000000000004
 20
35.378700000000002
 30
0.0
  0
SPLINE
  5
68
100
AcDbEntity
  8
RÚteg 1
 62
     7
100
AcDbSpline
210
0.0
220
0.0
230
1.0
 70
     1
 71
     3
 72
    32
 73
    28
 74
     0
 42
0.0000000001
 43
0.0000000001
 40
0.0
 40
0.0
 40
0.0
 40
0.0
 40
0.1428571428571429
 40
0.1428571428571429
 40
0.1428571428571429
 40
0.1428571428571429
 40
0.2857142857142857
 40
0.2857142857142857
 40
0.2857142857142857
 40
0.2857142857142857
 40
0.4285714285714286
 40
0.4285714285714286
 40
0.4285714285714286
 40
0.4285714285714286
 40
0.5714285714285714
 40
0.5714285714285714
 40
0.5714285714285714
 40
0.5714285714285714
 40
0.7142857142857142
 40
0.7142857142857142
 40
0.7142857142857142
 40
0.7142857142857142
 40
0.857142857142857
 40
0.857142857142857
 40
0.857142857142857
 40
0.857142857142857
 40
1.0
 40
1.0
 40
1.0
 40
1.0
 10
-24.742799999999999
 20
34.573300000000003
 30
0.0
 10
-25.5273
 20
35.140000000000001
 30
0.0
 10
-23.3752
 20
37.049599999999998
 30
0.0
 10
-22.863399999999999
 20
37.392299999999999
 30
0.0
 10
-22.863399999999999
 20
37.392299999999999
 30
0.0
 10
-21.946200000000001
 20
36.907200000000003
 30
0.0
 10
-22.366399999999999
 20
36.557400000000001
 30
0.0
 10
-22.298200000000001
 20
35.917400000000001
 30
0.0
 10
-22.298200000000001
 20
35.917400000000001
 30
0.0
 10
-22.2973
 20
35.693399999999997
 30
0.0
 10
-22.296399999999998
 20
35.469099999999997
 30
0.0
 10
-22.2957
 20
35.244999999999997
 30
0.0
 10
-22.2957
 20
35.244999999999997
 30
0.0
 10
-22.306000000000001
 20
34.663200000000003
 30
0.0
 10
-22.315999999999999
 20
34.081299999999999
 30
0.0
 10
-22.3264
 20
33.499299999999998
 30
0.0
 10
-22.3264
 20
33.499299999999998
 30
0.0
 10
-22.415800000000001
 20
33.499299999999998
 30
0.0
 10
-22.505400000000002
 20
33.499299999999998
 30
0.0
 10
-22.5947
 20
33.499299999999998
 30
0.0
 10
-22.5947
 20
33.499299999999998
 30
0.0
 10
-22.736499999999999
 20
34.107599999999998
 30
0.0
 10
-22.664100000000001
 20
36.112200000000001
 30
0.0
 10
-23.0991
 20
36.125100000000003
 30
0.0
 10
-23.0991
 20
36.125100000000003
 30
0.0
 10
-23.395499999999998
 20
36.133800000000001
 30
0.0
 10
-24.673500000000001
 20
34.832700000000003
 30
0.0
 10
-24.742799999999999
 20
34.573300000000003
 30
0.0
  0
SPLINE
  5
69
100
AcDbEntity
  8
RÚteg 1
 62
     7
100
AcDbSpline
210
0.0
220
0.0
230
1.0
 70
     1
 71
     3
 72
    28
 73
    24
 74
     0
 42
0.0000000001
 43
0.0000000001
 40
0.0
 40
0.0
 40
0.0
 40
0.0
 40
0.1666666666666667
 40
0.1666666666666667
 40
0.1666666666666667
 40
0.1666666666666667
 40
0.3333333333333333
 40
0.3333333333333333
 40
0.3333333333333333
 40
0.3333333333333333
 40
0.5
 40
0.5
 40
0.5
 40
0.5
 40
0.6666666666666666
 40
0.6666666666666666
 40
0.6666666666666666
 40
0.6666666666666666
 40
0.8333333333333333
 40
0.8333333333333333
 40
0.8333333333333333
 40
0.8333333333333333
 40
1.0
 40
1.0
 40
1.0
 40
1.0
 10
-4.8868
 20
37.997999999999998
 30
0.0
 10
-4.8377999999999997
 20
37.975099999999998
 30
0.0
 10
-4.7891000000000004
 20
37.952199999999998
 30
0.0
 10
-4.7400000000000002
 20
37.929400000000001
 30
0.0
 10
-4.7400000000000002
 20
37.929400000000001
 30
0.0
 10
-3.7033999999999998
 20
37.381
 30
0.0
 10
-4.0114999999999998
 20
37.330199999999998
 30
0.0
 10
-3.4918999999999998
 20
36.3581
 30
0.0
 10
-3.4918999999999998
 20
36.3581
 30
0.0
 10
-3.2486000000000002
 20
35.627200000000002
 30
0.0
 10
-2.5387
 20
35.361600000000003
 30
0.0
 10
-2.4577
 20
34.707500000000003
 30
0.0
 10
-2.4577
 20
34.707500000000003
 30
0.0
 10
-2.4577
 20
33.362299999999998
 30
0.0
 10
-4.5023
 20
33.142899999999997
 30
0.0
 10
-4.8742000000000001
 20
34.1706
 30
0.0
 10
-4.8742000000000001
 20
34.1706
 30
0.0
 10
-5.1177000000000001
 20
34.6873
 30
0.0
 10
-4.6167999999999996
 20
35.066000000000003
 30
0.0
 10
-5.5963000000000003
 20
36.476599999999998
 30
0.0
 10
-5.5963000000000003
 20
36.476599999999998
 30
0.0
 10
-5.3598999999999997
 20
36.983499999999999
 30
0.0
 10
-5.1231999999999998
 20
37.490600000000001
 30
0.0
 10
-4.8868
 20
37.997999999999998
 30
0.0
  0
SPLINE
  5
6A
100
AcDbEntity
  8
RÚteg 1
 62
     7
100
AcDbSpline
210
0.0
220
0.0
230
1.0
 70
     1
 71
     3
 72
    32
 73
    28
 74
     0
 42
0.0000000001
 43
0.0000000001
 40
0.0
 40
0.0
 40
0.0
 40
0.0
 40
0.1428571428571429
 40
0.1428571428571429
 40
0.1428571428571429
 40
0.1428571428571429
 40
0.2857142857142857
 40
0.2857142857142857
 40
0.2857142857142857
 40
0.2857142857142857
 40
0.4285714285714286
 40
0.4285714285714286
 40
0.4285714285714286
 40
0.4285714285714286
 40
0.5714285714285714
 40
0.5714285714285714
 40
0.5714285714285714
 40
0.5714285714285714
 40
0.7142857142857142
 40
0.7142857142857142
 40
0.7142857142857142
 40
0.7142857142857142
 40
0.857142857142857
 40
0.857142857142857
 40
0.857142857142857
 40
0.857142857142857
 40
1.0
 40
1.0
 40
1.0
 40
1.0
 10
-31.455200000000001
 20
32.828099999999999
 30
0.0
 10
-31.4999
 20
32.828099999999999
 30
0.0
 10
-31.544699999999999
 20
32.828099999999999
 30
0.0
 10
-31.589400000000001
 20
32.828099999999999
 30
0.0
 10
-31.589400000000001
 20
32.828099999999999
 30
0.0
 10
-32.623699999999999
 20
32.828099999999999
 30
0.0
 10
-34.8262
 20
35.095500000000001
 30
0.0
 10
-35.079799999999999
 20
36.1843
 30
0.0
 10
-35.079799999999999
 20
36.1843
 30
0.0
 10
-34.111699999999999
 20
36.162599999999998
 30
0.0
 10
-34.023000000000003
 20
35.470799999999997
 30
0.0
 10
-33.391199999999998
 20
35.053699999999999
 30
0.0
 10
-33.391199999999998
 20
35.053699999999999
 30
0.0
 10
-32.8033
 20
34.6661
 30
0.0
 10
-32.295699999999997
 20
34.285200000000003
 30
0.0
 10
-31.723600000000001
 20
33.902000000000001
 30
0.0
 10
-31.723600000000001
 20
33.902000000000001
 30
0.0
 10
-30.717300000000002
 20
34.575800000000001
 30
0.0
 10
-30.480899999999998
 20
37.784399999999998
 30
0.0
 10
-29.710000000000001
 20
38.063400000000001
 30
0.0
 10
-29.710000000000001
 20
38.063400000000001
 30
0.0
 10
-29.710000000000001
 20
37.7057
 30
0.0
 10
-29.710000000000001
 20
37.347700000000003
 30
0.0
 10
-29.710000000000001
 20
36.989800000000002
 30
0.0
 10
-29.710000000000001
 20
36.989800000000002
 30
0.0
 10
-29.710000000000001
 20
36.214599999999997
 30
0.0
 10
-30.6829
 20
32.828099999999999
 30
0.0
 10
-31.455200000000001
 20
32.828099999999999
 30
0.0
  0
SPLINE
  5
6B
100
AcDbEntity
  8
RÚteg 1
 62
     7
100
AcDbSpline
210
0.0
220
0.0
230
1.0
 70
     1
 71
     3
 72
    40
 73
    36
 74
     0
 42
0.0000000001
 43
0.0000000001
 40
0.0
 40
0.0
 40
0.0
 40
0.0
 40
0.1111111111111111
 40
0.1111111111111111
 40
0.1111111111111111
 40
0.1111111111111111
 40
0.2222222222222222
 40
0.2222222222222222
 40
0.2222222222222222
 40
0.2222222222222222
 40
0.3333333333333333
 40
0.3333333333333333
 40
0.3333333333333333
 40
0.3333333333333333
 40
0.4444444444444444
 40
0.4444444444444444
 40
0.4444444444444444
 40
0.4444444444444444
 40
0.5555555555555556
 40
0.5555555555555556
 40
0.5555555555555556
 40
0.5555555555555556
 40
0.6666666666666667
 40
0.6666666666666667
 40
0.6666666666666667
 40
0.6666666666666667
 40
0.7777777777777779
 40
0.7777777777777779
 40
0.7777777777777779
 40
0.7777777777777779
 40
0.8888888888888891
 40
0.8888888888888891
 40
0.8888888888888891
 40
0.8888888888888891
 40
1.0
 40
1.0
 40
1.0
 40
1.0
 10
-8.3931000000000004
 20
39.129300000000001
 30
0.0
 10
-8.3483999999999998
 20
39.129300000000001
 30
0.0
 10
-8.3178000000000001
 20
39.172199999999997
 30
0.0
 10
-8.2730999999999995
 20
39.172199999999997
 30
0.0
 10
-8.2730999999999995
 20
39.172199999999997
 30
0.0
 10
-7.8659999999999997
 20
39.172199999999997
 30
0.0
 10
-7.3589000000000002
 20
38.4908
 30
0.0
 10
-7.0221999999999998
 20
38.198099999999997
 30
0.0
 10
-7.0221999999999998
 20
38.198099999999997
 30
0.0
 10
-6.6410999999999998
 20
38.2866
 30
0.0
 10
-6.7927
 20
38.332299999999996
 30
0.0
 10
-6.4851999999999999
 20
38.332299999999996
 30
0.0
 10
-6.4851999999999999
 20
38.332299999999996
 30
0.0
 10
-6.2930999999999999
 20
38.332299999999996
 30
0.0
 10
-5.8137999999999996
 20
38.009799999999998
 30
0.0
 10
-5.8137999999999996
 20
37.661000000000001
 30
0.0
 10
-5.8137999999999996
 20
37.661000000000001
 30
0.0
 10
-5.8137999999999996
 20
37.481999999999999
 30
0.0
 10
-5.8137999999999996
 20
37.303199999999997
 30
0.0
 10
-5.8137999999999996
 20
37.123899999999999
 30
0.0
 10
-5.8137999999999996
 20
37.123899999999999
 30
0.0
 10
-5.8137999999999996
 20
36.671199999999999
 30
0.0
 10
-6.7830000000000004
 20
36.163699999999999
 30
0.0
 10
-7.2904999999999998
 20
36.163699999999999
 30
0.0
 10
-7.2904999999999998
 20
36.163699999999999
 30
0.0
 10
-7.3712999999999997
 20
36.163699999999999
 30
0.0
 10
-9.0040999999999993
 20
37.012799999999999
 30
0.0
 10
-9.1699999999999999
 20
37.123899999999999
 30
0.0
 10
-9.1699999999999999
 20
37.123899999999999
 30
0.0
 10
-9.0807000000000002
 20
37.750300000000003
 30
0.0
 10
-8.9910999999999994
 20
38.376899999999999
 30
0.0
 10
-8.9016999999999999
 20
39.003300000000003
 30
0.0
 10
-8.9016999999999999
 20
39.003300000000003
 30
0.0
 10
-8.7917000000000005
 20
39.110999999999997
 30
0.0
 10
-8.6107999999999993
 20
39.129300000000001
 30
0.0
 10
-8.3931000000000004
 20
39.129300000000001
 30
0.0
  0
SPLINE
  5
6C
100
AcDbEntity
  8
RÚteg 1
 62
     7
100
AcDbSpline
210
0.0
220
0.0
230
1.0
 70
     1
 71
     3
 72
    40
 73
    36
 74
     0
 42
0.0000000001
 43
0.0000000001
 40
0.0
 40
0.0
 40
0.0
 40
0.0
 40
0.1111111111111111
 40
0.1111111111111111
 40
0.1111111111111111
 40
0.1111111111111111
 40
0.2222222222222222
 40
0.2222222222222222
 40
0.2222222222222222
 40
0.2222222222222222
 40
0.3333333333333333
 40
0.3333333333333333
 40
0.3333333333333333
 40
0.3333333333333333
 40
0.4444444444444444
 40
0.4444444444444444
 40
0.4444444444444444
 40
0.4444444444444444
 40
0.5555555555555556
 40
0.5555555555555556
 40
0.5555555555555556
 40
0.5555555555555556
 40
0.6666666666666667
 40
0.6666666666666667
 40
0.6666666666666667
 40
0.6666666666666667
 40
0.7777777777777779
 40
0.7777777777777779
 40
0.7777777777777779
 40
0.7777777777777779
 40
0.8888888888888891
 40
0.8888888888888891
 40
0.8888888888888891
 40
0.8888888888888891
 40
1.0
 40
1.0
 40
1.0
 40
1.0
 10
-28.196999999999999
 20
38.286900000000003
 30
0.0
 10
-28.460599999999999
 20
38.823399999999999
 30
0.0
 10
-27.537099999999999
 20
39.943199999999997
 30
0.0
 10
-27.293700000000001
 20
39.943199999999997
 30
0.0
 10
-27.293700000000001
 20
39.943199999999997
 30
0.0
 10
-26.875699999999998
 20
39.943199999999997
 30
0.0
 10
-26.684000000000001
 20
39.430399999999999
 30
0.0
 10
-26.514700000000001
 20
39.134799999999998
 30
0.0
 10
-26.514700000000001
 20
39.134799999999998
 30
0.0
 10
-26.364899999999999
 20
38.011899999999997
 30
0.0
 10
-26.215499999999999
 20
36.888399999999997
 30
0.0
 10
-26.065899999999999
 20
35.7654
 30
0.0
 10
-26.065899999999999
 20
35.7654
 30
0.0
 10
-26.133500000000002
 20
35.627299999999998
 30
0.0
 10
-26.201599999999999
 20
35.4893
 30
0.0
 10
-26.269400000000001
 20
35.351100000000002
 30
0.0
 10
-26.269400000000001
 20
35.351100000000002
 30
0.0
 10
-26.388500000000001
 20
34.988100000000003
 30
0.0
 10
-26.507100000000001
 20
34.625
 30
0.0
 10
-26.626300000000001
 20
34.262
 30
0.0
 10
-26.626300000000001
 20
34.262
 30
0.0
 10
-26.669599999999999
 20
34.276200000000003
 30
0.0
 10
-26.713000000000001
 20
34.290500000000002
 30
0.0
 10
-26.756399999999999
 20
34.304900000000004
 30
0.0
 10
-26.756399999999999
 20
34.304900000000004
 30
0.0
 10
-27.284500000000001
 20
34.691499999999998
 30
0.0
 10
-27.159300000000002
 20
37.5214
 30
0.0
 10
-27.157599999999999
 20
38.333100000000002
 30
0.0
 10
-27.157599999999999
 20
38.333100000000002
 30
0.0
 10
-27.252600000000001
 20
38.518000000000001
 30
0.0
 10
-27.3474
 20
38.7027
 30
0.0
 10
-27.442599999999999
 20
38.887599999999999
 30
0.0
 10
-27.442599999999999
 20
38.887599999999999
 30
0.0
 10
-27.693899999999999
 20
38.6875
 30
0.0
 10
-27.945399999999999
 20
38.487099999999998
 30
0.0
 10
-28.196999999999999
 20
38.286900000000003
 30
0.0
  0
SPLINE
  5
6D
100
AcDbEntity
  8
RÚteg 1
 62
     7
100
AcDbSpline
210
0.0
220
0.0
230
1.0
 70
     1
 71
     3
 72
    32
 73
    28
 74
     0
 42
0.0000000001
 43
0.0000000001
 40
0.0
 40
0.0
 40
0.0
 40
0.0
 40
0.1428571428571429
 40
0.1428571428571429
 40
0.1428571428571429
 40
0.1428571428571429
 40
0.2857142857142857
 40
0.2857142857142857
 40
0.2857142857142857
 40
0.2857142857142857
 40
0.4285714285714286
 40
0.4285714285714286
 40
0.4285714285714286
 40
0.4285714285714286
 40
0.5714285714285714
 40
0.5714285714285714
 40
0.5714285714285714
 40
0.5714285714285714
 40
0.7142857142857142
 40
0.7142857142857142
 40
0.7142857142857142
 40
0.7142857142857142
 40
0.857142857142857
 40
0.857142857142857
 40
0.857142857142857
 40
0.857142857142857
 40
1.0
 40
1.0
 40
1.0
 40
1.0
 10
-31.992100000000001
 20
35.647300000000001
 30
0.0
 10
-32.759300000000003
 20
35.664400000000001
 30
0.0
 10
-33.8185
 20
36.484699999999997
 30
0.0
 10
-33.871600000000001
 20
37.123899999999999
 30
0.0
 10
-33.871600000000001
 20
37.123899999999999
 30
0.0
 10
-33.158999999999999
 20
37.064500000000002
 30
0.0
 10
-32.940600000000003
 20
36.721200000000003
 30
0.0
 10
-32.3947
 20
36.721200000000003
 30
0.0
 10
-32.3947
 20
36.721200000000003
 30
0.0
 10
-31.7349
 20
36.721200000000003
 30
0.0
 10
-30.783799999999999
 20
39.279299999999999
 30
0.0
 10
-30.783799999999999
 20
40.211599999999997
 30
0.0
 10
-30.783799999999999
 20
40.211599999999997
 30
0.0
 10
-30.783799999999999
 20
40.390599999999999
 30
0.0
 10
-30.783799999999999
 20
40.569600000000001
 30
0.0
 10
-30.783799999999999
 20
40.7485
 30
0.0
 10
-30.783799999999999
 20
40.7485
 30
0.0
 10
-30.649799999999999
 20
40.7485
 30
0.0
 10
-30.515499999999999
 20
40.7485
 30
0.0
 10
-30.3811
 20
40.7485
 30
0.0
 10
-30.3811
 20
40.7485
 30
0.0
 10
-30.348299999999998
 20
39.275700000000001
 30
0.0
 10
-30.3568
 20
39.2166
 30
0.0
 10
-30.756
 20
37.901699999999998
 30
0.0
 10
-30.756
 20
37.901699999999998
 30
0.0
 10
-31.076000000000001
 20
36.848300000000002
 30
0.0
 10
-31.846299999999999
 20
36.049799999999998
 30
0.0
 10
-31.992100000000001
 20
35.647300000000001
 30
0.0
  0
SPLINE
  5
6E
100
AcDbEntity
  8
RÚteg 1
 62
     7
100
AcDbSpline
210
0.0
220
0.0
230
1.0
 70
     1
 71
     3
 72
    28
 73
    24
 74
     0
 42
0.0000000001
 43
0.0000000001
 40
0.0
 40
0.0
 40
0.0
 40
0.0
 40
0.1666666666666667
 40
0.1666666666666667
 40
0.1666666666666667
 40
0.1666666666666667
 40
0.3333333333333333
 40
0.3333333333333333
 40
0.3333333333333333
 40
0.3333333333333333
 40
0.5
 40
0.5
 40
0.5
 40
0.5
 40
0.6666666666666666
 40
0.6666666666666666
 40
0.6666666666666666
 40
0.6666666666666666
 40
0.8333333333333333
 40
0.8333333333333333
 40
0.8333333333333333
 40
0.8333333333333333
 40
1.0
 40
1.0
 40
1.0
 40
1.0
 10
-24.608599999999999
 20
37.661000000000001
 30
0.0
 10
-24.572600000000001
 20
39.2774
 30
0.0
 10
-22.518899999999999
 20
41.236199999999997
 30
0.0
 10
-22.3264
 20
41.956800000000001
 30
0.0
 10
-22.3264
 20
41.956800000000001
 30
0.0
 10
-21.608699999999999
 20
41.896999999999998
 30
0.0
 10
-21.924600000000002
 20
41.754100000000001
 30
0.0
 10
-21.520800000000001
 20
41.151400000000002
 30
0.0
 10
-21.520800000000001
 20
41.151400000000002
 30
0.0
 10
-21.4375
 20
39.766100000000002
 30
0.0
 10
-21.354399999999998
 20
38.380800000000001
 30
0.0
 10
-21.2712
 20
36.9953
 30
0.0
 10
-21.2712
 20
36.9953
 30
0.0
 10
-21.399000000000001
 20
36.993299999999998
 30
0.0
 10
-21.5273
 20
36.991599999999998
 30
0.0
 10
-21.655000000000001
 20
36.989800000000002
 30
0.0
 10
-21.655000000000001
 20
36.989800000000002
 30
0.0
 10
-21.886600000000001
 20
38.196300000000001
 30
0.0
 10
-22.117999999999999
 20
39.402999999999999
 30
0.0
 10
-22.349599999999999
 20
40.6096
 30
0.0
 10
-22.349599999999999
 20
40.6096
 30
0.0
 10
-23.102399999999999
 20
39.626800000000003
 30
0.0
 10
-23.855599999999999
 20
38.643900000000002
 30
0.0
 10
-24.608599999999999
 20
37.661000000000001
 30
0.0
  0
SPLINE
  5
6F
100
AcDbEntity
  8
RÚteg 1
 62
     7
100
AcDbSpline
210
0.0
220
0.0
230
1.0
 70
     1
 71
     3
 72
    64
 73
    60
 74
     0
 42
0.0000000001
 43
0.0000000001
 40
0.0
 40
0.0
 40
0.0
 40
0.0
 40
0.0666666666666667
 40
0.0666666666666667
 40
0.0666666666666667
 40
0.0666666666666667
 40
0.1333333333333333
 40
0.1333333333333333
 40
0.1333333333333333
 40
0.1333333333333333
 40
0.2
 40
0.2
 40
0.2
 40
0.2
 40
0.2666666666666667
 40
0.2666666666666667
 40
0.2666666666666667
 40
0.2666666666666667
 40
0.3333333333333333
 40
0.3333333333333333
 40
0.3333333333333333
 40
0.3333333333333333
 40
0.4
 40
0.4
 40
0.4
 40
0.4
 40
0.4666666666666666
 40
0.4666666666666666
 40
0.4666666666666666
 40
0.4666666666666666
 40
0.5333333333333333
 40
0.5333333333333333
 40
0.5333333333333333
 40
0.5333333333333333
 40
0.6
 40
0.6
 40
0.6
 40
0.6
 40
0.6666666666666666
 40
0.6666666666666666
 40
0.6666666666666666
 40
0.6666666666666666
 40
0.7333333333333333
 40
0.7333333333333333
 40
0.7333333333333333
 40
0.7333333333333333
 40
0.7999999999999999
 40
0.7999999999999999
 40
0.7999999999999999
 40
0.7999999999999999
 40
0.8666666666666666
 40
0.8666666666666666
 40
0.8666666666666666
 40
0.8666666666666666
 40
0.9333333333333332
 40
0.9333333333333332
 40
0.9333333333333332
 40
0.9333333333333332
 40
1.0
 40
1.0
 40
1.0
 40
1.0
 10
-18.433299999999999
 20
32.559600000000003
 30
0.0
 10
-19.039999999999999
 20
32.701000000000001
 30
0.0
 10
-20.194099999999999
 20
33.807499999999997
 30
0.0
 10
-20.454999999999998
 20
34.297600000000003
 30
0.0
 10
-20.454999999999998
 20
34.297600000000003
 30
0.0
 10
-20.690999999999999
 20
34.739800000000002
 30
0.0
 10
-20.3126
 20
36.609999999999999
 30
0.0
 10
-20.3126
 20
37.526800000000001
 30
0.0
 10
-20.3126
 20
37.526800000000001
 30
0.0
 10
-20.3126
 20
37.884700000000002
 30
0.0
 10
-20.3126
 20
38.242699999999999
 30
0.0
 10
-20.3126
 20
38.6006
 30
0.0
 10
-20.3126
 20
38.6006
 30
0.0
 10
-20.3126
 20
39.869500000000002
 30
0.0
 10
-20.4297
 20
40.666499999999999
 30
0.0
 10
-20.442
 20
41.827500000000001
 30
0.0
 10
-20.442
 20
41.827500000000001
 30
0.0
 10
-20.4496
 20
42.5505
 30
0.0
 10
-21.1005
 20
44.3733
 30
0.0
 10
-20.3126
 20
44.3733
 30
0.0
 10
-20.3126
 20
44.3733
 30
0.0
 10
-20.267900000000001
 20
44.3733
 30
0.0
 10
-20.222999999999999
 20
44.3733
 30
0.0
 10
-20.1784
 20
44.3733
 30
0.0
 10
-20.1784
 20
44.3733
 30
0.0
 10
-19.591899999999999
 20
44.3733
 30
0.0
 10
-19.173999999999999
 20
43.8187
 30
0.0
 10
-18.970199999999998
 20
43.433500000000002
 30
0.0
 10
-18.970199999999998
 20
43.433500000000002
 30
0.0
 10
-19.081600000000002
 20
43.279899999999998
 30
0.0
 10
-19.192599999999999
 20
43.125999999999998
 30
0.0
 10
-19.304099999999998
 20
42.972099999999998
 30
0.0
 10
-19.304099999999998
 20
42.972099999999998
 30
0.0
 10
-19.363499999999998
 20
42.960099999999997
 30
0.0
 10
-19.423200000000001
 20
42.947899999999997
 30
0.0
 10
-19.482700000000001
 20
42.9358
 30
0.0
 10
-19.482700000000001
 20
42.9358
 30
0.0
 10
-18.943300000000001
 20
42.311500000000002
 30
0.0
 10
-18.4038
 20
41.687100000000001
 30
0.0
 10
-17.8644
 20
41.063099999999999
 30
0.0
 10
-17.8644
 20
41.063099999999999
 30
0.0
 10
-17.803000000000001
 20
41.0441
 30
0.0
 10
-17.741199999999999
 20
41.025199999999998
 30
0.0
 10
-17.679600000000001
 20
41.006399999999999
 30
0.0
 10
-17.679600000000001
 20
41.006399999999999
 30
0.0
 10
-18.099699999999999
 20
40.768099999999997
 30
0.0
 10
-18.519600000000001
 20
40.530200000000001
 30
0.0
 10
-18.939599999999999
 20
40.291899999999998
 30
0.0
 10
-18.939599999999999
 20
40.291899999999998
 30
0.0
 10
-18.656199999999998
 20
39.170099999999998
 30
0.0
 10
-17.225200000000001
 20
38.306100000000001
 30
0.0
 10
-17.225200000000001
 20
37.795099999999998
 30
0.0
 10
-17.225200000000001
 20
37.795099999999998
 30
0.0
 10
-17.225200000000001
 20
37.750300000000003
 30
0.0
 10
-17.225200000000001
 20
37.7057
 30
0.0
 10
-17.225200000000001
 20
37.661000000000001
 30
0.0
 10
-17.225200000000001
 20
37.661000000000001
 30
0.0
 10
-17.225200000000001
 20
36.713700000000003
 30
0.0
 10
-18.139600000000002
 20
33.171399999999998
 30
0.0
 10
-18.433299999999999
 20
32.559600000000003
 30
0.0
  0
SPLINE
  5
70
100
AcDbEntity
  8
RÚteg 1
 62
     7
100
AcDbSpline
210
0.0
220
0.0
230
1.0
 70
     1
 71
     3
 72
   316
 73
   312
 74
     0
 42
0.0000000001
 43
0.0000000001
 40
0.0
 40
0.0
 40
0.0
 40
0.0
 40
0.0128205128205128
 40
0.0128205128205128
 40
0.0128205128205128
 40
0.0128205128205128
 40
0.0256410256410256
 40
0.0256410256410256
 40
0.0256410256410256
 40
0.0256410256410256
 40
0.0384615384615385
 40
0.0384615384615385
 40
0.0384615384615385
 40
0.0384615384615385
 40
0.0512820512820513
 40
0.0512820512820513
 40
0.0512820512820513
 40
0.0512820512820513
 40
0.0641025641025641
 40
0.0641025641025641
 40
0.0641025641025641
 40
0.0641025641025641
 40
0.0769230769230769
 40
0.0769230769230769
 40
0.0769230769230769
 40
0.0769230769230769
 40
0.0897435897435897
 40
0.0897435897435897
 40
0.0897435897435897
 40
0.0897435897435897
 40
0.1025641025641026
 40
0.1025641025641026
 40
0.1025641025641026
 40
0.1025641025641026
 40
0.1153846153846154
 40
0.1153846153846154
 40
0.1153846153846154
 40
0.1153846153846154
 40
0.1282051282051282
 40
0.1282051282051282
 40
0.1282051282051282
 40
0.1282051282051282
 40
0.141025641025641
 40
0.141025641025641
 40
0.141025641025641
 40
0.141025641025641
 40
0.1538461538461539
 40
0.1538461538461539
 40
0.1538461538461539
 40
0.1538461538461539
 40
0.1666666666666667
 40
0.1666666666666667
 40
0.1666666666666667
 40
0.1666666666666667
 40
0.1794871794871795
 40
0.1794871794871795
 40
0.1794871794871795
 40
0.1794871794871795
 40
0.1923076923076924
 40
0.1923076923076924
 40
0.1923076923076924
 40
0.1923076923076924
 40
0.2051282051282052
 40
0.2051282051282052
 40
0.2051282051282052
 40
0.2051282051282052
 40
0.217948717948718
 40
0.217948717948718
 40
0.217948717948718
 40
0.217948717948718
 40
0.2307692307692308
 40
0.2307692307692308
 40
0.2307692307692308
 40
0.2307692307692308
 40
0.2435897435897437
 40
0.2435897435897437
 40
0.2435897435897437
 40
0.2435897435897437
 40
0.2564102564102565
 40
0.2564102564102565
 40
0.2564102564102565
 40
0.2564102564102565
 40
0.2692307692307693
 40
0.2692307692307693
 40
0.2692307692307693
 40
0.2692307692307693
 40
0.2820512820512822
 40
0.2820512820512822
 40
0.2820512820512822
 40
0.2820512820512822
 40
0.294871794871795
 40
0.294871794871795
 40
0.294871794871795
 40
0.294871794871795
 40
0.3076923076923078
 40
0.3076923076923078
 40
0.3076923076923078
 40
0.3076923076923078
 40
0.3205128205128207
 40
0.3205128205128207
 40
0.3205128205128207
 40
0.3205128205128207
 40
0.3333333333333335
 40
0.3333333333333335
 40
0.3333333333333335
 40
0.3333333333333335
 40
0.3461538461538463
 40
0.3461538461538463
 40
0.3461538461538463
 40
0.3461538461538463
 40
0.3589743589743591
 40
0.3589743589743591
 40
0.3589743589743591
 40
0.3589743589743591
 40
0.371794871794872
 40
0.371794871794872
 40
0.371794871794872
 40
0.371794871794872
 40
0.3846153846153848
 40
0.3846153846153848
 40
0.3846153846153848
 40
0.3846153846153848
 40
0.3974358974358976
 40
0.3974358974358976
 40
0.3974358974358976
 40
0.3974358974358976
 40
0.4102564102564105
 40
0.4102564102564105
 40
0.4102564102564105
 40
0.4102564102564105
 40
0.4230769230769233
 40
0.4230769230769233
 40
0.4230769230769233
 40
0.4230769230769233
 40
0.4358974358974361
 40
0.4358974358974361
 40
0.4358974358974361
 40
0.4358974358974361
 40
0.448717948717949
 40
0.448717948717949
 40
0.448717948717949
 40
0.448717948717949
 40
0.4615384615384618
 40
0.4615384615384618
 40
0.4615384615384618
 40
0.4615384615384618
 40
0.4743589743589746
 40
0.4743589743589746
 40
0.4743589743589746
 40
0.4743589743589746
 40
0.4871794871794875
 40
0.4871794871794875
 40
0.4871794871794875
 40
0.4871794871794875
 40
0.5000000000000002
 40
0.5000000000000002
 40
0.5000000000000002
 40
0.5000000000000002
 40
0.512820512820513
 40
0.512820512820513
 40
0.512820512820513
 40
0.512820512820513
 40
0.5256410256410258
 40
0.5256410256410258
 40
0.5256410256410258
 40
0.5256410256410258
 40
0.5384615384615386
 40
0.5384615384615386
 40
0.5384615384615386
 40
0.5384615384615386
 40
0.5512820512820513
 40
0.5512820512820513
 40
0.5512820512820513
 40
0.5512820512820513
 40
0.5641025641025641
 40
0.5641025641025641
 40
0.5641025641025641
 40
0.5641025641025641
 40
0.5769230769230769
 40
0.5769230769230769
 40
0.5769230769230769
 40
0.5769230769230769
 40
0.5897435897435897
 40
0.5897435897435897
 40
0.5897435897435897
 40
0.5897435897435897
 40
0.6025641025641024
 40
0.6025641025641024
 40
0.6025641025641024
 40
0.6025641025641024
 40
0.6153846153846152
 40
0.6153846153846152
 40
0.6153846153846152
 40
0.6153846153846152
 40
0.628205128205128
 40
0.628205128205128
 40
0.628205128205128
 40
0.628205128205128
 40
0.6410256410256408
 40
0.6410256410256408
 40
0.6410256410256408
 40
0.6410256410256408
 40
0.6538461538461535
 40
0.6538461538461535
 40
0.6538461538461535
 40
0.6538461538461535
 40
0.6666666666666663
 40
0.6666666666666663
 40
0.6666666666666663
 40
0.6666666666666663
 40
0.6794871794871791
 40
0.6794871794871791
 40
0.6794871794871791
 40
0.6794871794871791
 40
0.6923076923076919
 40
0.6923076923076919
 40
0.6923076923076919
 40
0.6923076923076919
 40
0.7051282051282046
 40
0.7051282051282046
 40
0.7051282051282046
 40
0.7051282051282046
 40
0.7179487179487174
 40
0.7179487179487174
 40
0.7179487179487174
 40
0.7179487179487174
 40
0.7307692307692302
 40
0.7307692307692302
 40
0.7307692307692302
 40
0.7307692307692302
 40
0.743589743589743
 40
0.743589743589743
 40
0.743589743589743
 40
0.743589743589743
 40
0.7564102564102557
 40
0.7564102564102557
 40
0.7564102564102557
 40
0.7564102564102557
 40
0.7692307692307685
 40
0.7692307692307685
 40
0.7692307692307685
 40
0.7692307692307685
 40
0.7820512820512813
 40
0.7820512820512813
 40
0.7820512820512813
 40
0.7820512820512813
 40
0.7948717948717941
 40
0.7948717948717941
 40
0.7948717948717941
 40
0.7948717948717941
 40
0.8076923076923068
 40
0.8076923076923068
 40
0.8076923076923068
 40
0.8076923076923068
 40
0.8205128205128196
 40
0.8205128205128196
 40
0.8205128205128196
 40
0.8205128205128196
 40
0.8333333333333324
 40
0.8333333333333324
 40
0.8333333333333324
 40
0.8333333333333324
 40
0.8461538461538452
 40
0.8461538461538452
 40
0.8461538461538452
 40
0.8461538461538452
 40
0.8589743589743579
 40
0.8589743589743579
 40
0.8589743589743579
 40
0.8589743589743579
 40
0.8717948717948707
 40
0.8717948717948707
 40
0.8717948717948707
 40
0.8717948717948707
 40
0.8846153846153835
 40
0.8846153846153835
 40
0.8846153846153835
 40
0.8846153846153835
 40
0.8974358974358963
 40
0.8974358974358963
 40
0.8974358974358963
 40
0.8974358974358963
 40
0.910256410256409
 40
0.910256410256409
 40
0.910256410256409
 40
0.910256410256409
 40
0.9230769230769218
 40
0.9230769230769218
 40
0.9230769230769218
 40
0.9230769230769218
 40
0.9358974358974346
 40
0.9358974358974346
 40
0.9358974358974346
 40
0.9358974358974346
 40
0.9487179487179474
 40
0.9487179487179474
 40
0.9487179487179474
 40
0.9487179487179474
 40
0.9615384615384601
 40
0.9615384615384601
 40
0.9615384615384601
 40
0.9615384615384601
 40
0.9743589743589729
 40
0.9743589743589729
 40
0.9743589743589729
 40
0.9743589743589729
 40
0.9871794871794857
 40
0.9871794871794857
 40
0.9871794871794857
 40
0.9871794871794857
 40
1.0
 40
1.0
 40
1.0
 40
1.0
 10
-34.9206
 20
44.999499999999998
 30
0.0
 10
-34.381599999999999
 20
44.593200000000003
 30
0.0
 10
-33.842399999999998
 20
44.186900000000001
 30
0.0
 10
-33.3035
 20
43.780299999999997
 30
0.0
 10
-33.3035
 20
43.780299999999997
 30
0.0
 10
-33.090200000000003
 20
43.441200000000002
 30
0.0
 10
-32.876800000000003
 20
43.101700000000001
 30
0.0
 10
-32.663499999999999
 20
42.7622
 30
0.0
 10
-32.663499999999999
 20
42.7622
 30
0.0
 10
-32.710299999999997
 20
43.323999999999998
 30
0.0
 10
-32.9499
 20
43.553600000000003
 30
0.0
 10
-32.990099999999998
 20
43.924399999999999
 30
0.0
 10
-32.990099999999998
 20
43.924399999999999
 30
0.0
 10
-33.076500000000003
 20
44.715499999999999
 30
0.0
 10
-32.563400000000001
 20
44.092500000000001
 30
0.0
 10
-32.372399999999999
 20
43.725299999999997
 30
0.0
 10
-32.372399999999999
 20
43.725299999999997
 30
0.0
 10
-32.198799999999999
 20
43.390900000000002
 30
0.0
 10
-31.4482
 20
42.213000000000001
 30
0.0
 10
-31.186800000000002
 20
41.822699999999998
 30
0.0
 10
-31.186800000000002
 20
41.822699999999998
 30
0.0
 10
-31.186800000000002
 20
41.342799999999997
 30
0.0
 10
-30.908799999999999
 20
40.077300000000001
 30
0.0
 10
-31.455200000000001
 20
40.077300000000001
 30
0.0
 10
-31.455200000000001
 20
40.077300000000001
 30
0.0
 10
-31.817699999999999
 20
40.077300000000001
 30
0.0
 10
-31.825399999999998
 20
40.141500000000001
 30
0.0
 10
-32.138199999999998
 20
40.209600000000002
 30
0.0
 10
-32.138199999999998
 20
40.209600000000002
 30
0.0
 10
-32.079799999999999
 20
39.898800000000001
 30
0.0
 10
-32.021500000000003
 20
39.588099999999997
 30
0.0
 10
-31.9635
 20
39.2774
 30
0.0
 10
-31.9635
 20
39.2774
 30
0.0
 10
-31.987300000000001
 20
39.235900000000001
 30
0.0
 10
-32.011499999999998
 20
39.194499999999998
 30
0.0
 10
-32.035600000000002
 20
39.153100000000002
 30
0.0
 10
-32.035600000000002
 20
39.153100000000002
 30
0.0
 10
-32.379100000000001
 20
39.282200000000003
 30
0.0
 10
-32.722499999999997
 20
39.411299999999997
 30
0.0
 10
-33.066000000000003
 20
39.540500000000002
 30
0.0
 10
-33.066000000000003
 20
39.540500000000002
 30
0.0
 10
-32.996000000000002
 20
39.2395
 30
0.0
 10
-32.931800000000003
 20
39.2316
 30
0.0
 10
-32.931800000000003
 20
38.869199999999999
 30
0.0
 10
-32.931800000000003
 20
38.869199999999999
 30
0.0
 10
-32.932200000000002
 20
38.736600000000003
 30
0.0
 10
-32.932699999999997
 20
38.6038
 30
0.0
 10
-32.933199999999999
 20
38.471400000000003
 30
0.0
 10
-32.933199999999999
 20
38.471400000000003
 30
0.0
 10
-33.136899999999997
 20
38.447800000000001
 30
0.0
 10
-33.340699999999998
 20
38.424599999999998
 30
0.0
 10
-33.544600000000003
 20
38.401200000000003
 30
0.0
 10
-33.544600000000003
 20
38.401200000000003
 30
0.0
 10
-33.689100000000003
 20
38.510100000000001
 30
0.0
 10
-33.834000000000003
 20
38.619
 30
0.0
 10
-33.978400000000001
 20
38.728099999999998
 30
0.0
 10
-33.978400000000001
 20
38.728099999999998
 30
0.0
 10
-34.044800000000002
 20
38.481299999999997
 30
0.0
 10
-34.110900000000001
 20
38.2348
 30
0.0
 10
-34.177100000000003
 20
37.988399999999999
 30
0.0
 10
-34.177100000000003
 20
37.988399999999999
 30
0.0
 10
-34.468899999999998
 20
38.145600000000002
 30
0.0
 10
-34.760599999999997
 20
38.302500000000002
 30
0.0
 10
-35.052399999999999
 20
38.459499999999998
 30
0.0
 10
-35.052399999999999
 20
38.459499999999998
 30
0.0
 10
-35.1128
 20
38.2209
 30
0.0
 10
-35.173099999999998
 20
37.982199999999999
 30
0.0
 10
-35.233600000000003
 20
37.743699999999997
 30
0.0
 10
-35.233600000000003
 20
37.743699999999997
 30
0.0
 10
-35.4861
 20
37.846600000000002
 30
0.0
 10
-35.739100000000001
 20
37.949399999999997
 30
0.0
 10
-35.991700000000002
 20
38.052199999999999
 30
0.0
 10
-35.991700000000002
 20
38.052199999999999
 30
0.0
 10
-36.090400000000002
 20
37.787599999999998
 30
0.0
 10
-36.1892
 20
37.522799999999997
 30
0.0
 10
-36.2881
 20
37.258099999999999
 30
0.0
 10
-36.2881
 20
37.258099999999999
 30
0.0
 10
-36.466900000000003
 20
37.258099999999999
 30
0.0
 10
-36.646000000000001
 20
37.258099999999999
 30
0.0
 10
-36.825000000000003
 20
37.258099999999999
 30
0.0
 10
-36.825000000000003
 20
37.258099999999999
 30
0.0
 10
-36.825000000000003
 20
37.347700000000003
 30
0.0
 10
-36.825000000000003
 20
37.437100000000001
 30
0.0
 10
-36.825000000000003
 20
37.526800000000001
 30
0.0
 10
-36.825000000000003
 20
37.526800000000001
 30
0.0
 10
-36.905500000000004
 20
37.5242
 30
0.0
 10
-36.985900000000001
 20
37.521999999999998
 30
0.0
 10
-37.066200000000002
 20
37.5197
 30
0.0
 10
-37.066200000000002
 20
37.5197
 30
0.0
 10
-37.130800000000001
 20
37.282400000000003
 30
0.0
 10
-37.1952
 20
37.045000000000002
 30
0.0
 10
-37.259900000000002
 20
36.807600000000001
 30
0.0
 10
-37.259900000000002
 20
36.807600000000001
 30
0.0
 10
-37.517699999999998
 20
36.957900000000002
 30
0.0
 10
-37.775300000000001
 20
37.107900000000001
 30
0.0
 10
-38.0334
 20
37.258099999999999
 30
0.0
 10
-38.0334
 20
37.258099999999999
 30
0.0
 10
-38.0334
 20
37.034500000000001
 30
0.0
 10
-38.0334
 20
36.8108
 30
0.0
 10
-38.0334
 20
36.5869
 30
0.0
 10
-38.0334
 20
36.5869
 30
0.0
 10
-38.056600000000003
 20
36.548400000000001
 30
0.0
 10
-38.080300000000001
 20
36.509900000000002
 30
0.0
 10
-38.103900000000003
 20
36.471499999999999
 30
0.0
 10
-38.103900000000003
 20
36.471499999999999
 30
0.0
 10
-38.438299999999998
 20
36.688899999999997
 30
0.0
 10
-38.772799999999997
 20
36.906399999999998
 30
0.0
 10
-39.107199999999999
 20
37.123899999999999
 30
0.0
 10
-39.107199999999999
 20
37.123899999999999
 30
0.0
 10
-39.274999999999999
 20
36.774099999999997
 30
0.0
 10
-39.173200000000001
 20
36.1843
 30
0.0
 10
-39.509999999999998
 20
36.1843
 30
0.0
 10
-39.509999999999998
 20
36.1843
 30
0.0
 10
-40.179600000000001
 20
36.1843
 30
0.0
 10
-39.808799999999998
 20
36.549999999999997
 30
0.0
 10
-40.4497
 20
36.721200000000003
 30
0.0
 10
-40.4497
 20
36.721200000000003
 30
0.0
 10
-40.4497
 20
36.5869
 30
0.0
 10
-40.4497
 20
36.4527
 30
0.0
 10
-40.4497
 20
36.3185
 30
0.0
 10
-40.4497
 20
36.3185
 30
0.0
 10
-40.4497
 20
35.805199999999999
 30
0.0
 10
-40.4084
 20
36.2697
 30
0.0
 10
-40.609299999999998
 20
35.872700000000002
 30
0.0
 10
-40.609299999999998
 20
35.872700000000002
 30
0.0
 10
-40.869300000000003
 20
36.021299999999997
 30
0.0
 10
-41.1295
 20
36.169899999999998
 30
0.0
 10
-41.389400000000002
 20
36.3185
 30
0.0
 10
-41.389400000000002
 20
36.3185
 30
0.0
 10
-41.389400000000002
 20
35.603700000000003
 30
0.0
 10
-41.376399999999997
 20
35.435699999999997
 30
0.0
 10
-42.001800000000003
 20
35.4467
 30
0.0
 10
-42.001800000000003
 20
35.4467
 30
0.0
 10
-42.209400000000002
 20
35.604999999999997
 30
0.0
 10
-42.417000000000002
 20
35.763399999999997
 30
0.0
 10
-42.6248
 20
35.921799999999998
 30
0.0
 10
-42.6248
 20
35.921799999999998
 30
0.0
 10
-42.716999999999999
 20
35.543900000000001
 30
0.0
 10
-42.808900000000001
 20
35.166200000000003
 30
0.0
 10
-42.901299999999999
 20
34.7881
 30
0.0
 10
-42.901299999999999
 20
34.7881
 30
0.0
 10
-43.200200000000002
 20
34.983800000000002
 30
0.0
 10
-43.499499999999998
 20
35.179200000000002
 30
0.0
 10
-43.7986
 20
35.3748
 30
0.0
 10
-43.7986
 20
35.3748
 30
0.0
 10
-43.892699999999998
 20
35.193399999999997
 30
0.0
 10
-43.986699999999999
 20
35.012
 30
0.0
 10
-44.081000000000003
 20
34.830399999999997
 30
0.0
 10
-44.081000000000003
 20
34.830399999999997
 30
0.0
 10
-44.338000000000001
 20
34.966299999999997
 30
0.0
 10
-44.595199999999998
 20
35.101999999999997
 30
0.0
 10
-44.852600000000002
 20
35.2378
 30
0.0
 10
-44.852600000000002
 20
35.2378
 30
0.0
 10
-44.906500000000001
 20
35.016199999999998
 30
0.0
 10
-44.9602
 20
34.794800000000002
 30
0.0
 10
-45.014099999999999
 20
34.573300000000003
 30
0.0
 10
-45.014099999999999
 20
34.573300000000003
 30
0.0
 10
-45.180399999999999
 20
34.569299999999998
 30
0.0
 10
-45.346299999999999
 20
34.565399999999997
 30
0.0
 10
-45.512599999999999
 20
34.561300000000003
 30
0.0
 10
-45.512599999999999
 20
34.561300000000003
 30
0.0
 10
-45.730899999999998
 20
36.307000000000002
 30
0.0
 10
-45.949199999999998
 20
38.053100000000001
 30
0.0
 10
-46.1676
 20
39.798900000000003
 30
0.0
 10
-46.1676
 20
39.798900000000003
 30
0.0
 10
-46.103999999999999
 20
39.817599999999999
 30
0.0
 10
-46.040399999999998
 20
39.836300000000001
 30
0.0
 10
-45.976799999999997
 20
39.854999999999997
 30
0.0
 10
-45.976799999999997
 20
39.854999999999997
 30
0.0
 10
-45.6648
 20
39.101300000000002
 30
0.0
 10
-45.352699999999999
 20
38.347799999999999
 30
0.0
 10
-45.040900000000001
 20
37.594200000000001
 30
0.0
 10
-45.040900000000001
 20
37.594200000000001
 30
0.0
 10
-45.000700000000002
 20
37.614400000000003
 30
0.0
 10
-44.960700000000003
 20
37.634399999999999
 30
0.0
 10
-44.9206
 20
37.654499999999999
 30
0.0
 10
-44.9206
 20
37.654499999999999
 30
0.0
 10
-45.066099999999999
 20
38.592599999999997
 30
0.0
 10
-45.211599999999997
 20
39.5306
 30
0.0
 10
-45.356999999999999
 20
40.468600000000002
 30
0.0
 10
-45.356999999999999
 20
40.468600000000002
 30
0.0
 10
-45.317599999999999
 20
40.4955
 30
0.0
 10
-45.278100000000002
 20
40.522500000000001
 30
0.0
 10
-45.238799999999998
 20
40.549300000000002
 30
0.0
 10
-45.238799999999998
 20
40.549300000000002
 30
0.0
 10
-45.023099999999999
 20
40.377000000000002
 30
0.0
 10
-44.807400000000001
 20
40.2044
 30
0.0
 10
-44.591999999999999
 20
40.0319
 30
0.0
 10
-44.591999999999999
 20
40.0319
 30
0.0
 10
-44.285200000000003
 20
39.375799999999998
 30
0.0
 10
-43.978400000000001
 20
38.719700000000003
 30
0.0
 10
-43.671599999999998
 20
38.063400000000001
 30
0.0
 10
-43.671599999999998
 20
38.063400000000001
 30
0.0
 10
-43.671599999999998
 20
39.273800000000001
 30
0.0
 10
-44.203000000000003
 20
40.726199999999999
 30
0.0
 10
-43.698799999999999
 20
41.072899999999997
 30
0.0
 10
-43.698799999999999
 20
41.072899999999997
 30
0.0
 10
-43.220999999999997
 20
40.199199999999998
 30
0.0
 10
-42.743400000000001
 20
39.325600000000001
 30
0.0
 10
-42.265999999999998
 20
38.452300000000001
 30
0.0
 10
-42.265999999999998
 20
38.452300000000001
 30
0.0
 10
-42.479100000000003
 20
39.519500000000001
 30
0.0
 10
-42.692500000000003
 20
40.586599999999997
 30
0.0
 10
-42.905799999999999
 20
41.653700000000001
 30
0.0
 10
-42.905799999999999
 20
41.653700000000001
 30
0.0
 10
-42.847799999999999
 20
41.665199999999999
 30
0.0
 10
-42.789700000000003
 20
41.676699999999997
 30
0.0
 10
-42.731999999999999
 20
41.688400000000001
 30
0.0
 10
-42.731999999999999
 20
41.688400000000001
 30
0.0
 10
-41.809699999999999
 20
41.070700000000002
 30
0.0
 10
-41.8262
 20
39.680500000000002
 30
0.0
 10
-41.120899999999999
 20
38.869199999999999
 30
0.0
 10
-41.120899999999999
 20
38.869199999999999
 30
0.0
 10
-41.168799999999997
 20
39.444899999999997
 30
0.0
 10
-41.658000000000001
 20
41.401200000000003
 30
0.0
 10
-41.658000000000001
 20
41.419800000000002
 30
0.0
 10
-41.658000000000001
 20
41.419800000000002
 30
0.0
 10
-41.658000000000001
 20
41.598799999999997
 30
0.0
 10
-41.658000000000001
 20
41.777799999999999
 30
0.0
 10
-41.658000000000001
 20
41.956800000000001
 30
0.0
 10
-41.658000000000001
 20
41.956800000000001
 30
0.0
 10
-40.252800000000001
 20
41.840000000000003
 30
0.0
 10
-40.450800000000001
 20
39.295400000000001
 30
0.0
 10
-39.654800000000002
 20
39.000500000000002
 30
0.0
 10
-39.654800000000002
 20
39.000500000000002
 30
0.0
 10
-39.875
 20
39.806699999999999
 30
0.0
 10
-40.095100000000002
 20
40.613199999999999
 30
0.0
 10
-40.315399999999997
 20
41.419800000000002
 30
0.0
 10
-40.315399999999997
 20
41.419800000000002
 30
0.0
 10
-40.234000000000002
 20
41.415700000000001
 30
0.0
 10
-40.152200000000001
 20
41.411099999999998
 30
0.0
 10
-40.070500000000003
 20
41.406599999999997
 30
0.0
 10
-40.070500000000003
 20
41.406599999999997
 30
0.0
 10
-39.6599
 20
40.740099999999998
 30
0.0
 10
-39.249499999999998
 20
40.073
 30
0.0
 10
-38.838700000000003
 20
39.405999999999999
 30
0.0
 10
-38.838700000000003
 20
39.405999999999999
 30
0.0
 10
-38.900500000000001
 20
40.147399999999998
 30
0.0
 10
-39.644199999999998
 20
41.8123
 30
0.0
 10
-39.644199999999998
 20
41.956800000000001
 30
0.0
 10
-39.644199999999998
 20
41.956800000000001
 30
0.0
 10
-39.644199999999998
 20
42.3688
 30
0.0
 10
-39.313000000000002
 20
42.537399999999998
 30
0.0
 10
-39.092399999999998
 20
42.580599999999997
 30
0.0
 10
-39.092399999999998
 20
42.580599999999997
 30
0.0
 10
-38.649700000000003
 20
41.567300000000003
 30
0.0
 10
-38.2074
 20
40.553800000000003
 30
0.0
 10
-37.764699999999998
 20
39.540500000000002
 30
0.0
 10
-37.764699999999998
 20
39.540500000000002
 30
0.0
 10
-37.806800000000003
 20
40.046399999999998
 30
0.0
 10
-38.436
 20
41.8401
 30
0.0
 10
-38.436
 20
41.956800000000001
 30
0.0
 10
-38.436
 20
41.956800000000001
 30
0.0
 10
-38.436
 20
42.091099999999997
 30
0.0
 10
-38.436
 20
42.2254
 30
0.0
 10
-38.436
 20
42.359499999999997
 30
0.0
 10
-38.436
 20
42.359499999999997
 30
0.0
 10
-37.705599999999997
 20
42.164499999999997
 30
0.0
 10
-36.898800000000001
 20
40.560400000000001
 30
0.0
 10
-36.825000000000003
 20
39.674599999999998
 30
0.0
 10
-36.825000000000003
 20
39.674599999999998
 30
0.0
 10
-36.744900000000001
 20
39.672199999999997
 30
0.0
 10
-36.6648
 20
39.670099999999998
 30
0.0
 10
-36.584899999999998
 20
39.6678
 30
0.0
 10
-36.584899999999998
 20
39.6678
 30
0.0
 10
-36.814999999999998
 20
40.605800000000002
 30
0.0
 10
-37.045000000000002
 20
41.544199999999996
 30
0.0
 10
-37.275100000000002
 20
42.482300000000002
 30
0.0
 10
-37.275100000000002
 20
42.482300000000002
 30
0.0
 10
-37.209000000000003
 20
42.517000000000003
 30
0.0
 10
-37.142800000000001
 20
42.551299999999998
 30
0.0
 10
-37.076999999999998
 20
42.585900000000002
 30
0.0
 10
-37.076999999999998
 20
42.585900000000002
 30
0.0
 10
-36.606499999999997
 20
41.895099999999999
 30
0.0
 10
-36.136000000000003
 20
41.204099999999997
 30
0.0
 10
-35.665700000000001
 20
40.512999999999998
 30
0.0
 10
-35.665700000000001
 20
40.512999999999998
 30
0.0
 10
-36.052
 20
41.441800000000001
 30
0.0
 10
-36.438699999999997
 20
42.3705
 30
0.0
 10
-36.825000000000003
 20
43.299399999999999
 30
0.0
 10
-36.825000000000003
 20
43.299399999999999
 30
0.0
 10
-36.822400000000002
 20
43.301499999999997
 30
0.0
 10
-36.574399999999997
 20
43.433500000000002
 30
0.0
 10
-36.5565
 20
43.433500000000002
 30
0.0
 10
-36.5565
 20
43.433500000000002
 30
0.0
 10
-35.952300000000001
 20
43.433500000000002
 30
0.0
 10
-35.085900000000002
 20
41.336500000000001
 30
0.0
 10
-34.3384
 20
40.914999999999999
 30
0.0
 10
-34.3384
 20
40.914999999999999
 30
0.0
 10
-34.710700000000003
 20
41.734000000000002
 30
0.0
 10
-35.083199999999998
 20
42.553199999999997
 30
0.0
 10
-35.456000000000003
 20
43.372500000000002
 30
0.0
 10
-35.456000000000003
 20
43.372500000000002
 30
0.0
 10
-35.500100000000003
 20
43.349899999999998
 30
0.0
 10
-35.543900000000001
 20
43.327300000000001
 30
0.0
 10
-35.588000000000001
 20
43.3048
 30
0.0
 10
-35.588000000000001
 20
43.3048
 30
0.0
 10
-35.642200000000003
 20
43.616300000000003
 30
0.0
 10
-35.696800000000003
 20
43.927700000000002
 30
0.0
 10
-35.750999999999998
 20
44.2393
 30
0.0
 10
-35.750999999999998
 20
44.2393
 30
0.0
 10
-34.613599999999998
 20
43.4773
 30
0.0
 10
-34.292700000000004
 20
42.015799999999999
 30
0.0
 10
-33.5565
 20
41.5717
 30
0.0
 10
-33.5565
 20
41.5717
 30
0.0
 10
-33.881399999999999
 20
42.3992
 30
0.0
 10
-34.206099999999999
 20
43.226900000000001
 30
0.0
 10
-34.531100000000002
 20
44.054299999999998
 30
0.0
 10
-34.531100000000002
 20
44.054299999999998
 30
0.0
 10
-34.661000000000001
 20
44.369399999999999
 30
0.0
 10
-34.790700000000001
 20
44.684399999999997
 30
0.0
 10
-34.9206
 20
44.999499999999998
 30
0.0
  0
SPLINE
  5
71
100
AcDbEntity
  8
RÚteg 1
 62
     7
100
AcDbSpline
210
0.0
220
0.0
230
1.0
 70
     1
 71
     3
 72
    24
 73
    20
 74
     0
 42
0.0000000001
 43
0.0000000001
 40
0.0
 40
0.0
 40
0.0
 40
0.0
 40
0.2
 40
0.2
 40
0.2
 40
0.2
 40
0.4
 40
0.4
 40
0.4
 40
0.4
 40
0.6000000000000001
 40
0.6000000000000001
 40
0.6000000000000001
 40
0.6000000000000001
 40
0.8
 40
0.8
 40
0.8
 40
0.8
 40
1.0
 40
1.0
 40
1.0
 40
1.0
 10
-45.153599999999997
 20
45.088000000000001
 30
0.0
 10
-44.932000000000002
 20
44.137900000000002
 30
0.0
 10
-44.322099999999999
 20
44.900500000000001
 30
0.0
 10
-44.757100000000001
 20
43.713900000000002
 30
0.0
 10
-44.757100000000001
 20
43.713900000000002
 30
0.0
 10
-44.904000000000003
 20
43.312100000000001
 30
0.0
 10
-45.4846
 20
42.628100000000003
 30
0.0
 10
-45.954000000000001
 20
42.628100000000003
 30
0.0
 10
-45.954000000000001
 20
42.628100000000003
 30
0.0
 10
-46.132800000000003
 20
42.628100000000003
 30
0.0
 10
-46.311900000000001
 20
42.628100000000003
 30
0.0
 10
-46.4908
 20
42.628100000000003
 30
0.0
 10
-46.4908
 20
42.628100000000003
 30
0.0
 10
-46.406700000000001
 20
43.640000000000001
 30
0.0
 10
-45.317700000000002
 20
42.7378
 30
0.0
 10
-45.317700000000002
 20
44.350700000000003
 30
0.0
 10
-45.317700000000002
 20
44.350700000000003
 30
0.0
 10
-45.734200000000001
 20
44.645299999999999
 30
0.0
 10
-46.702599999999997
 20
45.1126
 30
0.0
 10
-45.153599999999997
 20
45.088000000000001
 30
0.0
  0
SPLINE
  5
72
100
AcDbEntity
  8
RÚteg 1
 62
     7
100
AcDbSpline
210
0.0
220
0.0
230
1.0
 70
     1
 71
     3
 72
    52
 73
    48
 74
     0
 42
0.0000000001
 43
0.0000000001
 40
0.0
 40
0.0
 40
0.0
 40
0.0
 40
0.0833333333333333
 40
0.0833333333333333
 40
0.0833333333333333
 40
0.0833333333333333
 40
0.1666666666666667
 40
0.1666666666666667
 40
0.1666666666666667
 40
0.1666666666666667
 40
0.25
 40
0.25
 40
0.25
 40
0.25
 40
0.3333333333333333
 40
0.3333333333333333
 40
0.3333333333333333
 40
0.3333333333333333
 40
0.4166666666666666
 40
0.4166666666666666
 40
0.4166666666666666
 40
0.4166666666666666
 40
0.4999999999999999
 40
0.4999999999999999
 40
0.4999999999999999
 40
0.4999999999999999
 40
0.5833333333333333
 40
0.5833333333333333
 40
0.5833333333333333
 40
0.5833333333333333
 40
0.6666666666666666
 40
0.6666666666666666
 40
0.6666666666666666
 40
0.6666666666666666
 40
0.75
 40
0.75
 40
0.75
 40
0.75
 40
0.8333333333333334
 40
0.8333333333333334
 40
0.8333333333333334
 40
0.8333333333333334
 40
0.9166666666666667
 40
0.9166666666666667
 40
0.9166666666666667
 40
0.9166666666666667
 40
1.0
 40
1.0
 40
1.0
 40
1.0
 10
-44.879899999999999
 20
45.447299999999998
 30
0.0
 10
-45.160400000000003
 20
45.652200000000001
 30
0.0
 10
-45.440899999999999
 20
45.856999999999999
 30
0.0
 10
-45.721499999999999
 20
46.061500000000002
 30
0.0
 10
-45.721499999999999
 20
46.061500000000002
 30
0.0
 10
-45.531100000000002
 20
46.329000000000001
 30
0.0
 10
-45.660699999999999
 20
46.387
 30
0.0
 10
-45.282699999999998
 20
46.387
 30
0.0
 10
-45.282699999999998
 20
46.387
 30
0.0
 10
-45.193100000000001
 20
46.387
 30
0.0
 10
-45.103700000000003
 20
46.387
 30
0.0
 10
-45.014099999999999
 20
46.387
 30
0.0
 10
-45.014099999999999
 20
46.387
 30
0.0
 10
-44.312100000000001
 20
46.387
 30
0.0
 10
-43.671599999999998
 20
45.174300000000002
 30
0.0
 10
-43.671599999999998
 20
44.3733
 30
0.0
 10
-43.671599999999998
 20
44.3733
 30
0.0
 10
-43.671599999999998
 20
44.104900000000001
 30
0.0
 10
-43.671599999999998
 20
43.836399999999998
 30
0.0
 10
-43.671599999999998
 20
43.567799999999998
 30
0.0
 10
-43.671599999999998
 20
43.567799999999998
 30
0.0
 10
-43.671599999999998
 20
42.278500000000001
 30
0.0
 10
-44.2804
 20
42.693600000000004
 30
0.0
 10
-44.477200000000003
 20
41.956800000000001
 30
0.0
 10
-44.477200000000003
 20
41.956800000000001
 30
0.0
 10
-44.8782
 20
41.902000000000001
 30
0.0
 10
-45.279600000000002
 20
41.8474
 30
0.0
 10
-45.680900000000001
 20
41.792900000000003
 30
0.0
 10
-45.680900000000001
 20
41.792900000000003
 30
0.0
 10
-46.094299999999997
 20
41.761299999999999
 30
0.0
 10
-46.184100000000001
 20
41.880000000000003
 30
0.0
 10
-46.2224
 20
42.228900000000003
 30
0.0
 10
-46.2224
 20
42.228900000000003
 30
0.0
 10
-46.043199999999999
 20
42.228900000000003
 30
0.0
 10
-45.805799999999998
 20
42.2029
 30
0.0
 10
-45.626600000000003
 20
42.2029
 30
0.0
 10
-45.626600000000003
 20
42.2029
 30
0.0
 10
-45.019799999999996
 20
42.2029
 30
0.0
 10
-44.1173
 20
43.399299999999997
 30
0.0
 10
-44.1173
 20
44.104900000000001
 30
0.0
 10
-44.1173
 20
44.104900000000001
 30
0.0
 10
-44.1173
 20
44.2393
 30
0.0
 10
-44.143500000000003
 20
44.412599999999998
 30
0.0
 10
-44.143500000000003
 20
44.546599999999998
 30
0.0
 10
-44.143500000000003
 20
44.546599999999998
 30
0.0
 10
-44.143500000000003
 20
44.876899999999999
 30
0.0
 10
-44.6539
 20
45.295999999999999
 30
0.0
 10
-44.879899999999999
 20
45.447299999999998
 30
0.0
  0
SPLINE
  5
73
100
AcDbEntity
  8
RÚteg 1
 62
     7
100
AcDbSpline
210
0.0
220
0.0
230
1.0
 70
     1
 71
     3
 72
   148
 73
   144
 74
     0
 42
0.0000000001
 43
0.0000000001
 40
0.0
 40
0.0
 40
0.0
 40
0.0
 40
0.0277777777777778
 40
0.0277777777777778
 40
0.0277777777777778
 40
0.0277777777777778
 40
0.0555555555555556
 40
0.0555555555555556
 40
0.0555555555555556
 40
0.0555555555555556
 40
0.0833333333333333
 40
0.0833333333333333
 40
0.0833333333333333
 40
0.0833333333333333
 40
0.1111111111111111
 40
0.1111111111111111
 40
0.1111111111111111
 40
0.1111111111111111
 40
0.1388888888888889
 40
0.1388888888888889
 40
0.1388888888888889
 40
0.1388888888888889
 40
0.1666666666666667
 40
0.1666666666666667
 40
0.1666666666666667
 40
0.1666666666666667
 40
0.1944444444444445
 40
0.1944444444444445
 40
0.1944444444444445
 40
0.1944444444444445
 40
0.2222222222222223
 40
0.2222222222222223
 40
0.2222222222222223
 40
0.2222222222222223
 40
0.2500000000000001
 40
0.2500000000000001
 40
0.2500000000000001
 40
0.2500000000000001
 40
0.2777777777777779
 40
0.2777777777777779
 40
0.2777777777777779
 40
0.2777777777777779
 40
0.3055555555555556
 40
0.3055555555555556
 40
0.3055555555555556
 40
0.3055555555555556
 40
0.3333333333333334
 40
0.3333333333333334
 40
0.3333333333333334
 40
0.3333333333333334
 40
0.3611111111111112
 40
0.3611111111111112
 40
0.3611111111111112
 40
0.3611111111111112
 40
0.388888888888889
 40
0.388888888888889
 40
0.388888888888889
 40
0.388888888888889
 40
0.4166666666666668
 40
0.4166666666666668
 40
0.4166666666666668
 40
0.4166666666666668
 40
0.4444444444444446
 40
0.4444444444444446
 40
0.4444444444444446
 40
0.4444444444444446
 40
0.4722222222222224
 40
0.4722222222222224
 40
0.4722222222222224
 40
0.4722222222222224
 40
0.5000000000000001
 40
0.5000000000000001
 40
0.5000000000000001
 40
0.5000000000000001
 40
0.5277777777777779
 40
0.5277777777777779
 40
0.5277777777777779
 40
0.5277777777777779
 40
0.5555555555555557
 40
0.5555555555555557
 40
0.5555555555555557
 40
0.5555555555555557
 40
0.5833333333333335
 40
0.5833333333333335
 40
0.5833333333333335
 40
0.5833333333333335
 40
0.6111111111111113
 40
0.6111111111111113
 40
0.6111111111111113
 40
0.6111111111111113
 40
0.6388888888888891
 40
0.6388888888888891
 40
0.6388888888888891
 40
0.6388888888888891
 40
0.6666666666666669
 40
0.6666666666666669
 40
0.6666666666666669
 40
0.6666666666666669
 40
0.6944444444444446
 40
0.6944444444444446
 40
0.6944444444444446
 40
0.6944444444444446
 40
0.7222222222222224
 40
0.7222222222222224
 40
0.7222222222222224
 40
0.7222222222222224
 40
0.7500000000000002
 40
0.7500000000000002
 40
0.7500000000000002
 40
0.7500000000000002
 40
0.777777777777778
 40
0.777777777777778
 40
0.777777777777778
 40
0.777777777777778
 40
0.8055555555555558
 40
0.8055555555555558
 40
0.8055555555555558
 40
0.8055555555555558
 40
0.8333333333333336
 40
0.8333333333333336
 40
0.8333333333333336
 40
0.8333333333333336
 40
0.8611111111111114
 40
0.8611111111111114
 40
0.8611111111111114
 40
0.8611111111111114
 40
0.8888888888888892
 40
0.8888888888888892
 40
0.8888888888888892
 40
0.8888888888888892
 40
0.916666666666667
 40
0.916666666666667
 40
0.916666666666667
 40
0.916666666666667
 40
0.9444444444444448
 40
0.9444444444444448
 40
0.9444444444444448
 40
0.9444444444444448
 40
0.9722222222222225
 40
0.9722222222222225
 40
0.9722222222222225
 40
0.9722222222222225
 40
1.0
 40
1.0
 40
1.0
 40
1.0
 10
-12.526199999999999
 20
44.104900000000001
 30
0.0
 10
-12.526199999999999
 20
45.869999999999997
 30
0.0
 10
-13.082800000000001
 20
45.865099999999998
 30
0.0
 10
-13.466100000000001
 20
46.923999999999999
 30
0.0
 10
-13.466100000000001
 20
46.923999999999999
 30
0.0
 10
-12.889799999999999
 20
47.579500000000003
 30
0.0
 10
-12.0595
 20
45.972499999999997
 30
0.0
 10
-12.0502
 20
45.175199999999997
 30
0.0
 10
-12.0502
 20
45.175199999999997
 30
0.0
 10
-12.045500000000001
 20
44.787199999999999
 30
0.0
 10
-11.968299999999999
 20
44.335799999999999
 30
0.0
 10
-12.0162
 20
43.729700000000001
 30
0.0
 10
-12.0162
 20
43.729700000000001
 30
0.0
 10
-12.0357
 20
43.479700000000001
 30
0.0
 10
-12.257899999999999
 20
42.536799999999999
 30
0.0
 10
-12.257899999999999
 20
42.493899999999996
 30
0.0
 10
-12.257899999999999
 20
42.493899999999996
 30
0.0
 10
-12.257899999999999
 20
42.492199999999997
 30
0.0
 10
-11.6661
 20
41.378500000000003
 30
0.0
 10
-11.318
 20
41.285499999999999
 30
0.0
 10
-11.318
 20
41.285499999999999
 30
0.0
 10
-11.1258
 20
42.006100000000004
 30
0.0
 10
-10.646699999999999
 20
42.5366
 30
0.0
 10
-10.646699999999999
 20
43.433500000000002
 30
0.0
 10
-10.646699999999999
 20
43.433500000000002
 30
0.0
 10
-10.646699999999999
 20
43.8812
 30
0.0
 10
-10.646699999999999
 20
44.328699999999998
 30
0.0
 10
-10.646699999999999
 20
44.7759
 30
0.0
 10
-10.646699999999999
 20
44.7759
 30
0.0
 10
-10.646699999999999
 20
45.454599999999999
 30
0.0
 10
-10.8629
 20
45.488999999999997
 30
0.0
 10
-10.9153
 20
46.118499999999997
 30
0.0
 10
-10.9153
 20
46.118499999999997
 30
0.0
 10
-10.033099999999999
 20
46.098700000000001
 30
0.0
 10
-9.9755000000000003
 20
45.0717
 30
0.0
 10
-9.9755000000000003
 20
44.2393
 30
0.0
 10
-9.9755000000000003
 20
44.2393
 30
0.0
 10
-9.9755000000000003
 20
44.194400000000002
 30
0.0
 10
-9.9755000000000003
 20
44.149500000000003
 30
0.0
 10
-9.9755000000000003
 20
44.104900000000001
 30
0.0
 10
-9.9755000000000003
 20
44.104900000000001
 30
0.0
 10
-9.9755000000000003
 20
42.486400000000003
 30
0.0
 10
-10.9153
 20
41.049500000000002
 30
0.0
 10
-10.9153
 20
40.3459
 30
0.0
 10
-10.9153
 20
40.3459
 30
0.0
 10
-10.9153
 20
40.2988
 30
0.0
 10
-10.244
 20
39.152999999999999
 30
0.0
 10
-10.244
 20
38.734900000000003
 30
0.0
 10
-10.244
 20
38.734900000000003
 30
0.0
 10
-10.244
 20
38.700000000000003
 30
0.0
 10
-11.864699999999999
 20
36.664700000000003
 30
0.0
 10
-12.071099999999999
 20
36.399999999999999
 30
0.0
 10
-12.071099999999999
 20
36.399999999999999
 30
0.0
 10
-12.3864
 20
35.995100000000001
 30
0.0
 10
-13.2629
 20
33.902000000000001
 30
0.0
 10
-13.600300000000001
 20
33.902000000000001
 30
0.0
 10
-13.600300000000001
 20
33.902000000000001
 30
0.0
 10
-14.6889
 20
33.902000000000001
 30
0.0
 10
-16.012699999999999
 20
36.584699999999998
 30
0.0
 10
-16.553599999999999
 20
37.392299999999999
 30
0.0
 10
-16.553599999999999
 20
37.392299999999999
 30
0.0
 10
-15.500500000000001
 20
38.604199999999999
 30
0.0
 10
-12.0715
 20
38.060499999999998
 30
0.0
 10
-11.1838
 20
39.271900000000002
 30
0.0
 10
-11.1838
 20
39.271900000000002
 30
0.0
 10
-11.3973
 20
39.768500000000003
 30
0.0
 10
-11.611000000000001
 20
40.264699999999998
 30
0.0
 10
-11.824400000000001
 20
40.761099999999999
 30
0.0
 10
-11.824400000000001
 20
40.761099999999999
 30
0.0
 10
-12.8017
 20
40.528100000000002
 30
0.0
 10
-13.1493
 20
39.943199999999997
 30
0.0
 10
-14.405799999999999
 20
39.943199999999997
 30
0.0
 10
-14.405799999999999
 20
39.943199999999997
 30
0.0
 10
-14.6295
 20
39.943199999999997
 30
0.0
 10
-14.853300000000001
 20
39.943199999999997
 30
0.0
 10
-15.0771
 20
39.943199999999997
 30
0.0
 10
-15.0771
 20
39.943199999999997
 30
0.0
 10
-15.732699999999999
 20
39.943199999999997
 30
0.0
 10
-16.020299999999999
 20
40.084499999999998
 30
0.0
 10
-16.2852
 20
40.480200000000004
 30
0.0
 10
-16.2852
 20
40.480200000000004
 30
0.0
 10
-15.9312
 20
40.655500000000004
 30
0.0
 10
-16.395700000000001
 20
40.6143
 30
0.0
 10
-15.8826
 20
40.6143
 30
0.0
 10
-15.8826
 20
40.6143
 30
0.0
 10
-15.7484
 20
40.6143
 30
0.0
 10
-15.613899999999999
 20
40.6143
 30
0.0
 10
-15.48
 20
40.6143
 30
0.0
 10
-15.48
 20
40.6143
 30
0.0
 10
-14.7166
 20
40.6143
 30
0.0
 10
-12.257899999999999
 20
40.551900000000003
 30
0.0
 10
-12.257899999999999
 20
41.554200000000002
 30
0.0
 10
-12.257899999999999
 20
41.554200000000002
 30
0.0
 10
-12.257899999999999
 20
41.578400000000002
 30
0.0
 10
-13.0847
 20
42.549300000000002
 30
0.0
 10
-13.1974
 20
42.7622
 30
0.0
 10
-13.1974
 20
42.7622
 30
0.0
 10
-14.2563
 20
42.674100000000003
 30
0.0
 10
-16.140599999999999
 20
41.465400000000002
 30
0.0
 10
-17.090800000000002
 20
42.7622
 30
0.0
 10
-17.090800000000002
 20
42.7622
 30
0.0
 10
-16.697700000000001
 20
43.298499999999997
 30
0.0
 10
-14.619400000000001
 20
42.726700000000001
 30
0.0
 10
-14.002800000000001
 20
43.567799999999998
 30
0.0
 10
-14.002800000000001
 20
43.567799999999998
 30
0.0
 10
-15.2826
 20
44.064700000000002
 30
0.0
 10
-16.5624
 20
44.561300000000003
 30
0.0
 10
-17.841999999999999
 20
45.057899999999997
 30
0.0
 10
-17.841999999999999
 20
45.057899999999997
 30
0.0
 10
-17.859999999999999
 20
45.008800000000001
 30
0.0
 10
-17.8781
 20
44.959499999999998
 30
0.0
 10
-17.896000000000001
 20
44.910400000000003
 30
0.0
 10
-17.896000000000001
 20
44.910400000000003
 30
0.0
 10
-17.896000000000001
 20
45.044600000000003
 30
0.0
 10
-17.896000000000001
 20
45.178800000000003
 30
0.0
 10
-17.896000000000001
 20
45.312899999999999
 30
0.0
 10
-17.896000000000001
 20
45.312899999999999
 30
0.0
 10
-17.5152
 20
45.401800000000001
 30
0.0
 10
-17.666699999999999
 20
45.447299999999998
 30
0.0
 10
-17.359100000000002
 20
45.447299999999998
 30
0.0
 10
-17.359100000000002
 20
45.447299999999998
 30
0.0
 10
-16.328600000000002
 20
45.447299999999998
 30
0.0
 10
-15.6409
 20
45.110999999999997
 30
0.0
 10
-14.9428
 20
44.7759
 30
0.0
 10
-14.9428
 20
44.7759
 30
0.0
 10
-15.253
 20
46.108499999999999
 30
0.0
 10
-16.0823
 20
45.761600000000001
 30
0.0
 10
-16.2852
 20
46.5212
 30
0.0
 10
-16.2852
 20
46.5212
 30
0.0
 10
-15.070499999999999
 20
46.804200000000002
 30
0.0
 10
-15.068199999999999
 20
46.003
 30
0.0
 10
-14.2715
 20
45.581699999999998
 30
0.0
 10
-14.2715
 20
45.581699999999998
 30
0.0
 10
-14.2715
 20
43.845500000000001
 30
0.0
 10
-13.412599999999999
 20
44.398499999999999
 30
0.0
 10
-13.0633
 20
43.433500000000002
 30
0.0
 10
-13.0633
 20
43.433500000000002
 30
0.0
 10
-12.9291
 20
43.433500000000002
 30
0.0
 10
-12.7948
 20
43.433500000000002
 30
0.0
 10
-12.660399999999999
 20
43.433500000000002
 30
0.0
 10
-12.660399999999999
 20
43.433500000000002
 30
0.0
 10
-12.590400000000001
 20
43.734499999999997
 30
0.0
 10
-12.526199999999999
 20
43.742400000000004
 30
0.0
 10
-12.526199999999999
 20
44.104900000000001
 30
0.0
  0
SPLINE
  5
74
100
AcDbEntity
  8
RÚteg 1
 62
     7
100
AcDbSpline
210
0.0
220
0.0
230
1.0
 70
     1
 71
     3
 72
    32
 73
    28
 74
     0
 42
0.0000000001
 43
0.0000000001
 40
0.0
 40
0.0
 40
0.0
 40
0.0
 40
0.1428571428571429
 40
0.1428571428571429
 40
0.1428571428571429
 40
0.1428571428571429
 40
0.2857142857142857
 40
0.2857142857142857
 40
0.2857142857142857
 40
0.2857142857142857
 40
0.4285714285714286
 40
0.4285714285714286
 40
0.4285714285714286
 40
0.4285714285714286
 40
0.5714285714285714
 40
0.5714285714285714
 40
0.5714285714285714
 40
0.5714285714285714
 40
0.7142857142857142
 40
0.7142857142857142
 40
0.7142857142857142
 40
0.7142857142857142
 40
0.857142857142857
 40
0.857142857142857
 40
0.857142857142857
 40
0.857142857142857
 40
1.0
 40
1.0
 40
1.0
 40
1.0
 10
-39.477699999999999
 20
48.030299999999997
 30
0.0
 10
-38.094099999999997
 20
47.217199999999998
 30
0.0
 10
-38.4527
 20
46.534799999999997
 30
0.0
 10
-37.630499999999998
 20
45.984200000000001
 30
0.0
 10
-37.630499999999998
 20
45.984200000000001
 30
0.0
 10
-37.585700000000003
 20
45.536900000000003
 30
0.0
 10
-37.540999999999997
 20
45.089300000000001
 30
0.0
 10
-37.496099999999998
 20
44.6417
 30
0.0
 10
-37.496099999999998
 20
44.6417
 30
0.0
 10
-38.1175
 20
44.709800000000001
 30
0.0
 10
-38.036200000000001
 20
45.385899999999999
 30
0.0
 10
-38.490400000000001
 20
46.064100000000003
 30
0.0
 10
-38.490400000000001
 20
46.064100000000003
 30
0.0
 10
-38.867800000000003
 20
46.628300000000003
 30
0.0
 10
-38.994500000000002
 20
46.8977
 30
0.0
 10
-39.533799999999999
 20
47.302999999999997
 30
0.0
 10
-39.533799999999999
 20
47.302999999999997
 30
0.0
 10
-40.140099999999997
 20
47.758600000000001
 30
0.0
 10
-40.308100000000003
 20
47.749200000000002
 30
0.0
 10
-41.196399999999997
 20
47.9223
 30
0.0
 10
-41.196399999999997
 20
47.9223
 30
0.0
 10
-42.286299999999997
 20
48.135399999999997
 30
0.0
 10
-42.705300000000001
 20
47.630800000000001
 30
0.0
 10
-42.4634
 20
48.6691
 30
0.0
 10
-42.4634
 20
48.6691
 30
0.0
 10
-41.869399999999999
 20
48.423900000000003
 30
0.0
 10
-40.950000000000003
 20
48.895200000000003
 30
0.0
 10
-39.477699999999999
 20
48.030299999999997
 30
0.0
  0
SPLINE
  5
75
100
AcDbEntity
  8
RÚteg 1
 62
     7
100
AcDbSpline
210
0.0
220
0.0
230
1.0
 70
     1
 71
     3
 72
    28
 73
    24
 74
     0
 42
0.0000000001
 43
0.0000000001
 40
0.0
 40
0.0
 40
0.0
 40
0.0
 40
0.1666666666666667
 40
0.1666666666666667
 40
0.1666666666666667
 40
0.1666666666666667
 40
0.3333333333333333
 40
0.3333333333333333
 40
0.3333333333333333
 40
0.3333333333333333
 40
0.5
 40
0.5
 40
0.5
 40
0.5
 40
0.6666666666666666
 40
0.6666666666666666
 40
0.6666666666666666
 40
0.6666666666666666
 40
0.8333333333333333
 40
0.8333333333333333
 40
0.8333333333333333
 40
0.8333333333333333
 40
1.0
 40
1.0
 40
1.0
 40
1.0
 10
-46.088200000000001
 20
49.474600000000002
 30
0.0
 10
-45.569899999999997
 20
49.5289
 30
0.0
 10
-45.746000000000002
 20
49.609099999999998
 30
0.0
 10
-45.282699999999998
 20
49.609099999999998
 30
0.0
 10
-45.282699999999998
 20
49.609099999999998
 30
0.0
 10
-44.998699999999999
 20
49.609099999999998
 30
0.0
 10
-45.105699999999999
 20
49.561
 30
0.0
 10
-44.745600000000003
 20
49.474600000000002
 30
0.0
 10
-44.745600000000003
 20
49.474600000000002
 30
0.0
 10
-44.784300000000002
 20
49.010399999999997
 30
0.0
 10
-45.811199999999999
 20
47.595199999999998
 30
0.0
 10
-46.2224
 20
47.595199999999998
 30
0.0
 10
-46.2224
 20
47.595199999999998
 30
0.0
 10
-46.410299999999999
 20
47.595199999999998
 30
0.0
 10
-46.4908
 20
47.778199999999998
 30
0.0
 10
-46.4908
 20
47.998100000000001
 30
0.0
 10
-46.4908
 20
47.998100000000001
 30
0.0
 10
-46.4908
 20
48.042700000000004
 30
0.0
 10
-46.4908
 20
48.087400000000002
 30
0.0
 10
-46.4908
 20
48.132100000000001
 30
0.0
 10
-46.4908
 20
48.132100000000001
 30
0.0
 10
-46.4908
 20
48.535400000000003
 30
0.0
 10
-46.199199999999998
 20
48.998100000000001
 30
0.0
 10
-46.088200000000001
 20
49.474600000000002
 30
0.0
  0
SPLINE
  5
76
100
AcDbEntity
  8
RÚteg 1
 62
     7
100
AcDbSpline
210
0.0
220
0.0
230
1.0
 70
     1
 71
     3
 72
    20
 73
    16
 74
     0
 42
0.0000000001
 43
0.0000000001
 40
0.0
 40
0.0
 40
0.0
 40
0.0
 40
0.25
 40
0.25
 40
0.25
 40
0.25
 40
0.5
 40
0.5
 40
0.5
 40
0.5
 40
0.75
 40
0.75
 40
0.75
 40
0.75
 40
1.0
 40
1.0
 40
1.0
 40
1.0
 10
-30.725000000000001
 20
69.796700000000001
 30
0.0
 10
-29.856300000000001
 20
69.796700000000001
 30
0.0
 10
-29.151800000000001
 20
69.092200000000005
 30
0.0
 10
-29.151800000000001
 20
68.223500000000001
 30
0.0
 10
-29.151800000000001
 20
68.223500000000001
 30
0.0
 10
-29.151800000000001
 20
67.354799999999997
 30
0.0
 10
-29.856300000000001
 20
66.650300000000001
 30
0.0
 10
-30.725000000000001
 20
66.650300000000001
 30
0.0
 10
-30.725000000000001
 20
66.650300000000001
 30
0.0
 10
-31.593699999999998
 20
66.650300000000001
 30
0.0
 10
-32.298200000000001
 20
67.354799999999997
 30
0.0
 10
-32.298200000000001
 20
68.223500000000001
 30
0.0
 10
-32.298200000000001
 20
68.223500000000001
 30
0.0
 10
-32.298200000000001
 20
69.092200000000005
 30
0.0
 10
-31.593699999999998
 20
69.796700000000001
 30
0.0
 10
-30.725000000000001
 20
69.796700000000001
 30
0.0
  0
ENDSEC
  0
SECTION
  2
OBJECTS
  0
DICTIONARY
  5
19
100
AcDbDictionary
280
     0
281
     1
  3
ACAD_GROUP
350
1A
  3
ACAD_MLINESTYLE
350
1B
  3
ACAD_LAYOUT
350
1E
  3
ACAD_PLOTSETTINGS
350
22
  3
ACAD_PLOTSTYLENAME
350
1F
  3
ACAD_WIPEOUT_VARS
350
23
  0
DICTIONARY
  5
1A
102
{ACAD_REACTORS
330
19
102
}
100
AcDbDictionary
280
     0
281
     1
  0
DICTIONARY
  5
1B
102
{ACAD_REACTORS
330
19
102
}
100
AcDbDictionary
280
     0
281
     1
  3
Standard
350
1C
  0
MLINESTYLE
  5
1C
102
{ACAD_REACTORS
330
1B
102
}
100
AcDbMlineStyle
  2
Standard
 70
     0
  3

 62
     0
 51
90.0
 52
90.0
 71
     2
 49
0.5
 62
   256
  6
BYLAYER
 49
-0.5
 62
   256
  6
BYLAYER
  0
ACDBDICTIONARYWDFLT
  5
1F
102
{ACAD_REACTORS
330
19
102
}
100
AcDbDictionary
281
     1
  3
Normal
350
1D
100
AcDbDictionaryWithDefault
340
1D
  0
ACDBPLACEHOLDER
  5
1D
102
{ACAD_REACTORS
330
1F
102
}
  0
LAYOUT
  5
20
102
{ACAD_REACTORS
330
1E
102
}
100
AcDbPlotSettings
  1

  2

  4

  6

 40
0.0
 41
0.0
 42
0.0
 43
0.0
 44
0.0
 45
0.0
 46
0.0
 47
0.0
 48
0.0
 49
0.0
140
0.0
141
0.0
142
1.0
143
1.0
 70
  1024
 72
     0
 73
     0
 74
     0
  7

 75
     0
147
1.0
148
0.0
149
0.0
100
AcDbLayout
  1
Model
 70
     0
 71
     0
 10
0.0
 20
0.0
 11
0.0
 21
0.0
 12
0.0
 22
0.0
 32
0.0
 14
0.0
 24
0.0
 34
0.0
 15
0.0
 25
0.0
 35
0.0
146
0.0
 13
0.0
 23
0.0
 33
0.0
 16
0.0
 26
0.0
 36
0.0
 17
0.0
 27
0.0
 37
0.0
 76
     0
330
A
331
0
345
0
346
0
  0
LAYOUT
  5
21
102
{ACAD_REACTORS
330
1E
102
}
100
AcDbPlotSettings
  1

  2

  4

  6

 40
0.0
 41
0.0
 42
0.0
 43
0.0
 44
0.0
 45
0.0
 46
0.0
 47
0.0
 48
0.0
 49
0.0
140
0.0
141
0.0
142
1.0
143
1.0
 70
     0
 72
     0
 73
     0
 74
     0
  7

 75
     0
147
1.0
148
0.0
149
0.0
100
AcDbLayout
  1
Layout1
 70
     0
 71
     0
 10
0.0
 20
0.0
 11
0.0
 21
0.0
 12
0.0
 22
0.0
 32
0.0
 14
0.0
 24
0.0
 34
0.0
 15
0.0
 25
0.0
 35
0.0
146
0.0
 13
0.0
 23
0.0
 33
0.0
 16
0.0
 26
0.0
 36
0.0
 17
0.0
 27
0.0
 37
0.0
 76
     0
330
B
331
0
345
0
346
0
  0
DICTIONARY
  5
1E
102
{ACAD_REACTORS
330
19
102
}
100
AcDbDictionary
280
     0
281
     1
  3
Layout1
350
21
  3
Model
350
20
  0
DICTIONARY
  5
22
102
{ACAD_REACTORS
330
19
102
}
100
AcDbDictionary
280
     0
281
     1
  0
WIPEOUTVARIABLES
  5
23
100
AcDbWipeoutVariables
 70
     1
  0
ENDSEC
  0
EOF
