  0
SECTION
  2
HEADER
  9
$ACADVER
  1
AC1015
  9
$ACADMAINTVER
 70
     6
  9
$DWGCODEPAGE
  3
DOS850
  9
$INSBASE
 10
0.0
 20
0.0
 30
0.0
  9
$EXTMIN
 10
-82.9881
 20
34.4122
 30
1.000000E+20
  9
$EXTMAX
 10
65.8514
 20
110.3381
 30
-1.000000E+20
  9
$LIMMIN
 10
0.0
 20
0.0
  9
$LIMMAX
 10
0.0
 20
0.0
  9
$ORTHOMODE
 70
     0
  9
$REGENMODE
 70
     1
  9
$FILLMODE
 70
     1
  9
$QTEXTMODE
 70
     0
  9
$MIRRTEXT
 70
     1
  9
$LTSCALE
 40
1.0
  9
$ATTMODE
 70
     1
  9
$TEXTSIZE
 40
0.2
  9
$TRACEWID
 40
0.05
  9
$TEXTSTYLE
  7
Standard
  9
$CLAYER
  8
0
  9
$CELTYPE
  6
Continuous
  9
$CECOLOR
 62
   256
  9
$CELTSCALE
 40
1.0
  9
$DISPSILH
 70
     0
  9
$DIMSCALE
 40
1.0
  9
$DIMASZ
 40
0.18
  9
$DIMEXO
 40
0.0625
  9
$DIMDLI
 40
0.38
  9
$DIMRND
 40
0.0
  9
$DIMDLE
 40
0.0
  9
$DIMEXE
 40
0.18
  9
$DIMTP
 40
0.0
  9
$DIMTM
 40
0.0
  9
$DIMTXT
 40
0.18
  9
$DIMCEN
 40
0.09
  9
$DIMTSZ
 40
0.0
  9
$DIMTOL
 70
     0
  9
$DIMLIM
 70
     0
  9
$DIMTIH
 70
     1
  9
$DIMTOH
 70
     1
  9
$DIMSE1
 70
     0
  9
$DIMSE2
 70
     0
  9
$DIMTAD
 70
     0
  9
$DIMZIN
 70
     0
  9
$DIMBLK
  1

  9
$DIMASO
 70
     1
  9
$DIMSHO
 70
     1
  9
$DIMPOST
  1

  9
$DIMAPOST
  1

  9
$DIMALT
 70
     0
  9
$DIMALTD
 70
     2
  9
$DIMALTF
 40
25.4
  9
$DIMLFAC
 40
1.0
  9
$DIMTOFL
 70
     0
  9
$DIMTVP
 40
0.0
  9
$DIMTIX
 70
     0
  9
$DIMSOXD
 70
     0
  9
$DIMSAH
 70
     0
  9
$DIMBLK1
  1

  9
$DIMBLK2
  1

  9
$DIMSTYLE
  2
Standard
  9
$DIMCLRD
 70
     0
  9
$DIMCLRE
 70
     0
  9
$DIMCLRT
 70
     0
  9
$DIMTFAC
 40
1.0
  9
$DIMGAP
 40
0.09
  9
$DIMJUST
 70
     0
  9
$DIMSD1
 70
     0
  9
$DIMSD2
 70
     0
  9
$DIMTOLJ
 70
     1
  9
$DIMTZIN
 70
     0
  9
$DIMALTZ
 70
     0
  9
$DIMALTTZ
 70
     0
  9
$DIMUPT
 70
     0
  9
$DIMDEC
 70
     4
  9
$DIMTDEC
 70
     4
  9
$DIMALTU
 70
     2
  9
$DIMALTTD
 70
     2
  9
$DIMTXSTY
  7
Standard
  9
$DIMAUNIT
 70
     0
  9
$DIMADEC
 70
     0
  9
$DIMALTRND
 40
0.0
  9
$DIMAZIN
 70
     0
  9
$DIMDSEP
 70
     0
  9
$DIMATFIT
 70
     3
  9
$DIMFRAC
 70
     0
  9
$DIMLDRBLK
  1

  9
$DIMLUNIT
 70
     2
  9
$DIMLWD
 70
     0
  9
$DIMLWE
 70
     0
  9
$DIMTMOVE
 70
     0
  9
$LUNITS
 70
     2
  9
$LUPREC
 70
     4
  9
$SKETCHINC
 40
0.1
  9
$FILLETRAD
 40
0.0
  9
$AUNITS
 70
     0
  9
$AUPREC
 70
     0
  9
$MENU
  1
acad
  9
$ELEVATION
 40
0.0
  9
$PELEVATION
 40
0.0
  9
$THICKNESS
 40
0.0
  9
$LIMCHECK
 70
     0
  9
$CHAMFERA
 40
0.0
  9
$CHAMFERB
 40
0.0
  9
$CHAMFERC
 40
0.0
  9
$CHAMFERD
 40
0.0
  9
$SKPOLY
 70
     0
  9
$TDCREATE
 40
0.000000000
  9
$TDUCREATE
 40
0.000000000
  9
$TDUPDATE
 40
0.000000000
  9
$TDUUPDATE
 40
0.000000000
  9
$TDINDWG
 40
0.0000000000
  9
$TDUSRTIMER
 40
0.0000000000
  9
$USRTIMER
 70
     1
  9
$ANGBASE
 50
0.0
  9
$ANGDIR
 70
     0
  9
$PDMODE
 70
     0
  9
$PDSIZE
 40
0.0
  9
$PLINEWID
 40
0.0
  9
$SPLFRAME
 70
     0
  9
$SPLINETYPE
 70
     6
  9
$SPLINESEGS
 70
     8
  9
$HANDSEED
  5
35
  9
$SURFTAB1
 70
     6
  9
$SURFTAB2
 70
     6
  9
$SURFTYPE
 70
     6
  9
$SURFU
 70
     6
  9
$SURFV
 70
     6
  9
$UCSBASE
  2

  9
$UCSNAME
  2

  9
$UCSORG
 10
0.0
 20
0.0
 30
0.0
  9
$UCSXDIR
 10
1.0
 20
0.0
 30
0.0
  9
$UCSYDIR
 10
0.0
 20
1.0
 30
0.0
  9
$UCSORTHOREF
  2

  9
$UCSORTHOVIEW
 70
     0
  9
$UCSORGTOP
 10
0.0
 20
0.0
 30
0.0
  9
$UCSORGBOTTOM
 10
0.0
 20
0.0
 30
0.0
  9
$UCSORGLEFT
 10
0.0
 20
0.0
 30
0.0
  9
$UCSORGRIGHT
 10
0.0
 20
0.0
 30
0.0
  9
$UCSORGFRONT
 10
0.0
 20
0.0
 30
0.0
  9
$UCSORGBACK
 10
0.0
 20
0.0
 30
0.0
  9
$PUCSBASE
  2

  9
$PUCSNAME
  2

  9
$PUCSORG
 10
0.0
 20
0.0
 30
0.0
  9
$PUCSXDIR
 10
1.0
 20
0.0
 30
0.0
  9
$PUCSYDIR
 10
0.0
 20
1.0
 30
0.0
  9
$PUCSORTHOREF
  2

  9
$PUCSORTHOVIEW
 70
     0
  9
$PUCSORGTOP
 10
0.0
 20
0.0
 30
0.0
  9
$PUCSORGBOTTOM
 10
0.0
 20
0.0
 30
0.0
  9
$PUCSORGLEFT
 10
0.0
 20
0.0
 30
0.0
  9
$PUCSORGRIGHT
 10
0.0
 20
0.0
 30
0.0
  9
$PUCSORGFRONT
 10
0.0
 20
0.0
 30
0.0
  9
$PUCSORGBACK
 10
0.0
 20
0.0
 30
0.0
  9
$USERI1
 70
     0
  9
$USERI2
 70
     0
  9
$USERI3
 70
     0
  9
$USERI4
 70
     0
  9
$USERI5
 70
     0
  9
$USERR1
 40
0.0
  9
$USERR2
 40
0.0
  9
$USERR3
 40
0.0
  9
$USERR4
 40
0.0
  9
$USERR5
 40
0.0
  9
$WORLDVIEW
 70
     1
  9
$SHADEDGE
 70
     3
  9
$SHADEDIF
 70
    70
  9
$TILEMODE
 70
     1
  9
$MAXACTVP
 70
    16
  9
$PINSBASE
 10
0.0
 20
0.0
 30
0.0
  9
$PLIMCHECK
 70
     0
  9
$PEXTMIN
 10
1.000000E+20
 20
1.000000E+20
 30
1.000000E+20
  9
$PEXTMAX
 10
-1.000000E+20
 20
-1.000000E+20
 30
-1.000000E+20
  9
$PLIMMIN
 10
0.0
 20
0.0
  9
$PLIMMAX
 10
12.0
 20
9.0
  9
$UNITMODE
 70
     0
  9
$VISRETAIN
 70
     0
  9
$PLINEGEN
 70
     1
  9
$PSLTSCALE
 70
     0
  9
$TREEDEPTH
 70
  3020
  9
$CMLSTYLE
  2
Standard
  9
$CMLJUST
 70
     0
  9
$CMLSCALE
 40
1.0
  9
$PROXYGRAPHICS
 70
     0
  9
$MEASUREMENT
 70
     0
  9
$CELWEIGHT
370
     0
  9
$ENDCAPS
280
     0
  9
$JOINSTYLE
280
     0
  9
$LWDISPLAY
290
     0
  9
$INSUNITS
 70
     4
  9
$HYPERLINKBASE
  1

  9
$XEDIT
290
     1
  9
$CEPSNTYPE
380
     0
  9
$PSTYLEMODE
290
     1
  9
$FINGERPRINTGUID
  2

  9
$VERSIONGUID
  2

  9
$EXTNAMES
290
     1
  9
$PSVPSCALE
 40
0.0
  0
ENDSEC
  0
SECTION
  2
CLASSES
  0
CLASS
  1
LWPOLYLINE
  2
AcDbPolyline
  3
AutoCAD 2000
 90
    32768
280
     0
281
     1
  0
CLASS
  1
IMAGE
  2
AcDbRasterImage
  3
ISM
 90
    32895
280
     0
281
     1
  0
CLASS
  1
OLE2FRAME
  2
AcDbOle2Frame
  3
AutoCAD 2000
 90
    32768
280
     0
281
     1
  0
CLASS
  1
HATCH
  2
AcDbHatch
  3
AutoCAD 2000
 90
    32768
280
     0
281
     1
  0
CLASS
  1
DICTIONARYVAR
  2
AcDbDictionaryVar
  3
AutoCAD 2000
 90
    32768
280
     0
281
     0
  0
CLASS
  1
RASTERVARIABLES
  2
AcDbRasterVariables
  3
ISM
 90
    32768
280
     0
281
     0
  0
CLASS
  1
IMAGEDEF
  2
AcDbRasterImageDef
  3
ISM
 90
    32768
280
     0
281
     0
  0
CLASS
  1
IMAGEDEF_REACTOR
  2
AcDbRasterImageDefReactor
  3
ISM
 90
    32769
280
     0
281
     0
  0
CLASS
  1
IDBUFFER
  2
AcDbIdBuffer
  3
AutoCAD 2000
 90
    32768
280
     0
281
     0
  0
CLASS
  1
SPATIAL_FILTER
  2
AcDbSpatialFilter
  3
AutoCAD 2000
 90
    32768
280
     0
281
     0
  0
CLASS
  1
XRECORD
  2
AcDbXrecord
  3
AutoCAD 2000
 90
    32768
280
     0
281
     0
  0
CLASS
  1
SORTENTSTABLE
  2
AcDbSortentsTable
  3
AutoCAD 2000
 90
    32768
280
     0
281
     0
  0
CLASS
  1
LAYER_INDEX
  2
AcDbLayerIndex
  3
AutoCAD 2000
 90
    32768
280
     0
281
     0
  0
CLASS
  1
SPATIAL_INDEX
  2
AcDbSpatialIndex
  3
AutoCAD 2000
 90
    32768
280
     0
281
     0
  0
CLASS
  1
OBJECT_PTR
  2
CAseDLPNTableRecord
  3
"ASE-LPNTableRecord"
 90
    32769
280
     0
281
     0
  0
CLASS
  1
LAYOUT
  2
AcDbLayout
  3
AutoCAD 2000
 90
        0
280
     0
281
     0
  0
CLASS
  1
PLOTSETTINGS
  2
AcDbPlotSettings
  3
AutoCAD 2000
 90
    32768
280
     0
281
     0
  0
CLASS
  1
ACDBDICTIONARYWDFLT
  2
AcDbDictionaryWithDefault
  3
AutoCAD 2000
 90
        0
280
     0
281
     0
  0
CLASS
  1
ACDBPLACEHOLDER
  2
AcDbPlaceHolder
  3
AutoCAD 2000
 90
        0
280
     0
281
     0
  0
CLASS
  1
VBA_PROJECT
  2
AcDbVbaProject
  3
acadvba
 90
    32768
280
     0
281
     0
  0
CLASS
  1
WIPEOUT
  2
AcDbWipeout
  3
WipeOut|AutoCAD Express Tool|expresstools@autodesk.com
 90
    32895
280
     0
281
     1
  0
CLASS
  1
WIPEOUTVARIABLES
  2
AcDbWipeoutVariables
  3
WipeOut|AutoCAD Express Tool|expresstools@autodesk.com
 90
        0
280
     0
281
     0
  0
CLASS
  1
RTEXT
  2
RText
  3
RText|AutoCAD Express Tool|expresstools@autodesk.com
 90
    32768
280
     0
281
     1
  0
CLASS
  1
ARCALIGNEDTEXT
  2
AcDbArcAlignedText
  3
ATEXT|AutoCAD Express Tool|expresstools@autodesk.com
 90
    32768
280
     0
281
     1
  0
ENDSEC
  0
SECTION
  2
TABLES
  0
TABLE
  2
VPORT
  5
7
100
AcDbSymbolTable
 70
     1
  0
VPORT
  5
15
100
AcDbSymbolTableRecord
100
AcDbViewportTableRecord
  2
*ACTIVE
 70
     0
 10
0.0
 20
0.0
 11
1.0
 21
1.0
 12
6.591288
 22
4.579184
 13
0.0
 23
0.0
 14
1.0
 24
1.0
 15
0.0
 25
0.0
 16
0.0
 26
0.0
 36
1.0
 17
0.0
 27
0.0
 37
0.0
 40
9.158369
 41
0.688564
 42
50.0
 43
0.0
 44
0.0
 50
0.0
 51
0.0
 71
     0
 72
   100
 73
     1
 74
     1
 75
     0
 76
     0
 77
     0
 78
     0
281
     0
 65
     0
110
0.0
120
0.0
130
0.0
111
1.0
121
0.0
131
0.0
112
0.0
122
1.0
132
0.0
345
0
346
0
 79
     0
146
0.0
  0
ENDTAB
  0
TABLE
  2
LTYPE
  5
4
100
AcDbSymbolTable
 70
     3
  0
LTYPE
  5
11
100
AcDbSymbolTableRecord
100
AcDbLinetypeTableRecord
  2
ByBlock
 70
    64
  3

 72
    65
 73
     0
 40
0.0
  0
LTYPE
  5
12
100
AcDbSymbolTableRecord
100
AcDbLinetypeTableRecord
  2
ByLayer
 70
    64
  3

 72
    65
 73
     0
 40
0.0
  0
LTYPE
  5
13
100
AcDbSymbolTableRecord
100
AcDbLinetypeTableRecord
  2
Continuous
 70
    64
  3
Solid line
 72
    65
 73
     0
 40
0.0
  0
ENDTAB
  0
TABLE
  2
LAYER
  5
2
100
AcDbSymbolTable
 70
     2
  0
LAYER
  5
14
100
AcDbSymbolTableRecord
100
AcDbLayerTableRecord
  2
0
 70
     0
 62
     7
  6
Continuous
290
     1
370
    -3
390
1D
  0
LAYER
  5
24
100
AcDbSymbolTableRecord
100
AcDbLayerTableRecord
  2
RÚteg 1
 70
     0
 62
     7
  6
Continuous
290
     1
370
    -3
390
1F
  0
ENDTAB
  0
TABLE
  2
STYLE
  5
3
100
AcDbSymbolTable
 70
     1
  0
STYLE
  5
17
100
AcDbSymbolTableRecord
100
AcDbTextStyleTableRecord
  2
Standard
 70
     0
 40
0.0
 41
1.0
 50
0.0
 71
     0
 42
0.0
  3
txt
  4

  0
ENDTAB
  0
TABLE
  2
VIEW
  5
5
100
AcDbSymbolTable
 70
     0
  0
ENDTAB
  0
TABLE
  2
UCS
  5
6
100
AcDbSymbolTable
 70
     0
  0
ENDTAB
  0
TABLE
  2
APPID
  5
8
100
AcDbSymbolTable
 70
     1
  0
APPID
  5
16
100
AcDbSymbolTableRecord
100
AcDbRegAppTableRecord
  2
ACAD
 70
     0
  0
ENDTAB
  0
TABLE
  2
DIMSTYLE
  5
9
100
AcDbSymbolTable
 70
     1
100
AcDbDimStyleTable
 71
     0
  0
DIMSTYLE
105
18
100
AcDbSymbolTableRecord
100
AcDbDimStyleTableRecord
  2
Standard
 70
     0
  3

  4

 40
1.0
 41
0.18
 42
0.0625
 43
0.38
 44
0.18
 45
0.0
 46
0.0
 47
0.0
 48
0.0
 71
     0
 72
     0
 73
     1
 74
     1
 75
     0
 76
     0
 77
     0
 78
     0
 79
     0
140
0.18
141
0.09
142
0.0
143
25.4
144
1.0
145
0.0
146
1.0
147
0.09
148
0.0
170
     0
171
     2
172
     0
173
     0
174
     0
175
     0
176
     0
177
     0
178
     0
179
     0
271
     4
272
     4
273
     2
274
     2
275
     0
276
     0
277
     2
278
    46
279
     0
280
     0
281
     0
282
     0
283
     1
284
     0
285
     0
286
     0
288
     0
340
17
341
0
342
0
343
0
344
0
371
    -2
372
    -2
  0
ENDTAB
  0
TABLE
  2
BLOCK_RECORD
  5
1
100
AcDbSymbolTable
 70
     0
  0
BLOCK_RECORD
  5
A
100
AcDbSymbolTableRecord
100
AcDbBlockTableRecord
  2
*MODEL_SPACE
340
20
  0
BLOCK_RECORD
  5
B
100
AcDbSymbolTableRecord
100
AcDbBlockTableRecord
  2
*PAPER_SPACE
340
21
  0
ENDTAB
  0
ENDSEC
  0
SECTION
  2
BLOCKS
  0
BLOCK
  5
D
100
AcDbEntity
  8
0
100
AcDbBlockBegin
  2
*MODEL_SPACE
 70
     0
 10
0.0
 20
0.0
 30
0.0
  3
*MODEL_SPACE
  1

  0
ENDBLK
  5
E
100
AcDbEntity
  8
0
100
AcDbBlockEnd
  0
BLOCK
  5
F
100
AcDbEntity
 67
     1
  8
0
100
AcDbBlockBegin
  2
*PAPER_SPACE
 70
     0
 10
0.0
 20
0.0
 30
0.0
  3
*PAPER_SPACE
  1

  0
ENDBLK
  5
10
100
AcDbEntity
 67
     1
  8
0
100
AcDbBlockEnd
  0
ENDSEC
  0
SECTION
  2
ENTITIES
  0
SPLINE
  5
25
100
AcDbEntity
  8
RÚteg 1
 62
     7
100
AcDbSpline
210
0.0
220
0.0
230
1.0
 70
     1
 71
     3
 72
    28
 73
    24
 74
     0
 42
0.0000000001
 43
0.0000000001
 40
0.0
 40
0.0
 40
0.0
 40
0.0
 40
0.1666666666666667
 40
0.1666666666666667
 40
0.1666666666666667
 40
0.1666666666666667
 40
0.3333333333333333
 40
0.3333333333333333
 40
0.3333333333333333
 40
0.3333333333333333
 40
0.5
 40
0.5
 40
0.5
 40
0.5
 40
0.6666666666666666
 40
0.6666666666666666
 40
0.6666666666666666
 40
0.6666666666666666
 40
0.8333333333333333
 40
0.8333333333333333
 40
0.8333333333333333
 40
0.8333333333333333
 40
1.0
 40
1.0
 40
1.0
 40
1.0
 10
-49.700099999999999
 20
102.70010000000001
 30
0.0
 10
-49.674900000000001
 20
102.70010000000001
 30
0.0
 10
-49.650399999999998
 20
102.6992
 30
0.0
 10
-49.625399999999999
 20
102.699
 30
0.0
 10
-49.625399999999999
 20
102.699
 30
0.0
 10
-48.085099999999997
 20
102.7385
 30
0.0
 10
-46.848100000000002
 20
104.00020000000001
 30
0.0
 10
-46.848100000000002
 20
105.5501
 30
0.0
 10
-46.848100000000002
 20
105.5501
 30
0.0
 10
-46.848100000000002
 20
107.12479999999999
 30
0.0
 10
-48.1252
 20
108.4019
 30
0.0
 10
-49.700099999999999
 20
108.4019
 30
0.0
 10
-49.700099999999999
 20
108.4019
 30
0.0
 10
-51.274799999999999
 20
108.4019
 30
0.0
 10
-52.551900000000003
 20
107.12479999999999
 30
0.0
 10
-52.551900000000003
 20
105.5501
 30
0.0
 10
-52.551900000000003
 20
105.5501
 30
0.0
 10
-52.551900000000003
 20
104.00020000000001
 30
0.0
 10
-51.314900000000002
 20
102.7385
 30
0.0
 10
-49.774500000000003
 20
102.699
 30
0.0
 10
-49.774500000000003
 20
102.699
 30
0.0
 10
-49.749699999999997
 20
102.6992
 30
0.0
 10
-49.725000000000001
 20
102.70010000000001
 30
0.0
 10
-49.700099999999999
 20
102.70010000000001
 30
0.0
  0
SPLINE
  5
26
100
AcDbEntity
  8
RÚteg 1
 62
     7
100
AcDbSpline
210
0.0
220
0.0
230
1.0
 70
     1
 71
     3
 72
    20
 73
    16
 74
     0
 42
0.0000000001
 43
0.0000000001
 40
0.0
 40
0.0
 40
0.0
 40
0.0
 40
0.25
 40
0.25
 40
0.25
 40
0.25
 40
0.5
 40
0.5
 40
0.5
 40
0.5
 40
0.75
 40
0.75
 40
0.75
 40
0.75
 40
1.0
 40
1.0
 40
1.0
 40
1.0
 10
-62.0
 20
95.418700000000001
 30
0.0
 10
-60.784300000000002
 20
94.203000000000003
 30
0.0
 10
-59.5685
 20
92.987300000000005
 30
0.0
 10
-58.352899999999998
 20
91.771500000000003
 30
0.0
 10
-58.352899999999998
 20
91.771500000000003
 30
0.0
 10
-55.292900000000003
 20
91.169799999999995
 30
0.0
 10
-53.379899999999999
 20
89.107900000000001
 30
0.0
 10
-52.417400000000001
 20
85.835999999999999
 30
0.0
 10
-52.417400000000001
 20
85.835999999999999
 30
0.0
 10
-51.535499999999999
 20
87.3857
 30
0.0
 10
-50.653500000000001
 20
88.934799999999996
 30
0.0
 10
-49.771500000000003
 20
90.484399999999994
 30
0.0
 10
-49.771500000000003
 20
90.484399999999994
 30
0.0
 10
-53.4009
 20
94.542900000000003
 30
0.0
 10
-57.4176
 20
96.509399999999999
 30
0.0
 10
-62.0
 20
95.418700000000001
 30
0.0
  0
SPLINE
  5
27
100
AcDbEntity
  8
RÚteg 1
 62
     7
100
AcDbSpline
210
0.0
220
0.0
230
1.0
 70
     1
 71
     3
 72
    20
 73
    16
 74
     0
 42
0.0000000001
 43
0.0000000001
 40
0.0
 40
0.0
 40
0.0
 40
0.0
 40
0.25
 40
0.25
 40
0.25
 40
0.25
 40
0.5
 40
0.5
 40
0.5
 40
0.5
 40
0.75
 40
0.75
 40
0.75
 40
0.75
 40
1.0
 40
1.0
 40
1.0
 40
1.0
 10
-41.976700000000001
 20
56.873699999999999
 30
0.0
 10
-41.976700000000001
 20
56.873699999999999
 30
0.0
 10
-35.826599999999999
 20
56.659199999999998
 30
0.0
 10
-35.826599999999999
 20
56.659199999999998
 30
0.0
 10
-35.826599999999999
 20
56.659199999999998
 30
0.0
 10
-35.826599999999999
 20
56.659199999999998
 30
0.0
 10
-29.390599999999999
 20
51.939500000000002
 30
0.0
 10
-29.390599999999999
 20
51.939500000000002
 30
0.0
 10
-29.390599999999999
 20
51.939500000000002
 30
0.0
 10
-29.390599999999999
 20
51.939500000000002
 30
0.0
 10
-36.1128
 20
52.225499999999997
 30
0.0
 10
-36.1128
 20
52.225499999999997
 30
0.0
 10
-36.1128
 20
52.225499999999997
 30
0.0
 10
-36.1128
 20
52.225499999999997
 30
0.0
 10
-41.976700000000001
 20
56.873699999999999
 30
0.0
 10
-41.976700000000001
 20
56.873699999999999
 30
0.0
  0
SPLINE
  5
28
100
AcDbEntity
  8
RÚteg 1
 62
     7
100
AcDbSpline
210
0.0
220
0.0
230
1.0
 70
     1
 71
     3
 72
    20
 73
    16
 74
     0
 42
0.0000000001
 43
0.0000000001
 40
0.0
 40
0.0
 40
0.0
 40
0.0
 40
0.25
 40
0.25
 40
0.25
 40
0.25
 40
0.5
 40
0.5
 40
0.5
 40
0.5
 40
0.75
 40
0.75
 40
0.75
 40
0.75
 40
1.0
 40
1.0
 40
1.0
 40
1.0
 10
-58.496000000000002
 20
74.680300000000003
 30
0.0
 10
-60.545900000000003
 20
74.119900000000001
 30
0.0
 10
-62.5959
 20
73.976900000000001
 30
0.0
 10
-64.646000000000001
 20
74.7517
 30
0.0
 10
-64.646000000000001
 20
74.7517
 30
0.0
 10
-67.250600000000006
 20
77.260099999999994
 30
0.0
 10
-68.454300000000003
 20
80.609399999999994
 30
0.0
 10
-69.151300000000006
 20
84.262900000000002
 30
0.0
 10
-69.151300000000006
 20
84.262900000000002
 30
0.0
 10
-67.554000000000002
 20
83.070800000000006
 30
0.0
 10
-66.052199999999999
 20
82.451099999999997
 30
0.0
 10
-64.646000000000001
 20
82.403599999999997
 30
0.0
 10
-64.646000000000001
 20
82.403599999999997
 30
0.0
 10
-63.668799999999997
 20
78.970699999999994
 30
0.0
 10
-61.380400000000002
 20
76.587000000000003
 30
0.0
 10
-58.496000000000002
 20
74.680300000000003
 30
0.0
  0
SPLINE
  5
29
100
AcDbEntity
  8
RÚteg 1
 62
     7
100
AcDbSpline
210
0.0
220
0.0
230
1.0
 70
     1
 71
     3
 72
    72
 73
    68
 74
     0
 42
0.0000000001
 43
0.0000000001
 40
0.0
 40
0.0
 40
0.0
 40
0.0
 40
0.0588235294117647
 40
0.0588235294117647
 40
0.0588235294117647
 40
0.0588235294117647
 40
0.1176470588235294
 40
0.1176470588235294
 40
0.1176470588235294
 40
0.1176470588235294
 40
0.1764705882352941
 40
0.1764705882352941
 40
0.1764705882352941
 40
0.1764705882352941
 40
0.2352941176470588
 40
0.2352941176470588
 40
0.2352941176470588
 40
0.2352941176470588
 40
0.2941176470588235
 40
0.2941176470588235
 40
0.2941176470588235
 40
0.2941176470588235
 40
0.3529411764705883
 40
0.3529411764705883
 40
0.3529411764705883
 40
0.3529411764705883
 40
0.411764705882353
 40
0.411764705882353
 40
0.411764705882353
 40
0.411764705882353
 40
0.4705882352941177
 40
0.4705882352941177
 40
0.4705882352941177
 40
0.4705882352941177
 40
0.5294117647058824
 40
0.5294117647058824
 40
0.5294117647058824
 40
0.5294117647058824
 40
0.5882352941176471
 40
0.5882352941176471
 40
0.5882352941176471
 40
0.5882352941176471
 40
0.6470588235294118
 40
0.6470588235294118
 40
0.6470588235294118
 40
0.6470588235294118
 40
0.7058823529411765
 40
0.7058823529411765
 40
0.7058823529411765
 40
0.7058823529411765
 40
0.7647058823529412
 40
0.7647058823529412
 40
0.7647058823529412
 40
0.7647058823529412
 40
0.823529411764706
 40
0.823529411764706
 40
0.823529411764706
 40
0.823529411764706
 40
0.8823529411764707
 40
0.8823529411764707
 40
0.8823529411764707
 40
0.8823529411764707
 40
0.9411764705882354
 40
0.9411764705882354
 40
0.9411764705882354
 40
0.9411764705882354
 40
1.0
 40
1.0
 40
1.0
 40
1.0
 10
-31.343499999999999
 20
47.4983
 30
0.0
 10
-30.8736
 20
47.467700000000001
 30
0.0
 10
-30.445900000000002
 20
47.4711
 30
0.0
 10
-30.059200000000001
 20
47.5075
 30
0.0
 10
-30.059200000000001
 20
47.5075
 30
0.0
 10
-35.270899999999997
 20
42.838900000000002
 30
0.0
 10
-42.154000000000003
 20
39.998100000000001
 30
0.0
 10
-49.700099999999999
 20
39.998100000000001
 30
0.0
 10
-49.700099999999999
 20
39.998100000000001
 30
0.0
 10
-65.962999999999994
 20
39.998100000000001
 30
0.0
 10
-79.151899999999998
 20
53.186799999999998
 30
0.0
 10
-79.151899999999998
 20
69.4499
 30
0.0
 10
-79.151899999999998
 20
69.4499
 30
0.0
 10
-79.151899999999998
 20
79.094499999999996
 30
0.0
 10
-74.513400000000004
 20
87.657600000000002
 30
0.0
 10
-67.346199999999996
 20
93.029700000000005
 30
0.0
 10
-67.346199999999996
 20
93.029700000000005
 30
0.0
 10
-70.569400000000002
 20
88.950999999999993
 30
0.0
 10
-70.399100000000004
 20
81.964699999999993
 30
0.0
 10
-67.171800000000005
 20
76.231300000000005
 30
0.0
 10
-67.171800000000005
 20
76.231300000000005
 30
0.0
 10
-64.362899999999996
 20
73.397099999999995
 30
0.0
 10
-60.874600000000001
 20
69.204899999999995
 30
0.0
 10
-57.687800000000003
 20
68.152299999999997
 30
0.0
 10
-57.687800000000003
 20
68.152299999999997
 30
0.0
 10
-54.500900000000001
 20
67.099800000000002
 30
0.0
 10
-63.832999999999998
 20
67.648499999999999
 30
0.0
 10
-64.642799999999994
 20
66.395899999999997
 30
0.0
 10
-64.642799999999994
 20
66.395899999999997
 30
0.0
 10
-65.452500000000001
 20
65.143500000000003
 30
0.0
 10
-67.209199999999996
 20
63.106099999999998
 30
0.0
 10
-65.485699999999994
 20
61.127200000000002
 30
0.0
 10
-65.485699999999994
 20
61.127200000000002
 30
0.0
 10
-63.618299999999998
 20
59.809699999999999
 30
0.0
 10
-62.1312
 20
58.112000000000002
 30
0.0
 10
-61.200200000000002
 20
55.8583
 30
0.0
 10
-61.200200000000002
 20
55.8583
 30
0.0
 10
-60.052799999999998
 20
54.9681
 30
0.0
 10
-58.9054
 20
54.827800000000003
 30
0.0
 10
-57.758099999999999
 20
55.436799999999998
 30
0.0
 10
-57.758099999999999
 20
55.436799999999998
 30
0.0
 10
-56.299799999999998
 20
57.344799999999999
 30
0.0
 10
-55.281399999999998
 20
59.546199999999999
 30
0.0
 10
-54.386099999999999
 20
61.829700000000003
 30
0.0
 10
-54.386099999999999
 20
61.829700000000003
 30
0.0
 10
-54.081600000000002
 20
61.829599999999999
 30
0.0
 10
-53.777200000000001
 20
61.829599999999999
 30
0.0
 10
-53.472700000000003
 20
61.829700000000003
 30
0.0
 10
-53.472700000000003
 20
61.829700000000003
 30
0.0
 10
-53.476300000000002
 20
59.651200000000003
 30
0.0
 10
-53.197000000000003
 20
57.5197
 30
0.0
 10
-50.9435
 20
55.717599999999997
 30
0.0
 10
-50.9435
 20
55.717599999999997
 30
0.0
 10
-49.608699999999999
 20
53.914499999999997
 30
0.0
 10
-48.7423
 20
51.736699999999999
 30
0.0
 10
-48.344299999999997
 20
49.1845
 30
0.0
 10
-48.344299999999997
 20
49.1845
 30
0.0
 10
-47.993099999999998
 20
51.502800000000001
 30
0.0
 10
-47.290599999999998
 20
53.703899999999997
 30
0.0
 10
-45.815199999999997
 20
55.647500000000001
 30
0.0
 10
-45.815199999999997
 20
55.647500000000001
 30
0.0
 10
-44.902000000000001
 20
56.303100000000001
 30
0.0
 10
-44.737900000000003
 20
57.146000000000001
 30
0.0
 10
-45.323599999999999
 20
58.176600000000001
 30
0.0
 10
-45.323599999999999
 20
58.176600000000001
 30
0.0
 10
-40.663400000000003
 20
54.335999999999999
 30
0.0
 10
-36.003300000000003
 20
50.776499999999999
 30
0.0
 10
-31.343499999999999
 20
47.4983
 30
0.0
  0
SPLINE
  5
2A
100
AcDbEntity
  8
RÚteg 1
 62
     7
100
AcDbSpline
210
0.0
220
0.0
230
1.0
 70
     1
 71
     3
 72
    92
 73
    88
 74
     0
 42
0.0000000001
 43
0.0000000001
 40
0.0
 40
0.0
 40
0.0
 40
0.0
 40
0.0454545454545455
 40
0.0454545454545455
 40
0.0454545454545455
 40
0.0454545454545455
 40
0.0909090909090909
 40
0.0909090909090909
 40
0.0909090909090909
 40
0.0909090909090909
 40
0.1363636363636364
 40
0.1363636363636364
 40
0.1363636363636364
 40
0.1363636363636364
 40
0.1818181818181818
 40
0.1818181818181818
 40
0.1818181818181818
 40
0.1818181818181818
 40
0.2272727272727273
 40
0.2272727272727273
 40
0.2272727272727273
 40
0.2272727272727273
 40
0.2727272727272728
 40
0.2727272727272728
 40
0.2727272727272728
 40
0.2727272727272728
 40
0.3181818181818182
 40
0.3181818181818182
 40
0.3181818181818182
 40
0.3181818181818182
 40
0.3636363636363637
 40
0.3636363636363637
 40
0.3636363636363637
 40
0.3636363636363637
 40
0.4090909090909092
 40
0.4090909090909092
 40
0.4090909090909092
 40
0.4090909090909092
 40
0.4545454545454546
 40
0.4545454545454546
 40
0.4545454545454546
 40
0.4545454545454546
 40
0.5000000000000001
 40
0.5000000000000001
 40
0.5000000000000001
 40
0.5000000000000001
 40
0.5454545454545455
 40
0.5454545454545455
 40
0.5454545454545455
 40
0.5454545454545455
 40
0.5909090909090909
 40
0.5909090909090909
 40
0.5909090909090909
 40
0.5909090909090909
 40
0.6363636363636364
 40
0.6363636363636364
 40
0.6363636363636364
 40
0.6363636363636364
 40
0.6818181818181818
 40
0.6818181818181818
 40
0.6818181818181818
 40
0.6818181818181818
 40
0.7272727272727272
 40
0.7272727272727272
 40
0.7272727272727272
 40
0.7272727272727272
 40
0.7727272727272726
 40
0.7727272727272726
 40
0.7727272727272726
 40
0.7727272727272726
 40
0.818181818181818
 40
0.818181818181818
 40
0.818181818181818
 40
0.818181818181818
 40
0.8636363636363634
 40
0.8636363636363634
 40
0.8636363636363634
 40
0.8636363636363634
 40
0.9090909090909088
 40
0.9090909090909088
 40
0.9090909090909088
 40
0.9090909090909088
 40
0.9545454545454543
 40
0.9545454545454543
 40
0.9545454545454543
 40
0.9545454545454543
 40
1.0
 40
1.0
 40
1.0
 40
1.0
 10
-27.362400000000001
 20
50.258200000000002
 30
0.0
 10
-27.367599999999999
 20
50.673499999999997
 30
0.0
 10
-27.4299
 20
51.135100000000001
 30
0.0
 10
-27.549800000000001
 20
51.6432
 30
0.0
 10
-27.549800000000001
 20
51.6432
 30
0.0
 10
-31.811599999999999
 20
54.874600000000001
 30
0.0
 10
-36.073900000000002
 20
58.106200000000001
 30
0.0
 10
-40.335700000000003
 20
61.338099999999997
 30
0.0
 10
-40.335700000000003
 20
61.338099999999997
 30
0.0
 10
-39.902299999999997
 20
64.124200000000002
 30
0.0
 10
-38.356900000000003
 20
66.466099999999997
 30
0.0
 10
-36.0503
 20
68.503600000000006
 30
0.0
 10
-36.0503
 20
68.503600000000006
 30
0.0
 10
-38.216200000000001
 20
68.843299999999999
 30
0.0
 10
-40.558
 20
68.772800000000004
 30
0.0
 10
-43.286299999999997
 20
67.801100000000005
 30
0.0
 10
-43.286299999999997
 20
67.801100000000005
 30
0.0
 10
-44.866599999999998
 20
66.981099999999998
 30
0.0
 10
-46.576099999999997
 20
66.676699999999997
 30
0.0
 10
-48.344299999999997
 20
66.606800000000007
 30
0.0
 10
-48.344299999999997
 20
66.606800000000007
 30
0.0
 10
-48.367800000000003
 20
66.864400000000003
 30
0.0
 10
-48.391199999999998
 20
67.121700000000004
 30
0.0
 10
-48.4146
 20
67.379400000000004
 30
0.0
 10
-48.4146
 20
67.379400000000004
 30
0.0
 10
-45.791400000000003
 20
68.702299999999994
 30
0.0
 10
-43.332299999999996
 20
70.107200000000006
 30
0.0
 10
-41.459699999999998
 20
71.805599999999998
 30
0.0
 10
-41.459699999999998
 20
71.805599999999998
 30
0.0
 10
-40.382300000000001
 20
73.186999999999998
 30
0.0
 10
-40.335599999999999
 20
74.5685
 30
0.0
 10
-41.319200000000002
 20
75.950299999999999
 30
0.0
 10
-41.319200000000002
 20
75.950299999999999
 30
0.0
 10
-43.345500000000001
 20
76.540599999999998
 30
0.0
 10
-44.492699999999999
 20
77.864000000000004
 30
0.0
 10
-45.393799999999999
 20
79.392499999999998
 30
0.0
 10
-45.393799999999999
 20
79.392499999999998
 30
0.0
 10
-46.306899999999999
 20
80.399199999999993
 30
0.0
 10
-47.407400000000003
 20
80.563100000000006
 30
0.0
 10
-48.695500000000003
 20
79.884399999999999
 30
0.0
 10
-48.695500000000003
 20
79.884399999999999
 30
0.0
 10
-50.943800000000003
 20
77.144300000000001
 30
0.0
 10
-52.161200000000001
 20
74.404499999999999
 30
0.0
 10
-52.910800000000002
 20
71.664900000000003
 30
0.0
 10
-52.910800000000002
 20
71.664900000000003
 30
0.0
 10
-53.168399999999998
 20
71.6648
 30
0.0
 10
-53.425800000000002
 20
71.6648
 30
0.0
 10
-53.683399999999999
 20
71.664900000000003
 30
0.0
 10
-53.683399999999999
 20
71.664900000000003
 30
0.0
 10
-56.329700000000003
 20
73.912800000000004
 30
0.0
 10
-58.975700000000003
 20
76.161000000000001
 30
0.0
 10
-61.622
 20
78.409099999999995
 30
0.0
 10
-61.622
 20
78.409099999999995
 30
0.0
 10
-64.557699999999997
 20
81.850999999999999
 30
0.0
 10
-64.727400000000003
 20
85.293400000000005
 30
0.0
 10
-62.6053
 20
88.736000000000004
 30
0.0
 10
-62.6053
 20
88.736000000000004
 30
0.0
 10
-60.123100000000001
 20
91.100999999999999
 30
0.0
 10
-57.640900000000002
 20
91.218100000000007
 30
0.0
 10
-55.158999999999999
 20
89.087199999999996
 30
0.0
 10
-55.158999999999999
 20
89.087199999999996
 30
0.0
 10
-53.882199999999997
 20
87.342500000000001
 30
0.0
 10
-53.249899999999997
 20
85.726600000000005
 30
0.0
 10
-52.910800000000002
 20
84.169499999999999
 30
0.0
 10
-52.910800000000002
 20
84.169499999999999
 30
0.0
 10
-51.552399999999999
 20
81.400599999999997
 30
0.0
 10
-49.889600000000002
 20
80.686300000000003
 30
0.0
 10
-47.782299999999999
 20
82.975399999999993
 30
0.0
 10
-47.782299999999999
 20
82.975399999999993
 30
0.0
 10
-47.337400000000002
 20
85.597999999999999
 30
0.0
 10
-47.829099999999997
 20
88.220699999999994
 30
0.0
 10
-49.2577
 20
90.843599999999995
 30
0.0
 10
-49.2577
 20
90.843599999999995
 30
0.0
 10
-52.357500000000002
 20
95.593999999999994
 30
0.0
 10
-57.504399999999997
 20
97.0364
 30
0.0
 10
-61.353099999999998
 20
96.503500000000003
 30
0.0
 10
-61.353099999999998
 20
96.503500000000003
 30
0.0
 10
-57.778799999999997
 20
98.045500000000004
 30
0.0
 10
-53.839300000000001
 20
98.901799999999994
 30
0.0
 10
-49.700099999999999
 20
98.901799999999994
 30
0.0
 10
-49.700099999999999
 20
98.901799999999994
 30
0.0
 10
-33.436999999999998
 20
98.901799999999994
 30
0.0
 10
-20.248200000000001
 20
85.712999999999994
 30
0.0
 10
-20.248200000000001
 20
69.4499
 30
0.0
 10
-20.248200000000001
 20
69.4499
 30
0.0
 10
-20.248200000000001
 20
62.119
 30
0.0
 10
-22.928899999999999
 20
55.413400000000003
 30
0.0
 10
-27.362400000000001
 20
50.258200000000002
 30
0.0
  0
SPLINE
  5
2B
100
AcDbEntity
  8
RÚteg 1
 62
     7
100
AcDbSpline
210
0.0
220
0.0
230
1.0
 70
     1
 71
     3
 72
    36
 73
    32
 74
     0
 42
0.0000000001
 43
0.0000000001
 40
0.0
 40
0.0
 40
0.0
 40
0.0
 40
0.125
 40
0.125
 40
0.125
 40
0.125
 40
0.25
 40
0.25
 40
0.25
 40
0.25
 40
0.375
 40
0.375
 40
0.375
 40
0.375
 40
0.5
 40
0.5
 40
0.5
 40
0.5
 40
0.625
 40
0.625
 40
0.625
 40
0.625
 40
0.75
 40
0.75
 40
0.75
 40
0.75
 40
0.875
 40
0.875
 40
0.875
 40
0.875
 40
1.0
 40
1.0
 40
1.0
 40
1.0
 10
-46.058799999999998
 20
102.50060000000001
 30
0.0
 10
-29.411100000000001
 20
100.6861
 30
0.0
 10
-16.4499
 20
86.579599999999999
 30
0.0
 10
-16.4499
 20
69.4499
 30
0.0
 10
-16.4499
 20
69.4499
 30
0.0
 10
-16.4499
 20
51.089700000000001
 30
0.0
 10
-31.339600000000001
 20
36.200000000000003
 30
0.0
 10
-49.700099999999999
 20
36.200000000000003
 30
0.0
 10
-49.700099999999999
 20
36.200000000000003
 30
0.0
 10
-68.060299999999998
 20
36.200000000000003
 30
0.0
 10
-82.950000000000003
 20
51.089700000000001
 30
0.0
 10
-82.950000000000003
 20
69.4499
 30
0.0
 10
-82.950000000000003
 20
69.4499
 30
0.0
 10
-82.950000000000003
 20
86.579599999999999
 30
0.0
 10
-69.988900000000001
 20
100.6861
 30
0.0
 10
-53.341200000000001
 20
102.50060000000001
 30
0.0
 10
-53.341200000000001
 20
102.50060000000001
 30
0.0
 10
-54.033000000000001
 20
103.32599999999999
 30
0.0
 10
-54.4499
 20
104.3891
 30
0.0
 10
-54.4499
 20
105.5501
 30
0.0
 10
-54.4499
 20
105.5501
 30
0.0
 10
-54.4499
 20
108.1729
 30
0.0
 10
-52.322800000000001
 20
110.3
 30
0.0
 10
-49.700099999999999
 20
110.3
 30
0.0
 10
-49.700099999999999
 20
110.3
 30
0.0
 10
-47.077100000000002
 20
110.3
 30
0.0
 10
-44.950000000000003
 20
108.1729
 30
0.0
 10
-44.950000000000003
 20
105.5501
 30
0.0
 10
-44.950000000000003
 20
105.5501
 30
0.0
 10
-44.950000000000003
 20
104.3891
 30
0.0
 10
-45.366900000000001
 20
103.32599999999999
 30
0.0
 10
-46.058799999999998
 20
102.50060000000001
 30
0.0
  0
SPLINE
  5
2C
100
AcDbEntity
  8
RÚteg 1
 62
     7
100
AcDbSpline
210
0.0
220
0.0
230
1.0
 70
     1
 71
     3
 72
    28
 73
    24
 74
     0
 42
0.0000000001
 43
0.0000000001
 40
0.0
 40
0.0
 40
0.0
 40
0.0
 40
0.1666666666666667
 40
0.1666666666666667
 40
0.1666666666666667
 40
0.1666666666666667
 40
0.3333333333333333
 40
0.3333333333333333
 40
0.3333333333333333
 40
0.3333333333333333
 40
0.5
 40
0.5
 40
0.5
 40
0.5
 40
0.6666666666666666
 40
0.6666666666666666
 40
0.6666666666666666
 40
0.6666666666666666
 40
0.8333333333333333
 40
0.8333333333333333
 40
0.8333333333333333
 40
0.8333333333333333
 40
1.0
 40
1.0
 40
1.0
 40
1.0
 10
21.003
 20
102.53919999999999
 30
0.0
 10
21.028500000000001
 20
102.53919999999999
 30
0.0
 10
21.053799999999999
 20
102.5384
 30
0.0
 10
21.0791
 20
102.5384
 30
0.0
 10
21.0791
 20
102.5384
 30
0.0
 10
22.652000000000001
 20
102.5788
 30
0.0
 10
23.915299999999998
 20
103.8669
 30
0.0
 10
23.915299999999998
 20
105.4496
 30
0.0
 10
23.915299999999998
 20
105.4496
 30
0.0
 10
23.915299999999998
 20
107.0577
 30
0.0
 10
22.6112
 20
108.3617
 30
0.0
 10
21.003
 20
108.3617
 30
0.0
 10
21.003
 20
108.3617
 30
0.0
 10
19.3949
 20
108.3617
 30
0.0
 10
18.090699999999998
 20
107.0577
 30
0.0
 10
18.090699999999998
 20
105.4496
 30
0.0
 10
18.090699999999998
 20
105.4496
 30
0.0
 10
18.090699999999998
 20
103.8669
 30
0.0
 10
19.353999999999999
 20
102.5788
 30
0.0
 10
20.9269
 20
102.5384
 30
0.0
 10
20.9269
 20
102.5384
 30
0.0
 10
20.952300000000001
 20
102.5384
 30
0.0
 10
20.977599999999999
 20
102.53919999999999
 30
0.0
 10
21.003
 20
102.53919999999999
 30
0.0
  0
SPLINE
  5
2D
100
AcDbEntity
  8
RÚteg 1
 62
     7
100
AcDbSpline
210
0.0
220
0.0
230
1.0
 70
     1
 71
     3
 72
    80
 73
    76
 74
     0
 42
0.0000000001
 43
0.0000000001
 40
0.0
 40
0.0
 40
0.0
 40
0.0
 40
0.0526315789473684
 40
0.0526315789473684
 40
0.0526315789473684
 40
0.0526315789473684
 40
0.1052631578947368
 40
0.1052631578947368
 40
0.1052631578947368
 40
0.1052631578947368
 40
0.1578947368421053
 40
0.1578947368421053
 40
0.1578947368421053
 40
0.1578947368421053
 40
0.2105263157894737
 40
0.2105263157894737
 40
0.2105263157894737
 40
0.2105263157894737
 40
0.2631578947368421
 40
0.2631578947368421
 40
0.2631578947368421
 40
0.2631578947368421
 40
0.3157894736842105
 40
0.3157894736842105
 40
0.3157894736842105
 40
0.3157894736842105
 40
0.3684210526315789
 40
0.3684210526315789
 40
0.3684210526315789
 40
0.3684210526315789
 40
0.4210526315789474
 40
0.4210526315789474
 40
0.4210526315789474
 40
0.4210526315789474
 40
0.4736842105263158
 40
0.4736842105263158
 40
0.4736842105263158
 40
0.4736842105263158
 40
0.5263157894736842
 40
0.5263157894736842
 40
0.5263157894736842
 40
0.5263157894736842
 40
0.5789473684210527
 40
0.5789473684210527
 40
0.5789473684210527
 40
0.5789473684210527
 40
0.631578947368421
 40
0.631578947368421
 40
0.631578947368421
 40
0.631578947368421
 40
0.6842105263157894
 40
0.6842105263157894
 40
0.6842105263157894
 40
0.6842105263157894
 40
0.7368421052631577
 40
0.7368421052631577
 40
0.7368421052631577
 40
0.7368421052631577
 40
0.7894736842105261
 40
0.7894736842105261
 40
0.7894736842105261
 40
0.7894736842105261
 40
0.8421052631578945
 40
0.8421052631578945
 40
0.8421052631578945
 40
0.8421052631578945
 40
0.8947368421052628
 40
0.8947368421052628
 40
0.8947368421052628
 40
0.8947368421052628
 40
0.9473684210526312
 40
0.9473684210526312
 40
0.9473684210526312
 40
0.9473684210526312
 40
1.0
 40
1.0
 40
1.0
 40
1.0
 10
20.6328
 20
41.075499999999998
 30
0.0
 10
19.930499999999999
 20
40.055799999999998
 30
0.0
 10
19.631699999999999
 20
39.229399999999998
 30
0.0
 10
19.629200000000001
 20
38.544499999999999
 30
0.0
 10
19.629200000000001
 20
38.544499999999999
 30
0.0
 10
20.084800000000001
 20
38.523899999999998
 30
0.0
 10
20.5425
 20
38.511699999999998
 30
0.0
 10
21.003
 20
38.511699999999998
 30
0.0
 10
21.003
 20
38.511699999999998
 30
0.0
 10
23.885400000000001
 20
38.511699999999998
 30
0.0
 10
26.6724
 20
38.918399999999998
 30
0.0
 10
29.311399999999999
 20
39.675899999999999
 30
0.0
 10
29.311399999999999
 20
39.675899999999999
 30
0.0
 10
29.900099999999998
 20
41.219200000000001
 30
0.0
 10
29.7818
 20
43.140900000000002
 30
0.0
 10
28.954999999999998
 20
45.441499999999998
 30
0.0
 10
28.954999999999998
 20
45.441499999999998
 30
0.0
 10
28.642600000000002
 20
45.771999999999998
 30
0.0
 10
28.3249
 20
46.0899
 30
0.0
 10
28.0044
 20
46.396799999999999
 30
0.0
 10
28.0044
 20
46.396799999999999
 30
0.0
 10
28.0044
 20
46.396799999999999
 30
0.0
 10
28.056899999999999
 20
46.286099999999998
 30
0.0
 10
28.056899999999999
 20
46.286099999999998
 30
0.0
 10
28.056899999999999
 20
46.286099999999998
 30
0.0
 10
23.668600000000001
 20
47.878300000000003
 30
0.0
 10
17.646799999999999
 20
49.287500000000001
 30
0.0
 10
17.121600000000001
 20
44.942399999999999
 30
0.0
 10
17.121600000000001
 20
44.942399999999999
 30
0.0
 10
16.996400000000001
 20
44.345700000000001
 30
0.0
 10
16.519400000000001
 20
44.175800000000002
 30
0.0
 10
15.692299999999999
 20
44.433199999999999
 30
0.0
 10
15.692299999999999
 20
44.433199999999999
 30
0.0
 10
12.0619
 20
46.866399999999999
 30
0.0
 10
12.9018
 20
48.958500000000001
 30
0.0
 10
16.949100000000001
 20
50.301400000000001
 30
0.0
 10
16.949100000000001
 20
50.301400000000001
 30
0.0
 10
20.0274
 20
50.744
 30
0.0
 10
22.3187
 20
50.276800000000001
 30
0.0
 10
24.2881
 20
49.335599999999999
 30
0.0
 10
24.2881
 20
49.335599999999999
 30
0.0
 10
20.9923
 20
51.459299999999999
 30
0.0
 10
17.398299999999999
 20
52.634099999999997
 30
0.0
 10
13.7075
 20
53.080399999999997
 30
0.0
 10
13.7075
 20
53.080399999999997
 30
0.0
 10
5.8346
 20
52.220199999999998
 30
0.0
 10
4.7805
 20
48.9587
 30
0.0
 10
6.8250000000000002
 20
44.607199999999999
 30
0.0
 10
6.8250000000000002
 20
44.607199999999999
 30
0.0
 10
7.6570999999999998
 20
44.039000000000001
 30
0.0
 10
8.6625999999999994
 20
43.518599999999999
 30
0.0
 10
9.8428000000000004
 20
43.044600000000003
 30
0.0
 10
9.8428000000000004
 20
43.044600000000003
 30
0.0
 10
10.563599999999999
 20
42.597099999999998
 30
0.0
 10
10.332000000000001
 20
42.1492
 30
0.0
 10
9.1486999999999998
 20
41.701599999999999
 30
0.0
 10
9.1486999999999998
 20
41.701599999999999
 30
0.0
 10
8.6616
 20
41.634099999999997
 30
0.0
 10
8.1910000000000007
 20
41.597700000000003
 30
0.0
 10
7.7363999999999997
 20
41.592100000000002
 30
0.0
 10
7.7363999999999997
 20
41.592100000000002
 30
0.0
 10
10.273099999999999
 20
40.3431
 30
0.0
 10
13.010899999999999
 20
39.440399999999997
 30
0.0
 10
15.888400000000001
 20
38.947099999999999
 30
0.0
 10
15.888400000000001
 20
38.947099999999999
 30
0.0
 10
15.8409
 20
39.044800000000002
 30
0.0
 10
15.794
 20
39.1432
 30
0.0
 10
15.748100000000001
 20
39.242699999999999
 30
0.0
 10
15.748100000000001
 20
39.242699999999999
 30
0.0
 10
15.9041
 20
40.703000000000003
 30
0.0
 10
16.492799999999999
 20
41.793700000000001
 30
0.0
 10
17.712900000000001
 20
42.3431
 30
0.0
 10
17.712900000000001
 20
42.3431
 30
0.0
 10
19.3733
 20
42.623600000000003
 30
0.0
 10
20.110399999999998
 20
41.959299999999999
 30
0.0
 10
20.6328
 20
41.075499999999998
 30
0.0
  0
SPLINE
  5
2E
100
AcDbEntity
  8
RÚteg 1
 62
     7
100
AcDbSpline
210
0.0
220
0.0
230
1.0
 70
     1
 71
     3
 72
    64
 73
    60
 74
     0
 42
0.0000000001
 43
0.0000000001
 40
0.0
 40
0.0
 40
0.0
 40
0.0
 40
0.0666666666666667
 40
0.0666666666666667
 40
0.0666666666666667
 40
0.0666666666666667
 40
0.1333333333333333
 40
0.1333333333333333
 40
0.1333333333333333
 40
0.1333333333333333
 40
0.2
 40
0.2
 40
0.2
 40
0.2
 40
0.2666666666666667
 40
0.2666666666666667
 40
0.2666666666666667
 40
0.2666666666666667
 40
0.3333333333333333
 40
0.3333333333333333
 40
0.3333333333333333
 40
0.3333333333333333
 40
0.4
 40
0.4
 40
0.4
 40
0.4
 40
0.4666666666666666
 40
0.4666666666666666
 40
0.4666666666666666
 40
0.4666666666666666
 40
0.5333333333333333
 40
0.5333333333333333
 40
0.5333333333333333
 40
0.5333333333333333
 40
0.6
 40
0.6
 40
0.6
 40
0.6
 40
0.6666666666666666
 40
0.6666666666666666
 40
0.6666666666666666
 40
0.6666666666666666
 40
0.7333333333333333
 40
0.7333333333333333
 40
0.7333333333333333
 40
0.7333333333333333
 40
0.7999999999999999
 40
0.7999999999999999
 40
0.7999999999999999
 40
0.7999999999999999
 40
0.8666666666666666
 40
0.8666666666666666
 40
0.8666666666666666
 40
0.8666666666666666
 40
0.9333333333333332
 40
0.9333333333333332
 40
0.9333333333333332
 40
0.9333333333333332
 40
1.0
 40
1.0
 40
1.0
 40
1.0
 10
0.2659
 20
46.806899999999999
 30
0.0
 10
-0.7938
 20
49.750900000000001
 30
0.0
 10
-0.4016
 20
52.2273
 30
0.0
 10
2.0405000000000002
 20
54.042999999999999
 30
0.0
 10
2.0405000000000002
 20
54.042999999999999
 30
0.0
 10
5.2877999999999998
 20
56.059699999999999
 30
0.0
 10
8.8688000000000002
 20
56.843499999999999
 30
0.0
 10
12.935700000000001
 20
55.826999999999998
 30
0.0
 10
12.935700000000001
 20
55.826999999999998
 30
0.0
 10
15.5365
 20
55.447800000000001
 30
0.0
 10
17.763500000000001
 20
54.614100000000001
 30
0.0
 10
19.822700000000001
 20
53.574599999999997
 30
0.0
 10
19.822700000000001
 20
53.574599999999997
 30
0.0
 10
22.352599999999999
 20
52.5002
 30
0.0
 10
24.6815
 20
50.836300000000001
 30
0.0
 10
27.004300000000001
 20
49.154000000000003
 30
0.0
 10
27.004300000000001
 20
49.154000000000003
 30
0.0
 10
27.679099999999998
 20
48.900300000000001
 30
0.0
 10
27.861599999999999
 20
48.984999999999999
 30
0.0
 10
27.5443
 20
49.673000000000002
 30
0.0
 10
27.5443
 20
49.673000000000002
 30
0.0
 10
24.474699999999999
 20
52.106099999999998
 30
0.0
 10
21.270600000000002
 20
54.1952
 30
0.0
 10
17.8658
 20
55.808900000000001
 30
0.0
 10
17.8658
 20
55.808900000000001
 30
0.0
 10
14.420400000000001
 20
57.402299999999997
 30
0.0
 10
10.851699999999999
 20
58.846899999999998
 30
0.0
 10
8.0123999999999995
 20
61.178400000000003
 30
0.0
 10
8.0123999999999995
 20
61.178400000000003
 30
0.0
 10
7.2751999999999999
 20
61.750799999999998
 30
0.0
 10
6.5373000000000001
 20
62.322400000000002
 30
0.0
 10
5.8003
 20
62.894300000000001
 30
0.0
 10
5.8003
 20
62.894300000000001
 30
0.0
 10
5.4489999999999998
 20
63.204500000000003
 30
0.0
 10
5.2264999999999997
 20
63.520600000000002
 30
0.0
 10
5.0846999999999998
 20
63.839199999999998
 30
0.0
 10
5.0846999999999998
 20
63.839199999999998
 30
0.0
 10
5.0846999999999998
 20
63.839199999999998
 30
0.0
 10
5.0037000000000003
 20
63.729599999999998
 30
0.0
 10
5.0037000000000003
 20
63.729599999999998
 30
0.0
 10
5.0037000000000003
 20
63.729599999999998
 30
0.0
 10
6.5426000000000002
 20
60.351500000000001
 30
0.0
 10
5.9383999999999997
 20
58.233899999999998
 30
0.0
 10
0.6195000000000001
 20
58.886499999999998
 30
0.0
 10
0.6195000000000001
 20
58.886499999999998
 30
0.0
 10
-3.9009999999999998
 20
57.881700000000002
 30
0.0
 10
-6.0532000000000004
 20
60.023800000000001
 30
0.0
 10
-4.6355000000000004
 20
63.961199999999998
 30
0.0
 10
-4.6355000000000004
 20
63.961199999999998
 30
0.0
 10
-4.7378
 20
64.206999999999994
 30
0.0
 10
-4.8411
 20
64.453199999999995
 30
0.0
 10
-4.9436
 20
64.6995
 30
0.0
 10
-4.9436
 20
64.6995
 30
0.0
 10
-6.3882000000000003
 20
63.992800000000003
 30
0.0
 10
-7.7272999999999996
 20
63.930999999999997
 30
0.0
 10
-8.8675999999999995
 20
65.087999999999994
 30
0.0
 10
-8.8675999999999995
 20
65.087999999999994
 30
0.0
 10
-8.0373000000000001
 20
57.925400000000003
 30
0.0
 10
-4.6917999999999997
 20
51.528199999999998
 30
0.0
 10
0.2659
 20
46.806899999999999
 30
0.0
  0
SPLINE
  5
2F
100
AcDbEntity
  8
RÚteg 1
 62
     7
100
AcDbSpline
210
0.0
220
0.0
230
1.0
 70
     1
 71
     3
 72
   196
 73
   192
 74
     0
 42
0.0000000001
 43
0.0000000001
 40
0.0
 40
0.0
 40
0.0
 40
0.0
 40
0.0208333333333333
 40
0.0208333333333333
 40
0.0208333333333333
 40
0.0208333333333333
 40
0.0416666666666667
 40
0.0416666666666667
 40
0.0416666666666667
 40
0.0416666666666667
 40
0.0625
 40
0.0625
 40
0.0625
 40
0.0625
 40
0.0833333333333333
 40
0.0833333333333333
 40
0.0833333333333333
 40
0.0833333333333333
 40
0.1041666666666667
 40
0.1041666666666667
 40
0.1041666666666667
 40
0.1041666666666667
 40
0.125
 40
0.125
 40
0.125
 40
0.125
 40
0.1458333333333333
 40
0.1458333333333333
 40
0.1458333333333333
 40
0.1458333333333333
 40
0.1666666666666667
 40
0.1666666666666667
 40
0.1666666666666667
 40
0.1666666666666667
 40
0.1875
 40
0.1875
 40
0.1875
 40
0.1875
 40
0.2083333333333333
 40
0.2083333333333333
 40
0.2083333333333333
 40
0.2083333333333333
 40
0.2291666666666667
 40
0.2291666666666667
 40
0.2291666666666667
 40
0.2291666666666667
 40
0.25
 40
0.25
 40
0.25
 40
0.25
 40
0.2708333333333333
 40
0.2708333333333333
 40
0.2708333333333333
 40
0.2708333333333333
 40
0.2916666666666666
 40
0.2916666666666666
 40
0.2916666666666666
 40
0.2916666666666666
 40
0.3124999999999999
 40
0.3124999999999999
 40
0.3124999999999999
 40
0.3124999999999999
 40
0.3333333333333333
 40
0.3333333333333333
 40
0.3333333333333333
 40
0.3333333333333333
 40
0.3541666666666666
 40
0.3541666666666666
 40
0.3541666666666666
 40
0.3541666666666666
 40
0.3749999999999999
 40
0.3749999999999999
 40
0.3749999999999999
 40
0.3749999999999999
 40
0.3958333333333332
 40
0.3958333333333332
 40
0.3958333333333332
 40
0.3958333333333332
 40
0.4166666666666665
 40
0.4166666666666665
 40
0.4166666666666665
 40
0.4166666666666665
 40
0.4374999999999998
 40
0.4374999999999998
 40
0.4374999999999998
 40
0.4374999999999998
 40
0.4583333333333332
 40
0.4583333333333332
 40
0.4583333333333332
 40
0.4583333333333332
 40
0.4791666666666665
 40
0.4791666666666665
 40
0.4791666666666665
 40
0.4791666666666665
 40
0.4999999999999998
 40
0.4999999999999998
 40
0.4999999999999998
 40
0.4999999999999998
 40
0.5208333333333332
 40
0.5208333333333332
 40
0.5208333333333332
 40
0.5208333333333332
 40
0.5416666666666665
 40
0.5416666666666665
 40
0.5416666666666665
 40
0.5416666666666665
 40
0.5624999999999999
 40
0.5624999999999999
 40
0.5624999999999999
 40
0.5624999999999999
 40
0.5833333333333333
 40
0.5833333333333333
 40
0.5833333333333333
 40
0.5833333333333333
 40
0.6041666666666666
 40
0.6041666666666666
 40
0.6041666666666666
 40
0.6041666666666666
 40
0.625
 40
0.625
 40
0.625
 40
0.625
 40
0.6458333333333334
 40
0.6458333333333334
 40
0.6458333333333334
 40
0.6458333333333334
 40
0.6666666666666667
 40
0.6666666666666667
 40
0.6666666666666667
 40
0.6666666666666667
 40
0.6875000000000001
 40
0.6875000000000001
 40
0.6875000000000001
 40
0.6875000000000001
 40
0.7083333333333335
 40
0.7083333333333335
 40
0.7083333333333335
 40
0.7083333333333335
 40
0.7291666666666669
 40
0.7291666666666669
 40
0.7291666666666669
 40
0.7291666666666669
 40
0.7500000000000002
 40
0.7500000000000002
 40
0.7500000000000002
 40
0.7500000000000002
 40
0.7708333333333336
 40
0.7708333333333336
 40
0.7708333333333336
 40
0.7708333333333336
 40
0.791666666666667
 40
0.791666666666667
 40
0.791666666666667
 40
0.791666666666667
 40
0.8125000000000003
 40
0.8125000000000003
 40
0.8125000000000003
 40
0.8125000000000003
 40
0.8333333333333337
 40
0.8333333333333337
 40
0.8333333333333337
 40
0.8333333333333337
 40
0.8541666666666671
 40
0.8541666666666671
 40
0.8541666666666671
 40
0.8541666666666671
 40
0.8750000000000004
 40
0.8750000000000004
 40
0.8750000000000004
 40
0.8750000000000004
 40
0.8958333333333338
 40
0.8958333333333338
 40
0.8958333333333338
 40
0.8958333333333338
 40
0.9166666666666672
 40
0.9166666666666672
 40
0.9166666666666672
 40
0.9166666666666672
 40
0.9375000000000006
 40
0.9375000000000006
 40
0.9375000000000006
 40
0.9375000000000006
 40
0.9583333333333339
 40
0.9583333333333339
 40
0.9583333333333339
 40
0.9583333333333339
 40
0.9791666666666673
 40
0.9791666666666673
 40
0.9791666666666673
 40
0.9791666666666673
 40
1.0
 40
1.0
 40
1.0
 40
1.0
 10
-8.5899999999999999
 20
73.969899999999996
 30
0.0
 10
-8.1750000000000007
 20
74.147400000000005
 30
0.0
 10
-7.6904000000000003
 20
74.227900000000005
 30
0.0
 10
-7.1281999999999996
 20
74.201300000000003
 30
0.0
 10
-7.1281999999999996
 20
74.201300000000003
 30
0.0
 10
-6.3734000000000002
 20
73.942800000000005
 30
0.0
 10
-5.6196999999999999
 20
73.685500000000005
 30
0.0
 10
-4.8653000000000004
 20
73.428100000000001
 30
0.0
 10
-4.8653000000000004
 20
73.428100000000001
 30
0.0
 10
-4.6684000000000001
 20
73.5124
 30
0.0
 10
-4.4703999999999997
 20
73.596599999999995
 30
0.0
 10
-4.2729999999999997
 20
73.681100000000001
 30
0.0
 10
-4.2729999999999997
 20
73.681100000000001
 30
0.0
 10
-5.2716000000000003
 20
77.025899999999993
 30
0.0
 10
-4.9227999999999996
 20
79.423400000000001
 30
0.0
 10
0.2395
 20
78.433499999999995
 30
0.0
 10
0.2395
 20
78.433499999999995
 30
0.0
 10
1.8548
 20
79.015000000000001
 30
0.0
 10
3.4887999999999999
 20
79.181100000000001
 30
0.0
 10
5.1592000000000002
 20
78.4328
 30
0.0
 10
5.1592000000000002
 20
78.4328
 30
0.0
 10
7.2070999999999996
 20
76.499399999999994
 30
0.0
 10
6.4459
 20
75.234999999999999
 30
0.0
 10
5.2830000000000004
 20
74.0655
 30
0.0
 10
5.2830000000000004
 20
74.0655
 30
0.0
 10
5.3563000000000001
 20
73.927599999999998
 30
0.0
 10
5.4287999999999998
 20
73.789699999999996
 30
0.0
 10
5.5014000000000003
 20
73.651300000000006
 30
0.0
 10
5.5014000000000003
 20
73.651300000000006
 30
0.0
 10
7.2843
 20
74.605000000000004
 30
0.0
 10
8.5212000000000003
 20
74.554199999999994
 30
0.0
 10
9.2124000000000006
 20
73.496600000000001
 30
0.0
 10
9.2124000000000006
 20
73.496600000000001
 30
0.0
 10
9.7347999999999999
 20
71.280699999999996
 30
0.0
 10
10.5213
 20
69.176900000000003
 30
0.0
 10
11.5701
 20
67.185599999999994
 30
0.0
 10
11.5701
 20
67.185599999999994
 30
0.0
 10
10.917899999999999
 20
63.984099999999998
 30
0.0
 10
8.9318000000000008
 20
63.1113
 30
0.0
 10
5.6100000000000003
 20
64.567700000000002
 30
0.0
 10
5.6100000000000003
 20
64.567700000000002
 30
0.0
 10
5.6100000000000003
 20
64.567700000000002
 30
0.0
 10
5.5804999999999998
 20
64.526600000000002
 30
0.0
 10
5.5804999999999998
 20
64.526600000000002
 30
0.0
 10
5.5804999999999998
 20
64.526600000000002
 30
0.0
 10
7.8723999999999998
 20
62.704500000000003
 30
0.0
 10
10.4224
 20
61.316600000000001
 30
0.0
 10
13.1256
 20
60.181899999999999
 30
0.0
 10
13.1256
 20
60.181899999999999
 30
0.0
 10
13.1256
 20
60.181899999999999
 30
0.0
 10
20.303899999999999
 20
56.616999999999997
 30
0.0
 10
20.303899999999999
 20
56.616999999999997
 30
0.0
 10
20.303899999999999
 20
56.616999999999997
 30
0.0
 10
18.7182
 20
58.191200000000002
 30
0.0
 10
17.175000000000001
 20
59.796900000000001
 30
0.0
 10
15.718
 20
61.468800000000002
 30
0.0
 10
15.718
 20
61.468800000000002
 30
0.0
 10
13.293799999999999
 20
64.587699999999998
 30
0.0
 10
11.245100000000001
 20
68.099999999999994
 30
0.0
 10
11.004099999999999
 20
73.504800000000003
 30
0.0
 10
11.004099999999999
 20
73.504800000000003
 30
0.0
 10
11.4139
 20
77.907600000000002
 30
0.0
 10
12.716200000000001
 20
81.287300000000002
 30
0.0
 10
17.207000000000001
 20
81.013099999999994
 30
0.0
 10
17.207000000000001
 20
81.013099999999994
 30
0.0
 10
19.963699999999999
 20
79.301699999999997
 30
0.0
 10
22.122800000000002
 20
75.384
 30
0.0
 10
20.895299999999999
 20
72.458299999999994
 30
0.0
 10
20.895299999999999
 20
72.458299999999994
 30
0.0
 10
20.866399999999999
 20
71.2834
 30
0.0
 10
20.441800000000001
 20
71.189400000000006
 30
0.0
 10
19.621600000000001
 20
72.176000000000002
 30
0.0
 10
19.621600000000001
 20
72.176000000000002
 30
0.0
 10
13.740399999999999
 20
74.452399999999997
 30
0.0
 10
13.8446
 20
69.508399999999995
 30
0.0
 10
16.2073
 20
64.072000000000003
 30
0.0
 10
16.2073
 20
64.072000000000003
 30
0.0
 10
19.474799999999998
 20
59.2774
 30
0.0
 10
23.436499999999999
 20
55.164999999999999
 30
0.0
 10
27.6508
 20
51.299999999999997
 30
0.0
 10
27.6508
 20
51.299999999999997
 30
0.0
 10
27.785
 20
51.061999999999998
 30
0.0
 10
27.885899999999999
 20
50.856499999999997
 30
0.0
 10
27.9544
 20
50.684899999999999
 30
0.0
 10
27.9544
 20
50.684899999999999
 30
0.0
 10
28.6784
 20
49.8538
 30
0.0
 10
29.3292
 20
48.965699999999998
 30
0.0
 10
29.884599999999999
 20
48.004600000000003
 30
0.0
 10
29.884599999999999
 20
48.004600000000003
 30
0.0
 10
30.8232
 20
46.0092
 30
0.0
 10
31.139500000000002
 20
43.846499999999999
 30
0.0
 10
31.029499999999999
 20
41.569099999999999
 30
0.0
 10
31.029499999999999
 20
41.569099999999999
 30
0.0
 10
30.983899999999998
 20
41.066899999999997
 30
0.0
 10
30.875
 20
40.5822
 30
0.0
 10
30.708100000000002
 20
40.113399999999999
 30
0.0
 10
30.708100000000002
 20
40.113399999999999
 30
0.0
 10
36.539400000000001
 20
42.101300000000002
 30
0.0
 10
41.565100000000001
 20
45.830599999999997
 30
0.0
 10
45.165700000000001
 20
50.680999999999997
 30
0.0
 10
45.165700000000001
 20
50.680999999999997
 30
0.0
 10
45.165700000000001
 20
50.680999999999997
 30
0.0
 10
44.228400000000001
 20
51.849899999999998
 30
0.0
 10
44.228400000000001
 20
51.849899999999998
 30
0.0
 10
44.228400000000001
 20
51.849899999999998
 30
0.0
 10
43.4846
 20
52.556100000000001
 30
0.0
 10
42.740699999999997
 20
53.2622
 30
0.0
 10
41.9968
 20
53.968299999999999
 30
0.0
 10
41.9968
 20
53.968299999999999
 30
0.0
 10
40.636200000000002
 20
54.495600000000003
 30
0.0
 10
39.2911
 20
55.064900000000002
 30
0.0
 10
38.055700000000002
 20
55.929900000000004
 30
0.0
 10
38.055700000000002
 20
55.929900000000004
 30
0.0
 10
36.336399999999998
 20
57.428100000000001
 30
0.0
 10
34.445900000000002
 20
58.463000000000001
 30
0.0
 10
32.477400000000003
 20
59.287500000000001
 30
0.0
 10
32.477400000000003
 20
59.287500000000001
 30
0.0
 10
31.604700000000001
 20
59.322699999999998
 30
0.0
 10
30.747599999999998
 20
59.400500000000001
 30
0.0
 10
30.000499999999999
 20
59.773499999999999
 30
0.0
 10
30.000499999999999
 20
59.773499999999999
 30
0.0
 10
29.6676
 20
60.231900000000003
 30
0.0
 10
29.533999999999999
 20
60.712299999999999
 30
0.0
 10
29.6004
 20
61.214100000000002
 30
0.0
 10
29.6004
 20
61.214100000000002
 30
0.0
 10
29.221499999999999
 20
61.354599999999998
 30
0.0
 10
28.842500000000001
 20
61.494700000000002
 30
0.0
 10
28.463699999999999
 20
61.634999999999998
 30
0.0
 10
28.463699999999999
 20
61.634999999999998
 30
0.0
 10
27.768899999999999
 20
61.892200000000003
 30
0.0
 10
27.5046
 20
62.277200000000001
 30
0.0
 10
27.670500000000001
 20
62.790300000000002
 30
0.0
 10
27.670500000000001
 20
62.790300000000002
 30
0.0
 10
27.760200000000001
 20
63.355400000000003
 30
0.0
 10
27.849699999999999
 20
63.9206
 30
0.0
 10
27.9392
 20
64.485900000000001
 30
0.0
 10
27.9392
 20
64.485900000000001
 30
0.0
 10
24.548500000000001
 20
69.073899999999995
 30
0.0
 10
23.569299999999998
 20
74.235600000000005
 30
0.0
 10
24.587700000000002
 20
79.872100000000003
 30
0.0
 10
24.587700000000002
 20
79.872100000000003
 30
0.0
 10
23.760999999999999
 20
82.164500000000004
 30
0.0
 10
23.1175
 20
84.628699999999995
 30
0.0
 10
22.876899999999999
 20
87.470600000000005
 30
0.0
 10
22.876899999999999
 20
87.470600000000005
 30
0.0
 10
21.832000000000001
 20
89.173699999999997
 30
0.0
 10
20.041799999999999
 20
90.674099999999996
 30
0.0
 10
17.506399999999999
 20
91.971699999999998
 30
0.0
 10
17.506399999999999
 20
91.971699999999998
 30
0.0
 10
15.477
 20
92.8904
 30
0.0
 10
13.4476
 20
93.809299999999993
 30
0.0
 10
11.418100000000001
 20
94.728099999999998
 30
0.0
 10
11.418100000000001
 20
94.728099999999998
 30
0.0
 10
11.402699999999999
 20
95.255499999999998
 30
0.0
 10
11.670199999999999
 20
95.1678
 30
0.0
 10
11.8813
 20
95.202799999999996
 30
0.0
 10
11.8813
 20
95.202799999999996
 30
0.0
 10
14.9193
 20
94.293700000000001
 30
0.0
 10
17.957699999999999
 20
93.384299999999996
 30
0.0
 10
20.9956
 20
92.474999999999994
 30
0.0
 10
20.9956
 20
92.474999999999994
 30
0.0
 10
22.701499999999999
 20
92.298500000000004
 30
0.0
 10
24.163900000000002
 20
92.498999999999995
 30
0.0
 10
25.383199999999999
 20
93.076800000000006
 30
0.0
 10
25.383199999999999
 20
93.076800000000006
 30
0.0
 10
26.9923
 20
93.414699999999996
 30
0.0
 10
28.4985
 20
93.216099999999997
 30
0.0
 10
29.901700000000002
 20
92.481200000000001
 30
0.0
 10
29.901700000000002
 20
92.481200000000001
 30
0.0
 10
33.133499999999998
 20
90.977400000000003
 30
0.0
 10
33.855899999999998
 20
89.057100000000005
 30
0.0
 10
34.219900000000003
 20
87.076899999999995
 30
0.0
 10
34.219900000000003
 20
87.076899999999995
 30
0.0
 10
34.086100000000002
 20
85.810299999999998
 30
0.0
 10
34.413699999999999
 20
84.755399999999995
 30
0.0
 10
35.202800000000003
 20
83.912899999999993
 30
0.0
 10
35.202800000000003
 20
83.912899999999993
 30
0.0
 10
37.066899999999997
 20
88.4512
 30
0.0
 10
40.038200000000003
 20
88.711200000000005
 30
0.0
 10
43.1678
 20
88.360100000000003
 30
0.0
 10
43.1678
 20
88.360100000000003
 30
0.0
 10
43.1678
 20
88.360100000000003
 30
0.0
 10
43.729199999999999
 20
88.2821
 30
0.0
 10
43.729199999999999
 20
88.2821
 30
0.0
 10
43.729199999999999
 20
88.2821
 30
0.0
 10
38.215000000000003
 20
94.639799999999994
 30
0.0
 10
30.0777
 20
98.660600000000002
 30
0.0
 10
21.003
 20
98.660600000000002
 30
0.0
 10
21.003
 20
98.660600000000002
 30
0.0
 10
6.2337999999999996
 20
98.660600000000002
 30
0.0
 10
-6.0515999999999996
 20
88.008799999999994
 30
0.0
 10
-8.5899999999999999
 20
73.969899999999996
 30
0.0
  0
SPLINE
  5
30
100
AcDbEntity
  8
RÚteg 1
 62
     7
100
AcDbSpline
210
0.0
220
0.0
230
1.0
 70
     1
 71
     3
 72
    96
 73
    92
 74
     0
 42
0.0000000001
 43
0.0000000001
 40
0.0
 40
0.0
 40
0.0
 40
0.0
 40
0.0434782608695652
 40
0.0434782608695652
 40
0.0434782608695652
 40
0.0434782608695652
 40
0.0869565217391304
 40
0.0869565217391304
 40
0.0869565217391304
 40
0.0869565217391304
 40
0.1304347826086957
 40
0.1304347826086957
 40
0.1304347826086957
 40
0.1304347826086957
 40
0.1739130434782609
 40
0.1739130434782609
 40
0.1739130434782609
 40
0.1739130434782609
 40
0.2173913043478261
 40
0.2173913043478261
 40
0.2173913043478261
 40
0.2173913043478261
 40
0.2608695652173913
 40
0.2608695652173913
 40
0.2608695652173913
 40
0.2608695652173913
 40
0.3043478260869565
 40
0.3043478260869565
 40
0.3043478260869565
 40
0.3043478260869565
 40
0.3478260869565217
 40
0.3478260869565217
 40
0.3478260869565217
 40
0.3478260869565217
 40
0.3913043478260869
 40
0.3913043478260869
 40
0.3913043478260869
 40
0.3913043478260869
 40
0.4347826086956521
 40
0.4347826086956521
 40
0.4347826086956521
 40
0.4347826086956521
 40
0.4782608695652173
 40
0.4782608695652173
 40
0.4782608695652173
 40
0.4782608695652173
 40
0.5217391304347825
 40
0.5217391304347825
 40
0.5217391304347825
 40
0.5217391304347825
 40
0.5652173913043477
 40
0.5652173913043477
 40
0.5652173913043477
 40
0.5652173913043477
 40
0.6086956521739129
 40
0.6086956521739129
 40
0.6086956521739129
 40
0.6086956521739129
 40
0.6521739130434781
 40
0.6521739130434781
 40
0.6521739130434781
 40
0.6521739130434781
 40
0.6956521739130432
 40
0.6956521739130432
 40
0.6956521739130432
 40
0.6956521739130432
 40
0.7391304347826084
 40
0.7391304347826084
 40
0.7391304347826084
 40
0.7391304347826084
 40
0.7826086956521736
 40
0.7826086956521736
 40
0.7826086956521736
 40
0.7826086956521736
 40
0.8260869565217388
 40
0.8260869565217388
 40
0.8260869565217388
 40
0.8260869565217388
 40
0.869565217391304
 40
0.869565217391304
 40
0.869565217391304
 40
0.869565217391304
 40
0.9130434782608692
 40
0.9130434782608692
 40
0.9130434782608692
 40
0.9130434782608692
 40
0.9565217391304344
 40
0.9565217391304344
 40
0.9565217391304344
 40
0.9565217391304344
 40
1.0
 40
1.0
 40
1.0
 40
1.0
 10
25.4739
 20
34.9255
 30
0.0
 10
23.8217
 20
34.301400000000001
 30
0.0
 10
22.175799999999999
 20
34.389200000000002
 30
0.0
 10
20.5306
 20
34.639299999999999
 30
0.0
 10
20.5306
 20
34.639299999999999
 30
0.0
 10
2.0
 20
34.892299999999999
 30
0.0
 10
-12.949999999999999
 20
49.995699999999999
 30
0.0
 10
-12.949999999999999
 20
68.586200000000005
 30
0.0
 10
-12.949999999999999
 20
68.586200000000005
 30
0.0
 10
-12.949999999999999
 20
86.078000000000003
 30
0.0
 10
0.2852
 20
100.4829
 30
0.0
 10
17.2849
 20
102.3356
 30
0.0
 10
17.2849
 20
102.3356
 30
0.0
 10
16.578499999999998
 20
103.1785
 30
0.0
 10
16.152799999999999
 20
104.2641
 30
0.0
 10
16.152799999999999
 20
105.4496
 30
0.0
 10
16.152799999999999
 20
105.4496
 30
0.0
 10
16.152799999999999
 20
108.128
 30
0.0
 10
18.3248
 20
110.3
 30
0.0
 10
21.003
 20
110.3
 30
0.0
 10
21.003
 20
110.3
 30
0.0
 10
23.6813
 20
110.3
 30
0.0
 10
25.853400000000001
 20
108.128
 30
0.0
 10
25.853400000000001
 20
105.4496
 30
0.0
 10
25.853400000000001
 20
105.4496
 30
0.0
 10
25.853400000000001
 20
104.2641
 30
0.0
 10
25.427600000000002
 20
103.1785
 30
0.0
 10
24.721299999999999
 20
102.3356
 30
0.0
 10
24.721299999999999
 20
102.3356
 30
0.0
 10
37.903799999999997
 20
100.8989
 30
0.0
 10
48.821399999999997
 20
91.913399999999996
 30
0.0
 10
53.0595
 20
79.7941
 30
0.0
 10
53.0595
 20
79.7941
 30
0.0
 10
57.486699999999999
 20
78.558599999999998
 30
0.0
 10
61.668700000000001
 20
76.659999999999997
 30
0.0
 10
65.813900000000004
 20
74.6631
 30
0.0
 10
65.813900000000004
 20
74.6631
 30
0.0
 10
65.591200000000001
 20
73.399100000000004
 30
0.0
 10
64.691900000000004
 20
72.618899999999996
 30
0.0
 10
62.804200000000002
 20
72.546099999999996
 30
0.0
 10
62.804200000000002
 20
72.546099999999996
 30
0.0
 10
62.062100000000001
 20
71.576099999999997
 30
0.0
 10
61.201500000000003
 20
71.320300000000003
 30
0.0
 10
60.222499999999997
 20
71.778700000000001
 30
0.0
 10
60.222499999999997
 20
71.778700000000001
 30
0.0
 10
60.398299999999999
 20
71.018299999999996
 30
0.0
 10
59.796500000000002
 20
70.882400000000004
 30
0.0
 10
59.083599999999997
 20
70.835800000000006
 30
0.0
 10
59.083599999999997
 20
70.835800000000006
 30
0.0
 10
58.505099999999999
 20
70.954400000000007
 30
0.0
 10
57.926499999999997
 20
71.072599999999994
 30
0.0
 10
57.347999999999999
 20
71.191000000000003
 30
0.0
 10
57.347999999999999
 20
71.191000000000003
 30
0.0
 10
57.612000000000002
 20
70.662499999999994
 30
0.0
 10
57.202500000000001
 20
70.383300000000006
 30
0.0
 10
56.927199999999999
 20
70.054299999999998
 30
0.0
 10
56.927199999999999
 20
70.054299999999998
 30
0.0
 10
56.543599999999998
 20
70.052800000000005
 30
0.0
 10
56.160299999999999
 20
70.051100000000005
 30
0.0
 10
55.776600000000002
 20
70.049499999999995
 30
0.0
 10
55.776600000000002
 20
70.049499999999995
 30
0.0
 10
56.099499999999999
 20
69.499300000000005
 30
0.0
 10
55.917200000000001
 20
69.135900000000007
 30
0.0
 10
55.229599999999998
 20
68.959500000000006
 30
0.0
 10
55.229599999999998
 20
68.959500000000006
 30
0.0
 10
55.229599999999998
 20
68.959500000000006
 30
0.0
 10
54.950299999999999
 20
69.063000000000002
 30
0.0
 10
54.950299999999999
 20
69.063000000000002
 30
0.0
 10
54.950299999999999
 20
69.063000000000002
 30
0.0
 10
54.9527
 20
68.904200000000003
 30
0.0
 10
54.956200000000003
 20
68.745500000000007
 30
0.0
 10
54.956200000000003
 20
68.586200000000005
 30
0.0
 10
54.956200000000003
 20
68.586200000000005
 30
0.0
 10
54.956200000000003
 20
61.7423
 30
0.0
 10
52.928199999999997
 20
55.372100000000003
 30
0.0
 10
49.4435
 20
50.039999999999999
 30
0.0
 10
49.4435
 20
50.039999999999999
 30
0.0
 10
49.4435
 20
50.039999999999999
 30
0.0
 10
53.210599999999999
 20
43.139299999999999
 30
0.0
 10
53.210599999999999
 20
43.139299999999999
 30
0.0
 10
53.210599999999999
 20
43.139299999999999
 30
0.0
 10
52.181600000000003
 20
43.592300000000002
 30
0.0
 10
51.152299999999997
 20
44.044899999999998
 30
0.0
 10
50.123199999999997
 20
44.497700000000002
 30
0.0
 10
50.123199999999997
 20
44.497700000000002
 30
0.0
 10
50.123199999999997
 20
44.497700000000002
 30
0.0
 10
47.664200000000001
 20
47.564599999999999
 30
0.0
 10
47.664200000000001
 20
47.564599999999999
 30
0.0
 10
47.664200000000001
 20
47.564599999999999
 30
0.0
 10
42.317399999999999
 20
40.793100000000003
 30
0.0
 10
34.447299999999998
 20
36.1066
 30
0.0
 10
25.4739
 20
34.9255
 30
0.0
  0
SPLINE
  5
31
100
AcDbEntity
  8
RÚteg 1
 62
     7
100
AcDbSpline
210
0.0
220
0.0
230
1.0
 70
     1
 71
     3
 72
    20
 73
    16
 74
     0
 42
0.0000000001
 43
0.0000000001
 40
0.0
 40
0.0
 40
0.0
 40
0.0
 40
0.25
 40
0.25
 40
0.25
 40
0.25
 40
0.5
 40
0.5
 40
0.5
 40
0.5
 40
0.75
 40
0.75
 40
0.75
 40
0.75
 40
1.0
 40
1.0
 40
1.0
 40
1.0
 10
-1.6794
 20
68.460300000000004
 30
0.0
 10
-2.1352000000000002
 20
69.827699999999993
 30
0.0
 10
-1.3635999999999999
 20
71.2453
 30
0.0
 10
0.043
 20
71.624700000000004
 30
0.0
 10
0.043
 20
71.624700000000004
 30
0.0
 10
1.4500999999999999
 20
72.005099999999999
 30
0.0
 10
2.9607000000000001
 20
71.203599999999994
 30
0.0
 10
3.4159999999999999
 20
69.835400000000007
 30
0.0
 10
3.4159999999999999
 20
69.835400000000007
 30
0.0
 10
3.8714
 20
68.467799999999997
 30
0.0
 10
3.1002999999999998
 20
67.050399999999996
 30
0.0
 10
1.6938
 20
66.670699999999997
 30
0.0
 10
1.6938
 20
66.670699999999997
 30
0.0
 10
0.2867
 20
66.2911
 30
0.0
 10
-1.2236
 20
67.092399999999998
 30
0.0
 10
-1.6794
 20
68.460300000000004
 30
0.0
  0
SPLINE
  5
32
100
AcDbEntity
  8
RÚteg 1
 62
     7
100
AcDbSpline
210
0.0
220
0.0
230
1.0
 70
     1
 71
     3
 72
    76
 73
    72
 74
     0
 42
0.0000000001
 43
0.0000000001
 40
0.0
 40
0.0
 40
0.0
 40
0.0
 40
0.0555555555555556
 40
0.0555555555555556
 40
0.0555555555555556
 40
0.0555555555555556
 40
0.1111111111111111
 40
0.1111111111111111
 40
0.1111111111111111
 40
0.1111111111111111
 40
0.1666666666666667
 40
0.1666666666666667
 40
0.1666666666666667
 40
0.1666666666666667
 40
0.2222222222222222
 40
0.2222222222222222
 40
0.2222222222222222
 40
0.2222222222222222
 40
0.2777777777777778
 40
0.2777777777777778
 40
0.2777777777777778
 40
0.2777777777777778
 40
0.3333333333333334
 40
0.3333333333333334
 40
0.3333333333333334
 40
0.3333333333333334
 40
0.388888888888889
 40
0.388888888888889
 40
0.388888888888889
 40
0.388888888888889
 40
0.4444444444444445
 40
0.4444444444444445
 40
0.4444444444444445
 40
0.4444444444444445
 40
0.5000000000000001
 40
0.5000000000000001
 40
0.5000000000000001
 40
0.5000000000000001
 40
0.5555555555555557
 40
0.5555555555555557
 40
0.5555555555555557
 40
0.5555555555555557
 40
0.6111111111111113
 40
0.6111111111111113
 40
0.6111111111111113
 40
0.6111111111111113
 40
0.6666666666666669
 40
0.6666666666666669
 40
0.6666666666666669
 40
0.6666666666666669
 40
0.7222222222222224
 40
0.7222222222222224
 40
0.7222222222222224
 40
0.7222222222222224
 40
0.777777777777778
 40
0.777777777777778
 40
0.777777777777778
 40
0.777777777777778
 40
0.8333333333333336
 40
0.8333333333333336
 40
0.8333333333333336
 40
0.8333333333333336
 40
0.8888888888888892
 40
0.8888888888888892
 40
0.8888888888888892
 40
0.8888888888888892
 40
0.9444444444444448
 40
0.9444444444444448
 40
0.9444444444444448
 40
0.9444444444444448
 40
1.0
 40
1.0
 40
1.0
 40
1.0
 10
47.375900000000001
 20
54.125399999999999
 30
0.0
 10
45.710500000000003
 20
58.218899999999998
 30
0.0
 10
44.457500000000003
 20
62.244799999999998
 30
0.0
 10
42.502400000000002
 20
66.777699999999996
 30
0.0
 10
42.502400000000002
 20
66.777699999999996
 30
0.0
 10
42.796999999999997
 20
66.668899999999994
 30
0.0
 10
43.091700000000003
 20
66.559700000000007
 30
0.0
 10
43.386499999999998
 20
66.450500000000005
 30
0.0
 10
43.386499999999998
 20
66.450500000000005
 30
0.0
 10
43.448799999999999
 20
66.618899999999996
 30
0.0
 10
43.511200000000002
 20
66.787199999999999
 30
0.0
 10
43.573599999999999
 20
66.955699999999993
 30
0.0
 10
43.573599999999999
 20
66.955699999999993
 30
0.0
 10
43.776299999999999
 20
66.856800000000007
 30
0.0
 10
43.9788
 20
66.7577
 30
0.0
 10
44.181600000000003
 20
66.658900000000003
 30
0.0
 10
44.181600000000003
 20
66.658900000000003
 30
0.0
 10
44.259599999999999
 20
66.869299999999996
 30
0.0
 10
44.337299999999999
 20
67.079800000000006
 30
0.0
 10
44.415500000000002
 20
67.290300000000002
 30
0.0
 10
44.415500000000002
 20
67.290300000000002
 30
0.0
 10
44.668100000000003
 20
67.196899999999999
 30
0.0
 10
44.9206
 20
67.103300000000004
 30
0.0
 10
45.173099999999998
 20
67.009900000000002
 30
0.0
 10
45.173099999999998
 20
67.009900000000002
 30
0.0
 10
45.324399999999997
 20
67.288799999999995
 30
0.0
 10
45.475700000000003
 20
67.568100000000001
 30
0.0
 10
45.626800000000003
 20
67.847099999999998
 30
0.0
 10
45.626800000000003
 20
67.847099999999998
 30
0.0
 10
45.976900000000001
 20
67.693700000000007
 30
0.0
 10
46.326799999999999
 20
67.540099999999995
 30
0.0
 10
46.676900000000003
 20
67.386600000000001
 30
0.0
 10
46.676900000000003
 20
67.386600000000001
 30
0.0
 10
46.670699999999997
 20
67.628200000000007
 30
0.0
 10
46.664299999999997
 20
67.869900000000001
 30
0.0
 10
46.658099999999997
 20
68.111599999999996
 30
0.0
 10
46.658099999999997
 20
68.111599999999996
 30
0.0
 10
47.061100000000003
 20
67.842500000000001
 30
0.0
 10
47.464199999999998
 20
67.573800000000006
 30
0.0
 10
47.867400000000004
 20
67.3048
 30
0.0
 10
47.867400000000004
 20
67.3048
 30
0.0
 10
47.878999999999998
 20
67.659599999999998
 30
0.0
 10
47.890599999999999
 20
68.014200000000002
 30
0.0
 10
47.902200000000001
 20
68.368899999999996
 30
0.0
 10
47.902200000000001
 20
68.368899999999996
 30
0.0
 10
48.386400000000002
 20
68.189899999999994
 30
0.0
 10
48.870600000000003
 20
68.010499999999993
 30
0.0
 10
49.354799999999997
 20
67.831500000000005
 30
0.0
 10
49.354799999999997
 20
67.831500000000005
 30
0.0
 10
49.369399999999999
 20
68.065299999999993
 30
0.0
 10
49.384399999999999
 20
68.299199999999999
 30
0.0
 10
49.399099999999997
 20
68.533100000000005
 30
0.0
 10
49.399099999999997
 20
68.533100000000005
 30
0.0
 10
49.6282
 20
68.376300000000001
 30
0.0
 10
49.857399999999998
 20
68.219700000000003
 30
0.0
 10
50.086799999999997
 20
68.063000000000002
 30
0.0
 10
50.086799999999997
 20
68.063000000000002
 30
0.0
 10
50.364699999999999
 20
68.390900000000002
 30
0.0
 10
50.821800000000003
 20
68.652600000000007
 30
0.0
 10
50.381100000000004
 20
69.246499999999997
 30
0.0
 10
50.381100000000004
 20
69.246499999999997
 30
0.0
 10
50.381100000000004
 20
69.246499999999997
 30
0.0
 10
51.072400000000002
 20
68.990700000000004
 30
0.0
 10
51.072400000000002
 20
68.990700000000004
 30
0.0
 10
51.072400000000002
 20
68.990700000000004
 30
0.0
 10
51.074100000000001
 20
68.855900000000005
 30
0.0
 10
51.077599999999997
 20
68.721400000000003
 30
0.0
 10
51.077599999999997
 20
68.586200000000005
 30
0.0
 10
51.077599999999997
 20
68.586200000000005
 30
0.0
 10
51.077599999999997
 20
63.3446
 30
0.0
 10
49.734900000000003
 20
58.416600000000003
 30
0.0
 10
47.375900000000001
 20
54.125399999999999
 30
0.0
  0
SPLINE
  5
33
100
AcDbEntity
  8
RÚteg 1
 62
     7
100
AcDbSpline
210
0.0
220
0.0
230
1.0
 70
     1
 71
     3
 72
    24
 73
    20
 74
     0
 42
0.0000000001
 43
0.0000000001
 40
0.0
 40
0.0
 40
0.0
 40
0.0
 40
0.2
 40
0.2
 40
0.2
 40
0.2
 40
0.4
 40
0.4
 40
0.4
 40
0.4
 40
0.6000000000000001
 40
0.6000000000000001
 40
0.6000000000000001
 40
0.6000000000000001
 40
0.8
 40
0.8
 40
0.8
 40
0.8
 40
1.0
 40
1.0
 40
1.0
 40
1.0
 10
48.563099999999999
 20
80.635599999999997
 30
0.0
 10
46.8583
 20
80.840100000000007
 30
0.0
 10
45.2209
 20
80.898799999999994
 30
0.0
 10
43.6648
 20
80.780199999999994
 30
0.0
 10
43.6648
 20
80.780199999999994
 30
0.0
 10
44.084200000000003
 20
81.198999999999998
 30
0.0
 10
44.426900000000003
 20
81.670299999999997
 30
0.0
 10
44.232799999999997
 20
82.508700000000005
 30
0.0
 10
44.232799999999997
 20
82.508700000000005
 30
0.0
 10
45.260300000000001
 20
82.439499999999995
 30
0.0
 10
45.707799999999999
 20
82.872100000000003
 30
0.0
 10
45.575000000000003
 20
83.806899999999999
 30
0.0
 10
45.575000000000003
 20
83.806899999999999
 30
0.0
 10
45.855800000000002
 20
84.301299999999998
 30
0.0
 10
46.067500000000003
 20
84.8215
 30
0.0
 10
45.878300000000003
 20
85.489900000000006
 30
0.0
 10
45.878300000000003
 20
85.489900000000006
 30
0.0
 10
46.915599999999998
 20
83.966300000000004
 30
0.0
 10
47.815800000000003
 20
82.342200000000005
 30
0.0
 10
48.563099999999999
 20
80.635599999999997
 30
0.0
  0
SPLINE
  5
34
100
AcDbEntity
  8
RÚteg 1
 62
     7
100
AcDbSpline
210
0.0
220
0.0
230
1.0
 70
     1
 71
     3
 72
    20
 73
    16
 74
     0
 42
0.0000000001
 43
0.0000000001
 40
0.0
 40
0.0
 40
0.0
 40
0.0
 40
0.25
 40
0.25
 40
0.25
 40
0.25
 40
0.5
 40
0.5
 40
0.5
 40
0.5
 40
0.75
 40
0.75
 40
0.75
 40
0.75
 40
1.0
 40
1.0
 40
1.0
 40
1.0
 10
27.618400000000001
 20
90.095299999999995
 30
0.0
 10
27.1127
 20
90.282399999999996
 30
0.0
 10
26.587499999999999
 20
90.123199999999997
 30
0.0
 10
26.445499999999999
 20
89.739599999999996
 30
0.0
 10
26.445499999999999
 20
89.739599999999996
 30
0.0
 10
26.303599999999999
 20
89.355999999999995
 30
0.0
 10
26.598400000000002
 20
88.893100000000004
 30
0.0
 10
27.104099999999999
 20
88.706100000000006
 30
0.0
 10
27.104099999999999
 20
88.706100000000006
 30
0.0
 10
27.6097
 20
88.518900000000002
 30
0.0
 10
28.134799999999998
 20
88.678100000000001
 30
0.0
 10
28.276900000000001
 20
89.061700000000002
 30
0.0
 10
28.276900000000001
 20
89.061700000000002
 30
0.0
 10
28.418800000000001
 20
89.4452
 30
0.0
 10
28.123899999999999
 20
89.908100000000005
 30
0.0
 10
27.618400000000001
 20
90.095299999999995
 30
0.0
  0
ENDSEC
  0
SECTION
  2
OBJECTS
  0
DICTIONARY
  5
19
100
AcDbDictionary
280
     0
281
     1
  3
ACAD_GROUP
350
1A
  3
ACAD_MLINESTYLE
350
1B
  3
ACAD_LAYOUT
350
1E
  3
ACAD_PLOTSETTINGS
350
22
  3
ACAD_PLOTSTYLENAME
350
1F
  3
ACAD_WIPEOUT_VARS
350
23
  0
DICTIONARY
  5
1A
102
{ACAD_REACTORS
330
19
102
}
100
AcDbDictionary
280
     0
281
     1
  0
DICTIONARY
  5
1B
102
{ACAD_REACTORS
330
19
102
}
100
AcDbDictionary
280
     0
281
     1
  3
Standard
350
1C
  0
MLINESTYLE
  5
1C
102
{ACAD_REACTORS
330
1B
102
}
100
AcDbMlineStyle
  2
Standard
 70
     0
  3

 62
     0
 51
90.0
 52
90.0
 71
     2
 49
0.5
 62
   256
  6
BYLAYER
 49
-0.5
 62
   256
  6
BYLAYER
  0
ACDBDICTIONARYWDFLT
  5
1F
102
{ACAD_REACTORS
330
19
102
}
100
AcDbDictionary
281
     1
  3
Normal
350
1D
100
AcDbDictionaryWithDefault
340
1D
  0
ACDBPLACEHOLDER
  5
1D
102
{ACAD_REACTORS
330
1F
102
}
  0
LAYOUT
  5
20
102
{ACAD_REACTORS
330
1E
102
}
100
AcDbPlotSettings
  1

  2

  4

  6

 40
0.0
 41
0.0
 42
0.0
 43
0.0
 44
0.0
 45
0.0
 46
0.0
 47
0.0
 48
0.0
 49
0.0
140
0.0
141
0.0
142
1.0
143
1.0
 70
  1024
 72
     0
 73
     0
 74
     0
  7

 75
     0
147
1.0
148
0.0
149
0.0
100
AcDbLayout
  1
Model
 70
     0
 71
     0
 10
0.0
 20
0.0
 11
0.0
 21
0.0
 12
0.0
 22
0.0
 32
0.0
 14
0.0
 24
0.0
 34
0.0
 15
0.0
 25
0.0
 35
0.0
146
0.0
 13
0.0
 23
0.0
 33
0.0
 16
0.0
 26
0.0
 36
0.0
 17
0.0
 27
0.0
 37
0.0
 76
     0
330
A
331
0
345
0
346
0
  0
LAYOUT
  5
21
102
{ACAD_REACTORS
330
1E
102
}
100
AcDbPlotSettings
  1

  2

  4

  6

 40
0.0
 41
0.0
 42
0.0
 43
0.0
 44
0.0
 45
0.0
 46
0.0
 47
0.0
 48
0.0
 49
0.0
140
0.0
141
0.0
142
1.0
143
1.0
 70
     0
 72
     0
 73
     0
 74
     0
  7

 75
     0
147
1.0
148
0.0
149
0.0
100
AcDbLayout
  1
Layout1
 70
     0
 71
     0
 10
0.0
 20
0.0
 11
0.0
 21
0.0
 12
0.0
 22
0.0
 32
0.0
 14
0.0
 24
0.0
 34
0.0
 15
0.0
 25
0.0
 35
0.0
146
0.0
 13
0.0
 23
0.0
 33
0.0
 16
0.0
 26
0.0
 36
0.0
 17
0.0
 27
0.0
 37
0.0
 76
     0
330
B
331
0
345
0
346
0
  0
DICTIONARY
  5
1E
102
{ACAD_REACTORS
330
19
102
}
100
AcDbDictionary
280
     0
281
     1
  3
Layout1
350
21
  3
Model
350
20
  0
DICTIONARY
  5
22
102
{ACAD_REACTORS
330
19
102
}
100
AcDbDictionary
280
     0
281
     1
  0
WIPEOUTVARIABLES
  5
23
100
AcDbWipeoutVariables
 70
     1
  0
ENDSEC
  0
EOF
