  0
SECTION
  2
HEADER
  9
$ACADVER
  1
AC1015
  9
$ACADMAINTVER
 70
     6
  9
$DWGCODEPAGE
  3
DOS850
  9
$INSBASE
 10
0.0
 20
0.0
 30
0.0
  9
$EXTMIN
 10
-87.9881
 20
21.1619
 30
1.000000E+20
  9
$EXTMAX
 10
47.0881
 20
95.3381
 30
-1.000000E+20
  9
$LIMMIN
 10
0.0
 20
0.0
  9
$LIMMAX
 10
0.0
 20
0.0
  9
$ORTHOMODE
 70
     0
  9
$REGENMODE
 70
     1
  9
$FILLMODE
 70
     1
  9
$QTEXTMODE
 70
     0
  9
$MIRRTEXT
 70
     1
  9
$LTSCALE
 40
1.0
  9
$ATTMODE
 70
     1
  9
$TEXTSIZE
 40
0.2
  9
$TRACEWID
 40
0.05
  9
$TEXTSTYLE
  7
Standard
  9
$CLAYER
  8
0
  9
$CELTYPE
  6
Continuous
  9
$CECOLOR
 62
   256
  9
$CELTSCALE
 40
1.0
  9
$DISPSILH
 70
     0
  9
$DIMSCALE
 40
1.0
  9
$DIMASZ
 40
0.18
  9
$DIMEXO
 40
0.0625
  9
$DIMDLI
 40
0.38
  9
$DIMRND
 40
0.0
  9
$DIMDLE
 40
0.0
  9
$DIMEXE
 40
0.18
  9
$DIMTP
 40
0.0
  9
$DIMTM
 40
0.0
  9
$DIMTXT
 40
0.18
  9
$DIMCEN
 40
0.09
  9
$DIMTSZ
 40
0.0
  9
$DIMTOL
 70
     0
  9
$DIMLIM
 70
     0
  9
$DIMTIH
 70
     1
  9
$DIMTOH
 70
     1
  9
$DIMSE1
 70
     0
  9
$DIMSE2
 70
     0
  9
$DIMTAD
 70
     0
  9
$DIMZIN
 70
     0
  9
$DIMBLK
  1

  9
$DIMASO
 70
     1
  9
$DIMSHO
 70
     1
  9
$DIMPOST
  1

  9
$DIMAPOST
  1

  9
$DIMALT
 70
     0
  9
$DIMALTD
 70
     2
  9
$DIMALTF
 40
25.4
  9
$DIMLFAC
 40
1.0
  9
$DIMTOFL
 70
     0
  9
$DIMTVP
 40
0.0
  9
$DIMTIX
 70
     0
  9
$DIMSOXD
 70
     0
  9
$DIMSAH
 70
     0
  9
$DIMBLK1
  1

  9
$DIMBLK2
  1

  9
$DIMSTYLE
  2
Standard
  9
$DIMCLRD
 70
     0
  9
$DIMCLRE
 70
     0
  9
$DIMCLRT
 70
     0
  9
$DIMTFAC
 40
1.0
  9
$DIMGAP
 40
0.09
  9
$DIMJUST
 70
     0
  9
$DIMSD1
 70
     0
  9
$DIMSD2
 70
     0
  9
$DIMTOLJ
 70
     1
  9
$DIMTZIN
 70
     0
  9
$DIMALTZ
 70
     0
  9
$DIMALTTZ
 70
     0
  9
$DIMUPT
 70
     0
  9
$DIMDEC
 70
     4
  9
$DIMTDEC
 70
     4
  9
$DIMALTU
 70
     2
  9
$DIMALTTD
 70
     2
  9
$DIMTXSTY
  7
Standard
  9
$DIMAUNIT
 70
     0
  9
$DIMADEC
 70
     0
  9
$DIMALTRND
 40
0.0
  9
$DIMAZIN
 70
     0
  9
$DIMDSEP
 70
     0
  9
$DIMATFIT
 70
     3
  9
$DIMFRAC
 70
     0
  9
$DIMLDRBLK
  1

  9
$DIMLUNIT
 70
     2
  9
$DIMLWD
 70
     0
  9
$DIMLWE
 70
     0
  9
$DIMTMOVE
 70
     0
  9
$LUNITS
 70
     2
  9
$LUPREC
 70
     4
  9
$SKETCHINC
 40
0.1
  9
$FILLETRAD
 40
0.0
  9
$AUNITS
 70
     0
  9
$AUPREC
 70
     0
  9
$MENU
  1
acad
  9
$ELEVATION
 40
0.0
  9
$PELEVATION
 40
0.0
  9
$THICKNESS
 40
0.0
  9
$LIMCHECK
 70
     0
  9
$CHAMFERA
 40
0.0
  9
$CHAMFERB
 40
0.0
  9
$CHAMFERC
 40
0.0
  9
$CHAMFERD
 40
0.0
  9
$SKPOLY
 70
     0
  9
$TDCREATE
 40
0.000000000
  9
$TDUCREATE
 40
0.000000000
  9
$TDUPDATE
 40
0.000000000
  9
$TDUUPDATE
 40
0.000000000
  9
$TDINDWG
 40
0.0000000000
  9
$TDUSRTIMER
 40
0.0000000000
  9
$USRTIMER
 70
     1
  9
$ANGBASE
 50
0.0
  9
$ANGDIR
 70
     0
  9
$PDMODE
 70
     0
  9
$PDSIZE
 40
0.0
  9
$PLINEWID
 40
0.0
  9
$SPLFRAME
 70
     0
  9
$SPLINETYPE
 70
     6
  9
$SPLINESEGS
 70
     8
  9
$HANDSEED
  5
32
  9
$SURFTAB1
 70
     6
  9
$SURFTAB2
 70
     6
  9
$SURFTYPE
 70
     6
  9
$SURFU
 70
     6
  9
$SURFV
 70
     6
  9
$UCSBASE
  2

  9
$UCSNAME
  2

  9
$UCSORG
 10
0.0
 20
0.0
 30
0.0
  9
$UCSXDIR
 10
1.0
 20
0.0
 30
0.0
  9
$UCSYDIR
 10
0.0
 20
1.0
 30
0.0
  9
$UCSORTHOREF
  2

  9
$UCSORTHOVIEW
 70
     0
  9
$UCSORGTOP
 10
0.0
 20
0.0
 30
0.0
  9
$UCSORGBOTTOM
 10
0.0
 20
0.0
 30
0.0
  9
$UCSORGLEFT
 10
0.0
 20
0.0
 30
0.0
  9
$UCSORGRIGHT
 10
0.0
 20
0.0
 30
0.0
  9
$UCSORGFRONT
 10
0.0
 20
0.0
 30
0.0
  9
$UCSORGBACK
 10
0.0
 20
0.0
 30
0.0
  9
$PUCSBASE
  2

  9
$PUCSNAME
  2

  9
$PUCSORG
 10
0.0
 20
0.0
 30
0.0
  9
$PUCSXDIR
 10
1.0
 20
0.0
 30
0.0
  9
$PUCSYDIR
 10
0.0
 20
1.0
 30
0.0
  9
$PUCSORTHOREF
  2

  9
$PUCSORTHOVIEW
 70
     0
  9
$PUCSORGTOP
 10
0.0
 20
0.0
 30
0.0
  9
$PUCSORGBOTTOM
 10
0.0
 20
0.0
 30
0.0
  9
$PUCSORGLEFT
 10
0.0
 20
0.0
 30
0.0
  9
$PUCSORGRIGHT
 10
0.0
 20
0.0
 30
0.0
  9
$PUCSORGFRONT
 10
0.0
 20
0.0
 30
0.0
  9
$PUCSORGBACK
 10
0.0
 20
0.0
 30
0.0
  9
$USERI1
 70
     0
  9
$USERI2
 70
     0
  9
$USERI3
 70
     0
  9
$USERI4
 70
     0
  9
$USERI5
 70
     0
  9
$USERR1
 40
0.0
  9
$USERR2
 40
0.0
  9
$USERR3
 40
0.0
  9
$USERR4
 40
0.0
  9
$USERR5
 40
0.0
  9
$WORLDVIEW
 70
     1
  9
$SHADEDGE
 70
     3
  9
$SHADEDIF
 70
    70
  9
$TILEMODE
 70
     1
  9
$MAXACTVP
 70
    16
  9
$PINSBASE
 10
0.0
 20
0.0
 30
0.0
  9
$PLIMCHECK
 70
     0
  9
$PEXTMIN
 10
1.000000E+20
 20
1.000000E+20
 30
1.000000E+20
  9
$PEXTMAX
 10
-1.000000E+20
 20
-1.000000E+20
 30
-1.000000E+20
  9
$PLIMMIN
 10
0.0
 20
0.0
  9
$PLIMMAX
 10
12.0
 20
9.0
  9
$UNITMODE
 70
     0
  9
$VISRETAIN
 70
     0
  9
$PLINEGEN
 70
     1
  9
$PSLTSCALE
 70
     0
  9
$TREEDEPTH
 70
  3020
  9
$CMLSTYLE
  2
Standard
  9
$CMLJUST
 70
     0
  9
$CMLSCALE
 40
1.0
  9
$PROXYGRAPHICS
 70
     0
  9
$MEASUREMENT
 70
     0
  9
$CELWEIGHT
370
     0
  9
$ENDCAPS
280
     0
  9
$JOINSTYLE
280
     0
  9
$LWDISPLAY
290
     0
  9
$INSUNITS
 70
     4
  9
$HYPERLINKBASE
  1

  9
$XEDIT
290
     1
  9
$CEPSNTYPE
380
     0
  9
$PSTYLEMODE
290
     1
  9
$FINGERPRINTGUID
  2

  9
$VERSIONGUID
  2

  9
$EXTNAMES
290
     1
  9
$PSVPSCALE
 40
0.0
  0
ENDSEC
  0
SECTION
  2
CLASSES
  0
CLASS
  1
LWPOLYLINE
  2
AcDbPolyline
  3
AutoCAD 2000
 90
    32768
280
     0
281
     1
  0
CLASS
  1
IMAGE
  2
AcDbRasterImage
  3
ISM
 90
    32895
280
     0
281
     1
  0
CLASS
  1
OLE2FRAME
  2
AcDbOle2Frame
  3
AutoCAD 2000
 90
    32768
280
     0
281
     1
  0
CLASS
  1
HATCH
  2
AcDbHatch
  3
AutoCAD 2000
 90
    32768
280
     0
281
     1
  0
CLASS
  1
DICTIONARYVAR
  2
AcDbDictionaryVar
  3
AutoCAD 2000
 90
    32768
280
     0
281
     0
  0
CLASS
  1
RASTERVARIABLES
  2
AcDbRasterVariables
  3
ISM
 90
    32768
280
     0
281
     0
  0
CLASS
  1
IMAGEDEF
  2
AcDbRasterImageDef
  3
ISM
 90
    32768
280
     0
281
     0
  0
CLASS
  1
IMAGEDEF_REACTOR
  2
AcDbRasterImageDefReactor
  3
ISM
 90
    32769
280
     0
281
     0
  0
CLASS
  1
IDBUFFER
  2
AcDbIdBuffer
  3
AutoCAD 2000
 90
    32768
280
     0
281
     0
  0
CLASS
  1
SPATIAL_FILTER
  2
AcDbSpatialFilter
  3
AutoCAD 2000
 90
    32768
280
     0
281
     0
  0
CLASS
  1
XRECORD
  2
AcDbXrecord
  3
AutoCAD 2000
 90
    32768
280
     0
281
     0
  0
CLASS
  1
SORTENTSTABLE
  2
AcDbSortentsTable
  3
AutoCAD 2000
 90
    32768
280
     0
281
     0
  0
CLASS
  1
LAYER_INDEX
  2
AcDbLayerIndex
  3
AutoCAD 2000
 90
    32768
280
     0
281
     0
  0
CLASS
  1
SPATIAL_INDEX
  2
AcDbSpatialIndex
  3
AutoCAD 2000
 90
    32768
280
     0
281
     0
  0
CLASS
  1
OBJECT_PTR
  2
CAseDLPNTableRecord
  3
"ASE-LPNTableRecord"
 90
    32769
280
     0
281
     0
  0
CLASS
  1
LAYOUT
  2
AcDbLayout
  3
AutoCAD 2000
 90
        0
280
     0
281
     0
  0
CLASS
  1
PLOTSETTINGS
  2
AcDbPlotSettings
  3
AutoCAD 2000
 90
    32768
280
     0
281
     0
  0
CLASS
  1
ACDBDICTIONARYWDFLT
  2
AcDbDictionaryWithDefault
  3
AutoCAD 2000
 90
        0
280
     0
281
     0
  0
CLASS
  1
ACDBPLACEHOLDER
  2
AcDbPlaceHolder
  3
AutoCAD 2000
 90
        0
280
     0
281
     0
  0
CLASS
  1
VBA_PROJECT
  2
AcDbVbaProject
  3
acadvba
 90
    32768
280
     0
281
     0
  0
CLASS
  1
WIPEOUT
  2
AcDbWipeout
  3
WipeOut|AutoCAD Express Tool|expresstools@autodesk.com
 90
    32895
280
     0
281
     1
  0
CLASS
  1
WIPEOUTVARIABLES
  2
AcDbWipeoutVariables
  3
WipeOut|AutoCAD Express Tool|expresstools@autodesk.com
 90
        0
280
     0
281
     0
  0
CLASS
  1
RTEXT
  2
RText
  3
RText|AutoCAD Express Tool|expresstools@autodesk.com
 90
    32768
280
     0
281
     1
  0
CLASS
  1
ARCALIGNEDTEXT
  2
AcDbArcAlignedText
  3
ATEXT|AutoCAD Express Tool|expresstools@autodesk.com
 90
    32768
280
     0
281
     1
  0
ENDSEC
  0
SECTION
  2
TABLES
  0
TABLE
  2
VPORT
  5
7
100
AcDbSymbolTable
 70
     1
  0
VPORT
  5
15
100
AcDbSymbolTableRecord
100
AcDbViewportTableRecord
  2
*ACTIVE
 70
     0
 10
0.0
 20
0.0
 11
1.0
 21
1.0
 12
6.591288
 22
4.579184
 13
0.0
 23
0.0
 14
1.0
 24
1.0
 15
0.0
 25
0.0
 16
0.0
 26
0.0
 36
1.0
 17
0.0
 27
0.0
 37
0.0
 40
9.158369
 41
0.688564
 42
50.0
 43
0.0
 44
0.0
 50
0.0
 51
0.0
 71
     0
 72
   100
 73
     1
 74
     1
 75
     0
 76
     0
 77
     0
 78
     0
281
     0
 65
     0
110
0.0
120
0.0
130
0.0
111
1.0
121
0.0
131
0.0
112
0.0
122
1.0
132
0.0
345
0
346
0
 79
     0
146
0.0
  0
ENDTAB
  0
TABLE
  2
LTYPE
  5
4
100
AcDbSymbolTable
 70
     3
  0
LTYPE
  5
11
100
AcDbSymbolTableRecord
100
AcDbLinetypeTableRecord
  2
ByBlock
 70
    64
  3

 72
    65
 73
     0
 40
0.0
  0
LTYPE
  5
12
100
AcDbSymbolTableRecord
100
AcDbLinetypeTableRecord
  2
ByLayer
 70
    64
  3

 72
    65
 73
     0
 40
0.0
  0
LTYPE
  5
13
100
AcDbSymbolTableRecord
100
AcDbLinetypeTableRecord
  2
Continuous
 70
    64
  3
Solid line
 72
    65
 73
     0
 40
0.0
  0
ENDTAB
  0
TABLE
  2
LAYER
  5
2
100
AcDbSymbolTable
 70
     2
  0
LAYER
  5
14
100
AcDbSymbolTableRecord
100
AcDbLayerTableRecord
  2
0
 70
     0
 62
     7
  6
Continuous
290
     1
370
    -3
390
1D
  0
LAYER
  5
24
100
AcDbSymbolTableRecord
100
AcDbLayerTableRecord
  2
RÚteg 1
 70
     0
 62
     7
  6
Continuous
290
     1
370
    -3
390
1F
  0
ENDTAB
  0
TABLE
  2
STYLE
  5
3
100
AcDbSymbolTable
 70
     1
  0
STYLE
  5
17
100
AcDbSymbolTableRecord
100
AcDbTextStyleTableRecord
  2
Standard
 70
     0
 40
0.0
 41
1.0
 50
0.0
 71
     0
 42
0.0
  3
txt
  4

  0
ENDTAB
  0
TABLE
  2
VIEW
  5
5
100
AcDbSymbolTable
 70
     0
  0
ENDTAB
  0
TABLE
  2
UCS
  5
6
100
AcDbSymbolTable
 70
     0
  0
ENDTAB
  0
TABLE
  2
APPID
  5
8
100
AcDbSymbolTable
 70
     1
  0
APPID
  5
16
100
AcDbSymbolTableRecord
100
AcDbRegAppTableRecord
  2
ACAD
 70
     0
  0
ENDTAB
  0
TABLE
  2
DIMSTYLE
  5
9
100
AcDbSymbolTable
 70
     1
100
AcDbDimStyleTable
 71
     0
  0
DIMSTYLE
105
18
100
AcDbSymbolTableRecord
100
AcDbDimStyleTableRecord
  2
Standard
 70
     0
  3

  4

 40
1.0
 41
0.18
 42
0.0625
 43
0.38
 44
0.18
 45
0.0
 46
0.0
 47
0.0
 48
0.0
 71
     0
 72
     0
 73
     1
 74
     1
 75
     0
 76
     0
 77
     0
 78
     0
 79
     0
140
0.18
141
0.09
142
0.0
143
25.4
144
1.0
145
0.0
146
1.0
147
0.09
148
0.0
170
     0
171
     2
172
     0
173
     0
174
     0
175
     0
176
     0
177
     0
178
     0
179
     0
271
     4
272
     4
273
     2
274
     2
275
     0
276
     0
277
     2
278
    46
279
     0
280
     0
281
     0
282
     0
283
     1
284
     0
285
     0
286
     0
288
     0
340
17
341
0
342
0
343
0
344
0
371
    -2
372
    -2
  0
ENDTAB
  0
TABLE
  2
BLOCK_RECORD
  5
1
100
AcDbSymbolTable
 70
     0
  0
BLOCK_RECORD
  5
A
100
AcDbSymbolTableRecord
100
AcDbBlockTableRecord
  2
*MODEL_SPACE
340
20
  0
BLOCK_RECORD
  5
B
100
AcDbSymbolTableRecord
100
AcDbBlockTableRecord
  2
*PAPER_SPACE
340
21
  0
ENDTAB
  0
ENDSEC
  0
SECTION
  2
BLOCKS
  0
BLOCK
  5
D
100
AcDbEntity
  8
0
100
AcDbBlockBegin
  2
*MODEL_SPACE
 70
     0
 10
0.0
 20
0.0
 30
0.0
  3
*MODEL_SPACE
  1

  0
ENDBLK
  5
E
100
AcDbEntity
  8
0
100
AcDbBlockEnd
  0
BLOCK
  5
F
100
AcDbEntity
 67
     1
  8
0
100
AcDbBlockBegin
  2
*PAPER_SPACE
 70
     0
 10
0.0
 20
0.0
 30
0.0
  3
*PAPER_SPACE
  1

  0
ENDBLK
  5
10
100
AcDbEntity
 67
     1
  8
0
100
AcDbBlockEnd
  0
ENDSEC
  0
SECTION
  2
ENTITIES
  0
SPLINE
  5
25
100
AcDbEntity
  8
RÚteg 1
 62
     7
100
AcDbSpline
210
0.0
220
0.0
230
1.0
 70
     1
 71
     3
 72
    28
 73
    24
 74
     0
 42
0.0000000001
 43
0.0000000001
 40
0.0
 40
0.0
 40
0.0
 40
0.0
 40
0.1666666666666667
 40
0.1666666666666667
 40
0.1666666666666667
 40
0.1666666666666667
 40
0.3333333333333333
 40
0.3333333333333333
 40
0.3333333333333333
 40
0.3333333333333333
 40
0.5
 40
0.5
 40
0.5
 40
0.5
 40
0.6666666666666666
 40
0.6666666666666666
 40
0.6666666666666666
 40
0.6666666666666666
 40
0.8333333333333333
 40
0.8333333333333333
 40
0.8333333333333333
 40
0.8333333333333333
 40
1.0
 40
1.0
 40
1.0
 40
1.0
 10
-54.700000000000003
 20
87.700000000000003
 30
0.0
 10
-54.674999999999997
 20
87.700000000000003
 30
0.0
 10
-54.650399999999998
 20
87.699100000000001
 30
0.0
 10
-54.625500000000002
 20
87.698999999999998
 30
0.0
 10
-54.625500000000002
 20
87.698999999999998
 30
0.0
 10
-53.085099999999997
 20
87.738600000000005
 30
0.0
 10
-51.848199999999999
 20
89.000200000000007
 30
0.0
 10
-51.848199999999999
 20
90.5501
 30
0.0
 10
-51.848199999999999
 20
90.5501
 30
0.0
 10
-51.848199999999999
 20
92.124899999999997
 30
0.0
 10
-53.1252
 20
93.401899999999998
 30
0.0
 10
-54.700000000000003
 20
93.401899999999998
 30
0.0
 10
-54.700000000000003
 20
93.401899999999998
 30
0.0
 10
-56.274799999999999
 20
93.401899999999998
 30
0.0
 10
-57.5518
 20
92.124899999999997
 30
0.0
 10
-57.5518
 20
90.5501
 30
0.0
 10
-57.5518
 20
90.5501
 30
0.0
 10
-57.5518
 20
89.000200000000007
 30
0.0
 10
-56.314900000000002
 20
87.738600000000005
 30
0.0
 10
-54.774500000000003
 20
87.698999999999998
 30
0.0
 10
-54.774500000000003
 20
87.698999999999998
 30
0.0
 10
-54.749600000000001
 20
87.699100000000001
 30
0.0
 10
-54.725000000000001
 20
87.700000000000003
 30
0.0
 10
-54.700000000000003
 20
87.700000000000003
 30
0.0
  0
SPLINE
  5
26
100
AcDbEntity
  8
RÚteg 1
 62
     7
100
AcDbSpline
210
0.0
220
0.0
230
1.0
 70
     1
 71
     3
 72
    16
 73
    12
 74
     0
 42
0.0000000001
 43
0.0000000001
 40
0.0
 40
0.0
 40
0.0
 40
0.0
 40
0.3333333333333333
 40
0.3333333333333333
 40
0.3333333333333333
 40
0.3333333333333333
 40
0.6666666666666666
 40
0.6666666666666666
 40
0.6666666666666666
 40
0.6666666666666666
 40
1.0
 40
1.0
 40
1.0
 40
1.0
 10
-38.1995
 20
78.846699999999998
 30
0.0
 10
-38.1995
 20
78.846699999999998
 30
0.0
 10
-36.958399999999997
 20
75.002499999999998
 30
0.0
 10
-36.958399999999997
 20
75.002499999999998
 30
0.0
 10
-36.958399999999997
 20
75.002499999999998
 30
0.0
 10
-36.958399999999997
 20
75.002499999999998
 30
0.0
 10
-33.616100000000003
 20
75.009
 30
0.0
 10
-33.616100000000003
 20
75.009
 30
0.0
 10
-33.616100000000003
 20
75.009
 30
0.0
 10
-35.008299999999998
 20
76.436499999999995
 30
0.0
 10
-36.543300000000002
 20
77.724400000000003
 30
0.0
 10
-38.1995
 20
78.846699999999998
 30
0.0
  0
SPLINE
  5
27
100
AcDbEntity
  8
RÚteg 1
 62
     7
100
AcDbSpline
210
0.0
220
0.0
230
1.0
 70
     1
 71
     3
 72
   284
 73
   280
 74
     0
 42
0.0000000001
 43
0.0000000001
 40
0.0
 40
0.0
 40
0.0
 40
0.0
 40
0.0142857142857143
 40
0.0142857142857143
 40
0.0142857142857143
 40
0.0142857142857143
 40
0.0285714285714286
 40
0.0285714285714286
 40
0.0285714285714286
 40
0.0285714285714286
 40
0.0428571428571429
 40
0.0428571428571429
 40
0.0428571428571429
 40
0.0428571428571429
 40
0.0571428571428571
 40
0.0571428571428571
 40
0.0571428571428571
 40
0.0571428571428571
 40
0.0714285714285714
 40
0.0714285714285714
 40
0.0714285714285714
 40
0.0714285714285714
 40
0.0857142857142857
 40
0.0857142857142857
 40
0.0857142857142857
 40
0.0857142857142857
 40
0.1
 40
0.1
 40
0.1
 40
0.1
 40
0.1142857142857143
 40
0.1142857142857143
 40
0.1142857142857143
 40
0.1142857142857143
 40
0.1285714285714286
 40
0.1285714285714286
 40
0.1285714285714286
 40
0.1285714285714286
 40
0.1428571428571429
 40
0.1428571428571429
 40
0.1428571428571429
 40
0.1428571428571429
 40
0.1571428571428572
 40
0.1571428571428572
 40
0.1571428571428572
 40
0.1571428571428572
 40
0.1714285714285715
 40
0.1714285714285715
 40
0.1714285714285715
 40
0.1714285714285715
 40
0.1857142857142858
 40
0.1857142857142858
 40
0.1857142857142858
 40
0.1857142857142858
 40
0.2
 40
0.2
 40
0.2
 40
0.2
 40
0.2142857142857143
 40
0.2142857142857143
 40
0.2142857142857143
 40
0.2142857142857143
 40
0.2285714285714286
 40
0.2285714285714286
 40
0.2285714285714286
 40
0.2285714285714286
 40
0.2428571428571429
 40
0.2428571428571429
 40
0.2428571428571429
 40
0.2428571428571429
 40
0.2571428571428572
 40
0.2571428571428572
 40
0.2571428571428572
 40
0.2571428571428572
 40
0.2714285714285715
 40
0.2714285714285715
 40
0.2714285714285715
 40
0.2714285714285715
 40
0.2857142857142858
 40
0.2857142857142858
 40
0.2857142857142858
 40
0.2857142857142858
 40
0.3
 40
0.3
 40
0.3
 40
0.3
 40
0.3142857142857143
 40
0.3142857142857143
 40
0.3142857142857143
 40
0.3142857142857143
 40
0.3285714285714286
 40
0.3285714285714286
 40
0.3285714285714286
 40
0.3285714285714286
 40
0.3428571428571429
 40
0.3428571428571429
 40
0.3428571428571429
 40
0.3428571428571429
 40
0.3571428571428572
 40
0.3571428571428572
 40
0.3571428571428572
 40
0.3571428571428572
 40
0.3714285714285715
 40
0.3714285714285715
 40
0.3714285714285715
 40
0.3714285714285715
 40
0.3857142857142858
 40
0.3857142857142858
 40
0.3857142857142858
 40
0.3857142857142858
 40
0.4000000000000001
 40
0.4000000000000001
 40
0.4000000000000001
 40
0.4000000000000001
 40
0.4142857142857144
 40
0.4142857142857144
 40
0.4142857142857144
 40
0.4142857142857144
 40
0.4285714285714287
 40
0.4285714285714287
 40
0.4285714285714287
 40
0.4285714285714287
 40
0.442857142857143
 40
0.442857142857143
 40
0.442857142857143
 40
0.442857142857143
 40
0.4571428571428572
 40
0.4571428571428572
 40
0.4571428571428572
 40
0.4571428571428572
 40
0.4714285714285715
 40
0.4714285714285715
 40
0.4714285714285715
 40
0.4714285714285715
 40
0.4857142857142858
 40
0.4857142857142858
 40
0.4857142857142858
 40
0.4857142857142858
 40
0.5000000000000001
 40
0.5000000000000001
 40
0.5000000000000001
 40
0.5000000000000001
 40
0.5142857142857144
 40
0.5142857142857144
 40
0.5142857142857144
 40
0.5142857142857144
 40
0.5285714285714286
 40
0.5285714285714286
 40
0.5285714285714286
 40
0.5285714285714286
 40
0.5428571428571428
 40
0.5428571428571428
 40
0.5428571428571428
 40
0.5428571428571428
 40
0.5571428571428571
 40
0.5571428571428571
 40
0.5571428571428571
 40
0.5571428571428571
 40
0.5714285714285713
 40
0.5714285714285713
 40
0.5714285714285713
 40
0.5714285714285713
 40
0.5857142857142855
 40
0.5857142857142855
 40
0.5857142857142855
 40
0.5857142857142855
 40
0.5999999999999998
 40
0.5999999999999998
 40
0.5999999999999998
 40
0.5999999999999998
 40
0.614285714285714
 40
0.614285714285714
 40
0.614285714285714
 40
0.614285714285714
 40
0.6285714285714282
 40
0.6285714285714282
 40
0.6285714285714282
 40
0.6285714285714282
 40
0.6428571428571425
 40
0.6428571428571425
 40
0.6428571428571425
 40
0.6428571428571425
 40
0.6571428571428567
 40
0.6571428571428567
 40
0.6571428571428567
 40
0.6571428571428567
 40
0.6714285714285709
 40
0.6714285714285709
 40
0.6714285714285709
 40
0.6714285714285709
 40
0.6857142857142852
 40
0.6857142857142852
 40
0.6857142857142852
 40
0.6857142857142852
 40
0.6999999999999994
 40
0.6999999999999994
 40
0.6999999999999994
 40
0.6999999999999994
 40
0.7142857142857136
 40
0.7142857142857136
 40
0.7142857142857136
 40
0.7142857142857136
 40
0.7285714285714279
 40
0.7285714285714279
 40
0.7285714285714279
 40
0.7285714285714279
 40
0.7428571428571421
 40
0.7428571428571421
 40
0.7428571428571421
 40
0.7428571428571421
 40
0.7571428571428563
 40
0.7571428571428563
 40
0.7571428571428563
 40
0.7571428571428563
 40
0.7714285714285706
 40
0.7714285714285706
 40
0.7714285714285706
 40
0.7714285714285706
 40
0.7857142857142848
 40
0.7857142857142848
 40
0.7857142857142848
 40
0.7857142857142848
 40
0.7999999999999991
 40
0.7999999999999991
 40
0.7999999999999991
 40
0.7999999999999991
 40
0.8142857142857133
 40
0.8142857142857133
 40
0.8142857142857133
 40
0.8142857142857133
 40
0.8285714285714275
 40
0.8285714285714275
 40
0.8285714285714275
 40
0.8285714285714275
 40
0.8428571428571418
 40
0.8428571428571418
 40
0.8428571428571418
 40
0.8428571428571418
 40
0.857142857142856
 40
0.857142857142856
 40
0.857142857142856
 40
0.857142857142856
 40
0.8714285714285702
 40
0.8714285714285702
 40
0.8714285714285702
 40
0.8714285714285702
 40
0.8857142857142845
 40
0.8857142857142845
 40
0.8857142857142845
 40
0.8857142857142845
 40
0.8999999999999987
 40
0.8999999999999987
 40
0.8999999999999987
 40
0.8999999999999987
 40
0.9142857142857129
 40
0.9142857142857129
 40
0.9142857142857129
 40
0.9142857142857129
 40
0.9285714285714272
 40
0.9285714285714272
 40
0.9285714285714272
 40
0.9285714285714272
 40
0.9428571428571414
 40
0.9428571428571414
 40
0.9428571428571414
 40
0.9428571428571414
 40
0.9571428571428556
 40
0.9571428571428556
 40
0.9571428571428556
 40
0.9571428571428556
 40
0.9714285714285699
 40
0.9714285714285699
 40
0.9714285714285699
 40
0.9714285714285699
 40
0.9857142857142841
 40
0.9857142857142841
 40
0.9857142857142841
 40
0.9857142857142841
 40
1.0
 40
1.0
 40
1.0
 40
1.0
 10
-31.964700000000001
 20
73.170500000000004
 30
0.0
 10
-31.964700000000001
 20
73.170500000000004
 30
0.0
 10
-35.5259
 20
70.593500000000006
 30
0.0
 10
-35.5259
 20
70.593500000000006
 30
0.0
 10
-35.5259
 20
70.593500000000006
 30
0.0
 10
-35.5259
 20
70.593500000000006
 30
0.0
 10
-33.180399999999999
 20
63.421700000000001
 30
0.0
 10
-33.180399999999999
 20
63.421700000000001
 30
0.0
 10
-33.180399999999999
 20
63.421700000000001
 30
0.0
 10
-33.180399999999999
 20
63.421700000000001
 30
0.0
 10
-39.276200000000003
 20
67.868700000000004
 30
0.0
 10
-39.276200000000003
 20
67.868700000000004
 30
0.0
 10
-39.276200000000003
 20
67.868700000000004
 30
0.0
 10
-39.276200000000003
 20
67.868700000000004
 30
0.0
 10
-45.372300000000003
 20
63.421700000000001
 30
0.0
 10
-45.372300000000003
 20
63.421700000000001
 30
0.0
 10
-45.372300000000003
 20
63.421700000000001
 30
0.0
 10
-45.372300000000003
 20
63.421700000000001
 30
0.0
 10
-43.026899999999998
 20
70.593500000000006
 30
0.0
 10
-43.026899999999998
 20
70.593500000000006
 30
0.0
 10
-43.026899999999998
 20
70.593500000000006
 30
0.0
 10
-43.026899999999998
 20
70.593500000000006
 30
0.0
 10
-49.139699999999998
 20
75.016999999999996
 30
0.0
 10
-49.139699999999998
 20
75.016999999999996
 30
0.0
 10
-49.139699999999998
 20
75.016999999999996
 30
0.0
 10
-49.139699999999998
 20
75.016999999999996
 30
0.0
 10
-41.594299999999997
 20
75.002499999999998
 30
0.0
 10
-41.594299999999997
 20
75.002499999999998
 30
0.0
 10
-41.594299999999997
 20
75.002499999999998
 30
0.0
 10
-41.594299999999997
 20
75.002499999999998
 30
0.0
 10
-39.990900000000003
 20
79.969399999999993
 30
0.0
 10
-39.990900000000003
 20
79.969399999999993
 30
0.0
 10
-39.990900000000003
 20
79.969399999999993
 30
0.0
 10
-44.319400000000002
 20
82.470299999999995
 30
0.0
 10
-49.342700000000001
 20
83.901799999999994
 30
0.0
 10
-54.700000000000003
 20
83.901799999999994
 30
0.0
 10
-54.700000000000003
 20
83.901799999999994
 30
0.0
 10
-70.962999999999994
 20
83.901799999999994
 30
0.0
 10
-84.151799999999994
 20
70.712999999999994
 30
0.0
 10
-84.151799999999994
 20
54.450000000000003
 30
0.0
 10
-84.151799999999994
 20
54.450000000000003
 30
0.0
 10
-84.151799999999994
 20
46.945999999999998
 30
0.0
 10
-81.341999999999999
 20
40.097999999999999
 30
0.0
 10
-76.719800000000006
 20
34.896799999999999
 30
0.0
 10
-76.719800000000006
 20
34.896799999999999
 30
0.0
 10
-76.555199999999999
 20
35.0854
 30
0.0
 10
-76.343999999999994
 20
35.350999999999999
 30
0.0
 10
-76.060599999999994
 20
35.774000000000001
 30
0.0
 10
-76.060599999999994
 20
35.774000000000001
 30
0.0
 10
-75.301599999999993
 20
35.423000000000002
 30
0.0
 10
-73.427000000000007
 20
36.3446
 30
0.0
 10
-73.096900000000005
 20
37.255899999999997
 30
0.0
 10
-73.096900000000005
 20
37.255899999999997
 30
0.0
 10
-73.096900000000005
 20
37.255899999999997
 30
0.0
 10
-72.229500000000002
 20
36.902799999999999
 30
0.0
 10
-72.229500000000002
 20
36.902799999999999
 30
0.0
 10
-72.229500000000002
 20
36.902799999999999
 30
0.0
 10
-72.229500000000002
 20
36.902799999999999
 30
0.0
 10
-71.823499999999996
 20
38.313400000000001
 30
0.0
 10
-71.823499999999996
 20
38.313400000000001
 30
0.0
 10
-71.823499999999996
 20
38.313400000000001
 30
0.0
 10
-72.569100000000006
 20
39.496099999999998
 30
0.0
 10
-73.393500000000003
 20
41.370699999999999
 30
0.0
 10
-73.393500000000003
 20
43.331400000000002
 30
0.0
 10
-73.393500000000003
 20
43.331400000000002
 30
0.0
 10
-73.393500000000003
 20
43.331400000000002
 30
0.0
 10
-73.393500000000003
 20
45.702199999999998
 30
0.0
 10
-73.393500000000003
 20
45.702199999999998
 30
0.0
 10
-73.393500000000003
 20
45.702199999999998
 30
0.0
 10
-73.393500000000003
 20
49.367400000000004
 30
0.0
 10
-70.603700000000003
 20
56.342700000000001
 30
0.0
 10
-69.096100000000007
 20
58.593899999999998
 30
0.0
 10
-69.096100000000007
 20
58.593899999999998
 30
0.0
 10
-69.096100000000007
 20
58.593899999999998
 30
0.0
 10
-70.048199999999994
 20
59.566800000000001
 30
0.0
 10
-70.048199999999994
 20
59.566800000000001
 30
0.0
 10
-70.048199999999994
 20
59.566800000000001
 30
0.0
 10
-70.048199999999994
 20
59.566800000000001
 30
0.0
 10
-68.984200000000001
 20
60.417299999999997
 30
0.0
 10
-68.984200000000001
 20
60.417299999999997
 30
0.0
 10
-68.984200000000001
 20
60.417299999999997
 30
0.0
 10
-68.984200000000001
 20
60.417299999999997
 30
0.0
 10
-68.204599999999999
 20
60.0822
 30
0.0
 10
-68.204599999999999
 20
60.0822
 30
0.0
 10
-68.204599999999999
 20
60.0822
 30
0.0
 10
-68.204599999999999
 20
60.0822
 30
0.0
 10
-66.534999999999997
 20
62.234499999999997
 30
0.0
 10
-66.534999999999997
 20
62.234499999999997
 30
0.0
 10
-66.534999999999997
 20
62.234499999999997
 30
0.0
 10
-66.534999999999997
 20
62.234499999999997
 30
0.0
 10
-66.429000000000002
 20
62.4465
 30
0.0
 10
-66.429000000000002
 20
62.4465
 30
0.0
 10
-66.429000000000002
 20
62.4465
 30
0.0
 10
-66.716399999999993
 20
62.470500000000001
 30
0.0
 10
-67.021699999999996
 20
62.439599999999999
 30
0.0
 10
-67.021699999999996
 20
62.743000000000002
 30
0.0
 10
-67.021699999999996
 20
62.743000000000002
 30
0.0
 10
-67.021699999999996
 20
63.200699999999998
 30
0.0
 10
-66.702100000000002
 20
63.449100000000001
 30
0.0
 10
-66.429000000000002
 20
63.632100000000001
 30
0.0
 10
-66.429000000000002
 20
63.632100000000001
 30
0.0
 10
-66.081900000000005
 20
63.551099999999998
 30
0.0
 10
-65.991200000000006
 20
63.484099999999998
 30
0.0
 10
-65.5398
 20
63.484099999999998
 30
0.0
 10
-65.5398
 20
63.484099999999998
 30
0.0
 10
-65.440899999999999
 20
63.484099999999998
 30
0.0
 10
-64.987300000000005
 20
63.950600000000001
 30
0.0
 10
-64.798900000000003
 20
64.076499999999996
 30
0.0
 10
-64.798900000000003
 20
64.076499999999996
 30
0.0
 10
-64.798900000000003
 20
64.076499999999996
 30
0.0
 10
-65.161699999999996
 20
64.786100000000005
 30
0.0
 10
-65.161699999999996
 20
64.786100000000005
 30
0.0
 10
-65.161699999999996
 20
64.786100000000005
 30
0.0
 10
-65.161699999999996
 20
64.786100000000005
 30
0.0
 10
-66.114699999999999
 20
64.198800000000006
 30
0.0
 10
-66.114699999999999
 20
64.198800000000006
 30
0.0
 10
-66.114699999999999
 20
64.198800000000006
 30
0.0
 10
-66.073400000000007
 20
64.935900000000004
 30
0.0
 10
-65.5398
 20
65.284999999999997
 30
0.0
 10
-65.5398
 20
66.299300000000002
 30
0.0
 10
-65.5398
 20
66.299300000000002
 30
0.0
 10
-65.5398
 20
66.299300000000002
 30
0.0
 10
-65.5398
 20
66.595699999999994
 30
0.0
 10
-65.5398
 20
66.595699999999994
 30
0.0
 10
-65.5398
 20
66.595699999999994
 30
0.0
 10
-65.5398
 20
67.372900000000001
 30
0.0
 10
-68.948099999999997
 20
69.356899999999996
 30
0.0
 10
-68.948099999999997
 20
71.633799999999994
 30
0.0
 10
-68.948099999999997
 20
71.633799999999994
 30
0.0
 10
-68.948099999999997
 20
71.633799999999994
 30
0.0
 10
-68.948099999999997
 20
72.374700000000004
 30
0.0
 10
-68.948099999999997
 20
72.374700000000004
 30
0.0
 10
-68.948099999999997
 20
72.374700000000004
 30
0.0
 10
-68.948099999999997
 20
74.813199999999995
 30
0.0
 10
-68.024500000000003
 20
74.989900000000006
 30
0.0
 10
-67.056100000000001
 20
76.262
 30
0.0
 10
-67.056100000000001
 20
76.262
 30
0.0
 10
-66.493399999999994
 20
77.001300000000001
 30
0.0
 10
-66.743300000000005
 20
77.169399999999996
 30
0.0
 10
-65.798500000000004
 20
77.968000000000004
 30
0.0
 10
-65.798500000000004
 20
77.968000000000004
 30
0.0
 10
-65.480699999999999
 20
78.236500000000007
 30
0.0
 10
-64.500900000000001
 20
78.961799999999997
 30
0.0
 10
-64.1126
 20
79.097499999999997
 30
0.0
 10
-64.1126
 20
79.097499999999997
 30
0.0
 10
-63.073
 20
79.460099999999997
 30
0.0
 10
-60.2241
 20
79.361500000000007
 30
0.0
 10
-59.081099999999999
 20
79.129900000000006
 30
0.0
 10
-59.081099999999999
 20
79.129900000000006
 30
0.0
 10
-57.653599999999997
 20
78.840500000000006
 30
0.0
 10
-55.6982
 20
78.005799999999994
 30
0.0
 10
-54.574300000000001
 20
78.005799999999994
 30
0.0
 10
-54.574300000000001
 20
78.005799999999994
 30
0.0
 10
-54.574300000000001
 20
78.005799999999994
 30
0.0
 10
-54.278300000000002
 20
78.005799999999994
 30
0.0
 10
-54.278300000000002
 20
78.005799999999994
 30
0.0
 10
-54.278300000000002
 20
78.005799999999994
 30
0.0
 10
-53.304900000000004
 20
78.005799999999994
 30
0.0
 10
-52.6511
 20
78.869600000000005
 30
0.0
 10
-51.9071
 20
79.042900000000003
 30
0.0
 10
-51.9071
 20
79.042900000000003
 30
0.0
 10
-51.9071
 20
79.042900000000003
 30
0.0
 10
-53.241199999999999
 20
77.265100000000004
 30
0.0
 10
-53.241199999999999
 20
77.265100000000004
 30
0.0
 10
-53.241199999999999
 20
77.265100000000004
 30
0.0
 10
-53.241199999999999
 20
77.265100000000004
 30
0.0
 10
-51.475499999999997
 20
77.619200000000006
 30
0.0
 10
-51.475499999999997
 20
77.619200000000006
 30
0.0
 10
-51.475499999999997
 20
77.619200000000006
 30
0.0
 10
-51.647399999999998
 20
76.869299999999996
 30
0.0
 10
-53.471499999999999
 20
76.415400000000005
 30
0.0
 10
-54.278300000000002
 20
76.227400000000003
 30
0.0
 10
-54.278300000000002
 20
76.227400000000003
 30
0.0
 10
-53.702599999999997
 20
75.140000000000001
 30
0.0
 10
-52.944499999999998
 20
74.369799999999998
 30
0.0
 10
-52.944499999999998
 20
72.671000000000006
 30
0.0
 10
-52.944499999999998
 20
72.671000000000006
 30
0.0
 10
-52.944499999999998
 20
72.3245
 30
0.0
 10
-52.988700000000001
 20
72.287800000000004
 30
0.0
 10
-53.092599999999997
 20
72.078400000000002
 30
0.0
 10
-53.092599999999997
 20
72.078400000000002
 30
0.0
 10
-52.482599999999998
 20
70.925600000000003
 30
0.0
 10
-51.462699999999998
 20
71.325599999999994
 30
0.0
 10
-51.462699999999998
 20
70.596599999999995
 30
0.0
 10
-51.462699999999998
 20
70.596599999999995
 30
0.0
 10
-51.462699999999998
 20
70.569100000000006
 30
0.0
 10
-51.889600000000002
 20
70.055000000000007
 30
0.0
 10
-51.9071
 20
69.262900000000002
 30
0.0
 10
-51.9071
 20
69.262900000000002
 30
0.0
 10
-51.9071
 20
69.262900000000002
 30
0.0
 10
-51.743099999999998
 20
69.328299999999999
 30
0.0
 10
-51.743099999999998
 20
69.328299999999999
 30
0.0
 10
-51.743099999999998
 20
69.328299999999999
 30
0.0
 10
-51.743099999999998
 20
69.328299999999999
 30
0.0
 10
-51.3765
 20
68.408299999999997
 30
0.0
 10
-51.3765
 20
68.408299999999997
 30
0.0
 10
-51.3765
 20
68.408299999999997
 30
0.0
 10
-50.342100000000002
 20
68.399000000000001
 30
0.0
 10
-50.936700000000002
 20
68.818399999999997
 30
0.0
 10
-50.277299999999997
 20
68.818399999999997
 30
0.0
 10
-50.277299999999997
 20
68.818399999999997
 30
0.0
 10
-49.945
 20
68.818399999999997
 30
0.0
 10
-49.951999999999998
 20
68.700999999999993
 30
0.0
 10
-49.6845
 20
68.522000000000006
 30
0.0
 10
-49.6845
 20
68.522000000000006
 30
0.0
 10
-49.6845
 20
68.522000000000006
 30
0.0
 10
-49.6845
 20
67.781199999999998
 30
0.0
 10
-49.6845
 20
67.781199999999998
 30
0.0
 10
-49.6845
 20
67.781199999999998
 30
0.0
 10
-49.048000000000002
 20
67.355000000000004
 30
0.0
 10
-48.350999999999999
 20
65.539299999999997
 30
0.0
 10
-48.350999999999999
 20
64.521100000000004
 30
0.0
 10
-48.350999999999999
 20
64.521100000000004
 30
0.0
 10
-48.350999999999999
 20
64.521100000000004
 30
0.0
 10
-48.350999999999999
 20
62.891199999999998
 30
0.0
 10
-48.350999999999999
 20
62.891199999999998
 30
0.0
 10
-48.350999999999999
 20
62.891199999999998
 30
0.0
 10
-48.350999999999999
 20
62.069699999999997
 30
0.0
 10
-49.832599999999999
 20
60.319600000000001
 30
0.0
 10
-49.832599999999999
 20
60.075800000000001
 30
0.0
 10
-49.832599999999999
 20
60.075800000000001
 30
0.0
 10
-49.832599999999999
 20
59.665900000000001
 30
0.0
 10
-49.718499999999999
 20
59.719299999999997
 30
0.0
 10
-49.388199999999998
 20
59.6312
 30
0.0
 10
-49.388199999999998
 20
59.6312
 30
0.0
 10
-49.388199999999998
 20
59.6312
 30
0.0
 10
-49.388199999999998
 20
59.186700000000002
 30
0.0
 10
-49.388199999999998
 20
59.186700000000002
 30
0.0
 10
-49.388199999999998
 20
59.186700000000002
 30
0.0
 10
-49.388199999999998
 20
58.573700000000002
 30
0.0
 10
-48.628599999999999
 20
58.924999999999997
 30
0.0
 10
-48.358499999999999
 20
57.548900000000003
 30
0.0
 10
-48.358499999999999
 20
57.548900000000003
 30
0.0
 10
-48.208399999999997
 20
56.7851
 30
0.0
 10
-48.048400000000001
 20
56.252400000000002
 30
0.0
 10
-48.052999999999997
 20
55.335500000000003
 30
0.0
 10
-48.052999999999997
 20
55.335500000000003
 30
0.0
 10
-48.067700000000002
 20
52.451300000000003
 30
0.0
 10
-47.862099999999998
 20
53.476300000000002
 30
0.0
 10
-48.7134
 20
51.369199999999999
 30
0.0
 10
-48.7134
 20
51.369199999999999
 30
0.0
 10
-49.422199999999997
 20
49.613799999999998
 30
0.0
 10
-51.526000000000003
 20
47.035899999999998
 30
0.0
 10
-54.278300000000002
 20
47.035899999999998
 30
0.0
 10
-54.278300000000002
 20
47.035899999999998
 30
0.0
 10
-55.423699999999997
 20
47.035899999999998
 30
0.0
 10
-55.938099999999999
 20
47.480400000000003
 30
0.0
 10
-57.093499999999999
 20
47.480400000000003
 30
0.0
 10
-57.093499999999999
 20
47.480400000000003
 30
0.0
 10
-57.093499999999999
 20
47.480400000000003
 30
0.0
 10
-57.573999999999998
 20
45.117600000000003
 30
0.0
 10
-57.573999999999998
 20
45.117600000000003
 30
0.0
 10
-57.573999999999998
 20
45.117600000000003
 30
0.0
 10
-53.381999999999998
 20
44.141300000000001
 30
0.0
 10
-52.517499999999998
 20
44.229500000000002
 30
0.0
 10
-49.326999999999998
 20
42.058900000000001
 30
0.0
 10
-49.326999999999998
 20
42.058900000000001
 30
0.0
 10
-48.491900000000001
 20
41.491100000000003
 30
0.0
 10
-46.6905
 20
40.334899999999998
 30
0.0
 10
-46.184800000000003
 20
39.570300000000003
 30
0.0
 10
-46.184800000000003
 20
39.570300000000003
 30
0.0
 10
-45.682499999999997
 20
38.811399999999999
 30
0.0
 10
-44.498100000000001
 20
36.707500000000003
 30
0.0
 10
-44.498100000000001
 20
35.625900000000001
 30
0.0
 10
-44.498100000000001
 20
35.625900000000001
 30
0.0
 10
-44.498100000000001
 20
35.359499999999997
 30
0.0
 10
-44.770000000000003
 20
34.202800000000003
 30
0.0
 10
-44.937600000000003
 20
33.518999999999998
 30
0.0
 10
-44.937600000000003
 20
33.518999999999998
 30
0.0
 10
-44.937600000000003
 20
33.518999999999998
 30
0.0
 10
-33.9848
 20
33.518999999999998
 30
0.0
 10
-33.9848
 20
33.518999999999998
 30
0.0
 10
-33.9848
 20
33.518999999999998
 30
0.0
 10
-28.591200000000001
 20
38.857399999999998
 30
0.0
 10
-25.248200000000001
 20
46.2637
 30
0.0
 10
-25.248200000000001
 20
54.450000000000003
 30
0.0
 10
-25.248200000000001
 20
54.450000000000003
 30
0.0
 10
-25.248200000000001
 20
61.559399999999997
 30
0.0
 10
-27.7684
 20
68.081500000000005
 30
0.0
 10
-31.964700000000001
 20
73.170500000000004
 30
0.0
  0
SPLINE
  5
28
100
AcDbEntity
  8
RÚteg 1
 62
     7
100
AcDbSpline
210
0.0
220
0.0
230
1.0
 70
     1
 71
     3
 72
    32
 73
    28
 74
     0
 42
0.0000000001
 43
0.0000000001
 40
0.0
 40
0.0
 40
0.0
 40
0.0
 40
0.1428571428571429
 40
0.1428571428571429
 40
0.1428571428571429
 40
0.1428571428571429
 40
0.2857142857142857
 40
0.2857142857142857
 40
0.2857142857142857
 40
0.2857142857142857
 40
0.4285714285714286
 40
0.4285714285714286
 40
0.4285714285714286
 40
0.4285714285714286
 40
0.5714285714285714
 40
0.5714285714285714
 40
0.5714285714285714
 40
0.5714285714285714
 40
0.7142857142857142
 40
0.7142857142857142
 40
0.7142857142857142
 40
0.7142857142857142
 40
0.857142857142857
 40
0.857142857142857
 40
0.857142857142857
 40
0.857142857142857
 40
1.0
 40
1.0
 40
1.0
 40
1.0
 10
-56.500900000000001
 20
62.002000000000002
 30
0.0
 10
-56.064799999999998
 20
62.653300000000002
 30
0.0
 10
-55.861400000000003
 20
64.224800000000002
 30
0.0
 10
-55.167099999999998
 20
64.224800000000002
 30
0.0
 10
-55.167099999999998
 20
64.224800000000002
 30
0.0
 10
-54.774700000000003
 20
64.224800000000002
 30
0.0
 10
-54.994399999999999
 20
63.152900000000002
 30
0.0
 10
-54.816099999999999
 20
62.501399999999997
 30
0.0
 10
-54.816099999999999
 20
62.501399999999997
 30
0.0
 10
-54.642400000000002
 20
61.866700000000002
 30
0.0
 10
-54.186999999999998
 20
61.651899999999998
 30
0.0
 10
-54.129899999999999
 20
60.964799999999997
 30
0.0
 10
-54.129899999999999
 20
60.964799999999997
 30
0.0
 10
-54.129899999999999
 20
60.964799999999997
 30
0.0
 10
-54.272599999999997
 20
61.079500000000003
 30
0.0
 10
-54.272599999999997
 20
61.079500000000003
 30
0.0
 10
-54.272599999999997
 20
61.079500000000003
 30
0.0
 10
-54.272599999999997
 20
61.079500000000003
 30
0.0
 10
-55.172600000000003
 20
59.960900000000002
 30
0.0
 10
-55.172600000000003
 20
59.960900000000002
 30
0.0
 10
-55.172600000000003
 20
59.960900000000002
 30
0.0
 10
-55.172600000000003
 20
59.960900000000002
 30
0.0
 10
-55.209899999999998
 20
60.137700000000002
 30
0.0
 10
-55.209899999999998
 20
60.137700000000002
 30
0.0
 10
-55.209899999999998
 20
60.137700000000002
 30
0.0
 10
-55.209899999999998
 20
60.137700000000002
 30
0.0
 10
-56.500900000000001
 20
62.002000000000002
 30
0.0
 10
-56.500900000000001
 20
62.002000000000002
 30
0.0
  0
SPLINE
  5
29
100
AcDbEntity
  8
RÚteg 1
 62
     7
100
AcDbSpline
210
0.0
220
0.0
230
1.0
 70
     1
 71
     3
 72
    20
 73
    16
 74
     0
 42
0.0000000001
 43
0.0000000001
 40
0.0
 40
0.0
 40
0.0
 40
0.0
 40
0.25
 40
0.25
 40
0.25
 40
0.25
 40
0.5
 40
0.5
 40
0.5
 40
0.5
 40
0.75
 40
0.75
 40
0.75
 40
0.75
 40
1.0
 40
1.0
 40
1.0
 40
1.0
 10
-63.739400000000003
 20
65.787899999999993
 30
0.0
 10
-63.287399999999998
 20
65.603800000000007
 30
0.0
 10
-63.226100000000002
 20
65.801599999999993
 30
0.0
 10
-63.1691
 20
65.113900000000001
 30
0.0
 10
-63.1691
 20
65.113900000000001
 30
0.0
 10
-63.1691
 20
65.113900000000001
 30
0.0
 10
-64.353700000000003
 20
64.962400000000002
 30
0.0
 10
-64.353700000000003
 20
64.962400000000002
 30
0.0
 10
-64.353700000000003
 20
64.962400000000002
 30
0.0
 10
-64.037000000000006
 20
65.439599999999999
 30
0.0
 10
-64.111000000000004
 20
65.069500000000005
 30
0.0
 10
-64.050799999999995
 20
65.684200000000004
 30
0.0
 10
-64.050799999999995
 20
65.684200000000004
 30
0.0
 10
-64.050799999999995
 20
65.684200000000004
 30
0.0
 10
-63.739400000000003
 20
65.787899999999993
 30
0.0
 10
-63.739400000000003
 20
65.787899999999993
 30
0.0
  0
SPLINE
  5
2A
100
AcDbEntity
  8
RÚteg 1
 62
     7
100
AcDbSpline
210
0.0
220
0.0
230
1.0
 70
     1
 71
     3
 72
    36
 73
    32
 74
     0
 42
0.0000000001
 43
0.0000000001
 40
0.0
 40
0.0
 40
0.0
 40
0.0
 40
0.125
 40
0.125
 40
0.125
 40
0.125
 40
0.25
 40
0.25
 40
0.25
 40
0.25
 40
0.375
 40
0.375
 40
0.375
 40
0.375
 40
0.5
 40
0.5
 40
0.5
 40
0.5
 40
0.625
 40
0.625
 40
0.625
 40
0.625
 40
0.75
 40
0.75
 40
0.75
 40
0.75
 40
0.875
 40
0.875
 40
0.875
 40
0.875
 40
1.0
 40
1.0
 40
1.0
 40
1.0
 10
-51.058799999999998
 20
87.500600000000006
 30
0.0
 10
-34.411099999999998
 20
85.686099999999996
 30
0.0
 10
-21.449999999999999
 20
71.579599999999999
 30
0.0
 10
-21.449999999999999
 20
54.450000000000003
 30
0.0
 10
-21.449999999999999
 20
54.450000000000003
 30
0.0
 10
-21.449999999999999
 20
36.089599999999997
 30
0.0
 10
-36.339599999999997
 20
21.199999999999999
 30
0.0
 10
-54.700000000000003
 20
21.199999999999999
 30
0.0
 10
-54.700000000000003
 20
21.199999999999999
 30
0.0
 10
-73.060400000000001
 20
21.199999999999999
 30
0.0
 10
-87.950000000000003
 20
36.089599999999997
 30
0.0
 10
-87.950000000000003
 20
54.450000000000003
 30
0.0
 10
-87.950000000000003
 20
54.450000000000003
 30
0.0
 10
-87.950000000000003
 20
71.579599999999999
 30
0.0
 10
-74.988900000000001
 20
85.686099999999996
 30
0.0
 10
-58.341200000000001
 20
87.500600000000006
 30
0.0
 10
-58.341200000000001
 20
87.500600000000006
 30
0.0
 10
-59.033099999999997
 20
88.325800000000001
 30
0.0
 10
-59.4499
 20
89.389200000000002
 30
0.0
 10
-59.4499
 20
90.5501
 30
0.0
 10
-59.4499
 20
90.5501
 30
0.0
 10
-59.4499
 20
93.172899999999998
 30
0.0
 10
-57.322899999999997
 20
95.299999999999997
 30
0.0
 10
-54.700000000000003
 20
95.299999999999997
 30
0.0
 10
-54.700000000000003
 20
95.299999999999997
 30
0.0
 10
-52.077100000000002
 20
95.299999999999997
 30
0.0
 10
-49.950099999999999
 20
93.172899999999998
 30
0.0
 10
-49.950099999999999
 20
90.5501
 30
0.0
 10
-49.950099999999999
 20
90.5501
 30
0.0
 10
-49.950099999999999
 20
89.389200000000002
 30
0.0
 10
-50.366900000000001
 20
88.325800000000001
 30
0.0
 10
-51.058799999999998
 20
87.500600000000006
 30
0.0
  0
SPLINE
  5
2B
100
AcDbEntity
  8
RÚteg 1
 62
     7
100
AcDbSpline
210
0.0
220
0.0
230
1.0
 70
     1
 71
     3
 72
    24
 73
    20
 74
     0
 42
0.0000000001
 43
0.0000000001
 40
0.0
 40
0.0
 40
0.0
 40
0.0
 40
0.2
 40
0.2
 40
0.2
 40
0.2
 40
0.4
 40
0.4
 40
0.4
 40
0.4
 40
0.6000000000000001
 40
0.6000000000000001
 40
0.6000000000000001
 40
0.6000000000000001
 40
0.8
 40
0.8
 40
0.8
 40
0.8
 40
1.0
 40
1.0
 40
1.0
 40
1.0
 10
12.589399999999999
 20
87.967100000000002
 30
0.0
 10
12.589399999999999
 20
87.967100000000002
 30
0.0
 10
15.0101
 20
87.967100000000002
 30
0.0
 10
15.0101
 20
87.967100000000002
 30
0.0
 10
15.0101
 20
87.967100000000002
 30
0.0
 10
15.98
 20
88.422499999999999
 30
0.0
 10
16.651800000000001
 20
89.408000000000001
 30
0.0
 10
16.651800000000001
 20
90.5501
 30
0.0
 10
16.651800000000001
 20
90.5501
 30
0.0
 10
16.651800000000001
 20
92.124899999999997
 30
0.0
 10
15.3748
 20
93.401899999999998
 30
0.0
 10
13.800000000000001
 20
93.401899999999998
 30
0.0
 10
13.800000000000001
 20
93.401899999999998
 30
0.0
 10
12.225199999999999
 20
93.401899999999998
 30
0.0
 10
10.9482
 20
92.124899999999997
 30
0.0
 10
10.9482
 20
90.5501
 30
0.0
 10
10.9482
 20
90.5501
 30
0.0
 10
10.9482
 20
89.408000000000001
 30
0.0
 10
11.6196
 20
88.422499999999999
 30
0.0
 10
12.589399999999999
 20
87.967100000000002
 30
0.0
  0
SPLINE
  5
2C
100
AcDbEntity
  8
RÚteg 1
 62
     7
100
AcDbSpline
210
0.0
220
0.0
230
1.0
 70
     1
 71
     3
 72
   132
 73
   128
 74
     0
 42
0.0000000001
 43
0.0000000001
 40
0.0
 40
0.0
 40
0.0
 40
0.0
 40
0.03125
 40
0.03125
 40
0.03125
 40
0.03125
 40
0.0625
 40
0.0625
 40
0.0625
 40
0.0625
 40
0.09375
 40
0.09375
 40
0.09375
 40
0.09375
 40
0.125
 40
0.125
 40
0.125
 40
0.125
 40
0.15625
 40
0.15625
 40
0.15625
 40
0.15625
 40
0.1875
 40
0.1875
 40
0.1875
 40
0.1875
 40
0.21875
 40
0.21875
 40
0.21875
 40
0.21875
 40
0.25
 40
0.25
 40
0.25
 40
0.25
 40
0.28125
 40
0.28125
 40
0.28125
 40
0.28125
 40
0.3125
 40
0.3125
 40
0.3125
 40
0.3125
 40
0.34375
 40
0.34375
 40
0.34375
 40
0.34375
 40
0.375
 40
0.375
 40
0.375
 40
0.375
 40
0.40625
 40
0.40625
 40
0.40625
 40
0.40625
 40
0.4375
 40
0.4375
 40
0.4375
 40
0.4375
 40
0.46875
 40
0.46875
 40
0.46875
 40
0.46875
 40
0.5
 40
0.5
 40
0.5
 40
0.5
 40
0.53125
 40
0.53125
 40
0.53125
 40
0.53125
 40
0.5625
 40
0.5625
 40
0.5625
 40
0.5625
 40
0.59375
 40
0.59375
 40
0.59375
 40
0.59375
 40
0.625
 40
0.625
 40
0.625
 40
0.625
 40
0.65625
 40
0.65625
 40
0.65625
 40
0.65625
 40
0.6875
 40
0.6875
 40
0.6875
 40
0.6875
 40
0.71875
 40
0.71875
 40
0.71875
 40
0.71875
 40
0.75
 40
0.75
 40
0.75
 40
0.75
 40
0.78125
 40
0.78125
 40
0.78125
 40
0.78125
 40
0.8125
 40
0.8125
 40
0.8125
 40
0.8125
 40
0.84375
 40
0.84375
 40
0.84375
 40
0.84375
 40
0.875
 40
0.875
 40
0.875
 40
0.875
 40
0.90625
 40
0.90625
 40
0.90625
 40
0.90625
 40
0.9375
 40
0.9375
 40
0.9375
 40
0.9375
 40
0.96875
 40
0.96875
 40
0.96875
 40
0.96875
 40
1.0
 40
1.0
 40
1.0
 40
1.0
 10
16.1799
 20
83.805899999999994
 30
0.0
 10
16.1799
 20
83.805899999999994
 30
0.0
 10
16.1799
 20
75.019400000000005
 30
0.0
 10
16.1799
 20
75.019400000000005
 30
0.0
 10
16.1799
 20
75.019400000000005
 30
0.0
 10
16.1799
 20
75.019400000000005
 30
0.0
 10
29.238
 20
75.019400000000005
 30
0.0
 10
29.238
 20
75.019400000000005
 30
0.0
 10
29.238
 20
75.019400000000005
 30
0.0
 10
29.366499999999998
 20
75.728800000000007
 30
0.0
 10
29.8642
 20
76.2393
 30
0.0
 10
30.730499999999999
 20
76.551599999999993
 30
0.0
 10
30.730499999999999
 20
76.551599999999993
 30
0.0
 10
31.218399999999999
 20
76.872200000000007
 30
0.0
 10
31.638500000000001
 20
76.761600000000001
 30
0.0
 10
32.126800000000003
 20
77.0822
 30
0.0
 10
32.126800000000003
 20
77.0822
 30
0.0
 10
33.058599999999998
 20
76.602099999999993
 30
0.0
 10
33.179900000000004
 20
76.474400000000003
 30
0.0
 10
32.756300000000003
 20
75.261399999999995
 30
0.0
 10
32.756300000000003
 20
75.261399999999995
 30
0.0
 10
32.462899999999998
 20
74.957999999999998
 30
0.0
 10
32.18
 20
74.654200000000003
 30
0.0
 10
31.896899999999999
 20
74.365099999999998
 30
0.0
 10
31.896899999999999
 20
74.365099999999998
 30
0.0
 10
31.896899999999999
 20
74.365099999999998
 30
0.0
 10
31.896899999999999
 20
70.487799999999993
 30
0.0
 10
31.896899999999999
 20
70.487799999999993
 30
0.0
 10
31.896899999999999
 20
70.487799999999993
 30
0.0
 10
31.896899999999999
 20
70.487799999999993
 30
0.0
 10
27.470199999999998
 20
70.487799999999993
 30
0.0
 10
27.470199999999998
 20
70.487799999999993
 30
0.0
 10
27.470199999999998
 20
70.487799999999993
 30
0.0
 10
27.264500000000002
 20
70.235600000000005
 30
0.0
 10
27.0593
 20
69.970299999999995
 30
0.0
 10
26.8537
 20
69.692599999999999
 30
0.0
 10
26.8537
 20
69.692599999999999
 30
0.0
 10
28.4925
 20
71.1404
 30
0.0
 10
25.364599999999999
 20
68.733699999999999
 30
0.0
 10
23.356300000000001
 20
67.977400000000003
 30
0.0
 10
23.356300000000001
 20
67.977400000000003
 30
0.0
 10
22.0459
 20
66.055499999999995
 30
0.0
 10
20.287700000000001
 20
65.0959
 30
0.0
 10
18.463200000000001
 20
64.273899999999998
 30
0.0
 10
18.463200000000001
 20
64.273899999999998
 30
0.0
 10
18.252099999999999
 20
63.519100000000002
 30
0.0
 10
17.997699999999998
 20
62.7652
 30
0.0
 10
17.447299999999998
 20
62.011099999999999
 30
0.0
 10
17.447299999999998
 20
62.011099999999999
 30
0.0
 10
17.238399999999999
 20
59.738700000000001
 30
0.0
 10
16.839600000000001
 20
57.470799999999997
 30
0.0
 10
16.460899999999999
 20
55.202399999999997
 30
0.0
 10
16.460899999999999
 20
55.202399999999997
 30
0.0
 10
16.460899999999999
 20
55.202399999999997
 30
0.0
 10
16.8217
 20
54.973799999999997
 30
0.0
 10
16.8217
 20
54.973799999999997
 30
0.0
 10
16.8217
 20
54.973799999999997
 30
0.0
 10
16.8217
 20
54.973799999999997
 30
0.0
 10
17.128599999999999
 20
54.944099999999999
 30
0.0
 10
17.128599999999999
 20
54.944099999999999
 30
0.0
 10
17.128599999999999
 20
54.944099999999999
 30
0.0
 10
17.530999999999999
 20
55.194699999999997
 30
0.0
 10
17.9344
 20
55.172499999999999
 30
0.0
 10
18.336500000000001
 20
54.874400000000001
 30
0.0
 10
18.336500000000001
 20
54.874400000000001
 30
0.0
 10
19.2502
 20
54.4178
 30
0.0
 10
19.2699
 20
53.8001
 30
0.0
 10
19.162199999999999
 20
53.160299999999999
 30
0.0
 10
19.162199999999999
 20
53.160299999999999
 30
0.0
 10
19.0136
 20
52.519199999999998
 30
0.0
 10
18.612500000000001
 20
51.970599999999997
 30
0.0
 10
17.953399999999998
 20
51.513599999999997
 30
0.0
 10
17.953399999999998
 20
51.513599999999997
 30
0.0
 10
18.760300000000001
 20
49.752600000000001
 30
0.0
 10
19.5669
 20
47.9925
 30
0.0
 10
20.370699999999999
 20
46.232900000000001
 30
0.0
 10
20.370699999999999
 20
46.232900000000001
 30
0.0
 10
20.379300000000001
 20
46.117800000000003
 30
0.0
 10
20.384899999999998
 20
46.002299999999998
 30
0.0
 10
20.3857
 20
45.887099999999997
 30
0.0
 10
20.3857
 20
45.887099999999997
 30
0.0
 10
20.3857
 20
45.887099999999997
 30
0.0
 10
20.543500000000002
 20
45.5869
 30
0.0
 10
20.543500000000002
 20
45.5869
 30
0.0
 10
20.543500000000002
 20
45.5869
 30
0.0
 10
20.543500000000002
 20
45.5869
 30
0.0
 10
19.9772
 20
43.837299999999999
 30
0.0
 10
19.9772
 20
43.837299999999999
 30
0.0
 10
19.9772
 20
43.837299999999999
 30
0.0
 10
19.9772
 20
43.837299999999999
 30
0.0
 10
19.800000000000001
 20
43.860100000000003
 30
0.0
 10
19.800000000000001
 20
43.860100000000003
 30
0.0
 10
19.800000000000001
 20
43.860100000000003
 30
0.0
 10
19.6905
 20
43.491700000000002
 30
0.0
 10
19.541599999999999
 20
43.252600000000001
 30
0.0
 10
19.352900000000002
 20
43.143099999999997
 30
0.0
 10
19.352900000000002
 20
43.143099999999997
 30
0.0
 10
19.2685
 20
42.457599999999999
 30
0.0
 10
19.100200000000001
 20
41.953899999999997
 30
0.0
 10
18.845700000000001
 20
41.634399999999999
 30
0.0
 10
18.845700000000001
 20
41.634399999999999
 30
0.0
 10
18.674600000000002
 20
41.177500000000002
 30
0.0
 10
18.420000000000002
 20
41.177500000000002
 30
0.0
 10
18.081700000000001
 20
41.634399999999999
 30
0.0
 10
18.081700000000001
 20
41.634399999999999
 30
0.0
 10
17.8704
 20
42.023299999999999
 30
0.0
 10
17.658899999999999
 20
42.411700000000003
 30
0.0
 10
17.447299999999998
 20
42.800400000000003
 30
0.0
 10
17.447299999999998
 20
42.800400000000003
 30
0.0
 10
17.2347
 20
41.634399999999999
 30
0.0
 10
17.0212
 20
40.468600000000002
 30
0.0
 10
16.810500000000001
 20
39.303100000000001
 30
0.0
 10
16.810500000000001
 20
39.303100000000001
 30
0.0
 10
16.9678
 20
37.1113
 30
0.0
 10
16.6267
 20
35.054000000000002
 30
0.0
 10
16.1799
 20
33.026800000000001
 30
0.0
 10
16.1799
 20
33.026800000000001
 30
0.0
 10
16.1799
 20
33.026800000000001
 30
0.0
 10
16.1799
 20
25.0945
 30
0.0
 10
16.1799
 20
25.0945
 30
0.0
 10
16.1799
 20
25.0945
 30
0.0
 10
31.330300000000001
 20
26.306699999999999
 30
0.0
 10
43.251800000000003
 20
38.988300000000002
 30
0.0
 10
43.251800000000003
 20
54.450000000000003
 30
0.0
 10
43.251800000000003
 20
54.450000000000003
 30
0.0
 10
43.251800000000003
 20
69.911699999999996
 30
0.0
 10
31.330300000000001
 20
82.593599999999995
 30
0.0
 10
16.1799
 20
83.805899999999994
 30
0.0
  0
SPLINE
  5
2D
100
AcDbEntity
  8
RÚteg 1
 62
     7
100
AcDbSpline
210
0.0
220
0.0
230
1.0
 70
     1
 71
     3
 72
    48
 73
    44
 74
     0
 42
0.0000000001
 43
0.0000000001
 40
0.0
 40
0.0
 40
0.0
 40
0.0
 40
0.0909090909090909
 40
0.0909090909090909
 40
0.0909090909090909
 40
0.0909090909090909
 40
0.1818181818181818
 40
0.1818181818181818
 40
0.1818181818181818
 40
0.1818181818181818
 40
0.2727272727272727
 40
0.2727272727272727
 40
0.2727272727272727
 40
0.2727272727272727
 40
0.3636363636363637
 40
0.3636363636363637
 40
0.3636363636363637
 40
0.3636363636363637
 40
0.4545454545454546
 40
0.4545454545454546
 40
0.4545454545454546
 40
0.4545454545454546
 40
0.5454545454545455
 40
0.5454545454545455
 40
0.5454545454545455
 40
0.5454545454545455
 40
0.6363636363636365
 40
0.6363636363636365
 40
0.6363636363636365
 40
0.6363636363636365
 40
0.7272727272727274
 40
0.7272727272727274
 40
0.7272727272727274
 40
0.7272727272727274
 40
0.8181818181818183
 40
0.8181818181818183
 40
0.8181818181818183
 40
0.8181818181818183
 40
0.9090909090909093
 40
0.9090909090909093
 40
0.9090909090909093
 40
0.9090909090909093
 40
1.0
 40
1.0
 40
1.0
 40
1.0
 10
11.411799999999999
 20
21.2864
 30
0.0
 10
11.411799999999999
 20
21.2864
 30
0.0
 10
11.150600000000001
 20
21.2864
 30
0.0
 10
11.150600000000001
 20
21.2864
 30
0.0
 10
11.150600000000001
 20
21.2864
 30
0.0
 10
11.150600000000001
 20
21.2864
 30
0.0
 10
11.150600000000001
 20
21.305299999999999
 30
0.0
 10
11.150600000000001
 20
21.305299999999999
 30
0.0
 10
11.150600000000001
 20
21.305299999999999
 30
0.0
 10
-5.9714
 20
22.655999999999999
 30
0.0
 10
-19.449999999999999
 20
36.981400000000001
 30
0.0
 10
-19.449999999999999
 20
54.450000000000003
 30
0.0
 10
-19.449999999999999
 20
54.450000000000003
 30
0.0
 10
-19.449999999999999
 20
71.579599999999999
 30
0.0
 10
-6.4889000000000001
 20
85.686099999999996
 30
0.0
 10
10.158799999999999
 20
87.500600000000006
 30
0.0
 10
10.158799999999999
 20
87.500600000000006
 30
0.0
 10
9.4669000000000008
 20
88.325800000000001
 30
0.0
 10
9.0501000000000005
 20
89.389200000000002
 30
0.0
 10
9.0501000000000005
 20
90.5501
 30
0.0
 10
9.0501000000000005
 20
90.5501
 30
0.0
 10
9.0501000000000005
 20
93.172899999999998
 30
0.0
 10
11.177099999999999
 20
95.299999999999997
 30
0.0
 10
13.800000000000001
 20
95.299999999999997
 30
0.0
 10
13.800000000000001
 20
95.299999999999997
 30
0.0
 10
16.422899999999998
 20
95.299999999999997
 30
0.0
 10
18.549900000000001
 20
93.172899999999998
 30
0.0
 10
18.549900000000001
 20
90.5501
 30
0.0
 10
18.549900000000001
 20
90.5501
 30
0.0
 10
18.549900000000001
 20
89.389200000000002
 30
0.0
 10
18.133099999999999
 20
88.325800000000001
 30
0.0
 10
17.441199999999998
 20
87.500600000000006
 30
0.0
 10
17.441199999999998
 20
87.500600000000006
 30
0.0
 10
34.088900000000002
 20
85.686099999999996
 30
0.0
 10
47.049999999999997
 20
71.579599999999999
 30
0.0
 10
47.049999999999997
 20
54.450000000000003
 30
0.0
 10
47.049999999999997
 20
54.450000000000003
 30
0.0
 10
47.049999999999997
 20
36.089599999999997
 30
0.0
 10
32.160400000000003
 20
21.199999999999999
 30
0.0
 10
13.800000000000001
 20
21.199999999999999
 30
0.0
 10
13.800000000000001
 20
21.199999999999999
 30
0.0
 10
12.9969
 20
21.199999999999999
 30
0.0
 10
12.200799999999999
 20
21.230399999999999
 30
0.0
 10
11.411799999999999
 20
21.2864
 30
0.0
  0
SPLINE
  5
2E
100
AcDbEntity
  8
RÚteg 1
 62
     7
100
AcDbSpline
210
0.0
220
0.0
230
1.0
 70
     1
 71
     3
 72
    96
 73
    92
 74
     0
 42
0.0000000001
 43
0.0000000001
 40
0.0
 40
0.0
 40
0.0
 40
0.0
 40
0.0434782608695652
 40
0.0434782608695652
 40
0.0434782608695652
 40
0.0434782608695652
 40
0.0869565217391304
 40
0.0869565217391304
 40
0.0869565217391304
 40
0.0869565217391304
 40
0.1304347826086957
 40
0.1304347826086957
 40
0.1304347826086957
 40
0.1304347826086957
 40
0.1739130434782609
 40
0.1739130434782609
 40
0.1739130434782609
 40
0.1739130434782609
 40
0.2173913043478261
 40
0.2173913043478261
 40
0.2173913043478261
 40
0.2173913043478261
 40
0.2608695652173913
 40
0.2608695652173913
 40
0.2608695652173913
 40
0.2608695652173913
 40
0.3043478260869565
 40
0.3043478260869565
 40
0.3043478260869565
 40
0.3043478260869565
 40
0.3478260869565217
 40
0.3478260869565217
 40
0.3478260869565217
 40
0.3478260869565217
 40
0.3913043478260869
 40
0.3913043478260869
 40
0.3913043478260869
 40
0.3913043478260869
 40
0.4347826086956521
 40
0.4347826086956521
 40
0.4347826086956521
 40
0.4347826086956521
 40
0.4782608695652173
 40
0.4782608695652173
 40
0.4782608695652173
 40
0.4782608695652173
 40
0.5217391304347825
 40
0.5217391304347825
 40
0.5217391304347825
 40
0.5217391304347825
 40
0.5652173913043477
 40
0.5652173913043477
 40
0.5652173913043477
 40
0.5652173913043477
 40
0.6086956521739129
 40
0.6086956521739129
 40
0.6086956521739129
 40
0.6086956521739129
 40
0.6521739130434781
 40
0.6521739130434781
 40
0.6521739130434781
 40
0.6521739130434781
 40
0.6956521739130432
 40
0.6956521739130432
 40
0.6956521739130432
 40
0.6956521739130432
 40
0.7391304347826084
 40
0.7391304347826084
 40
0.7391304347826084
 40
0.7391304347826084
 40
0.7826086956521736
 40
0.7826086956521736
 40
0.7826086956521736
 40
0.7826086956521736
 40
0.8260869565217388
 40
0.8260869565217388
 40
0.8260869565217388
 40
0.8260869565217388
 40
0.869565217391304
 40
0.869565217391304
 40
0.869565217391304
 40
0.869565217391304
 40
0.9130434782608692
 40
0.9130434782608692
 40
0.9130434782608692
 40
0.9130434782608692
 40
0.9565217391304344
 40
0.9565217391304344
 40
0.9565217391304344
 40
0.9565217391304344
 40
1.0
 40
1.0
 40
1.0
 40
1.0
 10
11.150600000000001
 20
25.118200000000002
 30
0.0
 10
11.150600000000001
 20
25.118200000000002
 30
0.0
 10
11.150600000000001
 20
38.813400000000001
 30
0.0
 10
11.150600000000001
 20
38.813400000000001
 30
0.0
 10
11.150600000000001
 20
38.813400000000001
 30
0.0
 10
10.507099999999999
 20
41.034599999999998
 30
0.0
 10
10.1395
 20
43.255000000000003
 30
0.0
 10
9.8186999999999998
 20
45.477699999999999
 30
0.0
 10
9.8186999999999998
 20
45.477699999999999
 30
0.0
 10
9.4811999999999994
 20
45.7973
 30
0.0
 10
9.3948
 20
46.118600000000001
 30
0.0
 10
9.5646000000000004
 20
46.438400000000001
 30
0.0
 10
9.5646000000000004
 20
46.438400000000001
 30
0.0
 10
9.5001999999999995
 20
46.941299999999998
 30
0.0
 10
9.4382000000000001
 20
47.443899999999999
 30
0.0
 10
9.3749000000000002
 20
47.946899999999999
 30
0.0
 10
9.3749000000000002
 20
47.946899999999999
 30
0.0
 10
8.9083000000000006
 20
48.450000000000003
 30
0.0
 10
8.9501000000000008
 20
48.9527
 30
0.0
 10
9.5001999999999995
 20
49.455500000000001
 30
0.0
 10
9.5001999999999995
 20
49.455500000000001
 30
0.0
 10
9.3314000000000004
 20
50.026600000000002
 30
0.0
 10
9.2047000000000008
 20
50.598100000000002
 30
0.0
 10
9.3749000000000002
 20
51.170699999999997
 30
0.0
 10
9.3749000000000002
 20
51.170699999999997
 30
0.0
 10
9.4811999999999994
 20
51.170699999999997
 30
0.0
 10
9.5860000000000003
 20
51.170699999999997
 30
0.0
 10
9.6928999999999998
 20
51.170699999999997
 30
0.0
 10
9.6928999999999998
 20
51.170699999999997
 30
0.0
 10
9.8610000000000007
 20
51.148099999999999
 30
0.0
 10
9.9475999999999996
 20
51.491199999999999
 30
0.0
 10
9.9475999999999996
 20
52.198399999999999
 30
0.0
 10
9.9475999999999996
 20
52.198399999999999
 30
0.0
 10
10.0738
 20
52.221899999999998
 30
0.0
 10
10.200100000000001
 20
52.2453
 30
0.0
 10
10.327299999999999
 20
52.268000000000001
 30
0.0
 10
10.327299999999999
 20
52.268000000000001
 30
0.0
 10
10.4131
 20
53.251800000000003
 30
0.0
 10
10.175000000000001
 20
54.234999999999999
 30
0.0
 10
10.090299999999999
 20
55.217799999999997
 30
0.0
 10
10.090299999999999
 20
55.217799999999997
 30
0.0
 10
9.6433
 20
56.497999999999998
 30
0.0
 10
9.5213999999999999
 20
57.778100000000002
 30
0.0
 10
9.2484999999999999
 20
59.058500000000002
 30
0.0
 10
9.2484999999999999
 20
59.058500000000002
 30
0.0
 10
8.9934999999999992
 20
60.040900000000001
 30
0.0
 10
8.9083000000000006
 20
61.025500000000001
 30
0.0
 10
8.9934999999999992
 20
62.011099999999999
 30
0.0
 10
8.9934999999999992
 20
62.011099999999999
 30
0.0
 10
8.9183000000000003
 20
62.742400000000004
 30
0.0
 10
8.4949999999999992
 20
63.472999999999999
 30
0.0
 10
7.9116
 20
64.204800000000006
 30
0.0
 10
7.9116
 20
64.204800000000006
 30
0.0
 10
6.0044000000000004
 20
64.708100000000002
 30
0.0
 10
4.2678000000000003
 20
65.759100000000004
 30
0.0
 10
2.6993
 20
67.359499999999997
 30
0.0
 10
2.6993
 20
67.359499999999997
 30
0.0
 10
1.3101
 20
68.277699999999996
 30
0.0
 10
-0.0016
 20
69.310100000000006
 30
0.0
 10
-1.2126999999999999
 20
70.487799999999993
 30
0.0
 10
-1.2126999999999999
 20
70.487799999999993
 30
0.0
 10
-1.2126999999999999
 20
70.487799999999993
 30
0.0
 10
-5.8235000000000001
 20
70.487799999999993
 30
0.0
 10
-5.8235000000000001
 20
70.487799999999993
 30
0.0
 10
-5.8235000000000001
 20
70.487799999999993
 30
0.0
 10
-5.8235000000000001
 20
70.487799999999993
 30
0.0
 10
-5.8235000000000001
 20
74.542400000000001
 30
0.0
 10
-5.8235000000000001
 20
74.542400000000001
 30
0.0
 10
-5.8235000000000001
 20
74.542400000000001
 30
0.0
 10
-5.8235000000000001
 20
74.542400000000001
 30
0.0
 10
-5.9340000000000002
 20
74.635900000000007
 30
0.0
 10
-5.9340000000000002
 20
74.635900000000007
 30
0.0
 10
-5.9340000000000002
 20
74.635900000000007
 30
0.0
 10
-5.9340000000000002
 20
74.864699999999999
 30
0.0
 10
-6.2000000000000002
 20
75.019099999999995
 30
0.0
 10
-6.2000000000000002
 20
75.247900000000001
 30
0.0
 10
-6.2000000000000002
 20
75.247900000000001
 30
0.0
 10
-6.2832999999999997
 20
75.430800000000005
 30
0.0
 10
-6.3686999999999996
 20
75.613299999999995
 30
0.0
 10
-6.4530000000000003
 20
75.796499999999995
 30
0.0
 10
-6.4530000000000003
 20
75.796499999999995
 30
0.0
 10
-6.4530000000000003
 20
75.796499999999995
 30
0.0
 10
-6.4523999999999999
 20
75.830200000000005
 30
0.0
 10
-6.4523999999999999
 20
75.830200000000005
 30
0.0
 10
-6.4523999999999999
 20
75.830200000000005
 30
0.0
 10
-12.1173
 20
70.462199999999996
 30
0.0
 10
-15.6518
 20
62.868200000000002
 30
0.0
 10
-15.6518
 20
54.450000000000003
 30
0.0
 10
-15.6518
 20
54.450000000000003
 30
0.0
 10
-15.6518
 20
39.079900000000002
 30
0.0
 10
-3.8713000000000002
 20
26.458600000000001
 30
0.0
 10
11.150600000000001
 20
25.118200000000002
 30
0.0
  0
SPLINE
  5
2F
100
AcDbEntity
  8
RÚteg 1
 62
     7
100
AcDbSpline
210
0.0
220
0.0
230
1.0
 70
     1
 71
     3
 72
    28
 73
    24
 74
     0
 42
0.0000000001
 43
0.0000000001
 40
0.0
 40
0.0
 40
0.0
 40
0.0
 40
0.1666666666666667
 40
0.1666666666666667
 40
0.1666666666666667
 40
0.1666666666666667
 40
0.3333333333333333
 40
0.3333333333333333
 40
0.3333333333333333
 40
0.3333333333333333
 40
0.5
 40
0.5
 40
0.5
 40
0.5
 40
0.6666666666666666
 40
0.6666666666666666
 40
0.6666666666666666
 40
0.6666666666666666
 40
0.8333333333333333
 40
0.8333333333333333
 40
0.8333333333333333
 40
0.8333333333333333
 40
1.0
 40
1.0
 40
1.0
 40
1.0
 10
-5.0231000000000003
 20
77.099599999999995
 30
0.0
 10
-4.4867999999999997
 20
76.958200000000005
 30
0.0
 10
-4.1154000000000002
 20
76.638000000000005
 30
0.0
 10
-3.9098000000000002
 20
76.139799999999994
 30
0.0
 10
-3.9098000000000002
 20
76.139799999999994
 30
0.0
 10
-3.6547999999999998
 20
76.139799999999994
 30
0.0
 10
-3.4020000000000001
 20
76.139799999999994
 30
0.0
 10
-3.149
 20
76.139799999999994
 30
0.0
 10
-3.149
 20
76.139799999999994
 30
0.0
 10
-2.8950999999999998
 20
75.765900000000002
 30
0.0
 10
-2.7082999999999999
 20
75.392899999999997
 30
0.0
 10
-2.5895000000000001
 20
75.019400000000005
 30
0.0
 10
-2.5895000000000001
 20
75.019400000000005
 30
0.0
 10
-2.5895000000000001
 20
75.019400000000005
 30
0.0
 10
11.150600000000001
 20
75.019400000000005
 30
0.0
 10
11.150600000000001
 20
75.019400000000005
 30
0.0
 10
11.150600000000001
 20
75.019400000000005
 30
0.0
 10
11.150600000000001
 20
75.019400000000005
 30
0.0
 10
11.150600000000001
 20
83.781899999999993
 30
0.0
 10
11.150600000000001
 20
83.781899999999993
 30
0.0
 10
11.150600000000001
 20
83.781899999999993
 30
0.0
 10
5.0284000000000004
 20
83.235399999999998
 30
0.0
 10
-0.5558
 20
80.816599999999994
 30
0.0
 10
-5.0231000000000003
 20
77.099599999999995
 30
0.0
  0
SPLINE
  5
30
100
AcDbEntity
  8
RÚteg 1
 62
     7
100
AcDbSpline
210
0.0
220
0.0
230
1.0
 70
     1
 71
     3
 72
    40
 73
    36
 74
     0
 42
0.0000000001
 43
0.0000000001
 40
0.0
 40
0.0
 40
0.0
 40
0.0
 40
0.1111111111111111
 40
0.1111111111111111
 40
0.1111111111111111
 40
0.1111111111111111
 40
0.2222222222222222
 40
0.2222222222222222
 40
0.2222222222222222
 40
0.2222222222222222
 40
0.3333333333333333
 40
0.3333333333333333
 40
0.3333333333333333
 40
0.3333333333333333
 40
0.4444444444444444
 40
0.4444444444444444
 40
0.4444444444444444
 40
0.4444444444444444
 40
0.5555555555555556
 40
0.5555555555555556
 40
0.5555555555555556
 40
0.5555555555555556
 40
0.6666666666666667
 40
0.6666666666666667
 40
0.6666666666666667
 40
0.6666666666666667
 40
0.7777777777777779
 40
0.7777777777777779
 40
0.7777777777777779
 40
0.7777777777777779
 40
0.8888888888888891
 40
0.8888888888888891
 40
0.8888888888888891
 40
0.8888888888888891
 40
1.0
 40
1.0
 40
1.0
 40
1.0
 10
23.903400000000001
 20
70.487799999999993
 30
0.0
 10
23.903400000000001
 20
70.487799999999993
 30
0.0
 10
16.1799
 20
70.487799999999993
 30
0.0
 10
16.1799
 20
70.487799999999993
 30
0.0
 10
16.1799
 20
70.487799999999993
 30
0.0
 10
16.1799
 20
70.487799999999993
 30
0.0
 10
16.1799
 20
69.585400000000007
 30
0.0
 10
16.1799
 20
69.585400000000007
 30
0.0
 10
16.1799
 20
69.585400000000007
 30
0.0
 10
16.367000000000001
 20
69.414400000000001
 30
0.0
 10
16.429500000000001
 20
69.198300000000003
 30
0.0
 10
16.3657
 20
68.937200000000004
 30
0.0
 10
16.3657
 20
68.937200000000004
 30
0.0
 10
16.683399999999999
 20
68.869100000000003
 30
0.0
 10
17.0015
 20
68.983500000000006
 30
0.0
 10
17.319400000000002
 20
69.281599999999997
 30
0.0
 10
17.319400000000002
 20
69.281599999999997
 30
0.0
 10
17.3611
 20
68.959900000000005
 30
0.0
 10
17.4041
 20
68.640000000000001
 30
0.0
 10
17.447299999999998
 20
68.319900000000004
 30
0.0
 10
17.447299999999998
 20
68.319900000000004
 30
0.0
 10
17.3611
 20
68.022400000000005
 30
0.0
 10
17.276499999999999
 20
67.726100000000002
 30
0.0
 10
17.193100000000001
 20
67.428200000000004
 30
0.0
 10
17.193100000000001
 20
67.428200000000004
 30
0.0
 10
17.953399999999998
 20
67.999399999999994
 30
0.0
 10
18.885899999999999
 20
68.205699999999993
 30
0.0
 10
19.9893
 20
68.0458
 30
0.0
 10
19.9893
 20
68.0458
 30
0.0
 10
20.8581
 20
68.891800000000003
 30
0.0
 10
21.8108
 20
69.372299999999996
 30
0.0
 10
22.8506
 20
69.487200000000001
 30
0.0
 10
22.8506
 20
69.487200000000001
 30
0.0
 10
23.183299999999999
 20
69.838200000000001
 30
0.0
 10
23.535499999999999
 20
70.169399999999996
 30
0.0
 10
23.903400000000001
 20
70.487799999999993
 30
0.0
  0
SPLINE
  5
31
100
AcDbEntity
  8
RÚteg 1
 62
     7
100
AcDbSpline
210
0.0
220
0.0
230
1.0
 70
     1
 71
     3
 72
    32
 73
    28
 74
     0
 42
0.0000000001
 43
0.0000000001
 40
0.0
 40
0.0
 40
0.0
 40
0.0
 40
0.1428571428571429
 40
0.1428571428571429
 40
0.1428571428571429
 40
0.1428571428571429
 40
0.2857142857142857
 40
0.2857142857142857
 40
0.2857142857142857
 40
0.2857142857142857
 40
0.4285714285714286
 40
0.4285714285714286
 40
0.4285714285714286
 40
0.4285714285714286
 40
0.5714285714285714
 40
0.5714285714285714
 40
0.5714285714285714
 40
0.5714285714285714
 40
0.7142857142857142
 40
0.7142857142857142
 40
0.7142857142857142
 40
0.7142857142857142
 40
0.857142857142857
 40
0.857142857142857
 40
0.857142857142857
 40
0.857142857142857
 40
1.0
 40
1.0
 40
1.0
 40
1.0
 10
9.0145
 20
70.487799999999993
 30
0.0
 10
9.0145
 20
70.487799999999993
 30
0.0
 10
2.9588999999999999
 20
70.487799999999993
 30
0.0
 10
2.9588999999999999
 20
70.487799999999993
 30
0.0
 10
2.9588999999999999
 20
70.487799999999993
 30
0.0
 10
3.2673000000000001
 20
70.137600000000006
 30
0.0
 10
3.5198999999999998
 20
69.712500000000006
 30
0.0
 10
3.7172000000000001
 20
69.212800000000001
 30
0.0
 10
3.7172000000000001
 20
69.212800000000001
 30
0.0
 10
5.3909000000000002
 20
68.869100000000003
 30
0.0
 10
6.4709000000000003
 20
68.343000000000004
 30
0.0
 10
6.9577999999999998
 20
67.633799999999994
 30
0.0
 10
6.9577999999999998
 20
67.633799999999994
 30
0.0
 10
7.4676
 20
67.566299999999998
 30
0.0
 10
7.9752000000000001
 20
67.497
 30
0.0
 10
8.4840999999999998
 20
67.428200000000004
 30
0.0
 10
8.4840999999999998
 20
67.428200000000004
 30
0.0
 10
9.1608999999999998
 20
67.3292
 30
0.0
 10
9.3937000000000008
 20
67.603200000000001
 30
0.0
 10
9.1832999999999991
 20
68.251599999999996
 30
0.0
 10
9.1832999999999991
 20
68.251599999999996
 30
0.0
 10
9.2881999999999998
 20
68.617199999999997
 30
0.0
 10
9.3948
 20
68.983500000000006
 30
0.0
 10
9.5001999999999995
 20
69.349900000000005
 30
0.0
 10
9.5001999999999995
 20
69.349900000000005
 30
0.0
 10
9.2606999999999999
 20
69.742699999999999
 30
0.0
 10
9.0991
 20
70.122500000000002
 30
0.0
 10
9.0145
 20
70.487799999999993
 30
0.0
  0
ENDSEC
  0
SECTION
  2
OBJECTS
  0
DICTIONARY
  5
19
100
AcDbDictionary
280
     0
281
     1
  3
ACAD_GROUP
350
1A
  3
ACAD_MLINESTYLE
350
1B
  3
ACAD_LAYOUT
350
1E
  3
ACAD_PLOTSETTINGS
350
22
  3
ACAD_PLOTSTYLENAME
350
1F
  3
ACAD_WIPEOUT_VARS
350
23
  0
DICTIONARY
  5
1A
102
{ACAD_REACTORS
330
19
102
}
100
AcDbDictionary
280
     0
281
     1
  0
DICTIONARY
  5
1B
102
{ACAD_REACTORS
330
19
102
}
100
AcDbDictionary
280
     0
281
     1
  3
Standard
350
1C
  0
MLINESTYLE
  5
1C
102
{ACAD_REACTORS
330
1B
102
}
100
AcDbMlineStyle
  2
Standard
 70
     0
  3

 62
     0
 51
90.0
 52
90.0
 71
     2
 49
0.5
 62
   256
  6
BYLAYER
 49
-0.5
 62
   256
  6
BYLAYER
  0
ACDBDICTIONARYWDFLT
  5
1F
102
{ACAD_REACTORS
330
19
102
}
100
AcDbDictionary
281
     1
  3
Normal
350
1D
100
AcDbDictionaryWithDefault
340
1D
  0
ACDBPLACEHOLDER
  5
1D
102
{ACAD_REACTORS
330
1F
102
}
  0
LAYOUT
  5
20
102
{ACAD_REACTORS
330
1E
102
}
100
AcDbPlotSettings
  1

  2

  4

  6

 40
0.0
 41
0.0
 42
0.0
 43
0.0
 44
0.0
 45
0.0
 46
0.0
 47
0.0
 48
0.0
 49
0.0
140
0.0
141
0.0
142
1.0
143
1.0
 70
  1024
 72
     0
 73
     0
 74
     0
  7

 75
     0
147
1.0
148
0.0
149
0.0
100
AcDbLayout
  1
Model
 70
     0
 71
     0
 10
0.0
 20
0.0
 11
0.0
 21
0.0
 12
0.0
 22
0.0
 32
0.0
 14
0.0
 24
0.0
 34
0.0
 15
0.0
 25
0.0
 35
0.0
146
0.0
 13
0.0
 23
0.0
 33
0.0
 16
0.0
 26
0.0
 36
0.0
 17
0.0
 27
0.0
 37
0.0
 76
     0
330
A
331
0
345
0
346
0
  0
LAYOUT
  5
21
102
{ACAD_REACTORS
330
1E
102
}
100
AcDbPlotSettings
  1

  2

  4

  6

 40
0.0
 41
0.0
 42
0.0
 43
0.0
 44
0.0
 45
0.0
 46
0.0
 47
0.0
 48
0.0
 49
0.0
140
0.0
141
0.0
142
1.0
143
1.0
 70
     0
 72
     0
 73
     0
 74
     0
  7

 75
     0
147
1.0
148
0.0
149
0.0
100
AcDbLayout
  1
Layout1
 70
     0
 71
     0
 10
0.0
 20
0.0
 11
0.0
 21
0.0
 12
0.0
 22
0.0
 32
0.0
 14
0.0
 24
0.0
 34
0.0
 15
0.0
 25
0.0
 35
0.0
146
0.0
 13
0.0
 23
0.0
 33
0.0
 16
0.0
 26
0.0
 36
0.0
 17
0.0
 27
0.0
 37
0.0
 76
     0
330
B
331
0
345
0
346
0
  0
DICTIONARY
  5
1E
102
{ACAD_REACTORS
330
19
102
}
100
AcDbDictionary
280
     0
281
     1
  3
Layout1
350
21
  3
Model
350
20
  0
DICTIONARY
  5
22
102
{ACAD_REACTORS
330
19
102
}
100
AcDbDictionary
280
     0
281
     1
  0
WIPEOUTVARIABLES
  5
23
100
AcDbWipeoutVariables
 70
     1
  0
ENDSEC
  0
EOF
