  0
SECTION
  2
HEADER
  9
$ACADVER
  1
AC1015
  9
$ACADMAINTVER
 70
     6
  9
$DWGCODEPAGE
  3
DOS850
  9
$INSBASE
 10
0.0
 20
0.0
 30
0.0
  9
$EXTMIN
 10
-82.9881
 20
21.1619
 30
1.000000E+20
  9
$EXTMAX
 10
53.5881
 20
95.3381
 30
-1.000000E+20
  9
$LIMMIN
 10
0.0
 20
0.0
  9
$LIMMAX
 10
0.0
 20
0.0
  9
$ORTHOMODE
 70
     0
  9
$REGENMODE
 70
     1
  9
$FILLMODE
 70
     1
  9
$QTEXTMODE
 70
     0
  9
$MIRRTEXT
 70
     1
  9
$LTSCALE
 40
1.0
  9
$ATTMODE
 70
     1
  9
$TEXTSIZE
 40
0.2
  9
$TRACEWID
 40
0.05
  9
$TEXTSTYLE
  7
Standard
  9
$CLAYER
  8
0
  9
$CELTYPE
  6
Continuous
  9
$CECOLOR
 62
   256
  9
$CELTSCALE
 40
1.0
  9
$DISPSILH
 70
     0
  9
$DIMSCALE
 40
1.0
  9
$DIMASZ
 40
0.18
  9
$DIMEXO
 40
0.0625
  9
$DIMDLI
 40
0.38
  9
$DIMRND
 40
0.0
  9
$DIMDLE
 40
0.0
  9
$DIMEXE
 40
0.18
  9
$DIMTP
 40
0.0
  9
$DIMTM
 40
0.0
  9
$DIMTXT
 40
0.18
  9
$DIMCEN
 40
0.09
  9
$DIMTSZ
 40
0.0
  9
$DIMTOL
 70
     0
  9
$DIMLIM
 70
     0
  9
$DIMTIH
 70
     1
  9
$DIMTOH
 70
     1
  9
$DIMSE1
 70
     0
  9
$DIMSE2
 70
     0
  9
$DIMTAD
 70
     0
  9
$DIMZIN
 70
     0
  9
$DIMBLK
  1

  9
$DIMASO
 70
     1
  9
$DIMSHO
 70
     1
  9
$DIMPOST
  1

  9
$DIMAPOST
  1

  9
$DIMALT
 70
     0
  9
$DIMALTD
 70
     2
  9
$DIMALTF
 40
25.4
  9
$DIMLFAC
 40
1.0
  9
$DIMTOFL
 70
     0
  9
$DIMTVP
 40
0.0
  9
$DIMTIX
 70
     0
  9
$DIMSOXD
 70
     0
  9
$DIMSAH
 70
     0
  9
$DIMBLK1
  1

  9
$DIMBLK2
  1

  9
$DIMSTYLE
  2
Standard
  9
$DIMCLRD
 70
     0
  9
$DIMCLRE
 70
     0
  9
$DIMCLRT
 70
     0
  9
$DIMTFAC
 40
1.0
  9
$DIMGAP
 40
0.09
  9
$DIMJUST
 70
     0
  9
$DIMSD1
 70
     0
  9
$DIMSD2
 70
     0
  9
$DIMTOLJ
 70
     1
  9
$DIMTZIN
 70
     0
  9
$DIMALTZ
 70
     0
  9
$DIMALTTZ
 70
     0
  9
$DIMUPT
 70
     0
  9
$DIMDEC
 70
     4
  9
$DIMTDEC
 70
     4
  9
$DIMALTU
 70
     2
  9
$DIMALTTD
 70
     2
  9
$DIMTXSTY
  7
Standard
  9
$DIMAUNIT
 70
     0
  9
$DIMADEC
 70
     0
  9
$DIMALTRND
 40
0.0
  9
$DIMAZIN
 70
     0
  9
$DIMDSEP
 70
     0
  9
$DIMATFIT
 70
     3
  9
$DIMFRAC
 70
     0
  9
$DIMLDRBLK
  1

  9
$DIMLUNIT
 70
     2
  9
$DIMLWD
 70
     0
  9
$DIMLWE
 70
     0
  9
$DIMTMOVE
 70
     0
  9
$LUNITS
 70
     2
  9
$LUPREC
 70
     4
  9
$SKETCHINC
 40
0.1
  9
$FILLETRAD
 40
0.0
  9
$AUNITS
 70
     0
  9
$AUPREC
 70
     0
  9
$MENU
  1
acad
  9
$ELEVATION
 40
0.0
  9
$PELEVATION
 40
0.0
  9
$THICKNESS
 40
0.0
  9
$LIMCHECK
 70
     0
  9
$CHAMFERA
 40
0.0
  9
$CHAMFERB
 40
0.0
  9
$CHAMFERC
 40
0.0
  9
$CHAMFERD
 40
0.0
  9
$SKPOLY
 70
     0
  9
$TDCREATE
 40
0.000000000
  9
$TDUCREATE
 40
0.000000000
  9
$TDUPDATE
 40
0.000000000
  9
$TDUUPDATE
 40
0.000000000
  9
$TDINDWG
 40
0.0000000000
  9
$TDUSRTIMER
 40
0.0000000000
  9
$USRTIMER
 70
     1
  9
$ANGBASE
 50
0.0
  9
$ANGDIR
 70
     0
  9
$PDMODE
 70
     0
  9
$PDSIZE
 40
0.0
  9
$PLINEWID
 40
0.0
  9
$SPLFRAME
 70
     0
  9
$SPLINETYPE
 70
     6
  9
$SPLINESEGS
 70
     8
  9
$HANDSEED
  5
31
  9
$SURFTAB1
 70
     6
  9
$SURFTAB2
 70
     6
  9
$SURFTYPE
 70
     6
  9
$SURFU
 70
     6
  9
$SURFV
 70
     6
  9
$UCSBASE
  2

  9
$UCSNAME
  2

  9
$UCSORG
 10
0.0
 20
0.0
 30
0.0
  9
$UCSXDIR
 10
1.0
 20
0.0
 30
0.0
  9
$UCSYDIR
 10
0.0
 20
1.0
 30
0.0
  9
$UCSORTHOREF
  2

  9
$UCSORTHOVIEW
 70
     0
  9
$UCSORGTOP
 10
0.0
 20
0.0
 30
0.0
  9
$UCSORGBOTTOM
 10
0.0
 20
0.0
 30
0.0
  9
$UCSORGLEFT
 10
0.0
 20
0.0
 30
0.0
  9
$UCSORGRIGHT
 10
0.0
 20
0.0
 30
0.0
  9
$UCSORGFRONT
 10
0.0
 20
0.0
 30
0.0
  9
$UCSORGBACK
 10
0.0
 20
0.0
 30
0.0
  9
$PUCSBASE
  2

  9
$PUCSNAME
  2

  9
$PUCSORG
 10
0.0
 20
0.0
 30
0.0
  9
$PUCSXDIR
 10
1.0
 20
0.0
 30
0.0
  9
$PUCSYDIR
 10
0.0
 20
1.0
 30
0.0
  9
$PUCSORTHOREF
  2

  9
$PUCSORTHOVIEW
 70
     0
  9
$PUCSORGTOP
 10
0.0
 20
0.0
 30
0.0
  9
$PUCSORGBOTTOM
 10
0.0
 20
0.0
 30
0.0
  9
$PUCSORGLEFT
 10
0.0
 20
0.0
 30
0.0
  9
$PUCSORGRIGHT
 10
0.0
 20
0.0
 30
0.0
  9
$PUCSORGFRONT
 10
0.0
 20
0.0
 30
0.0
  9
$PUCSORGBACK
 10
0.0
 20
0.0
 30
0.0
  9
$USERI1
 70
     0
  9
$USERI2
 70
     0
  9
$USERI3
 70
     0
  9
$USERI4
 70
     0
  9
$USERI5
 70
     0
  9
$USERR1
 40
0.0
  9
$USERR2
 40
0.0
  9
$USERR3
 40
0.0
  9
$USERR4
 40
0.0
  9
$USERR5
 40
0.0
  9
$WORLDVIEW
 70
     1
  9
$SHADEDGE
 70
     3
  9
$SHADEDIF
 70
    70
  9
$TILEMODE
 70
     1
  9
$MAXACTVP
 70
    16
  9
$PINSBASE
 10
0.0
 20
0.0
 30
0.0
  9
$PLIMCHECK
 70
     0
  9
$PEXTMIN
 10
1.000000E+20
 20
1.000000E+20
 30
1.000000E+20
  9
$PEXTMAX
 10
-1.000000E+20
 20
-1.000000E+20
 30
-1.000000E+20
  9
$PLIMMIN
 10
0.0
 20
0.0
  9
$PLIMMAX
 10
12.0
 20
9.0
  9
$UNITMODE
 70
     0
  9
$VISRETAIN
 70
     0
  9
$PLINEGEN
 70
     1
  9
$PSLTSCALE
 70
     0
  9
$TREEDEPTH
 70
  3020
  9
$CMLSTYLE
  2
Standard
  9
$CMLJUST
 70
     0
  9
$CMLSCALE
 40
1.0
  9
$PROXYGRAPHICS
 70
     0
  9
$MEASUREMENT
 70
     0
  9
$CELWEIGHT
370
     0
  9
$ENDCAPS
280
     0
  9
$JOINSTYLE
280
     0
  9
$LWDISPLAY
290
     0
  9
$INSUNITS
 70
     4
  9
$HYPERLINKBASE
  1

  9
$XEDIT
290
     1
  9
$CEPSNTYPE
380
     0
  9
$PSTYLEMODE
290
     1
  9
$FINGERPRINTGUID
  2

  9
$VERSIONGUID
  2

  9
$EXTNAMES
290
     1
  9
$PSVPSCALE
 40
0.0
  0
ENDSEC
  0
SECTION
  2
CLASSES
  0
CLASS
  1
LWPOLYLINE
  2
AcDbPolyline
  3
AutoCAD 2000
 90
    32768
280
     0
281
     1
  0
CLASS
  1
IMAGE
  2
AcDbRasterImage
  3
ISM
 90
    32895
280
     0
281
     1
  0
CLASS
  1
OLE2FRAME
  2
AcDbOle2Frame
  3
AutoCAD 2000
 90
    32768
280
     0
281
     1
  0
CLASS
  1
HATCH
  2
AcDbHatch
  3
AutoCAD 2000
 90
    32768
280
     0
281
     1
  0
CLASS
  1
DICTIONARYVAR
  2
AcDbDictionaryVar
  3
AutoCAD 2000
 90
    32768
280
     0
281
     0
  0
CLASS
  1
RASTERVARIABLES
  2
AcDbRasterVariables
  3
ISM
 90
    32768
280
     0
281
     0
  0
CLASS
  1
IMAGEDEF
  2
AcDbRasterImageDef
  3
ISM
 90
    32768
280
     0
281
     0
  0
CLASS
  1
IMAGEDEF_REACTOR
  2
AcDbRasterImageDefReactor
  3
ISM
 90
    32769
280
     0
281
     0
  0
CLASS
  1
IDBUFFER
  2
AcDbIdBuffer
  3
AutoCAD 2000
 90
    32768
280
     0
281
     0
  0
CLASS
  1
SPATIAL_FILTER
  2
AcDbSpatialFilter
  3
AutoCAD 2000
 90
    32768
280
     0
281
     0
  0
CLASS
  1
XRECORD
  2
AcDbXrecord
  3
AutoCAD 2000
 90
    32768
280
     0
281
     0
  0
CLASS
  1
SORTENTSTABLE
  2
AcDbSortentsTable
  3
AutoCAD 2000
 90
    32768
280
     0
281
     0
  0
CLASS
  1
LAYER_INDEX
  2
AcDbLayerIndex
  3
AutoCAD 2000
 90
    32768
280
     0
281
     0
  0
CLASS
  1
SPATIAL_INDEX
  2
AcDbSpatialIndex
  3
AutoCAD 2000
 90
    32768
280
     0
281
     0
  0
CLASS
  1
OBJECT_PTR
  2
CAseDLPNTableRecord
  3
"ASE-LPNTableRecord"
 90
    32769
280
     0
281
     0
  0
CLASS
  1
LAYOUT
  2
AcDbLayout
  3
AutoCAD 2000
 90
        0
280
     0
281
     0
  0
CLASS
  1
PLOTSETTINGS
  2
AcDbPlotSettings
  3
AutoCAD 2000
 90
    32768
280
     0
281
     0
  0
CLASS
  1
ACDBDICTIONARYWDFLT
  2
AcDbDictionaryWithDefault
  3
AutoCAD 2000
 90
        0
280
     0
281
     0
  0
CLASS
  1
ACDBPLACEHOLDER
  2
AcDbPlaceHolder
  3
AutoCAD 2000
 90
        0
280
     0
281
     0
  0
CLASS
  1
VBA_PROJECT
  2
AcDbVbaProject
  3
acadvba
 90
    32768
280
     0
281
     0
  0
CLASS
  1
WIPEOUT
  2
AcDbWipeout
  3
WipeOut|AutoCAD Express Tool|expresstools@autodesk.com
 90
    32895
280
     0
281
     1
  0
CLASS
  1
WIPEOUTVARIABLES
  2
AcDbWipeoutVariables
  3
WipeOut|AutoCAD Express Tool|expresstools@autodesk.com
 90
        0
280
     0
281
     0
  0
CLASS
  1
RTEXT
  2
RText
  3
RText|AutoCAD Express Tool|expresstools@autodesk.com
 90
    32768
280
     0
281
     1
  0
CLASS
  1
ARCALIGNEDTEXT
  2
AcDbArcAlignedText
  3
ATEXT|AutoCAD Express Tool|expresstools@autodesk.com
 90
    32768
280
     0
281
     1
  0
ENDSEC
  0
SECTION
  2
TABLES
  0
TABLE
  2
VPORT
  5
7
100
AcDbSymbolTable
 70
     1
  0
VPORT
  5
15
100
AcDbSymbolTableRecord
100
AcDbViewportTableRecord
  2
*ACTIVE
 70
     0
 10
0.0
 20
0.0
 11
1.0
 21
1.0
 12
6.591288
 22
4.579184
 13
0.0
 23
0.0
 14
1.0
 24
1.0
 15
0.0
 25
0.0
 16
0.0
 26
0.0
 36
1.0
 17
0.0
 27
0.0
 37
0.0
 40
9.158369
 41
0.688564
 42
50.0
 43
0.0
 44
0.0
 50
0.0
 51
0.0
 71
     0
 72
   100
 73
     1
 74
     1
 75
     0
 76
     0
 77
     0
 78
     0
281
     0
 65
     0
110
0.0
120
0.0
130
0.0
111
1.0
121
0.0
131
0.0
112
0.0
122
1.0
132
0.0
345
0
346
0
 79
     0
146
0.0
  0
ENDTAB
  0
TABLE
  2
LTYPE
  5
4
100
AcDbSymbolTable
 70
     3
  0
LTYPE
  5
11
100
AcDbSymbolTableRecord
100
AcDbLinetypeTableRecord
  2
ByBlock
 70
    64
  3

 72
    65
 73
     0
 40
0.0
  0
LTYPE
  5
12
100
AcDbSymbolTableRecord
100
AcDbLinetypeTableRecord
  2
ByLayer
 70
    64
  3

 72
    65
 73
     0
 40
0.0
  0
LTYPE
  5
13
100
AcDbSymbolTableRecord
100
AcDbLinetypeTableRecord
  2
Continuous
 70
    64
  3
Solid line
 72
    65
 73
     0
 40
0.0
  0
ENDTAB
  0
TABLE
  2
LAYER
  5
2
100
AcDbSymbolTable
 70
     2
  0
LAYER
  5
14
100
AcDbSymbolTableRecord
100
AcDbLayerTableRecord
  2
0
 70
     0
 62
     7
  6
Continuous
290
     1
370
    -3
390
1D
  0
LAYER
  5
24
100
AcDbSymbolTableRecord
100
AcDbLayerTableRecord
  2
RÚteg 1
 70
     0
 62
     7
  6
Continuous
290
     1
370
    -3
390
1F
  0
ENDTAB
  0
TABLE
  2
STYLE
  5
3
100
AcDbSymbolTable
 70
     1
  0
STYLE
  5
17
100
AcDbSymbolTableRecord
100
AcDbTextStyleTableRecord
  2
Standard
 70
     0
 40
0.0
 41
1.0
 50
0.0
 71
     0
 42
0.0
  3
txt
  4

  0
ENDTAB
  0
TABLE
  2
VIEW
  5
5
100
AcDbSymbolTable
 70
     0
  0
ENDTAB
  0
TABLE
  2
UCS
  5
6
100
AcDbSymbolTable
 70
     0
  0
ENDTAB
  0
TABLE
  2
APPID
  5
8
100
AcDbSymbolTable
 70
     1
  0
APPID
  5
16
100
AcDbSymbolTableRecord
100
AcDbRegAppTableRecord
  2
ACAD
 70
     0
  0
ENDTAB
  0
TABLE
  2
DIMSTYLE
  5
9
100
AcDbSymbolTable
 70
     1
100
AcDbDimStyleTable
 71
     0
  0
DIMSTYLE
105
18
100
AcDbSymbolTableRecord
100
AcDbDimStyleTableRecord
  2
Standard
 70
     0
  3

  4

 40
1.0
 41
0.18
 42
0.0625
 43
0.38
 44
0.18
 45
0.0
 46
0.0
 47
0.0
 48
0.0
 71
     0
 72
     0
 73
     1
 74
     1
 75
     0
 76
     0
 77
     0
 78
     0
 79
     0
140
0.18
141
0.09
142
0.0
143
25.4
144
1.0
145
0.0
146
1.0
147
0.09
148
0.0
170
     0
171
     2
172
     0
173
     0
174
     0
175
     0
176
     0
177
     0
178
     0
179
     0
271
     4
272
     4
273
     2
274
     2
275
     0
276
     0
277
     2
278
    46
279
     0
280
     0
281
     0
282
     0
283
     1
284
     0
285
     0
286
     0
288
     0
340
17
341
0
342
0
343
0
344
0
371
    -2
372
    -2
  0
ENDTAB
  0
TABLE
  2
BLOCK_RECORD
  5
1
100
AcDbSymbolTable
 70
     0
  0
BLOCK_RECORD
  5
A
100
AcDbSymbolTableRecord
100
AcDbBlockTableRecord
  2
*MODEL_SPACE
340
20
  0
BLOCK_RECORD
  5
B
100
AcDbSymbolTableRecord
100
AcDbBlockTableRecord
  2
*PAPER_SPACE
340
21
  0
ENDTAB
  0
ENDSEC
  0
SECTION
  2
BLOCKS
  0
BLOCK
  5
D
100
AcDbEntity
  8
0
100
AcDbBlockBegin
  2
*MODEL_SPACE
 70
     0
 10
0.0
 20
0.0
 30
0.0
  3
*MODEL_SPACE
  1

  0
ENDBLK
  5
E
100
AcDbEntity
  8
0
100
AcDbBlockEnd
  0
BLOCK
  5
F
100
AcDbEntity
 67
     1
  8
0
100
AcDbBlockBegin
  2
*PAPER_SPACE
 70
     0
 10
0.0
 20
0.0
 30
0.0
  3
*PAPER_SPACE
  1

  0
ENDBLK
  5
10
100
AcDbEntity
 67
     1
  8
0
100
AcDbBlockEnd
  0
ENDSEC
  0
SECTION
  2
ENTITIES
  0
SPLINE
  5
25
100
AcDbEntity
  8
RÚteg 1
 62
     7
100
AcDbSpline
210
0.0
220
0.0
230
1.0
 70
     1
 71
     3
 72
    28
 73
    24
 74
     0
 42
0.0000000001
 43
0.0000000001
 40
0.0
 40
0.0
 40
0.0
 40
0.0
 40
0.1666666666666667
 40
0.1666666666666667
 40
0.1666666666666667
 40
0.1666666666666667
 40
0.3333333333333333
 40
0.3333333333333333
 40
0.3333333333333333
 40
0.3333333333333333
 40
0.5
 40
0.5
 40
0.5
 40
0.5
 40
0.6666666666666666
 40
0.6666666666666666
 40
0.6666666666666666
 40
0.6666666666666666
 40
0.8333333333333333
 40
0.8333333333333333
 40
0.8333333333333333
 40
0.8333333333333333
 40
1.0
 40
1.0
 40
1.0
 40
1.0
 10
-49.700000000000003
 20
87.700000000000003
 30
0.0
 10
-49.674999999999997
 20
87.700000000000003
 30
0.0
 10
-49.650300000000001
 20
87.699100000000001
 30
0.0
 10
-49.625500000000002
 20
87.698999999999998
 30
0.0
 10
-49.625500000000002
 20
87.698999999999998
 30
0.0
 10
-48.085099999999997
 20
87.738500000000002
 30
0.0
 10
-46.848100000000002
 20
89.000200000000007
 30
0.0
 10
-46.848100000000002
 20
90.5501
 30
0.0
 10
-46.848100000000002
 20
90.5501
 30
0.0
 10
-46.848100000000002
 20
92.124799999999993
 30
0.0
 10
-48.1252
 20
93.401899999999998
 30
0.0
 10
-49.700000000000003
 20
93.401899999999998
 30
0.0
 10
-49.700000000000003
 20
93.401899999999998
 30
0.0
 10
-51.274799999999999
 20
93.401899999999998
 30
0.0
 10
-52.551900000000003
 20
92.124799999999993
 30
0.0
 10
-52.551900000000003
 20
90.5501
 30
0.0
 10
-52.551900000000003
 20
90.5501
 30
0.0
 10
-52.551900000000003
 20
89.000200000000007
 30
0.0
 10
-51.314900000000002
 20
87.738500000000002
 30
0.0
 10
-49.774500000000003
 20
87.698999999999998
 30
0.0
 10
-49.774500000000003
 20
87.698999999999998
 30
0.0
 10
-49.749699999999997
 20
87.699100000000001
 30
0.0
 10
-49.725000000000001
 20
87.700000000000003
 30
0.0
 10
-49.700000000000003
 20
87.700000000000003
 30
0.0
  0
SPLINE
  5
26
100
AcDbEntity
  8
RÚteg 1
 62
     7
100
AcDbSpline
210
0.0
220
0.0
230
1.0
 70
     1
 71
     3
 72
    24
 73
    20
 74
     0
 42
0.0000000001
 43
0.0000000001
 40
0.0
 40
0.0
 40
0.0
 40
0.0
 40
0.2
 40
0.2
 40
0.2
 40
0.2
 40
0.4
 40
0.4
 40
0.4
 40
0.4
 40
0.6000000000000001
 40
0.6000000000000001
 40
0.6000000000000001
 40
0.6000000000000001
 40
0.8
 40
0.8
 40
0.8
 40
0.8
 40
1.0
 40
1.0
 40
1.0
 40
1.0
 10
-45.441400000000002
 20
29.698
 30
0.0
 10
-45.5593
 20
31.114799999999999
 30
0.0
 10
-48.032400000000003
 20
34.858400000000003
 30
0.0
 10
-48.749299999999998
 20
36.019100000000002
 30
0.0
 10
-48.749299999999998
 20
36.019100000000002
 30
0.0
 10
-49.489699999999999
 20
37.217399999999998
 30
0.0
 10
-52.607500000000002
 20
40.811999999999998
 30
0.0
 10
-52.813600000000001
 20
41.5839
 30
0.0
 10
-52.813600000000001
 20
41.5839
 30
0.0
 10
-51.1096
 20
40.682299999999998
 30
0.0
 10
-48.566200000000002
 20
38.615000000000002
 30
0.0
 10
-47.209400000000002
 20
37.258099999999999
 30
0.0
 10
-47.209400000000002
 20
37.258099999999999
 30
0.0
 10
-46.389000000000003
 20
36.4377
 30
0.0
 10
-42.883600000000001
 20
32.770499999999998
 30
0.0
 10
-42.883600000000001
 20
31.6539
 30
0.0
 10
-42.883600000000001
 20
31.6539
 30
0.0
 10
-42.883600000000001
 20
31.214700000000001
 30
0.0
 10
-44.948999999999998
 20
29.8294
 30
0.0
 10
-45.441400000000002
 20
29.698
 30
0.0
  0
SPLINE
  5
27
100
AcDbEntity
  8
RÚteg 1
 62
     7
100
AcDbSpline
210
0.0
220
0.0
230
1.0
 70
     1
 71
     3
 72
   224
 73
   220
 74
     0
 42
0.0000000001
 43
0.0000000001
 40
0.0
 40
0.0
 40
0.0
 40
0.0
 40
0.0181818181818182
 40
0.0181818181818182
 40
0.0181818181818182
 40
0.0181818181818182
 40
0.0363636363636364
 40
0.0363636363636364
 40
0.0363636363636364
 40
0.0363636363636364
 40
0.0545454545454545
 40
0.0545454545454545
 40
0.0545454545454545
 40
0.0545454545454545
 40
0.0727272727272727
 40
0.0727272727272727
 40
0.0727272727272727
 40
0.0727272727272727
 40
0.0909090909090909
 40
0.0909090909090909
 40
0.0909090909090909
 40
0.0909090909090909
 40
0.1090909090909091
 40
0.1090909090909091
 40
0.1090909090909091
 40
0.1090909090909091
 40
0.1272727272727273
 40
0.1272727272727273
 40
0.1272727272727273
 40
0.1272727272727273
 40
0.1454545454545455
 40
0.1454545454545455
 40
0.1454545454545455
 40
0.1454545454545455
 40
0.1636363636363637
 40
0.1636363636363637
 40
0.1636363636363637
 40
0.1636363636363637
 40
0.1818181818181819
 40
0.1818181818181819
 40
0.1818181818181819
 40
0.1818181818181819
 40
0.2
 40
0.2
 40
0.2
 40
0.2
 40
0.2181818181818182
 40
0.2181818181818182
 40
0.2181818181818182
 40
0.2181818181818182
 40
0.2363636363636364
 40
0.2363636363636364
 40
0.2363636363636364
 40
0.2363636363636364
 40
0.2545454545454546
 40
0.2545454545454546
 40
0.2545454545454546
 40
0.2545454545454546
 40
0.2727272727272728
 40
0.2727272727272728
 40
0.2727272727272728
 40
0.2727272727272728
 40
0.290909090909091
 40
0.290909090909091
 40
0.290909090909091
 40
0.290909090909091
 40
0.3090909090909091
 40
0.3090909090909091
 40
0.3090909090909091
 40
0.3090909090909091
 40
0.3272727272727273
 40
0.3272727272727273
 40
0.3272727272727273
 40
0.3272727272727273
 40
0.3454545454545455
 40
0.3454545454545455
 40
0.3454545454545455
 40
0.3454545454545455
 40
0.3636363636363637
 40
0.3636363636363637
 40
0.3636363636363637
 40
0.3636363636363637
 40
0.3818181818181819
 40
0.3818181818181819
 40
0.3818181818181819
 40
0.3818181818181819
 40
0.4000000000000001
 40
0.4000000000000001
 40
0.4000000000000001
 40
0.4000000000000001
 40
0.4181818181818183
 40
0.4181818181818183
 40
0.4181818181818183
 40
0.4181818181818183
 40
0.4363636363636365
 40
0.4363636363636365
 40
0.4363636363636365
 40
0.4363636363636365
 40
0.4545454545454546
 40
0.4545454545454546
 40
0.4545454545454546
 40
0.4545454545454546
 40
0.4727272727272728
 40
0.4727272727272728
 40
0.4727272727272728
 40
0.4727272727272728
 40
0.490909090909091
 40
0.490909090909091
 40
0.490909090909091
 40
0.490909090909091
 40
0.5090909090909092
 40
0.5090909090909092
 40
0.5090909090909092
 40
0.5090909090909092
 40
0.5272727272727273
 40
0.5272727272727273
 40
0.5272727272727273
 40
0.5272727272727273
 40
0.5454545454545455
 40
0.5454545454545455
 40
0.5454545454545455
 40
0.5454545454545455
 40
0.5636363636363637
 40
0.5636363636363637
 40
0.5636363636363637
 40
0.5636363636363637
 40
0.5818181818181819
 40
0.5818181818181819
 40
0.5818181818181819
 40
0.5818181818181819
 40
0.6000000000000001
 40
0.6000000000000001
 40
0.6000000000000001
 40
0.6000000000000001
 40
0.6181818181818183
 40
0.6181818181818183
 40
0.6181818181818183
 40
0.6181818181818183
 40
0.6363636363636365
 40
0.6363636363636365
 40
0.6363636363636365
 40
0.6363636363636365
 40
0.6545454545454547
 40
0.6545454545454547
 40
0.6545454545454547
 40
0.6545454545454547
 40
0.6727272727272728
 40
0.6727272727272728
 40
0.6727272727272728
 40
0.6727272727272728
 40
0.690909090909091
 40
0.690909090909091
 40
0.690909090909091
 40
0.690909090909091
 40
0.7090909090909092
 40
0.7090909090909092
 40
0.7090909090909092
 40
0.7090909090909092
 40
0.7272727272727274
 40
0.7272727272727274
 40
0.7272727272727274
 40
0.7272727272727274
 40
0.7454545454545456
 40
0.7454545454545456
 40
0.7454545454545456
 40
0.7454545454545456
 40
0.7636363636363638
 40
0.7636363636363638
 40
0.7636363636363638
 40
0.7636363636363638
 40
0.781818181818182
 40
0.781818181818182
 40
0.781818181818182
 40
0.781818181818182
 40
0.8000000000000002
 40
0.8000000000000002
 40
0.8000000000000002
 40
0.8000000000000002
 40
0.8181818181818183
 40
0.8181818181818183
 40
0.8181818181818183
 40
0.8181818181818183
 40
0.8363636363636365
 40
0.8363636363636365
 40
0.8363636363636365
 40
0.8363636363636365
 40
0.8545454545454547
 40
0.8545454545454547
 40
0.8545454545454547
 40
0.8545454545454547
 40
0.8727272727272729
 40
0.8727272727272729
 40
0.8727272727272729
 40
0.8727272727272729
 40
0.8909090909090911
 40
0.8909090909090911
 40
0.8909090909090911
 40
0.8909090909090911
 40
0.9090909090909093
 40
0.9090909090909093
 40
0.9090909090909093
 40
0.9090909090909093
 40
0.9272727272727275
 40
0.9272727272727275
 40
0.9272727272727275
 40
0.9272727272727275
 40
0.9454545454545457
 40
0.9454545454545457
 40
0.9454545454545457
 40
0.9454545454545457
 40
0.9636363636363639
 40
0.9636363636363639
 40
0.9636363636363639
 40
0.9636363636363639
 40
0.981818181818182
 40
0.981818181818182
 40
0.981818181818182
 40
0.981818181818182
 40
1.0
 40
1.0
 40
1.0
 40
1.0
 10
-50.707099999999997
 20
65.355599999999995
 30
0.0
 10
-50.707099999999997
 20
65.355599999999995
 30
0.0
 10
-50.707099999999997
 20
66.559299999999993
 30
0.0
 10
-50.707099999999997
 20
66.559299999999993
 30
0.0
 10
-50.707099999999997
 20
66.559299999999993
 30
0.0
 10
-50.707099999999997
 20
66.559299999999993
 30
0.0
 10
-50.406399999999998
 20
66.408900000000003
 30
0.0
 10
-50.406399999999998
 20
66.408900000000003
 30
0.0
 10
-50.406399999999998
 20
66.408900000000003
 30
0.0
 10
-50.396299999999997
 20
66.370999999999995
 30
0.0
 10
-49.415500000000002
 20
64.132999999999996
 30
0.0
 10
-49.299799999999998
 20
63.904600000000002
 30
0.0
 10
-49.299799999999998
 20
63.904600000000002
 30
0.0
 10
-48.855800000000002
 20
63.029200000000003
 30
0.0
 10
-48.933399999999999
 20
62.014499999999998
 30
0.0
 10
-48.450499999999998
 20
61.293399999999998
 30
0.0
 10
-48.450499999999998
 20
61.293399999999998
 30
0.0
 10
-48.450499999999998
 20
60.448900000000002
 30
0.0
 10
-48.589500000000001
 20
57.770400000000002
 30
0.0
 10
-47.999099999999999
 20
57.5321
 30
0.0
 10
-47.999099999999999
 20
57.5321
 30
0.0
 10
-47.999099999999999
 20
57.5321
 30
0.0
 10
-47.7057
 20
57.705199999999998
 30
0.0
 10
-47.7057
 20
57.705199999999998
 30
0.0
 10
-47.7057
 20
57.705199999999998
 30
0.0
 10
-47.7057
 20
57.705199999999998
 30
0.0
 10
-47.547699999999999
 20
58.133800000000001
 30
0.0
 10
-47.547699999999999
 20
58.133800000000001
 30
0.0
 10
-47.547699999999999
 20
58.133800000000001
 30
0.0
 10
-47.315600000000003
 20
60.924399999999999
 30
0.0
 10
-41.210999999999999
 20
67.161000000000001
 30
0.0
 10
-38.219499999999996
 20
67.161000000000001
 30
0.0
 10
-38.219499999999996
 20
67.161000000000001
 30
0.0
 10
-38.219499999999996
 20
67.161000000000001
 30
0.0
 10
-36.564500000000002
 20
67.161000000000001
 30
0.0
 10
-36.564500000000002
 20
67.161000000000001
 30
0.0
 10
-36.564500000000002
 20
67.161000000000001
 30
0.0
 10
-34.080199999999998
 20
67.161000000000001
 30
0.0
 10
-32.2014
 20
64.468000000000004
 30
0.0
 10
-32.2014
 20
61.895200000000003
 30
0.0
 10
-32.2014
 20
61.895200000000003
 30
0.0
 10
-32.2014
 20
61.895200000000003
 30
0.0
 10
-32.2014
 20
61.443800000000003
 30
0.0
 10
-32.2014
 20
61.443800000000003
 30
0.0
 10
-32.2014
 20
61.443800000000003
 30
0.0
 10
-32.2014
 20
61.443800000000003
 30
0.0
 10
-32.502200000000002
 20
59.337499999999999
 30
0.0
 10
-32.502200000000002
 20
59.337499999999999
 30
0.0
 10
-32.502200000000002
 20
59.337499999999999
 30
0.0
 10
-32.502200000000002
 20
59.337499999999999
 30
0.0
 10
-32.502200000000002
 20
58.886200000000002
 30
0.0
 10
-32.502200000000002
 20
58.886200000000002
 30
0.0
 10
-32.502200000000002
 20
58.886200000000002
 30
0.0
 10
-32.502200000000002
 20
58.886200000000002
 30
0.0
 10
-32.803199999999997
 20
59.0366
 30
0.0
 10
-32.803199999999997
 20
59.0366
 30
0.0
 10
-32.803199999999997
 20
59.0366
 30
0.0
 10
-33.556399999999996
 20
60.1614
 30
0.0
 10
-35.440199999999997
 20
61.594099999999997
 30
0.0
 10
-37.316899999999997
 20
61.594099999999997
 30
0.0
 10
-37.316899999999997
 20
61.594099999999997
 30
0.0
 10
-37.316899999999997
 20
61.594099999999997
 30
0.0
 10
-38.670900000000003
 20
61.594099999999997
 30
0.0
 10
-38.670900000000003
 20
61.594099999999997
 30
0.0
 10
-38.670900000000003
 20
61.594099999999997
 30
0.0
 10
-39.584800000000001
 20
61.594099999999997
 30
0.0
 10
-41.694600000000001
 20
59.948799999999999
 30
0.0
 10
-42.243099999999998
 20
59.298900000000003
 30
0.0
 10
-42.243099999999998
 20
59.298900000000003
 30
0.0
 10
-42.978999999999999
 20
58.427199999999999
 30
0.0
 10
-43.936700000000002
 20
56.658900000000003
 30
0.0
 10
-43.936700000000002
 20
55.1248
 30
0.0
 10
-43.936700000000002
 20
55.1248
 30
0.0
 10
-43.936700000000002
 20
55.1248
 30
0.0
 10
-43.936700000000002
 20
54.222000000000001
 30
0.0
 10
-43.936700000000002
 20
54.222000000000001
 30
0.0
 10
-43.936700000000002
 20
54.222000000000001
 30
0.0
 10
-43.936700000000002
 20
52.342799999999997
 30
0.0
 10
-42.418100000000003
 20
50.310200000000002
 30
0.0
 10
-40.325800000000001
 20
50.310200000000002
 30
0.0
 10
-40.325800000000001
 20
50.310200000000002
 30
0.0
 10
-40.325800000000001
 20
50.310200000000002
 30
0.0
 10
-39.874499999999998
 20
50.310200000000002
 30
0.0
 10
-39.874499999999998
 20
50.310200000000002
 30
0.0
 10
-39.874499999999998
 20
50.310200000000002
 30
0.0
 10
-38.467100000000002
 20
50.310200000000002
 30
0.0
 10
-37.166400000000003
 20
51.751199999999997
 30
0.0
 10
-37.166400000000003
 20
53.018500000000003
 30
0.0
 10
-37.166400000000003
 20
53.018500000000003
 30
0.0
 10
-37.166400000000003
 20
53.4482
 30
0.0
 10
-37.2136
 20
53.293500000000002
 30
0.0
 10
-37.467300000000002
 20
53.469900000000003
 30
0.0
 10
-37.467300000000002
 20
53.469900000000003
 30
0.0
 10
-37.9011
 20
53.151899999999998
 30
0.0
 10
-37.840000000000003
 20
52.717500000000001
 30
0.0
 10
-38.369999999999997
 20
52.717500000000001
 30
0.0
 10
-38.369999999999997
 20
52.717500000000001
 30
0.0
 10
-38.369999999999997
 20
52.717500000000001
 30
0.0
 10
-39.122199999999999
 20
52.717500000000001
 30
0.0
 10
-39.122199999999999
 20
52.717500000000001
 30
0.0
 10
-39.122199999999999
 20
52.717500000000001
 30
0.0
 10
-39.770299999999999
 20
52.717500000000001
 30
0.0
 10
-40.1755
 20
53.683900000000001
 30
0.0
 10
-40.1755
 20
54.372599999999998
 30
0.0
 10
-40.1755
 20
54.372599999999998
 30
0.0
 10
-40.1755
 20
55.148600000000002
 30
0.0
 10
-39.378500000000003
 20
56.177900000000001
 30
0.0
 10
-38.520400000000002
 20
56.177900000000001
 30
0.0
 10
-38.520400000000002
 20
56.177900000000001
 30
0.0
 10
-38.520400000000002
 20
56.177900000000001
 30
0.0
 10
-38.069099999999999
 20
56.177900000000001
 30
0.0
 10
-38.069099999999999
 20
56.177900000000001
 30
0.0
 10
-38.069099999999999
 20
56.177900000000001
 30
0.0
 10
-36.805900000000001
 20
56.177900000000001
 30
0.0
 10
-35.8123
 20
54.601300000000002
 30
0.0
 10
-35.8123
 20
53.168900000000001
 30
0.0
 10
-35.8123
 20
53.168900000000001
 30
0.0
 10
-35.8123
 20
47.661499999999997
 30
0.0
 10
-42.311500000000002
 20
40.831499999999998
 30
0.0
 10
-47.547699999999999
 20
40.831499999999998
 30
0.0
 10
-47.547699999999999
 20
40.831499999999998
 30
0.0
 10
-47.614600000000003
 20
40.831499999999998
 30
0.0
 10
-49.543399999999998
 20
42.603200000000001
 30
0.0
 10
-49.767200000000003
 20
42.8247
 30
0.0
 10
-49.767200000000003
 20
42.8247
 30
0.0
 10
-50.581000000000003
 20
43.630400000000002
 30
0.0
 10
-51.008200000000002
 20
44.226399999999998
 30
0.0
 10
-51.008200000000002
 20
45.796500000000002
 30
0.0
 10
-51.008200000000002
 20
45.796500000000002
 30
0.0
 10
-50.929200000000002
 20
46.092799999999997
 30
0.0
 10
-50.9649
 20
46.301400000000001
 30
0.0
 10
-50.556800000000003
 20
46.247999999999998
 30
0.0
 10
-50.556800000000003
 20
46.247999999999998
 30
0.0
 10
-50.556800000000003
 20
46.247999999999998
 30
0.0
 10
-49.955199999999998
 20
46.0976
 30
0.0
 10
-49.955199999999998
 20
46.0976
 30
0.0
 10
-49.955199999999998
 20
46.0976
 30
0.0
 10
-49.109400000000001
 20
45.531399999999998
 30
0.0
 10
-49.150700000000001
 20
45.683
 30
0.0
 10
-48.650599999999997
 20
44.693600000000004
 30
0.0
 10
-48.650599999999997
 20
44.693600000000004
 30
0.0
 10
-48.276600000000002
 20
43.9542
 30
0.0
 10
-48.433799999999998
 20
42.938000000000002
 30
0.0
 10
-47.848700000000001
 20
42.938000000000002
 30
0.0
 10
-47.848700000000001
 20
42.938000000000002
 30
0.0
 10
-47.1404
 20
42.938000000000002
 30
0.0
 10
-46.945700000000002
 20
46.408900000000003
 30
0.0
 10
-46.945700000000002
 20
47.451500000000003
 30
0.0
 10
-46.945700000000002
 20
47.451500000000003
 30
0.0
 10
-46.945700000000002
 20
47.451500000000003
 30
0.0
 10
-46.945700000000002
 20
47.601999999999997
 30
0.0
 10
-46.945700000000002
 20
47.601999999999997
 30
0.0
 10
-46.945700000000002
 20
47.601999999999997
 30
0.0
 10
-46.945700000000002
 20
50.645000000000003
 30
0.0
 10
-49.061900000000001
 20
54.823799999999999
 30
0.0
 10
-51.910800000000002
 20
54.823799999999999
 30
0.0
 10
-51.910800000000002
 20
54.823799999999999
 30
0.0
 10
-51.910800000000002
 20
54.823799999999999
 30
0.0
 10
-52.061399999999999
 20
54.823799999999999
 30
0.0
 10
-52.061399999999999
 20
54.823799999999999
 30
0.0
 10
-52.061399999999999
 20
54.823799999999999
 30
0.0
 10
-55.012300000000003
 20
54.823799999999999
 30
0.0
 10
-56.923499999999997
 20
52.387799999999999
 30
0.0
 10
-57.477600000000002
 20
50.009399999999999
 30
0.0
 10
-57.477600000000002
 20
50.009399999999999
 30
0.0
 10
-58.1096
 20
50.177999999999997
 30
0.0
 10
-61.649299999999997
 20
54.089500000000001
 30
0.0
 10
-62.042000000000002
 20
54.773099999999999
 30
0.0
 10
-62.042000000000002
 20
54.773099999999999
 30
0.0
 10
-63.232399999999998
 20
56.845500000000001
 30
0.0
 10
-64.549000000000007
 20
58.102600000000002
 30
0.0
 10
-64.549000000000007
 20
61.443800000000003
 30
0.0
 10
-64.549000000000007
 20
61.443800000000003
 30
0.0
 10
-64.549000000000007
 20
61.443800000000003
 30
0.0
 10
-64.549000000000007
 20
62.045699999999997
 30
0.0
 10
-64.549000000000007
 20
62.045699999999997
 30
0.0
 10
-64.549000000000007
 20
62.045699999999997
 30
0.0
 10
-64.549000000000007
 20
64.312899999999999
 30
0.0
 10
-62.598300000000002
 20
67.0107
 30
0.0
 10
-60.336300000000001
 20
67.0107
 30
0.0
 10
-60.336300000000001
 20
67.0107
 30
0.0
 10
-60.336300000000001
 20
67.0107
 30
0.0
 10
-59.884900000000002
 20
67.0107
 30
0.0
 10
-59.884900000000002
 20
67.0107
 30
0.0
 10
-59.884900000000002
 20
67.0107
 30
0.0
 10
-58.610900000000001
 20
67.0107
 30
0.0
 10
-57.176600000000001
 20
65.599599999999995
 30
0.0
 10
-57.176600000000001
 20
64.603399999999993
 30
0.0
 10
-57.176600000000001
 20
64.603399999999993
 30
0.0
 10
-57.176600000000001
 20
63.875300000000003
 30
0.0
 10
-58.039999999999999
 20
62.346400000000003
 30
0.0
 10
-58.6813
 20
62.346400000000003
 30
0.0
 10
-58.6813
 20
62.346400000000003
 30
0.0
 10
-58.6813
 20
62.346400000000003
 30
0.0
 10
-58.982199999999999
 20
62.346400000000003
 30
0.0
 10
-58.982199999999999
 20
62.346400000000003
 30
0.0
 10
-58.982199999999999
 20
62.346400000000003
 30
0.0
 10
-60.017000000000003
 20
62.346400000000003
 30
0.0
 10
-61.133000000000003
 20
63.399700000000003
 30
0.0
 10
-61.540100000000002
 20
63.399700000000003
 30
0.0
 10
-61.540100000000002
 20
63.399700000000003
 30
0.0
 10
-61.750799999999998
 20
63.399700000000003
 30
0.0
 10
-61.840899999999998
 20
63.194600000000001
 30
0.0
 10
-61.840899999999998
 20
62.948399999999999
 30
0.0
 10
-61.840899999999998
 20
62.948399999999999
 30
0.0
 10
-61.840899999999998
 20
62.948399999999999
 30
0.0
 10
-61.840899999999998
 20
62.797800000000002
 30
0.0
 10
-61.840899999999998
 20
62.797800000000002
 30
0.0
 10
-61.840899999999998
 20
62.797800000000002
 30
0.0
 10
-61.840899999999998
 20
60.580599999999997
 30
0.0
 10
-59.757399999999997
 20
58.284300000000002
 30
0.0
 10
-57.477600000000002
 20
58.284300000000002
 30
0.0
 10
-57.477600000000002
 20
58.284300000000002
 30
0.0
 10
-57.477600000000002
 20
58.284300000000002
 30
0.0
 10
-56.5749
 20
58.284300000000002
 30
0.0
 10
-56.5749
 20
58.284300000000002
 30
0.0
 10
-56.5749
 20
58.284300000000002
 30
0.0
 10
-53.538400000000003
 20
58.284300000000002
 30
0.0
 10
-50.776899999999998
 20
62.226799999999997
 30
0.0
 10
-50.707099999999997
 20
65.355599999999995
 30
0.0
  0
SPLINE
  5
28
100
AcDbEntity
  8
RÚteg 1
 62
     7
100
AcDbSpline
210
0.0
220
0.0
230
1.0
 70
     1
 71
     3
 72
    68
 73
    64
 74
     0
 42
0.0000000001
 43
0.0000000001
 40
0.0
 40
0.0
 40
0.0
 40
0.0
 40
0.0625
 40
0.0625
 40
0.0625
 40
0.0625
 40
0.125
 40
0.125
 40
0.125
 40
0.125
 40
0.1875
 40
0.1875
 40
0.1875
 40
0.1875
 40
0.25
 40
0.25
 40
0.25
 40
0.25
 40
0.3125
 40
0.3125
 40
0.3125
 40
0.3125
 40
0.375
 40
0.375
 40
0.375
 40
0.375
 40
0.4375
 40
0.4375
 40
0.4375
 40
0.4375
 40
0.5
 40
0.5
 40
0.5
 40
0.5
 40
0.5625
 40
0.5625
 40
0.5625
 40
0.5625
 40
0.625
 40
0.625
 40
0.625
 40
0.625
 40
0.6875
 40
0.6875
 40
0.6875
 40
0.6875
 40
0.75
 40
0.75
 40
0.75
 40
0.75
 40
0.8125
 40
0.8125
 40
0.8125
 40
0.8125
 40
0.875
 40
0.875
 40
0.875
 40
0.875
 40
0.9375
 40
0.9375
 40
0.9375
 40
0.9375
 40
1.0
 40
1.0
 40
1.0
 40
1.0
 10
-34.608600000000003
 20
71.5244
 30
0.0
 10
-34.608600000000003
 20
71.5244
 30
0.0
 10
-34.458199999999998
 20
71.373800000000003
 30
0.0
 10
-34.458199999999998
 20
71.373800000000003
 30
0.0
 10
-34.458199999999998
 20
71.373800000000003
 30
0.0
 10
-34.458199999999998
 20
71.373800000000003
 30
0.0
 10
-34.157299999999999
 20
71.223399999999998
 30
0.0
 10
-34.157299999999999
 20
71.223399999999998
 30
0.0
 10
-34.157299999999999
 20
71.223399999999998
 30
0.0
 10
-34.157299999999999
 20
71.223399999999998
 30
0.0
 10
-34.006900000000002
 20
71.223399999999998
 30
0.0
 10
-34.006900000000002
 20
71.223399999999998
 30
0.0
 10
-34.006900000000002
 20
71.223399999999998
 30
0.0
 10
-34.006900000000002
 20
71.223399999999998
 30
0.0
 10
-33.364199999999997
 20
70.833500000000001
 30
0.0
 10
-33.364199999999997
 20
70.833500000000001
 30
0.0
 10
-33.364199999999997
 20
70.833500000000001
 30
0.0
 10
-33.364199999999997
 20
70.833500000000001
 30
0.0
 10
-33.856299999999997
 20
70.922499999999999
 30
0.0
 10
-33.856299999999997
 20
70.922499999999999
 30
0.0
 10
-33.856299999999997
 20
70.922499999999999
 30
0.0
 10
-33.856299999999997
 20
70.922499999999999
 30
0.0
 10
-34.006900000000002
 20
70.922499999999999
 30
0.0
 10
-34.006900000000002
 20
70.922499999999999
 30
0.0
 10
-34.006900000000002
 20
70.922499999999999
 30
0.0
 10
-34.006900000000002
 20
70.922499999999999
 30
0.0
 10
-34.157299999999999
 20
71.072999999999993
 30
0.0
 10
-34.157299999999999
 20
71.072999999999993
 30
0.0
 10
-34.157299999999999
 20
71.072999999999993
 30
0.0
 10
-34.157299999999999
 20
71.072999999999993
 30
0.0
 10
-34.458199999999998
 20
71.072999999999993
 30
0.0
 10
-34.458199999999998
 20
71.072999999999993
 30
0.0
 10
-34.458199999999998
 20
71.072999999999993
 30
0.0
 10
-34.458199999999998
 20
71.072999999999993
 30
0.0
 10
-34.759
 20
71.223399999999998
 30
0.0
 10
-34.759
 20
71.223399999999998
 30
0.0
 10
-34.759
 20
71.223399999999998
 30
0.0
 10
-34.759
 20
71.223399999999998
 30
0.0
 10
-36.4099
 20
71.408000000000001
 30
0.0
 10
-36.4099
 20
71.408000000000001
 30
0.0
 10
-36.4099
 20
71.408000000000001
 30
0.0
 10
-36.4099
 20
71.408000000000001
 30
0.0
 10
-36.564500000000002
 20
71.373800000000003
 30
0.0
 10
-36.564500000000002
 20
71.373800000000003
 30
0.0
 10
-36.564500000000002
 20
71.373800000000003
 30
0.0
 10
-39.959099999999999
 20
71.373800000000003
 30
0.0
 10
-41.9054
 20
69.875500000000002
 30
0.0
 10
-43.936700000000002
 20
68.515299999999996
 30
0.0
 10
-43.936700000000002
 20
68.515299999999996
 30
0.0
 10
-43.936700000000002
 20
68.515299999999996
 30
0.0
 10
-44.881100000000004
 20
71.209299999999999
 30
0.0
 10
-44.881100000000004
 20
71.209299999999999
 30
0.0
 10
-44.881100000000004
 20
71.209299999999999
 30
0.0
 10
-43.0794
 20
71.633399999999995
 30
0.0
 10
-42.094700000000003
 20
72.577500000000001
 30
0.0
 10
-39.7241
 20
72.577500000000001
 30
0.0
 10
-39.7241
 20
72.577500000000001
 30
0.0
 10
-39.7241
 20
72.577500000000001
 30
0.0
 10
-37.467300000000002
 20
72.577500000000001
 30
0.0
 10
-37.467300000000002
 20
72.577500000000001
 30
0.0
 10
-37.467300000000002
 20
72.577500000000001
 30
0.0
 10
-36.5471
 20
72.577500000000001
 30
0.0
 10
-35.256
 20
71.866799999999998
 30
0.0
 10
-34.608600000000003
 20
71.5244
 30
0.0
  0
SPLINE
  5
29
100
AcDbEntity
  8
RÚteg 1
 62
     7
100
AcDbSpline
210
0.0
220
0.0
230
1.0
 70
     1
 71
     3
 72
    60
 73
    56
 74
     0
 42
0.0000000001
 43
0.0000000001
 40
0.0
 40
0.0
 40
0.0
 40
0.0
 40
0.0714285714285714
 40
0.0714285714285714
 40
0.0714285714285714
 40
0.0714285714285714
 40
0.1428571428571429
 40
0.1428571428571429
 40
0.1428571428571429
 40
0.1428571428571429
 40
0.2142857142857143
 40
0.2142857142857143
 40
0.2142857142857143
 40
0.2142857142857143
 40
0.2857142857142857
 40
0.2857142857142857
 40
0.2857142857142857
 40
0.2857142857142857
 40
0.3571428571428571
 40
0.3571428571428571
 40
0.3571428571428571
 40
0.3571428571428571
 40
0.4285714285714285
 40
0.4285714285714285
 40
0.4285714285714285
 40
0.4285714285714285
 40
0.4999999999999999
 40
0.4999999999999999
 40
0.4999999999999999
 40
0.4999999999999999
 40
0.5714285714285713
 40
0.5714285714285713
 40
0.5714285714285713
 40
0.5714285714285713
 40
0.6428571428571427
 40
0.6428571428571427
 40
0.6428571428571427
 40
0.6428571428571427
 40
0.7142857142857141
 40
0.7142857142857141
 40
0.7142857142857141
 40
0.7142857142857141
 40
0.7857142857142855
 40
0.7857142857142855
 40
0.7857142857142855
 40
0.7857142857142855
 40
0.8571428571428569
 40
0.8571428571428569
 40
0.8571428571428569
 40
0.8571428571428569
 40
0.9285714285714283
 40
0.9285714285714283
 40
0.9285714285714283
 40
0.9285714285714283
 40
1.0
 40
1.0
 40
1.0
 40
1.0
 10
-56.123600000000003
 20
74.5334
 30
0.0
 10
-56.123600000000003
 20
74.5334
 30
0.0
 10
-55.973100000000002
 20
74.382900000000006
 30
0.0
 10
-55.973100000000002
 20
74.382900000000006
 30
0.0
 10
-55.973100000000002
 20
74.382900000000006
 30
0.0
 10
-55.973100000000002
 20
74.382900000000006
 30
0.0
 10
-55.6721
 20
74.232399999999998
 30
0.0
 10
-55.6721
 20
74.232399999999998
 30
0.0
 10
-55.6721
 20
74.232399999999998
 30
0.0
 10
-55.6721
 20
74.232399999999998
 30
0.0
 10
-55.521799999999999
 20
74.081999999999994
 30
0.0
 10
-55.521799999999999
 20
74.081999999999994
 30
0.0
 10
-55.521799999999999
 20
74.081999999999994
 30
0.0
 10
-55.521799999999999
 20
74.081999999999994
 30
0.0
 10
-55.371299999999998
 20
73.931600000000003
 30
0.0
 10
-55.371299999999998
 20
73.931600000000003
 30
0.0
 10
-55.371299999999998
 20
73.931600000000003
 30
0.0
 10
-55.371299999999998
 20
73.931600000000003
 30
0.0
 10
-55.040300000000002
 20
73.660600000000002
 30
0.0
 10
-55.040300000000002
 20
73.660600000000002
 30
0.0
 10
-55.040300000000002
 20
73.660600000000002
 30
0.0
 10
-55.040300000000002
 20
73.660600000000002
 30
0.0
 10
-55.6721
 20
73.781199999999998
 30
0.0
 10
-55.6721
 20
73.781199999999998
 30
0.0
 10
-55.6721
 20
73.781199999999998
 30
0.0
 10
-55.6721
 20
73.781199999999998
 30
0.0
 10
-58.8264
 20
74.138000000000005
 30
0.0
 10
-58.8264
 20
74.138000000000005
 30
0.0
 10
-58.8264
 20
74.138000000000005
 30
0.0
 10
-58.8264
 20
74.138000000000005
 30
0.0
 10
-59.884900000000002
 20
74.081999999999994
 30
0.0
 10
-59.884900000000002
 20
74.081999999999994
 30
0.0
 10
-59.884900000000002
 20
74.081999999999994
 30
0.0
 10
-62.690100000000001
 20
74.081999999999994
 30
0.0
 10
-67.207499999999996
 20
70.816400000000002
 30
0.0
 10
-67.708600000000004
 20
68.665700000000001
 30
0.0
 10
-67.708600000000004
 20
68.665700000000001
 30
0.0
 10
-67.708600000000004
 20
68.665700000000001
 30
0.0
 10
-68.009600000000006
 20
68.665700000000001
 30
0.0
 10
-68.009600000000006
 20
68.665700000000001
 30
0.0
 10
-68.009600000000006
 20
68.665700000000001
 30
0.0
 10
-68.009600000000006
 20
68.665700000000001
 30
0.0
 10
-69.529499999999999
 20
72.119299999999996
 30
0.0
 10
-69.529499999999999
 20
72.119299999999996
 30
0.0
 10
-69.529499999999999
 20
72.119299999999996
 30
0.0
 10
-68.343299999999999
 20
73.874499999999998
 30
0.0
 10
-64.605199999999996
 20
75.887500000000003
 30
0.0
 10
-61.540100000000002
 20
75.887500000000003
 30
0.0
 10
-61.540100000000002
 20
75.887500000000003
 30
0.0
 10
-61.540100000000002
 20
75.887500000000003
 30
0.0
 10
-60.787799999999997
 20
75.887500000000003
 30
0.0
 10
-60.787799999999997
 20
75.887500000000003
 30
0.0
 10
-60.787799999999997
 20
75.887500000000003
 30
0.0
 10
-58.937100000000001
 20
75.887500000000003
 30
0.0
 10
-57.339799999999997
 20
75.176900000000003
 30
0.0
 10
-56.123600000000003
 20
74.5334
 30
0.0
  0
SPLINE
  5
2A
100
AcDbEntity
  8
RÚteg 1
 62
     7
100
AcDbSpline
210
0.0
220
0.0
230
1.0
 70
     1
 71
     3
 72
   112
 73
   108
 74
     0
 42
0.0000000001
 43
0.0000000001
 40
0.0
 40
0.0
 40
0.0
 40
0.0
 40
0.037037037037037
 40
0.037037037037037
 40
0.037037037037037
 40
0.037037037037037
 40
0.0740740740740741
 40
0.0740740740740741
 40
0.0740740740740741
 40
0.0740740740740741
 40
0.1111111111111111
 40
0.1111111111111111
 40
0.1111111111111111
 40
0.1111111111111111
 40
0.1481481481481481
 40
0.1481481481481481
 40
0.1481481481481481
 40
0.1481481481481481
 40
0.1851851851851852
 40
0.1851851851851852
 40
0.1851851851851852
 40
0.1851851851851852
 40
0.2222222222222222
 40
0.2222222222222222
 40
0.2222222222222222
 40
0.2222222222222222
 40
0.2592592592592592
 40
0.2592592592592592
 40
0.2592592592592592
 40
0.2592592592592592
 40
0.2962962962962963
 40
0.2962962962962963
 40
0.2962962962962963
 40
0.2962962962962963
 40
0.3333333333333333
 40
0.3333333333333333
 40
0.3333333333333333
 40
0.3333333333333333
 40
0.3703703703703704
 40
0.3703703703703704
 40
0.3703703703703704
 40
0.3703703703703704
 40
0.4074074074074074
 40
0.4074074074074074
 40
0.4074074074074074
 40
0.4074074074074074
 40
0.4444444444444444
 40
0.4444444444444444
 40
0.4444444444444444
 40
0.4444444444444444
 40
0.4814814814814815
 40
0.4814814814814815
 40
0.4814814814814815
 40
0.4814814814814815
 40
0.5185185185185185
 40
0.5185185185185185
 40
0.5185185185185185
 40
0.5185185185185185
 40
0.5555555555555556
 40
0.5555555555555556
 40
0.5555555555555556
 40
0.5555555555555556
 40
0.5925925925925926
 40
0.5925925925925926
 40
0.5925925925925926
 40
0.5925925925925926
 40
0.6296296296296295
 40
0.6296296296296295
 40
0.6296296296296295
 40
0.6296296296296295
 40
0.6666666666666665
 40
0.6666666666666665
 40
0.6666666666666665
 40
0.6666666666666665
 40
0.7037037037037035
 40
0.7037037037037035
 40
0.7037037037037035
 40
0.7037037037037035
 40
0.7407407407407405
 40
0.7407407407407405
 40
0.7407407407407405
 40
0.7407407407407405
 40
0.7777777777777775
 40
0.7777777777777775
 40
0.7777777777777775
 40
0.7777777777777775
 40
0.8148148148148144
 40
0.8148148148148144
 40
0.8148148148148144
 40
0.8148148148148144
 40
0.8518518518518514
 40
0.8518518518518514
 40
0.8518518518518514
 40
0.8518518518518514
 40
0.8888888888888884
 40
0.8888888888888884
 40
0.8888888888888884
 40
0.8888888888888884
 40
0.9259259259259254
 40
0.9259259259259254
 40
0.9259259259259254
 40
0.9259259259259254
 40
0.9629629629629624
 40
0.9629629629629624
 40
0.9629629629629624
 40
0.9629629629629624
 40
1.0
 40
1.0
 40
1.0
 40
1.0
 10
-51.309100000000001
 20
28.795300000000001
 30
0.0
 10
-51.309100000000001
 20
28.795300000000001
 30
0.0
 10
-50.739699999999999
 20
28.4422
 30
0.0
 10
-50.739699999999999
 20
28.4422
 30
0.0
 10
-50.739699999999999
 20
28.4422
 30
0.0
 10
-50.739699999999999
 20
28.4422
 30
0.0
 10
-50.707099999999997
 20
28.945699999999999
 30
0.0
 10
-50.707099999999997
 20
28.945699999999999
 30
0.0
 10
-50.707099999999997
 20
28.945699999999999
 30
0.0
 10
-51.3932
 20
30.241800000000001
 30
0.0
 10
-51.929499999999997
 20
31.443999999999999
 30
0.0
 10
-52.667299999999997
 20
32.702800000000003
 30
0.0
 10
-52.667299999999997
 20
32.702800000000003
 30
0.0
 10
-53.366
 20
33.895099999999999
 30
0.0
 10
-54.2943
 20
34.948399999999999
 30
0.0
 10
-55.070300000000003
 20
36.017099999999999
 30
0.0
 10
-55.070300000000003
 20
36.017099999999999
 30
0.0
 10
-56.476799999999997
 20
37.953800000000001
 30
0.0
 10
-58.8581
 20
40.205199999999998
 30
0.0
 10
-60.677
 20
41.844799999999999
 30
0.0
 10
-60.677
 20
41.844799999999999
 30
0.0
 10
-63.456400000000002
 20
44.350200000000001
 30
0.0
 10
-69.513999999999996
 20
51.0137
 30
0.0
 10
-69.513999999999996
 20
55.877099999999999
 30
0.0
 10
-69.513999999999996
 20
55.877099999999999
 30
0.0
 10
-69.513999999999996
 20
55.877099999999999
 30
0.0
 10
-69.513999999999996
 20
57.832700000000003
 30
0.0
 10
-69.513999999999996
 20
57.832700000000003
 30
0.0
 10
-69.513999999999996
 20
57.832700000000003
 30
0.0
 10
-69.513999999999996
 20
57.832700000000003
 30
0.0
 10
-69.363500000000002
 20
59.487900000000003
 30
0.0
 10
-69.363500000000002
 20
59.487900000000003
 30
0.0
 10
-69.363500000000002
 20
59.487900000000003
 30
0.0
 10
-69.363500000000002
 20
59.487900000000003
 30
0.0
 10
-69.363500000000002
 20
59.939300000000003
 30
0.0
 10
-69.363500000000002
 20
59.939300000000003
 30
0.0
 10
-69.363500000000002
 20
59.939300000000003
 30
0.0
 10
-69.363500000000002
 20
59.939300000000003
 30
0.0
 10
-69.062600000000003
 20
59.939300000000003
 30
0.0
 10
-69.062600000000003
 20
59.939300000000003
 30
0.0
 10
-69.062600000000003
 20
59.939300000000003
 30
0.0
 10
-69.062600000000003
 20
59.939300000000003
 30
0.0
 10
-69.062600000000003
 20
59.337499999999999
 30
0.0
 10
-69.062600000000003
 20
59.337499999999999
 30
0.0
 10
-69.062600000000003
 20
59.337499999999999
 30
0.0
 10
-69.062600000000003
 20
54.970799999999997
 30
0.0
 10
-66.986400000000003
 20
51.178699999999999
 30
0.0
 10
-65.060500000000005
 20
48.595199999999998
 30
0.0
 10
-65.060500000000005
 20
48.595199999999998
 30
0.0
 10
-63.924100000000003
 20
47.070999999999998
 30
0.0
 10
-62.973999999999997
 20
45.951300000000003
 30
0.0
 10
-61.652900000000002
 20
44.630400000000002
 30
0.0
 10
-61.652900000000002
 20
44.630400000000002
 30
0.0
 10
-60.7303
 20
43.707599999999999
 30
0.0
 10
-58.542200000000001
 20
41.831499999999998
 30
0.0
 10
-57.9009
 20
41.010100000000001
 30
0.0
 10
-57.9009
 20
41.010100000000001
 30
0.0
 10
-56.797800000000002
 20
39.597099999999998
 30
0.0
 10
-55.302300000000002
 20
38.543599999999998
 30
0.0
 10
-54.290100000000002
 20
37.248800000000003
 30
0.0
 10
-54.290100000000002
 20
37.248800000000003
 30
0.0
 10
-53.1997
 20
35.853900000000003
 30
0.0
 10
-52.154499999999999
 20
34.537599999999998
 30
0.0
 10
-51.036200000000001
 20
33.130200000000002
 30
0.0
 10
-51.036200000000001
 20
33.130200000000002
 30
0.0
 10
-49.9315
 20
31.740100000000002
 30
0.0
 10
-49.160400000000003
 20
30.148
 30
0.0
 10
-48.236499999999999
 20
28.5579
 30
0.0
 10
-48.236499999999999
 20
28.5579
 30
0.0
 10
-47.761899999999997
 20
27.741099999999999
 30
0.0
 10
-47.381
 20
26.926600000000001
 30
0.0
 10
-46.991799999999998
 20
26.0411
 30
0.0
 10
-46.991799999999998
 20
26.0411
 30
0.0
 10
-46.917400000000001
 20
25.871700000000001
 30
0.0
 10
-46.807600000000001
 20
25.527200000000001
 30
0.0
 10
-46.672400000000003
 20
25.1523
 30
0.0
 10
-46.672400000000003
 20
25.1523
 30
0.0
 10
-47.6678
 20
25.050599999999999
 30
0.0
 10
-48.677700000000002
 20
24.9983
 30
0.0
 10
-49.700000000000003
 20
24.9983
 30
0.0
 10
-49.700000000000003
 20
24.9983
 30
0.0
 10
-65.962999999999994
 20
24.9983
 30
0.0
 10
-79.151799999999994
 20
38.186900000000001
 30
0.0
 10
-79.151799999999994
 20
54.450000000000003
 30
0.0
 10
-79.151799999999994
 20
54.450000000000003
 30
0.0
 10
-79.151799999999994
 20
60.1113
 30
0.0
 10
-77.552400000000006
 20
65.399799999999999
 30
0.0
 10
-74.7821
 20
69.889099999999999
 30
0.0
 10
-74.7821
 20
69.889099999999999
 30
0.0
 10
-75.2029
 20
68.707400000000007
 30
0.0
 10
-75.532200000000003
 20
67.357299999999995
 30
0.0
 10
-75.532200000000003
 20
66.108000000000004
 30
0.0
 10
-75.532200000000003
 20
66.108000000000004
 30
0.0
 10
-75.532200000000003
 20
66.108000000000004
 30
0.0
 10
-75.532200000000003
 20
61.443800000000003
 30
0.0
 10
-75.532200000000003
 20
61.443800000000003
 30
0.0
 10
-75.532200000000003
 20
61.443800000000003
 30
0.0
 10
-75.532200000000003
 20
57.186700000000002
 30
0.0
 10
-73.352500000000006
 20
53.631999999999998
 30
0.0
 10
-71.649699999999996
 20
51.033099999999997
 30
0.0
 10
-71.649699999999996
 20
51.033099999999997
 30
0.0
 10
-70.483599999999996
 20
49.253399999999999
 30
0.0
 10
-66.509900000000002
 20
45.420699999999997
 30
0.0
 10
-64.812600000000003
 20
43.727600000000002
 30
0.0
 10
-64.812600000000003
 20
43.727600000000002
 30
0.0
 10
-60.467300000000002
 20
39.393500000000003
 30
0.0
 10
-54.222700000000003
 20
34.3018
 30
0.0
 10
-51.309100000000001
 20
28.795300000000001
 30
0.0
  0
SPLINE
  5
2B
100
AcDbEntity
  8
RÚteg 1
 62
     7
100
AcDbSpline
210
0.0
220
0.0
230
1.0
 70
     1
 71
     3
 72
    44
 73
    40
 74
     0
 42
0.0000000001
 43
0.0000000001
 40
0.0
 40
0.0
 40
0.0
 40
0.0
 40
0.1
 40
0.1
 40
0.1
 40
0.1
 40
0.2
 40
0.2
 40
0.2
 40
0.2
 40
0.3
 40
0.3
 40
0.3
 40
0.3
 40
0.4
 40
0.4
 40
0.4
 40
0.4
 40
0.5
 40
0.5
 40
0.5
 40
0.5
 40
0.6
 40
0.6
 40
0.6
 40
0.6
 40
0.7
 40
0.7
 40
0.7
 40
0.7
 40
0.7999999999999999
 40
0.7999999999999999
 40
0.7999999999999999
 40
0.7999999999999999
 40
0.8999999999999999
 40
0.8999999999999999
 40
0.8999999999999999
 40
0.8999999999999999
 40
1.0
 40
1.0
 40
1.0
 40
1.0
 10
-42.378100000000003
 20
25.916599999999999
 30
0.0
 10
-39.400199999999998
 20
28.310600000000001
 30
0.0
 10
-35.5105
 20
31.873999999999999
 30
0.0
 10
-34.881300000000003
 20
32.679099999999998
 30
0.0
 10
-34.881300000000003
 20
32.679099999999998
 30
0.0
 10
-34.188800000000001
 20
33.565300000000001
 30
0.0
 10
-33.327599999999997
 20
34.441899999999997
 30
0.0
 10
-32.5411
 20
35.303400000000003
 30
0.0
 10
-32.5411
 20
35.303400000000003
 30
0.0
 10
-31.802700000000002
 20
36.112200000000001
 30
0.0
 10
-31.075700000000001
 20
37.203299999999999
 30
0.0
 10
-30.366800000000001
 20
38.094099999999997
 30
0.0
 10
-30.366800000000001
 20
38.094099999999997
 30
0.0
 10
-29.52
 20
39.158799999999999
 30
0.0
 10
-27.145399999999999
 20
43.062800000000003
 30
0.0
 10
-26.652699999999999
 20
44.310400000000001
 30
0.0
 10
-26.652699999999999
 20
44.310400000000001
 30
0.0
 10
-25.630299999999998
 20
46.898800000000001
 30
0.0
 10
-24.700299999999999
 20
48.380000000000003
 30
0.0
 10
-23.927399999999999
 20
51.514800000000001
 30
0.0
 10
-23.927399999999999
 20
51.514800000000001
 30
0.0
 10
-23.289899999999999
 20
54.099200000000003
 30
0.0
 10
-22.988299999999999
 20
57.290599999999998
 30
0.0
 10
-22.867599999999999
 20
60.384999999999998
 30
0.0
 10
-22.867599999999999
 20
60.384999999999998
 30
0.0
 10
-22.759
 20
63.167999999999999
 30
0.0
 10
-23.5031
 20
66.990700000000004
 30
0.0
 10
-24.2409
 20
68.953100000000006
 30
0.0
 10
-24.2409
 20
68.953100000000006
 30
0.0
 10
-24.341699999999999
 20
69.221199999999996
 30
0.0
 10
-24.4876
 20
69.5715
 30
0.0
 10
-24.666799999999999
 20
69.967399999999998
 30
0.0
 10
-24.666799999999999
 20
69.967399999999998
 30
0.0
 10
-21.867100000000001
 20
65.460899999999995
 30
0.0
 10
-20.248200000000001
 20
60.144500000000001
 30
0.0
 10
-20.248200000000001
 20
54.450000000000003
 30
0.0
 10
-20.248200000000001
 20
54.450000000000003
 30
0.0
 10
-20.248200000000001
 20
40.714599999999997
 30
0.0
 10
-29.655999999999999
 20
29.172699999999999
 30
0.0
 10
-42.378100000000003
 20
25.916599999999999
 30
0.0
  0
SPLINE
  5
2C
100
AcDbEntity
  8
RÚteg 1
 62
     7
100
AcDbSpline
210
0.0
220
0.0
230
1.0
 70
     1
 71
     3
 72
   112
 73
   108
 74
     0
 42
0.0000000001
 43
0.0000000001
 40
0.0
 40
0.0
 40
0.0
 40
0.0
 40
0.037037037037037
 40
0.037037037037037
 40
0.037037037037037
 40
0.037037037037037
 40
0.0740740740740741
 40
0.0740740740740741
 40
0.0740740740740741
 40
0.0740740740740741
 40
0.1111111111111111
 40
0.1111111111111111
 40
0.1111111111111111
 40
0.1111111111111111
 40
0.1481481481481481
 40
0.1481481481481481
 40
0.1481481481481481
 40
0.1481481481481481
 40
0.1851851851851852
 40
0.1851851851851852
 40
0.1851851851851852
 40
0.1851851851851852
 40
0.2222222222222222
 40
0.2222222222222222
 40
0.2222222222222222
 40
0.2222222222222222
 40
0.2592592592592592
 40
0.2592592592592592
 40
0.2592592592592592
 40
0.2592592592592592
 40
0.2962962962962963
 40
0.2962962962962963
 40
0.2962962962962963
 40
0.2962962962962963
 40
0.3333333333333333
 40
0.3333333333333333
 40
0.3333333333333333
 40
0.3333333333333333
 40
0.3703703703703704
 40
0.3703703703703704
 40
0.3703703703703704
 40
0.3703703703703704
 40
0.4074074074074074
 40
0.4074074074074074
 40
0.4074074074074074
 40
0.4074074074074074
 40
0.4444444444444444
 40
0.4444444444444444
 40
0.4444444444444444
 40
0.4444444444444444
 40
0.4814814814814815
 40
0.4814814814814815
 40
0.4814814814814815
 40
0.4814814814814815
 40
0.5185185185185185
 40
0.5185185185185185
 40
0.5185185185185185
 40
0.5185185185185185
 40
0.5555555555555556
 40
0.5555555555555556
 40
0.5555555555555556
 40
0.5555555555555556
 40
0.5925925925925926
 40
0.5925925925925926
 40
0.5925925925925926
 40
0.5925925925925926
 40
0.6296296296296295
 40
0.6296296296296295
 40
0.6296296296296295
 40
0.6296296296296295
 40
0.6666666666666665
 40
0.6666666666666665
 40
0.6666666666666665
 40
0.6666666666666665
 40
0.7037037037037035
 40
0.7037037037037035
 40
0.7037037037037035
 40
0.7037037037037035
 40
0.7407407407407405
 40
0.7407407407407405
 40
0.7407407407407405
 40
0.7407407407407405
 40
0.7777777777777775
 40
0.7777777777777775
 40
0.7777777777777775
 40
0.7777777777777775
 40
0.8148148148148144
 40
0.8148148148148144
 40
0.8148148148148144
 40
0.8148148148148144
 40
0.8518518518518514
 40
0.8518518518518514
 40
0.8518518518518514
 40
0.8518518518518514
 40
0.8888888888888884
 40
0.8888888888888884
 40
0.8888888888888884
 40
0.8888888888888884
 40
0.9259259259259254
 40
0.9259259259259254
 40
0.9259259259259254
 40
0.9259259259259254
 40
0.9629629629629624
 40
0.9629629629629624
 40
0.9629629629629624
 40
0.9629629629629624
 40
1.0
 40
1.0
 40
1.0
 40
1.0
 10
-28.293800000000001
 20
74.674499999999995
 30
0.0
 10
-28.296199999999999
 20
74.6614
 30
0.0
 10
-28.2895
 20
74.600399999999993
 30
0.0
 10
-28.2895
 20
74.382900000000006
 30
0.0
 10
-28.2895
 20
74.382900000000006
 30
0.0
 10
-28.2895
 20
74.241600000000005
 30
0.0
 10
-26.9405
 20
72.600300000000004
 30
0.0
 10
-26.7376
 20
72.173400000000001
 30
0.0
 10
-26.7376
 20
72.173400000000001
 30
0.0
 10
-26.311499999999999
 20
71.276700000000005
 30
0.0
 10
-25.8428
 20
70.575100000000006
 30
0.0
 10
-25.522400000000001
 20
69.627200000000002
 30
0.0
 10
-25.522400000000001
 20
69.627200000000002
 30
0.0
 10
-25.042300000000001
 20
68.2059
 30
0.0
 10
-24.2272
 20
65.132199999999997
 30
0.0
 10
-24.2272
 20
63.399700000000003
 30
0.0
 10
-24.2272
 20
63.399700000000003
 30
0.0
 10
-24.2272
 20
63.399700000000003
 30
0.0
 10
-24.2272
 20
61.142899999999997
 30
0.0
 10
-24.2272
 20
61.142899999999997
 30
0.0
 10
-24.2272
 20
61.142899999999997
 30
0.0
 10
-24.2272
 20
57.637599999999999
 30
0.0
 10
-25.183700000000002
 20
55.039099999999998
 30
0.0
 10
-26.1629
 20
52.546700000000001
 30
0.0
 10
-26.1629
 20
52.546700000000001
 30
0.0
 10
-26.813400000000001
 20
50.890500000000003
 30
0.0
 10
-28.850999999999999
 20
46.972099999999998
 30
0.0
 10
-29.791499999999999
 20
45.643500000000003
 30
0.0
 10
-29.791499999999999
 20
45.643500000000003
 30
0.0
 10
-30.892099999999999
 20
44.089300000000001
 30
0.0
 10
-38.278700000000001
 20
34.362099999999998
 30
0.0
 10
-39.573500000000003
 20
34.362099999999998
 30
0.0
 10
-39.573500000000003
 20
34.362099999999998
 30
0.0
 10
-39.816000000000003
 20
34.362099999999998
 30
0.0
 10
-40.302999999999997
 20
34.7926
 30
0.0
 10
-40.626800000000003
 20
34.963799999999999
 30
0.0
 10
-40.626800000000003
 20
34.963799999999999
 30
0.0
 10
-40.213099999999997
 20
35.581600000000002
 30
0.0
 10
-38.668700000000001
 20
36.997599999999998
 30
0.0
 10
-38.031700000000001
 20
37.634599999999999
 30
0.0
 10
-38.031700000000001
 20
37.634599999999999
 30
0.0
 10
-37.060099999999998
 20
38.606299999999997
 30
0.0
 10
-36.485500000000002
 20
39.273000000000003
 30
0.0
 10
-35.634799999999998
 20
40.353299999999997
 30
0.0
 10
-35.634799999999998
 20
40.353299999999997
 30
0.0
 10
-33.991900000000001
 20
42.439900000000002
 30
0.0
 10
-32.580500000000001
 20
43.636499999999998
 30
0.0
 10
-31.250299999999999
 20
46.1997
 30
0.0
 10
-31.250299999999999
 20
46.1997
 30
0.0
 10
-30.081600000000002
 20
48.4512
 30
0.0
 10
-28.660299999999999
 20
50.186399999999999
 30
0.0
 10
-27.435099999999998
 20
52.765700000000002
 30
0.0
 10
-27.435099999999998
 20
52.765700000000002
 30
0.0
 10
-26.6357
 20
54.448300000000003
 30
0.0
 10
-25.430900000000001
 20
58.612699999999997
 30
0.0
 10
-25.430900000000001
 20
60.992400000000004
 30
0.0
 10
-25.430900000000001
 20
60.992400000000004
 30
0.0
 10
-25.430900000000001
 20
60.992400000000004
 30
0.0
 10
-25.430900000000001
 20
62.797800000000002
 30
0.0
 10
-25.430900000000001
 20
62.797800000000002
 30
0.0
 10
-25.430900000000001
 20
62.797800000000002
 30
0.0
 10
-25.430900000000001
 20
66.672399999999996
 30
0.0
 10
-26.4605
 20
69.978899999999996
 30
0.0
 10
-28.048500000000001
 20
72.367099999999994
 30
0.0
 10
-28.048500000000001
 20
72.367099999999994
 30
0.0
 10
-29.4039
 20
74.405500000000004
 30
0.0
 10
-32.560200000000002
 20
76.639600000000002
 30
0.0
 10
-35.8123
 20
76.639600000000002
 30
0.0
 10
-35.8123
 20
76.639600000000002
 30
0.0
 10
-35.8123
 20
76.639600000000002
 30
0.0
 10
-39.122199999999999
 20
76.639600000000002
 30
0.0
 10
-39.122199999999999
 20
76.639600000000002
 30
0.0
 10
-39.122199999999999
 20
76.639600000000002
 30
0.0
 10
-41.566899999999997
 20
76.639600000000002
 30
0.0
 10
-44.979199999999999
 20
74.946299999999994
 30
0.0
 10
-46.494399999999999
 20
73.931600000000003
 30
0.0
 10
-46.494399999999999
 20
73.931600000000003
 30
0.0
 10
-46.494399999999999
 20
73.931600000000003
 30
0.0
 10
-46.795499999999997
 20
73.931600000000003
 30
0.0
 10
-46.795499999999997
 20
73.931600000000003
 30
0.0
 10
-46.795499999999997
 20
73.931600000000003
 30
0.0
 10
-46.795499999999997
 20
73.931600000000003
 30
0.0
 10
-46.945700000000002
 20
74.232399999999998
 30
0.0
 10
-46.945700000000002
 20
74.232399999999998
 30
0.0
 10
-46.945700000000002
 20
74.232399999999998
 30
0.0
 10
-46.945700000000002
 20
74.232399999999998
 30
0.0
 10
-47.096299999999999
 20
74.382900000000006
 30
0.0
 10
-47.096299999999999
 20
74.382900000000006
 30
0.0
 10
-47.096299999999999
 20
74.382900000000006
 30
0.0
 10
-47.7286
 20
76.750799999999998
 30
0.0
 10
-53.408099999999997
 20
80.250699999999995
 30
0.0
 10
-56.5749
 20
80.250699999999995
 30
0.0
 10
-56.5749
 20
80.250699999999995
 30
0.0
 10
-56.5749
 20
80.250699999999995
 30
0.0
 10
-59.584000000000003
 20
80.250699999999995
 30
0.0
 10
-59.584000000000003
 20
80.250699999999995
 30
0.0
 10
-59.584000000000003
 20
80.250699999999995
 30
0.0
 10
-62.057200000000002
 20
80.250699999999995
 30
0.0
 10
-65.252200000000002
 20
79.122
 30
0.0
 10
-67.633099999999999
 20
77.810400000000001
 30
0.0
 10
-67.633099999999999
 20
77.810400000000001
 30
0.0
 10
-62.6661
 20
81.629400000000004
 30
0.0
 10
-56.448399999999999
 20
83.901799999999994
 30
0.0
 10
-49.700000000000003
 20
83.901799999999994
 30
0.0
 10
-49.700000000000003
 20
83.901799999999994
 30
0.0
 10
-41.267899999999997
 20
83.901799999999994
 30
0.0
 10
-33.662799999999997
 20
80.355800000000002
 30
0.0
 10
-28.293800000000001
 20
74.674499999999995
 30
0.0
  0
SPLINE
  5
2D
100
AcDbEntity
  8
RÚteg 1
 62
     7
100
AcDbSpline
210
0.0
220
0.0
230
1.0
 70
     1
 71
     3
 72
    36
 73
    32
 74
     0
 42
0.0000000001
 43
0.0000000001
 40
0.0
 40
0.0
 40
0.0
 40
0.0
 40
0.125
 40
0.125
 40
0.125
 40
0.125
 40
0.25
 40
0.25
 40
0.25
 40
0.25
 40
0.375
 40
0.375
 40
0.375
 40
0.375
 40
0.5
 40
0.5
 40
0.5
 40
0.5
 40
0.625
 40
0.625
 40
0.625
 40
0.625
 40
0.75
 40
0.75
 40
0.75
 40
0.75
 40
0.875
 40
0.875
 40
0.875
 40
0.875
 40
1.0
 40
1.0
 40
1.0
 40
1.0
 10
-46.058799999999998
 20
87.500600000000006
 30
0.0
 10
-29.411100000000001
 20
85.686099999999996
 30
0.0
 10
-16.449999999999999
 20
71.579599999999999
 30
0.0
 10
-16.449999999999999
 20
54.450000000000003
 30
0.0
 10
-16.449999999999999
 20
54.450000000000003
 30
0.0
 10
-16.449999999999999
 20
36.089599999999997
 30
0.0
 10
-31.339600000000001
 20
21.199999999999999
 30
0.0
 10
-49.700000000000003
 20
21.199999999999999
 30
0.0
 10
-49.700000000000003
 20
21.199999999999999
 30
0.0
 10
-68.060400000000001
 20
21.199999999999999
 30
0.0
 10
-82.950000000000003
 20
36.089599999999997
 30
0.0
 10
-82.950000000000003
 20
54.450000000000003
 30
0.0
 10
-82.950000000000003
 20
54.450000000000003
 30
0.0
 10
-82.950000000000003
 20
71.579599999999999
 30
0.0
 10
-69.988900000000001
 20
85.686099999999996
 30
0.0
 10
-53.341200000000001
 20
87.500600000000006
 30
0.0
 10
-53.341200000000001
 20
87.500600000000006
 30
0.0
 10
-54.033099999999997
 20
88.325900000000004
 30
0.0
 10
-54.4499
 20
89.389200000000002
 30
0.0
 10
-54.4499
 20
90.5501
 30
0.0
 10
-54.4499
 20
90.5501
 30
0.0
 10
-54.4499
 20
93.172899999999998
 30
0.0
 10
-52.322899999999997
 20
95.299999999999997
 30
0.0
 10
-49.700000000000003
 20
95.299999999999997
 30
0.0
 10
-49.700000000000003
 20
95.299999999999997
 30
0.0
 10
-47.077100000000002
 20
95.299999999999997
 30
0.0
 10
-44.950099999999999
 20
93.172899999999998
 30
0.0
 10
-44.950099999999999
 20
90.5501
 30
0.0
 10
-44.950099999999999
 20
90.5501
 30
0.0
 10
-44.950099999999999
 20
89.389200000000002
 30
0.0
 10
-45.366900000000001
 20
88.325900000000004
 30
0.0
 10
-46.058799999999998
 20
87.500600000000006
 30
0.0
  0
SPLINE
  5
2E
100
AcDbEntity
  8
RÚteg 1
 62
     7
100
AcDbSpline
210
0.0
220
0.0
230
1.0
 70
     1
 71
     3
 72
    28
 73
    24
 74
     0
 42
0.0000000001
 43
0.0000000001
 40
0.0
 40
0.0
 40
0.0
 40
0.0
 40
0.1666666666666667
 40
0.1666666666666667
 40
0.1666666666666667
 40
0.1666666666666667
 40
0.3333333333333333
 40
0.3333333333333333
 40
0.3333333333333333
 40
0.3333333333333333
 40
0.5
 40
0.5
 40
0.5
 40
0.5
 40
0.6666666666666666
 40
0.6666666666666666
 40
0.6666666666666666
 40
0.6666666666666666
 40
0.8333333333333333
 40
0.8333333333333333
 40
0.8333333333333333
 40
0.8333333333333333
 40
1.0
 40
1.0
 40
1.0
 40
1.0
 10
20.300000000000001
 20
87.700000000000003
 30
0.0
 10
20.324999999999999
 20
87.700000000000003
 30
0.0
 10
20.349699999999999
 20
87.699100000000001
 30
0.0
 10
20.374500000000001
 20
87.698999999999998
 30
0.0
 10
20.374500000000001
 20
87.698999999999998
 30
0.0
 10
21.914899999999999
 20
87.738500000000002
 30
0.0
 10
23.151900000000001
 20
89.000200000000007
 30
0.0
 10
23.151900000000001
 20
90.5501
 30
0.0
 10
23.151900000000001
 20
90.5501
 30
0.0
 10
23.151900000000001
 20
92.124799999999993
 30
0.0
 10
21.8748
 20
93.401899999999998
 30
0.0
 10
20.300000000000001
 20
93.401899999999998
 30
0.0
 10
20.300000000000001
 20
93.401899999999998
 30
0.0
 10
18.725200000000001
 20
93.401899999999998
 30
0.0
 10
17.4481
 20
92.124799999999993
 30
0.0
 10
17.4481
 20
90.5501
 30
0.0
 10
17.4481
 20
90.5501
 30
0.0
 10
17.4481
 20
89.000200000000007
 30
0.0
 10
18.685099999999998
 20
87.738500000000002
 30
0.0
 10
20.2255
 20
87.698999999999998
 30
0.0
 10
20.2255
 20
87.698999999999998
 30
0.0
 10
20.250299999999999
 20
87.699100000000001
 30
0.0
 10
20.274999999999999
 20
87.700000000000003
 30
0.0
 10
20.300000000000001
 20
87.700000000000003
 30
0.0
  0
SPLINE
  5
2F
100
AcDbEntity
  8
RÚteg 1
 62
     7
100
AcDbSpline
210
0.0
220
0.0
230
1.0
 70
     1
 71
     3
 72
   188
 73
   184
 74
     0
 42
0.0000000001
 43
0.0000000001
 40
0.0
 40
0.0
 40
0.0
 40
0.0
 40
0.0217391304347826
 40
0.0217391304347826
 40
0.0217391304347826
 40
0.0217391304347826
 40
0.0434782608695652
 40
0.0434782608695652
 40
0.0434782608695652
 40
0.0434782608695652
 40
0.0652173913043478
 40
0.0652173913043478
 40
0.0652173913043478
 40
0.0652173913043478
 40
0.0869565217391304
 40
0.0869565217391304
 40
0.0869565217391304
 40
0.0869565217391304
 40
0.108695652173913
 40
0.108695652173913
 40
0.108695652173913
 40
0.108695652173913
 40
0.1304347826086957
 40
0.1304347826086957
 40
0.1304347826086957
 40
0.1304347826086957
 40
0.1521739130434783
 40
0.1521739130434783
 40
0.1521739130434783
 40
0.1521739130434783
 40
0.1739130434782609
 40
0.1739130434782609
 40
0.1739130434782609
 40
0.1739130434782609
 40
0.1956521739130435
 40
0.1956521739130435
 40
0.1956521739130435
 40
0.1956521739130435
 40
0.2173913043478261
 40
0.2173913043478261
 40
0.2173913043478261
 40
0.2173913043478261
 40
0.2391304347826087
 40
0.2391304347826087
 40
0.2391304347826087
 40
0.2391304347826087
 40
0.2608695652173912
 40
0.2608695652173912
 40
0.2608695652173912
 40
0.2608695652173912
 40
0.2826086956521738
 40
0.2826086956521738
 40
0.2826086956521738
 40
0.2826086956521738
 40
0.3043478260869564
 40
0.3043478260869564
 40
0.3043478260869564
 40
0.3043478260869564
 40
0.326086956521739
 40
0.326086956521739
 40
0.326086956521739
 40
0.326086956521739
 40
0.3478260869565216
 40
0.3478260869565216
 40
0.3478260869565216
 40
0.3478260869565216
 40
0.3695652173913042
 40
0.3695652173913042
 40
0.3695652173913042
 40
0.3695652173913042
 40
0.3913043478260868
 40
0.3913043478260868
 40
0.3913043478260868
 40
0.3913043478260868
 40
0.4130434782608694
 40
0.4130434782608694
 40
0.4130434782608694
 40
0.4130434782608694
 40
0.434782608695652
 40
0.434782608695652
 40
0.434782608695652
 40
0.434782608695652
 40
0.4565217391304346
 40
0.4565217391304346
 40
0.4565217391304346
 40
0.4565217391304346
 40
0.4782608695652172
 40
0.4782608695652172
 40
0.4782608695652172
 40
0.4782608695652172
 40
0.4999999999999998
 40
0.4999999999999998
 40
0.4999999999999998
 40
0.4999999999999998
 40
0.5217391304347824
 40
0.5217391304347824
 40
0.5217391304347824
 40
0.5217391304347824
 40
0.543478260869565
 40
0.543478260869565
 40
0.543478260869565
 40
0.543478260869565
 40
0.5652173913043476
 40
0.5652173913043476
 40
0.5652173913043476
 40
0.5652173913043476
 40
0.5869565217391302
 40
0.5869565217391302
 40
0.5869565217391302
 40
0.5869565217391302
 40
0.6086956521739128
 40
0.6086956521739128
 40
0.6086956521739128
 40
0.6086956521739128
 40
0.6304347826086953
 40
0.6304347826086953
 40
0.6304347826086953
 40
0.6304347826086953
 40
0.6521739130434779
 40
0.6521739130434779
 40
0.6521739130434779
 40
0.6521739130434779
 40
0.6739130434782605
 40
0.6739130434782605
 40
0.6739130434782605
 40
0.6739130434782605
 40
0.6956521739130431
 40
0.6956521739130431
 40
0.6956521739130431
 40
0.6956521739130431
 40
0.7173913043478257
 40
0.7173913043478257
 40
0.7173913043478257
 40
0.7173913043478257
 40
0.7391304347826083
 40
0.7391304347826083
 40
0.7391304347826083
 40
0.7391304347826083
 40
0.7608695652173909
 40
0.7608695652173909
 40
0.7608695652173909
 40
0.7608695652173909
 40
0.7826086956521735
 40
0.7826086956521735
 40
0.7826086956521735
 40
0.7826086956521735
 40
0.8043478260869561
 40
0.8043478260869561
 40
0.8043478260869561
 40
0.8043478260869561
 40
0.8260869565217387
 40
0.8260869565217387
 40
0.8260869565217387
 40
0.8260869565217387
 40
0.8478260869565213
 40
0.8478260869565213
 40
0.8478260869565213
 40
0.8478260869565213
 40
0.8695652173913039
 40
0.8695652173913039
 40
0.8695652173913039
 40
0.8695652173913039
 40
0.8913043478260865
 40
0.8913043478260865
 40
0.8913043478260865
 40
0.8913043478260865
 40
0.9130434782608691
 40
0.9130434782608691
 40
0.9130434782608691
 40
0.9130434782608691
 40
0.9347826086956517
 40
0.9347826086956517
 40
0.9347826086956517
 40
0.9347826086956517
 40
0.9565217391304343
 40
0.9565217391304343
 40
0.9565217391304343
 40
0.9565217391304343
 40
0.9782608695652169
 40
0.9782608695652169
 40
0.9782608695652169
 40
0.9782608695652169
 40
1.0
 40
1.0
 40
1.0
 40
1.0
 10
30.049199999999999
 20
75.209299999999999
 30
0.0
 10
30.830400000000001
 20
74.898099999999999
 30
0.0
 10
31.1602
 20
67.500200000000007
 30
0.0
 10
33.072499999999998
 20
70.153000000000006
 30
0.0
 10
33.072499999999998
 20
70.153000000000006
 30
0.0
 10
34.837200000000003
 20
69.601600000000005
 30
0.0
 10
33.782400000000003
 20
71.805499999999995
 30
0.0
 10
35.168599999999998
 20
70.806200000000004
 30
0.0
 10
35.168599999999998
 20
70.806200000000004
 30
0.0
 10
33.485300000000002
 20
68.470399999999998
 30
0.0
 10
35.445300000000003
 20
64.4739
 30
0.0
 10
33.512799999999999
 20
61.792400000000001
 30
0.0
 10
33.512799999999999
 20
61.792400000000001
 30
0.0
 10
33.468600000000002
 20
61.6678
 30
0.0
 10
32.594000000000001
 20
59.665799999999997
 30
0.0
 10
32.160600000000002
 20
58.457099999999997
 30
0.0
 10
32.160600000000002
 20
58.457099999999997
 30
0.0
 10
34.182600000000001
 20
61.112099999999998
 30
0.0
 10
41.316499999999998
 20
68.707700000000003
 30
0.0
 10
41.7883
 20
68.535499999999999
 30
0.0
 10
41.7883
 20
68.535499999999999
 30
0.0
 10
41.456400000000002
 20
66.489400000000003
 30
0.0
 10
41.956000000000003
 20
62.173499999999997
 30
0.0
 10
41.6173
 20
61.703899999999997
 30
0.0
 10
41.6173
 20
61.703899999999997
 30
0.0
 10
41.875500000000002
 20
61.518000000000001
 30
0.0
 10
40.427100000000003
 20
59.834000000000003
 30
0.0
 10
40.975299999999997
 20
59.702800000000003
 30
0.0
 10
40.975299999999997
 20
59.702800000000003
 30
0.0
 10
41.220300000000002
 20
59.644399999999997
 30
0.0
 10
41.925800000000002
 20
59.376899999999999
 30
0.0
 10
42.085500000000003
 20
59.403399999999998
 30
0.0
 10
42.085500000000003
 20
59.403399999999998
 30
0.0
 10
42.440600000000003
 20
59.460799999999999
 30
0.0
 10
38.296500000000002
 20
54.966200000000001
 30
0.0
 10
39.920000000000002
 20
53.796300000000002
 30
0.0
 10
39.920000000000002
 20
53.796300000000002
 30
0.0
 10
39.9604
 20
53.851799999999997
 30
0.0
 10
41.136000000000003
 20
53.331200000000003
 30
0.0
 10
41.136600000000001
 20
53.332299999999996
 30
0.0
 10
41.136600000000001
 20
53.332299999999996
 30
0.0
 10
44.031300000000002
 20
51.245800000000003
 30
0.0
 10
38.394799999999996
 20
50.945
 30
0.0
 10
36.7333
 20
51.2151
 30
0.0
 10
36.7333
 20
51.2151
 30
0.0
 10
36.638100000000001
 20
51.2303
 30
0.0
 10
33.520600000000002
 20
47.564599999999999
 30
0.0
 10
32.915500000000002
 20
48.000999999999998
 30
0.0
 10
32.915500000000002
 20
48.000999999999998
 30
0.0
 10
31.104800000000001
 20
45.488700000000001
 30
0.0
 10
42.140999999999998
 20
30.298999999999999
 30
0.0
 10
38.467700000000001
 20
31.651800000000001
 30
0.0
 10
38.467700000000001
 20
31.651800000000001
 30
0.0
 10
37.703600000000002
 20
31.933299999999999
 30
0.0
 10
31.309100000000001
 20
46.692100000000003
 30
0.0
 10
30.413699999999999
 20
45.0505
 30
0.0
 10
30.413699999999999
 20
45.0505
 30
0.0
 10
30.240500000000001
 20
44.733600000000003
 30
0.0
 10
29.802900000000001
 20
43.467700000000001
 30
0.0
 10
29.964300000000001
 20
43.159999999999997
 30
0.0
 10
29.964300000000001
 20
43.159999999999997
 30
0.0
 10
29.267900000000001
 20
42.193199999999997
 30
0.0
 10
28.439299999999999
 20
36.591000000000001
 30
0.0
 10
26.351400000000002
 20
38.095999999999997
 30
0.0
 10
26.351400000000002
 20
38.095999999999997
 30
0.0
 10
26.430499999999999
 20
38.204900000000002
 30
0.0
 10
25.687200000000001
 20
38.788600000000002
 30
0.0
 10
25.781400000000001
 20
38.919400000000003
 30
0.0
 10
25.781400000000001
 20
38.919400000000003
 30
0.0
 10
23.7392
 20
41.338099999999997
 30
0.0
 10
22.5945
 20
34.800899999999999
 30
0.0
 10
19.4206
 20
37.0886
 30
0.0
 10
19.4206
 20
37.0886
 30
0.0
 10
18.078499999999998
 20
35.225999999999999
 30
0.0
 10
8.4865999999999993
 20
35.545900000000003
 30
0.0
 10
12.572900000000001
 20
36.682499999999997
 30
0.0
 10
12.572900000000001
 20
36.682499999999997
 30
0.0
 10
13.0038
 20
36.802399999999999
 30
0.0
 10
18.099799999999998
 20
42.065100000000001
 30
0.0
 10
18.485700000000001
 20
42.802500000000002
 30
0.0
 10
18.485700000000001
 20
42.802500000000002
 30
0.0
 10
18.4941
 20
42.796399999999998
 30
0.0
 10
19.059200000000001
 20
44.362400000000001
 30
0.0
 10
17.3781
 20
43.400700000000001
 30
0.0
 10
17.3781
 20
43.400700000000001
 30
0.0
 10
14.6312
 20
41.828899999999997
 30
0.0
 10
13.4682
 20
40.405500000000004
 30
0.0
 10
10.084
 20
40.690899999999999
 30
0.0
 10
10.084
 20
40.690899999999999
 30
0.0
 10
6.2704000000000004
 20
38.167999999999999
 30
0.0
 10
9.4745000000000008
 20
42.553199999999997
 30
0.0
 10
9.9686000000000003
 20
43.238199999999999
 30
0.0
 10
9.9686000000000003
 20
43.238199999999999
 30
0.0
 10
9.9605999999999995
 20
43.2438
 30
0.0
 10
10.200200000000001
 20
43.734699999999997
 30
0.0
 10
10.154500000000001
 20
44.017299999999999
 30
0.0
 10
10.154500000000001
 20
44.017299999999999
 30
0.0
 10
9.9007000000000005
 20
45.585500000000003
 30
0.0
 10
4.5521000000000003
 20
43.335099999999997
 30
0.0
 10
5.1092000000000004
 20
45.816200000000002
 30
0.0
 10
5.1092000000000004
 20
45.816200000000002
 30
0.0
 10
5.3851000000000004
 20
47.049199999999999
 30
0.0
 10
-0.7725
 20
50.3583
 30
0.0
 10
-1.8720000000000001
 20
50.9343
 30
0.0
 10
-1.8720000000000001
 20
50.9343
 30
0.0
 10
-1.8775999999999999
 20
50.926400000000001
 30
0.0
 10
-3.1958000000000002
 20
51.707900000000002
 30
0.0
 10
-0.447
 20
51.695999999999998
 30
0.0
 10
-0.447
 20
51.695999999999998
 30
0.0
 10
1.8242
 20
51.686199999999999
 30
0.0
 10
4.3916000000000004
 20
51.5886
 30
0.0
 10
5.1024000000000003
 20
52.574399999999997
 30
0.0
 10
5.1024000000000003
 20
52.574399999999997
 30
0.0
 10
4.6978999999999997
 20
53.054000000000002
 30
0.0
 10
10.051299999999999
 20
51.411499999999997
 30
0.0
 10
8.9162999999999997
 20
53.578400000000002
 30
0.0
 10
8.9162999999999997
 20
53.578400000000002
 30
0.0
 10
8.1059999999999999
 20
55.124400000000001
 30
0.0
 10
0.0176
 20
56.885300000000001
 30
0.0
 10
4.0929000000000002
 20
57.768999999999998
 30
0.0
 10
4.0929000000000002
 20
57.768999999999998
 30
0.0
 10
12.172499999999999
 20
59.523000000000003
 30
0.0
 10
2.1888000000000001
 20
63.899999999999999
 30
0.0
 10
2.3668
 20
63.9283
 30
0.0
 10
2.3668
 20
63.9283
 30
0.0
 10
6.0156000000000001
 20
64.520099999999999
 30
0.0
 10
0.2882
 20
67.504599999999996
 30
0.0
 10
1.4885999999999999
 20
69.065299999999993
 30
0.0
 10
1.4885999999999999
 20
69.065299999999993
 30
0.0
 10
-0.8408
 20
70.947199999999995
 30
0.0
 10
-0.1661
 20
72.033900000000003
 30
0.0
 10
-2.5554000000000001
 20
73.965500000000006
 30
0.0
 10
-2.5554000000000001
 20
73.965500000000006
 30
0.0
 10
0.3119
 20
76.718999999999994
 30
0.0
 10
2.2921
 20
72.203299999999999
 30
0.0
 10
4.2760999999999996
 20
74.109700000000004
 30
0.0
 10
4.2760999999999996
 20
74.109700000000004
 30
0.0
 10
7.7470999999999997
 20
71.608000000000004
 30
0.0
 10
6.9557000000000002
 20
72.502399999999994
 30
0.0
 10
7.7449000000000003
 20
74.686300000000003
 30
0.0
 10
7.7449000000000003
 20
74.686300000000003
 30
0.0
 10
7.7565999999999997
 20
74.719099999999997
 30
0.0
 10
11.3241
 20
72.272099999999995
 30
0.0
 10
10.727
 20
71.644499999999994
 30
0.0
 10
10.727
 20
71.644499999999994
 30
0.0
 10
12.0373
 20
70.726399999999998
 30
0.0
 10
13.881
 20
67.615700000000004
 30
0.0
 10
14.178699999999999
 20
70.424499999999995
 30
0.0
 10
14.178699999999999
 20
70.424499999999995
 30
0.0
 10
14.329800000000001
 20
71.842299999999994
 30
0.0
 10
15.187200000000001
 20
77.463499999999996
 30
0.0
 10
16.191800000000001
 20
74.778700000000001
 30
0.0
 10
16.191800000000001
 20
74.778700000000001
 30
0.0
 10
17.315200000000001
 20
71.781199999999998
 30
0.0
 10
18.8172
 20
72.087199999999996
 30
0.0
 10
19.994499999999999
 20
68.947500000000005
 30
0.0
 10
19.994499999999999
 20
68.947500000000005
 30
0.0
 10
23.1798
 20
60.436900000000001
 30
0.0
 10
25.1128
 20
62.185200000000002
 30
0.0
 10
24.666
 20
62.480899999999998
 30
0.0
 10
24.666
 20
62.480899999999998
 30
0.0
 10
23.925999999999998
 20
66.131500000000003
 30
0.0
 10
20.145199999999999
 20
72.596500000000006
 30
0.0
 10
23.576599999999999
 20
69.405199999999994
 30
0.0
 10
23.576599999999999
 20
69.405199999999994
 30
0.0
 10
24.348099999999999
 20
70.475999999999999
 30
0.0
 10
20.976900000000001
 20
72.005600000000001
 30
0.0
 10
23.397099999999998
 20
73.962299999999999
 30
0.0
 10
23.397099999999998
 20
73.962299999999999
 30
0.0
 10
23.596800000000002
 20
73.818200000000004
 30
0.0
 10
23.349399999999999
 20
76.660600000000002
 30
0.0
 10
23.532800000000002
 20
76.528400000000005
 30
0.0
 10
23.532800000000002
 20
76.528400000000005
 30
0.0
 10
24.091200000000001
 20
77.303299999999993
 30
0.0
 10
23.438400000000001
 20
84.704400000000007
 30
0.0
 10
24.877300000000002
 20
81.101399999999998
 30
0.0
 10
24.877300000000002
 20
81.101399999999998
 30
0.0
 10
25.392299999999999
 20
79.808899999999994
 30
0.0
 10
29.1678
 20
75.027500000000003
 30
0.0
 10
28.647500000000001
 20
74.305700000000002
 30
0.0
 10
28.647500000000001
 20
74.305700000000002
 30
0.0
 10
29.2639
 20
73.400099999999995
 30
0.0
 10
29.899699999999999
 20
75.101100000000002
 30
0.0
 10
30.049199999999999
 20
75.209299999999999
 30
0.0
  0
SPLINE
  5
30
100
AcDbEntity
  8
RÚteg 1
 62
     7
100
AcDbSpline
210
0.0
220
0.0
230
1.0
 70
     1
 71
     3
 72
    36
 73
    32
 74
     0
 42
0.0000000001
 43
0.0000000001
 40
0.0
 40
0.0
 40
0.0
 40
0.0
 40
0.125
 40
0.125
 40
0.125
 40
0.125
 40
0.25
 40
0.25
 40
0.25
 40
0.25
 40
0.375
 40
0.375
 40
0.375
 40
0.375
 40
0.5
 40
0.5
 40
0.5
 40
0.5
 40
0.625
 40
0.625
 40
0.625
 40
0.625
 40
0.75
 40
0.75
 40
0.75
 40
0.75
 40
0.875
 40
0.875
 40
0.875
 40
0.875
 40
1.0
 40
1.0
 40
1.0
 40
1.0
 10
23.941199999999998
 20
87.500600000000006
 30
0.0
 10
40.588900000000002
 20
85.686099999999996
 30
0.0
 10
53.549999999999997
 20
71.579599999999999
 30
0.0
 10
53.549999999999997
 20
54.450000000000003
 30
0.0
 10
53.549999999999997
 20
54.450000000000003
 30
0.0
 10
53.549999999999997
 20
36.089599999999997
 30
0.0
 10
38.660400000000003
 20
21.199999999999999
 30
0.0
 10
20.300000000000001
 20
21.199999999999999
 30
0.0
 10
20.300000000000001
 20
21.199999999999999
 30
0.0
 10
1.9396
 20
21.199999999999999
 30
0.0
 10
-12.949999999999999
 20
36.089599999999997
 30
0.0
 10
-12.949999999999999
 20
54.450000000000003
 30
0.0
 10
-12.949999999999999
 20
54.450000000000003
 30
0.0
 10
-12.949999999999999
 20
71.579599999999999
 30
0.0
 10
0.0111
 20
85.686099999999996
 30
0.0
 10
16.658799999999999
 20
87.500600000000006
 30
0.0
 10
16.658799999999999
 20
87.500600000000006
 30
0.0
 10
15.966900000000001
 20
88.325900000000004
 30
0.0
 10
15.5501
 20
89.389200000000002
 30
0.0
 10
15.5501
 20
90.5501
 30
0.0
 10
15.5501
 20
90.5501
 30
0.0
 10
15.5501
 20
93.172899999999998
 30
0.0
 10
17.677099999999999
 20
95.299999999999997
 30
0.0
 10
20.300000000000001
 20
95.299999999999997
 30
0.0
 10
20.300000000000001
 20
95.299999999999997
 30
0.0
 10
22.922899999999998
 20
95.299999999999997
 30
0.0
 10
25.049900000000001
 20
93.172899999999998
 30
0.0
 10
25.049900000000001
 20
90.5501
 30
0.0
 10
25.049900000000001
 20
90.5501
 30
0.0
 10
25.049900000000001
 20
89.389200000000002
 30
0.0
 10
24.633099999999999
 20
88.325900000000004
 30
0.0
 10
23.941199999999998
 20
87.500600000000006
 30
0.0
  0
ENDSEC
  0
SECTION
  2
OBJECTS
  0
DICTIONARY
  5
19
100
AcDbDictionary
280
     0
281
     1
  3
ACAD_GROUP
350
1A
  3
ACAD_MLINESTYLE
350
1B
  3
ACAD_LAYOUT
350
1E
  3
ACAD_PLOTSETTINGS
350
22
  3
ACAD_PLOTSTYLENAME
350
1F
  3
ACAD_WIPEOUT_VARS
350
23
  0
DICTIONARY
  5
1A
102
{ACAD_REACTORS
330
19
102
}
100
AcDbDictionary
280
     0
281
     1
  0
DICTIONARY
  5
1B
102
{ACAD_REACTORS
330
19
102
}
100
AcDbDictionary
280
     0
281
     1
  3
Standard
350
1C
  0
MLINESTYLE
  5
1C
102
{ACAD_REACTORS
330
1B
102
}
100
AcDbMlineStyle
  2
Standard
 70
     0
  3

 62
     0
 51
90.0
 52
90.0
 71
     2
 49
0.5
 62
   256
  6
BYLAYER
 49
-0.5
 62
   256
  6
BYLAYER
  0
ACDBDICTIONARYWDFLT
  5
1F
102
{ACAD_REACTORS
330
19
102
}
100
AcDbDictionary
281
     1
  3
Normal
350
1D
100
AcDbDictionaryWithDefault
340
1D
  0
ACDBPLACEHOLDER
  5
1D
102
{ACAD_REACTORS
330
1F
102
}
  0
LAYOUT
  5
20
102
{ACAD_REACTORS
330
1E
102
}
100
AcDbPlotSettings
  1

  2

  4

  6

 40
0.0
 41
0.0
 42
0.0
 43
0.0
 44
0.0
 45
0.0
 46
0.0
 47
0.0
 48
0.0
 49
0.0
140
0.0
141
0.0
142
1.0
143
1.0
 70
  1024
 72
     0
 73
     0
 74
     0
  7

 75
     0
147
1.0
148
0.0
149
0.0
100
AcDbLayout
  1
Model
 70
     0
 71
     0
 10
0.0
 20
0.0
 11
0.0
 21
0.0
 12
0.0
 22
0.0
 32
0.0
 14
0.0
 24
0.0
 34
0.0
 15
0.0
 25
0.0
 35
0.0
146
0.0
 13
0.0
 23
0.0
 33
0.0
 16
0.0
 26
0.0
 36
0.0
 17
0.0
 27
0.0
 37
0.0
 76
     0
330
A
331
0
345
0
346
0
  0
LAYOUT
  5
21
102
{ACAD_REACTORS
330
1E
102
}
100
AcDbPlotSettings
  1

  2

  4

  6

 40
0.0
 41
0.0
 42
0.0
 43
0.0
 44
0.0
 45
0.0
 46
0.0
 47
0.0
 48
0.0
 49
0.0
140
0.0
141
0.0
142
1.0
143
1.0
 70
     0
 72
     0
 73
     0
 74
     0
  7

 75
     0
147
1.0
148
0.0
149
0.0
100
AcDbLayout
  1
Layout1
 70
     0
 71
     0
 10
0.0
 20
0.0
 11
0.0
 21
0.0
 12
0.0
 22
0.0
 32
0.0
 14
0.0
 24
0.0
 34
0.0
 15
0.0
 25
0.0
 35
0.0
146
0.0
 13
0.0
 23
0.0
 33
0.0
 16
0.0
 26
0.0
 36
0.0
 17
0.0
 27
0.0
 37
0.0
 76
     0
330
B
331
0
345
0
346
0
  0
DICTIONARY
  5
1E
102
{ACAD_REACTORS
330
19
102
}
100
AcDbDictionary
280
     0
281
     1
  3
Layout1
350
21
  3
Model
350
20
  0
DICTIONARY
  5
22
102
{ACAD_REACTORS
330
19
102
}
100
AcDbDictionary
280
     0
281
     1
  0
WIPEOUTVARIABLES
  5
23
100
AcDbWipeoutVariables
 70
     1
  0
ENDSEC
  0
EOF
