  0
SECTION
  2
HEADER
  9
$ACADVER
  1
AC1015
  9
$ACADMAINTVER
 70
     6
  9
$DWGCODEPAGE
  3
DOS850
  9
$INSBASE
 10
0.0
 20
0.0
 30
0.0
  9
$EXTMIN
 10
-77.9881
 20
20.2647
 30
1.000000E+20
  9
$EXTMAX
 10
67.0881
 20
105.3381
 30
-1.000000E+20
  9
$LIMMIN
 10
0.0
 20
0.0
  9
$LIMMAX
 10
0.0
 20
0.0
  9
$ORTHOMODE
 70
     0
  9
$REGENMODE
 70
     1
  9
$FILLMODE
 70
     1
  9
$QTEXTMODE
 70
     0
  9
$MIRRTEXT
 70
     1
  9
$LTSCALE
 40
1.0
  9
$ATTMODE
 70
     1
  9
$TEXTSIZE
 40
0.2
  9
$TRACEWID
 40
0.05
  9
$TEXTSTYLE
  7
Standard
  9
$CLAYER
  8
0
  9
$CELTYPE
  6
Continuous
  9
$CECOLOR
 62
   256
  9
$CELTSCALE
 40
1.0
  9
$DISPSILH
 70
     0
  9
$DIMSCALE
 40
1.0
  9
$DIMASZ
 40
0.18
  9
$DIMEXO
 40
0.0625
  9
$DIMDLI
 40
0.38
  9
$DIMRND
 40
0.0
  9
$DIMDLE
 40
0.0
  9
$DIMEXE
 40
0.18
  9
$DIMTP
 40
0.0
  9
$DIMTM
 40
0.0
  9
$DIMTXT
 40
0.18
  9
$DIMCEN
 40
0.09
  9
$DIMTSZ
 40
0.0
  9
$DIMTOL
 70
     0
  9
$DIMLIM
 70
     0
  9
$DIMTIH
 70
     1
  9
$DIMTOH
 70
     1
  9
$DIMSE1
 70
     0
  9
$DIMSE2
 70
     0
  9
$DIMTAD
 70
     0
  9
$DIMZIN
 70
     0
  9
$DIMBLK
  1

  9
$DIMASO
 70
     1
  9
$DIMSHO
 70
     1
  9
$DIMPOST
  1

  9
$DIMAPOST
  1

  9
$DIMALT
 70
     0
  9
$DIMALTD
 70
     2
  9
$DIMALTF
 40
25.4
  9
$DIMLFAC
 40
1.0
  9
$DIMTOFL
 70
     0
  9
$DIMTVP
 40
0.0
  9
$DIMTIX
 70
     0
  9
$DIMSOXD
 70
     0
  9
$DIMSAH
 70
     0
  9
$DIMBLK1
  1

  9
$DIMBLK2
  1

  9
$DIMSTYLE
  2
Standard
  9
$DIMCLRD
 70
     0
  9
$DIMCLRE
 70
     0
  9
$DIMCLRT
 70
     0
  9
$DIMTFAC
 40
1.0
  9
$DIMGAP
 40
0.09
  9
$DIMJUST
 70
     0
  9
$DIMSD1
 70
     0
  9
$DIMSD2
 70
     0
  9
$DIMTOLJ
 70
     1
  9
$DIMTZIN
 70
     0
  9
$DIMALTZ
 70
     0
  9
$DIMALTTZ
 70
     0
  9
$DIMUPT
 70
     0
  9
$DIMDEC
 70
     4
  9
$DIMTDEC
 70
     4
  9
$DIMALTU
 70
     2
  9
$DIMALTTD
 70
     2
  9
$DIMTXSTY
  7
Standard
  9
$DIMAUNIT
 70
     0
  9
$DIMADEC
 70
     0
  9
$DIMALTRND
 40
0.0
  9
$DIMAZIN
 70
     0
  9
$DIMDSEP
 70
     0
  9
$DIMATFIT
 70
     3
  9
$DIMFRAC
 70
     0
  9
$DIMLDRBLK
  1

  9
$DIMLUNIT
 70
     2
  9
$DIMLWD
 70
     0
  9
$DIMLWE
 70
     0
  9
$DIMTMOVE
 70
     0
  9
$LUNITS
 70
     2
  9
$LUPREC
 70
     4
  9
$SKETCHINC
 40
0.1
  9
$FILLETRAD
 40
0.0
  9
$AUNITS
 70
     0
  9
$AUPREC
 70
     0
  9
$MENU
  1
acad
  9
$ELEVATION
 40
0.0
  9
$PELEVATION
 40
0.0
  9
$THICKNESS
 40
0.0
  9
$LIMCHECK
 70
     0
  9
$CHAMFERA
 40
0.0
  9
$CHAMFERB
 40
0.0
  9
$CHAMFERC
 40
0.0
  9
$CHAMFERD
 40
0.0
  9
$SKPOLY
 70
     0
  9
$TDCREATE
 40
0.000000000
  9
$TDUCREATE
 40
0.000000000
  9
$TDUPDATE
 40
0.000000000
  9
$TDUUPDATE
 40
0.000000000
  9
$TDINDWG
 40
0.0000000000
  9
$TDUSRTIMER
 40
0.0000000000
  9
$USRTIMER
 70
     1
  9
$ANGBASE
 50
0.0
  9
$ANGDIR
 70
     0
  9
$PDMODE
 70
     0
  9
$PDSIZE
 40
0.0
  9
$PLINEWID
 40
0.0
  9
$SPLFRAME
 70
     0
  9
$SPLINETYPE
 70
     6
  9
$SPLINESEGS
 70
     8
  9
$HANDSEED
  5
34
  9
$SURFTAB1
 70
     6
  9
$SURFTAB2
 70
     6
  9
$SURFTYPE
 70
     6
  9
$SURFU
 70
     6
  9
$SURFV
 70
     6
  9
$UCSBASE
  2

  9
$UCSNAME
  2

  9
$UCSORG
 10
0.0
 20
0.0
 30
0.0
  9
$UCSXDIR
 10
1.0
 20
0.0
 30
0.0
  9
$UCSYDIR
 10
0.0
 20
1.0
 30
0.0
  9
$UCSORTHOREF
  2

  9
$UCSORTHOVIEW
 70
     0
  9
$UCSORGTOP
 10
0.0
 20
0.0
 30
0.0
  9
$UCSORGBOTTOM
 10
0.0
 20
0.0
 30
0.0
  9
$UCSORGLEFT
 10
0.0
 20
0.0
 30
0.0
  9
$UCSORGRIGHT
 10
0.0
 20
0.0
 30
0.0
  9
$UCSORGFRONT
 10
0.0
 20
0.0
 30
0.0
  9
$UCSORGBACK
 10
0.0
 20
0.0
 30
0.0
  9
$PUCSBASE
  2

  9
$PUCSNAME
  2

  9
$PUCSORG
 10
0.0
 20
0.0
 30
0.0
  9
$PUCSXDIR
 10
1.0
 20
0.0
 30
0.0
  9
$PUCSYDIR
 10
0.0
 20
1.0
 30
0.0
  9
$PUCSORTHOREF
  2

  9
$PUCSORTHOVIEW
 70
     0
  9
$PUCSORGTOP
 10
0.0
 20
0.0
 30
0.0
  9
$PUCSORGBOTTOM
 10
0.0
 20
0.0
 30
0.0
  9
$PUCSORGLEFT
 10
0.0
 20
0.0
 30
0.0
  9
$PUCSORGRIGHT
 10
0.0
 20
0.0
 30
0.0
  9
$PUCSORGFRONT
 10
0.0
 20
0.0
 30
0.0
  9
$PUCSORGBACK
 10
0.0
 20
0.0
 30
0.0
  9
$USERI1
 70
     0
  9
$USERI2
 70
     0
  9
$USERI3
 70
     0
  9
$USERI4
 70
     0
  9
$USERI5
 70
     0
  9
$USERR1
 40
0.0
  9
$USERR2
 40
0.0
  9
$USERR3
 40
0.0
  9
$USERR4
 40
0.0
  9
$USERR5
 40
0.0
  9
$WORLDVIEW
 70
     1
  9
$SHADEDGE
 70
     3
  9
$SHADEDIF
 70
    70
  9
$TILEMODE
 70
     1
  9
$MAXACTVP
 70
    16
  9
$PINSBASE
 10
0.0
 20
0.0
 30
0.0
  9
$PLIMCHECK
 70
     0
  9
$PEXTMIN
 10
1.000000E+20
 20
1.000000E+20
 30
1.000000E+20
  9
$PEXTMAX
 10
-1.000000E+20
 20
-1.000000E+20
 30
-1.000000E+20
  9
$PLIMMIN
 10
0.0
 20
0.0
  9
$PLIMMAX
 10
12.0
 20
9.0
  9
$UNITMODE
 70
     0
  9
$VISRETAIN
 70
     0
  9
$PLINEGEN
 70
     1
  9
$PSLTSCALE
 70
     0
  9
$TREEDEPTH
 70
  3020
  9
$CMLSTYLE
  2
Standard
  9
$CMLJUST
 70
     0
  9
$CMLSCALE
 40
1.0
  9
$PROXYGRAPHICS
 70
     0
  9
$MEASUREMENT
 70
     0
  9
$CELWEIGHT
370
     0
  9
$ENDCAPS
280
     0
  9
$JOINSTYLE
280
     0
  9
$LWDISPLAY
290
     0
  9
$INSUNITS
 70
     4
  9
$HYPERLINKBASE
  1

  9
$XEDIT
290
     1
  9
$CEPSNTYPE
380
     0
  9
$PSTYLEMODE
290
     1
  9
$FINGERPRINTGUID
  2

  9
$VERSIONGUID
  2

  9
$EXTNAMES
290
     1
  9
$PSVPSCALE
 40
0.0
  0
ENDSEC
  0
SECTION
  2
CLASSES
  0
CLASS
  1
LWPOLYLINE
  2
AcDbPolyline
  3
AutoCAD 2000
 90
    32768
280
     0
281
     1
  0
CLASS
  1
IMAGE
  2
AcDbRasterImage
  3
ISM
 90
    32895
280
     0
281
     1
  0
CLASS
  1
OLE2FRAME
  2
AcDbOle2Frame
  3
AutoCAD 2000
 90
    32768
280
     0
281
     1
  0
CLASS
  1
HATCH
  2
AcDbHatch
  3
AutoCAD 2000
 90
    32768
280
     0
281
     1
  0
CLASS
  1
DICTIONARYVAR
  2
AcDbDictionaryVar
  3
AutoCAD 2000
 90
    32768
280
     0
281
     0
  0
CLASS
  1
RASTERVARIABLES
  2
AcDbRasterVariables
  3
ISM
 90
    32768
280
     0
281
     0
  0
CLASS
  1
IMAGEDEF
  2
AcDbRasterImageDef
  3
ISM
 90
    32768
280
     0
281
     0
  0
CLASS
  1
IMAGEDEF_REACTOR
  2
AcDbRasterImageDefReactor
  3
ISM
 90
    32769
280
     0
281
     0
  0
CLASS
  1
IDBUFFER
  2
AcDbIdBuffer
  3
AutoCAD 2000
 90
    32768
280
     0
281
     0
  0
CLASS
  1
SPATIAL_FILTER
  2
AcDbSpatialFilter
  3
AutoCAD 2000
 90
    32768
280
     0
281
     0
  0
CLASS
  1
XRECORD
  2
AcDbXrecord
  3
AutoCAD 2000
 90
    32768
280
     0
281
     0
  0
CLASS
  1
SORTENTSTABLE
  2
AcDbSortentsTable
  3
AutoCAD 2000
 90
    32768
280
     0
281
     0
  0
CLASS
  1
LAYER_INDEX
  2
AcDbLayerIndex
  3
AutoCAD 2000
 90
    32768
280
     0
281
     0
  0
CLASS
  1
SPATIAL_INDEX
  2
AcDbSpatialIndex
  3
AutoCAD 2000
 90
    32768
280
     0
281
     0
  0
CLASS
  1
OBJECT_PTR
  2
CAseDLPNTableRecord
  3
"ASE-LPNTableRecord"
 90
    32769
280
     0
281
     0
  0
CLASS
  1
LAYOUT
  2
AcDbLayout
  3
AutoCAD 2000
 90
        0
280
     0
281
     0
  0
CLASS
  1
PLOTSETTINGS
  2
AcDbPlotSettings
  3
AutoCAD 2000
 90
    32768
280
     0
281
     0
  0
CLASS
  1
ACDBDICTIONARYWDFLT
  2
AcDbDictionaryWithDefault
  3
AutoCAD 2000
 90
        0
280
     0
281
     0
  0
CLASS
  1
ACDBPLACEHOLDER
  2
AcDbPlaceHolder
  3
AutoCAD 2000
 90
        0
280
     0
281
     0
  0
CLASS
  1
VBA_PROJECT
  2
AcDbVbaProject
  3
acadvba
 90
    32768
280
     0
281
     0
  0
CLASS
  1
WIPEOUT
  2
AcDbWipeout
  3
WipeOut|AutoCAD Express Tool|expresstools@autodesk.com
 90
    32895
280
     0
281
     1
  0
CLASS
  1
WIPEOUTVARIABLES
  2
AcDbWipeoutVariables
  3
WipeOut|AutoCAD Express Tool|expresstools@autodesk.com
 90
        0
280
     0
281
     0
  0
CLASS
  1
RTEXT
  2
RText
  3
RText|AutoCAD Express Tool|expresstools@autodesk.com
 90
    32768
280
     0
281
     1
  0
CLASS
  1
ARCALIGNEDTEXT
  2
AcDbArcAlignedText
  3
ATEXT|AutoCAD Express Tool|expresstools@autodesk.com
 90
    32768
280
     0
281
     1
  0
ENDSEC
  0
SECTION
  2
TABLES
  0
TABLE
  2
VPORT
  5
7
100
AcDbSymbolTable
 70
     1
  0
VPORT
  5
15
100
AcDbSymbolTableRecord
100
AcDbViewportTableRecord
  2
*ACTIVE
 70
     0
 10
0.0
 20
0.0
 11
1.0
 21
1.0
 12
6.591288
 22
4.579184
 13
0.0
 23
0.0
 14
1.0
 24
1.0
 15
0.0
 25
0.0
 16
0.0
 26
0.0
 36
1.0
 17
0.0
 27
0.0
 37
0.0
 40
9.158369
 41
0.688564
 42
50.0
 43
0.0
 44
0.0
 50
0.0
 51
0.0
 71
     0
 72
   100
 73
     1
 74
     1
 75
     0
 76
     0
 77
     0
 78
     0
281
     0
 65
     0
110
0.0
120
0.0
130
0.0
111
1.0
121
0.0
131
0.0
112
0.0
122
1.0
132
0.0
345
0
346
0
 79
     0
146
0.0
  0
ENDTAB
  0
TABLE
  2
LTYPE
  5
4
100
AcDbSymbolTable
 70
     3
  0
LTYPE
  5
11
100
AcDbSymbolTableRecord
100
AcDbLinetypeTableRecord
  2
ByBlock
 70
    64
  3

 72
    65
 73
     0
 40
0.0
  0
LTYPE
  5
12
100
AcDbSymbolTableRecord
100
AcDbLinetypeTableRecord
  2
ByLayer
 70
    64
  3

 72
    65
 73
     0
 40
0.0
  0
LTYPE
  5
13
100
AcDbSymbolTableRecord
100
AcDbLinetypeTableRecord
  2
Continuous
 70
    64
  3
Solid line
 72
    65
 73
     0
 40
0.0
  0
ENDTAB
  0
TABLE
  2
LAYER
  5
2
100
AcDbSymbolTable
 70
     2
  0
LAYER
  5
14
100
AcDbSymbolTableRecord
100
AcDbLayerTableRecord
  2
0
 70
     0
 62
     7
  6
Continuous
290
     1
370
    -3
390
1D
  0
LAYER
  5
24
100
AcDbSymbolTableRecord
100
AcDbLayerTableRecord
  2
RÚteg 1
 70
     0
 62
     7
  6
Continuous
290
     1
370
    -3
390
1F
  0
ENDTAB
  0
TABLE
  2
STYLE
  5
3
100
AcDbSymbolTable
 70
     1
  0
STYLE
  5
17
100
AcDbSymbolTableRecord
100
AcDbTextStyleTableRecord
  2
Standard
 70
     0
 40
0.0
 41
1.0
 50
0.0
 71
     0
 42
0.0
  3
txt
  4

  0
ENDTAB
  0
TABLE
  2
VIEW
  5
5
100
AcDbSymbolTable
 70
     0
  0
ENDTAB
  0
TABLE
  2
UCS
  5
6
100
AcDbSymbolTable
 70
     0
  0
ENDTAB
  0
TABLE
  2
APPID
  5
8
100
AcDbSymbolTable
 70
     1
  0
APPID
  5
16
100
AcDbSymbolTableRecord
100
AcDbRegAppTableRecord
  2
ACAD
 70
     0
  0
ENDTAB
  0
TABLE
  2
DIMSTYLE
  5
9
100
AcDbSymbolTable
 70
     1
100
AcDbDimStyleTable
 71
     0
  0
DIMSTYLE
105
18
100
AcDbSymbolTableRecord
100
AcDbDimStyleTableRecord
  2
Standard
 70
     0
  3

  4

 40
1.0
 41
0.18
 42
0.0625
 43
0.38
 44
0.18
 45
0.0
 46
0.0
 47
0.0
 48
0.0
 71
     0
 72
     0
 73
     1
 74
     1
 75
     0
 76
     0
 77
     0
 78
     0
 79
     0
140
0.18
141
0.09
142
0.0
143
25.4
144
1.0
145
0.0
146
1.0
147
0.09
148
0.0
170
     0
171
     2
172
     0
173
     0
174
     0
175
     0
176
     0
177
     0
178
     0
179
     0
271
     4
272
     4
273
     2
274
     2
275
     0
276
     0
277
     2
278
    46
279
     0
280
     0
281
     0
282
     0
283
     1
284
     0
285
     0
286
     0
288
     0
340
17
341
0
342
0
343
0
344
0
371
    -2
372
    -2
  0
ENDTAB
  0
TABLE
  2
BLOCK_RECORD
  5
1
100
AcDbSymbolTable
 70
     0
  0
BLOCK_RECORD
  5
A
100
AcDbSymbolTableRecord
100
AcDbBlockTableRecord
  2
*MODEL_SPACE
340
20
  0
BLOCK_RECORD
  5
B
100
AcDbSymbolTableRecord
100
AcDbBlockTableRecord
  2
*PAPER_SPACE
340
21
  0
ENDTAB
  0
ENDSEC
  0
SECTION
  2
BLOCKS
  0
BLOCK
  5
D
100
AcDbEntity
  8
0
100
AcDbBlockBegin
  2
*MODEL_SPACE
 70
     0
 10
0.0
 20
0.0
 30
0.0
  3
*MODEL_SPACE
  1

  0
ENDBLK
  5
E
100
AcDbEntity
  8
0
100
AcDbBlockEnd
  0
BLOCK
  5
F
100
AcDbEntity
 67
     1
  8
0
100
AcDbBlockBegin
  2
*PAPER_SPACE
 70
     0
 10
0.0
 20
0.0
 30
0.0
  3
*PAPER_SPACE
  1

  0
ENDBLK
  5
10
100
AcDbEntity
 67
     1
  8
0
100
AcDbBlockEnd
  0
ENDSEC
  0
SECTION
  2
ENTITIES
  0
SPLINE
  5
25
100
AcDbEntity
  8
RÚteg 1
 62
     7
100
AcDbSpline
210
0.0
220
0.0
230
1.0
 70
     1
 71
     3
 72
    28
 73
    24
 74
     0
 42
0.0000000001
 43
0.0000000001
 40
0.0
 40
0.0
 40
0.0
 40
0.0
 40
0.1666666666666667
 40
0.1666666666666667
 40
0.1666666666666667
 40
0.1666666666666667
 40
0.3333333333333333
 40
0.3333333333333333
 40
0.3333333333333333
 40
0.3333333333333333
 40
0.5
 40
0.5
 40
0.5
 40
0.5
 40
0.6666666666666666
 40
0.6666666666666666
 40
0.6666666666666666
 40
0.6666666666666666
 40
0.8333333333333333
 40
0.8333333333333333
 40
0.8333333333333333
 40
0.8333333333333333
 40
1.0
 40
1.0
 40
1.0
 40
1.0
 10
-43.026800000000001
 20
97.317599999999999
 30
0.0
 10
-43.000500000000002
 20
97.317599999999999
 30
0.0
 10
-42.974699999999999
 20
97.316599999999994
 30
0.0
 10
-42.948599999999999
 20
97.316500000000005
 30
0.0
 10
-42.948599999999999
 20
97.316500000000005
 30
0.0
 10
-41.3307
 20
97.358000000000004
 30
0.0
 10
-40.031300000000002
 20
98.683199999999999
 30
0.0
 10
-40.031300000000002
 20
100.31100000000001
 30
0.0
 10
-40.031300000000002
 20
100.31100000000001
 30
0.0
 10
-40.031300000000002
 20
101.96510000000001
 30
0.0
 10
-41.372799999999998
 20
103.3064
 30
0.0
 10
-43.026800000000001
 20
103.3064
 30
0.0
 10
-43.026800000000001
 20
103.3064
 30
0.0
 10
-44.680900000000001
 20
103.3064
 30
0.0
 10
-46.022300000000001
 20
101.96510000000001
 30
0.0
 10
-46.022300000000001
 20
100.31100000000001
 30
0.0
 10
-46.022300000000001
 20
100.31100000000001
 30
0.0
 10
-46.022300000000001
 20
98.683199999999999
 30
0.0
 10
-44.722999999999999
 20
97.358000000000004
 30
0.0
 10
-43.1051
 20
97.316500000000005
 30
0.0
 10
-43.1051
 20
97.316500000000005
 30
0.0
 10
-43.079000000000001
 20
97.316599999999994
 30
0.0
 10
-43.053100000000001
 20
97.317599999999999
 30
0.0
 10
-43.026800000000001
 20
97.317599999999999
 30
0.0
  0
SPLINE
  5
26
100
AcDbEntity
  8
RÚteg 1
 62
     7
100
AcDbSpline
210
0.0
220
0.0
230
1.0
 70
     1
 71
     3
 72
   100
 73
    96
 74
     0
 42
0.0000000001
 43
0.0000000001
 40
0.0
 40
0.0
 40
0.0
 40
0.0
 40
0.0416666666666667
 40
0.0416666666666667
 40
0.0416666666666667
 40
0.0416666666666667
 40
0.0833333333333333
 40
0.0833333333333333
 40
0.0833333333333333
 40
0.0833333333333333
 40
0.125
 40
0.125
 40
0.125
 40
0.125
 40
0.1666666666666667
 40
0.1666666666666667
 40
0.1666666666666667
 40
0.1666666666666667
 40
0.2083333333333333
 40
0.2083333333333333
 40
0.2083333333333333
 40
0.2083333333333333
 40
0.25
 40
0.25
 40
0.25
 40
0.25
 40
0.2916666666666666
 40
0.2916666666666666
 40
0.2916666666666666
 40
0.2916666666666666
 40
0.3333333333333333
 40
0.3333333333333333
 40
0.3333333333333333
 40
0.3333333333333333
 40
0.375
 40
0.375
 40
0.375
 40
0.375
 40
0.4166666666666667
 40
0.4166666666666667
 40
0.4166666666666667
 40
0.4166666666666667
 40
0.4583333333333334
 40
0.4583333333333334
 40
0.4583333333333334
 40
0.4583333333333334
 40
0.5
 40
0.5
 40
0.5
 40
0.5
 40
0.5416666666666666
 40
0.5416666666666666
 40
0.5416666666666666
 40
0.5416666666666666
 40
0.5833333333333333
 40
0.5833333333333333
 40
0.5833333333333333
 40
0.5833333333333333
 40
0.6249999999999999
 40
0.6249999999999999
 40
0.6249999999999999
 40
0.6249999999999999
 40
0.6666666666666665
 40
0.6666666666666665
 40
0.6666666666666665
 40
0.6666666666666665
 40
0.7083333333333332
 40
0.7083333333333332
 40
0.7083333333333332
 40
0.7083333333333332
 40
0.7499999999999998
 40
0.7499999999999998
 40
0.7499999999999998
 40
0.7499999999999998
 40
0.7916666666666664
 40
0.7916666666666664
 40
0.7916666666666664
 40
0.7916666666666664
 40
0.833333333333333
 40
0.833333333333333
 40
0.833333333333333
 40
0.833333333333333
 40
0.8749999999999997
 40
0.8749999999999997
 40
0.8749999999999997
 40
0.8749999999999997
 40
0.9166666666666663
 40
0.9166666666666663
 40
0.9166666666666663
 40
0.9166666666666663
 40
0.9583333333333329
 40
0.9583333333333329
 40
0.9583333333333329
 40
0.9583333333333329
 40
1.0
 40
1.0
 40
1.0
 40
1.0
 10
-68.148799999999994
 20
80.442499999999995
 30
0.0
 10
-65.622200000000007
 20
79.693299999999994
 30
0.0
 10
-63.849499999999999
 20
78.058700000000002
 30
0.0
 10
-64.3459
 20
73.760199999999998
 30
0.0
 10
-64.3459
 20
73.760199999999998
 30
0.0
 10
-65.275099999999995
 20
74.005899999999997
 30
0.0
 10
-66.278899999999993
 20
74.018299999999996
 30
0.0
 10
-67.259
 20
73.746099999999998
 30
0.0
 10
-67.259
 20
73.746099999999998
 30
0.0
 10
-70.053700000000006
 20
72.970100000000002
 30
0.0
 10
-71.596699999999998
 20
70.176100000000005
 30
0.0
 10
-70.704999999999998
 20
67.506600000000006
 30
0.0
 10
-70.704999999999998
 20
67.506600000000006
 30
0.0
 10
-69.813199999999995
 20
64.837199999999996
 30
0.0
 10
-66.823899999999995
 20
63.302
 30
0.0
 10
-64.0291
 20
64.0779
 30
0.0
 10
-64.0291
 20
64.0779
 30
0.0
 10
-61.234400000000001
 20
64.854299999999995
 30
0.0
 10
-59.691299999999998
 20
67.648200000000003
 30
0.0
 10
-60.582900000000002
 20
70.317599999999999
 30
0.0
 10
-60.582900000000002
 20
70.317599999999999
 30
0.0
 10
-60.938899999999997
 20
71.382499999999993
 30
0.0
 10
-61.629100000000001
 20
72.266999999999996
 30
0.0
 10
-62.506999999999998
 20
72.896000000000001
 30
0.0
 10
-62.506999999999998
 20
72.896000000000001
 30
0.0
 10
-62.506999999999998
 20
72.896000000000001
 30
0.0
 10
-61.988900000000001
 20
76.890500000000003
 30
0.0
 10
-61.988900000000001
 20
76.890500000000003
 30
0.0
 10
-61.988900000000001
 20
76.890500000000003
 30
0.0
 10
-56.271000000000001
 20
72.142899999999997
 30
0.0
 10
-57.427599999999998
 20
68.241100000000003
 30
0.0
 10
-60.508200000000002
 20
64.575599999999994
 30
0.0
 10
-60.508200000000002
 20
64.575599999999994
 30
0.0
 10
-57.244
 20
62.821399999999997
 30
0.0
 10
-58.811500000000002
 20
58.184100000000001
 30
0.0
 10
-62.5749
 20
52.235999999999997
 30
0.0
 10
-62.5749
 20
52.235999999999997
 30
0.0
 10
-59.237400000000001
 20
52.3628
 30
0.0
 10
-58.365499999999997
 20
49.883499999999998
 30
0.0
 10
-59.9587
 20
44.7986
 30
0.0
 10
-59.9587
 20
44.7986
 30
0.0
 10
-54.4255
 20
45.054600000000001
 30
0.0
 10
-53.223599999999998
 20
42.507100000000001
 30
0.0
 10
-56.351999999999997
 20
37.156199999999998
 30
0.0
 10
-56.351999999999997
 20
37.156199999999998
 30
0.0
 10
-50.745800000000003
 20
37.652200000000001
 30
0.0
 10
-46.764000000000003
 20
39.398200000000003
 30
0.0
 10
-46.356900000000003
 20
43.893900000000002
 30
0.0
 10
-46.356900000000003
 20
43.893900000000002
 30
0.0
 10
-44.704999999999998
 20
44.072499999999998
 30
0.0
 10
-43.115699999999997
 20
43.913800000000002
 30
0.0
 10
-41.588799999999999
 20
43.417099999999998
 30
0.0
 10
-41.588799999999999
 20
43.417099999999998
 30
0.0
 10
-46.016100000000002
 20
49.572299999999998
 30
0.0
 10
-47.608800000000002
 20
53.8123
 30
0.0
 10
-42.964199999999998
 20
53.840299999999999
 30
0.0
 10
-42.964199999999998
 20
53.840299999999999
 30
0.0
 10
-45.509099999999997
 20
57.055799999999998
 30
0.0
 10
-47.289700000000003
 20
60.283099999999997
 30
0.0
 10
-47.3887
 20
63.536900000000003
 30
0.0
 10
-47.3887
 20
63.536900000000003
 30
0.0
 10
-52.6738
 20
65.584100000000007
 30
0.0
 10
-53.578299999999999
 20
68.723799999999997
 30
0.0
 10
-55.485599999999998
 20
71.613100000000003
 30
0.0
 10
-55.485599999999998
 20
71.613100000000003
 30
0.0
 10
-53.222299999999997
 20
70.332999999999998
 30
0.0
 10
-51.105400000000003
 20
68.923000000000002
 30
0.0
 10
-50.705500000000001
 20
65.977199999999996
 30
0.0
 10
-50.705500000000001
 20
65.977199999999996
 30
0.0
 10
-49.958399999999997
 20
66.104900000000001
 30
0.0
 10
-49.210799999999999
 20
66.232299999999995
 30
0.0
 10
-48.4634
 20
66.359700000000004
 30
0.0
 10
-48.4634
 20
66.359700000000004
 30
0.0
 10
-42.578299999999999
 20
60.554200000000002
 30
0.0
 10
-39.476500000000001
 20
53.706800000000001
 30
0.0
 10
-40.860999999999997
 20
45.18
 30
0.0
 10
-40.860999999999997
 20
45.18
 30
0.0
 10
-36.064599999999999
 20
45.634500000000003
 30
0.0
 10
-36.507800000000003
 20
40.370699999999999
 30
0.0
 10
-37.253900000000002
 20
34.776400000000002
 30
0.0
 10
-37.253900000000002
 20
34.776400000000002
 30
0.0
 10
-35.313299999999998
 20
35.003900000000002
 30
0.0
 10
-34.303699999999999
 20
34.186199999999999
 30
0.0
 10
-33.723999999999997
 20
32.886000000000003
 30
0.0
 10
-33.723999999999997
 20
32.886000000000003
 30
0.0
 10
-36.660400000000003
 20
31.960599999999999
 30
0.0
 10
-39.7851
 20
31.460599999999999
 30
0.0
 10
-43.026800000000001
 20
31.460599999999999
 30
0.0
 10
-43.026800000000001
 20
31.460599999999999
 30
0.0
 10
-60.108199999999997
 20
31.460599999999999
 30
0.0
 10
-73.960599999999999
 20
45.312899999999999
 30
0.0
 10
-73.960599999999999
 20
62.394399999999997
 30
0.0
 10
-73.960599999999999
 20
62.394399999999997
 30
0.0
 10
-73.960599999999999
 20
69.129800000000003
 30
0.0
 10
-71.805300000000003
 20
75.362499999999997
 30
0.0
 10
-68.148799999999994
 20
80.442499999999995
 30
0.0
  0
SPLINE
  5
27
100
AcDbEntity
  8
RÚteg 1
 62
     7
100
AcDbSpline
210
0.0
220
0.0
230
1.0
 70
     1
 71
     3
 72
    76
 73
    72
 74
     0
 42
0.0000000001
 43
0.0000000001
 40
0.0
 40
0.0
 40
0.0
 40
0.0
 40
0.0555555555555556
 40
0.0555555555555556
 40
0.0555555555555556
 40
0.0555555555555556
 40
0.1111111111111111
 40
0.1111111111111111
 40
0.1111111111111111
 40
0.1111111111111111
 40
0.1666666666666667
 40
0.1666666666666667
 40
0.1666666666666667
 40
0.1666666666666667
 40
0.2222222222222222
 40
0.2222222222222222
 40
0.2222222222222222
 40
0.2222222222222222
 40
0.2777777777777778
 40
0.2777777777777778
 40
0.2777777777777778
 40
0.2777777777777778
 40
0.3333333333333334
 40
0.3333333333333334
 40
0.3333333333333334
 40
0.3333333333333334
 40
0.388888888888889
 40
0.388888888888889
 40
0.388888888888889
 40
0.388888888888889
 40
0.4444444444444445
 40
0.4444444444444445
 40
0.4444444444444445
 40
0.4444444444444445
 40
0.5000000000000001
 40
0.5000000000000001
 40
0.5000000000000001
 40
0.5000000000000001
 40
0.5555555555555557
 40
0.5555555555555557
 40
0.5555555555555557
 40
0.5555555555555557
 40
0.6111111111111113
 40
0.6111111111111113
 40
0.6111111111111113
 40
0.6111111111111113
 40
0.6666666666666669
 40
0.6666666666666669
 40
0.6666666666666669
 40
0.6666666666666669
 40
0.7222222222222224
 40
0.7222222222222224
 40
0.7222222222222224
 40
0.7222222222222224
 40
0.777777777777778
 40
0.777777777777778
 40
0.777777777777778
 40
0.777777777777778
 40
0.8333333333333336
 40
0.8333333333333336
 40
0.8333333333333336
 40
0.8333333333333336
 40
0.8888888888888892
 40
0.8888888888888892
 40
0.8888888888888892
 40
0.8888888888888892
 40
0.9444444444444448
 40
0.9444444444444448
 40
0.9444444444444448
 40
0.9444444444444448
 40
1.0
 40
1.0
 40
1.0
 40
1.0
 10
-32.882199999999997
 20
28.970600000000001
 30
0.0
 10
-32.882199999999997
 20
28.970600000000001
 30
0.0
 10
-32.845999999999997
 20
28.6768
 30
0.0
 10
-32.845999999999997
 20
28.6768
 30
0.0
 10
-32.845999999999997
 20
28.6768
 30
0.0
 10
-32.658499999999997
 20
28.849299999999999
 30
0.0
 10
-32.471899999999998
 20
29.0105
 30
0.0
 10
-32.285800000000002
 20
29.157800000000002
 30
0.0
 10
-32.285800000000002
 20
29.157800000000002
 30
0.0
 10
-31.4481
 20
29.4284
 30
0.0
 10
-30.624300000000002
 20
29.729700000000001
 30
0.0
 10
-29.8157
 20
30.060600000000001
 30
0.0
 10
-29.8157
 20
30.060600000000001
 30
0.0
 10
-28.8078
 20
29.8734
 30
0.0
 10
-27.850200000000001
 20
28.839099999999998
 30
0.0
 10
-26.972100000000001
 20
26.4663
 30
0.0
 10
-26.972100000000001
 20
26.4663
 30
0.0
 10
-22.548500000000001
 20
26.057700000000001
 30
0.0
 10
-22.249099999999999
 20
23.411200000000001
 30
0.0
 10
-22.805199999999999
 20
20.300000000000001
 30
0.0
 10
-22.805199999999999
 20
20.300000000000001
 30
0.0
 10
-19.962800000000001
 20
21.453700000000001
 30
0.0
 10
-18.285399999999999
 20
23.566500000000001
 30
0.0
 10
-19.8261
 20
28.3308
 30
0.0
 10
-19.8261
 20
28.3308
 30
0.0
 10
-20.555800000000001
 20
31.9864
 30
0.0
 10
-19.3002
 20
33.092300000000002
 30
0.0
 10
-15.1425
 20
30.471900000000002
 30
0.0
 10
-15.1425
 20
30.471900000000002
 30
0.0
 10
-17.2027
 20
34.0199
 30
0.0
 10
-19.052600000000002
 20
37.5105
 30
0.0
 10
-14.3743
 20
39.209099999999999
 30
0.0
 10
-14.3743
 20
39.209099999999999
 30
0.0
 10
-14.9838
 20
39.510300000000001
 30
0.0
 10
-15.5678
 20
39.817399999999999
 30
0.0
 10
-16.122199999999999
 20
40.130899999999997
 30
0.0
 10
-16.122199999999999
 20
40.130899999999997
 30
0.0
 10
-11.1143
 20
46.174700000000001
 30
0.0
 10
-8.1036000000000001
 20
53.933700000000002
 30
0.0
 10
-8.1036000000000001
 20
62.394399999999997
 30
0.0
 10
-8.1036000000000001
 20
62.394399999999997
 30
0.0
 10
-8.1036000000000001
 20
80.385900000000007
 30
0.0
 10
-21.716999999999999
 20
95.202399999999997
 30
0.0
 10
-39.202399999999997
 20
97.108099999999993
 30
0.0
 10
-39.202399999999997
 20
97.108099999999993
 30
0.0
 10
-38.475700000000003
 20
97.974900000000005
 30
0.0
 10
-38.037799999999997
 20
99.091800000000006
 30
0.0
 10
-38.037799999999997
 20
100.31100000000001
 30
0.0
 10
-38.037799999999997
 20
100.31100000000001
 30
0.0
 10
-38.037799999999997
 20
103.0659
 30
0.0
 10
-40.271900000000002
 20
105.3
 30
0.0
 10
-43.026800000000001
 20
105.3
 30
0.0
 10
-43.026800000000001
 20
105.3
 30
0.0
 10
-45.781700000000001
 20
105.3
 30
0.0
 10
-48.015799999999999
 20
103.0659
 30
0.0
 10
-48.015799999999999
 20
100.31100000000001
 30
0.0
 10
-48.015799999999999
 20
100.31100000000001
 30
0.0
 10
-48.015799999999999
 20
99.091800000000006
 30
0.0
 10
-47.578000000000003
 20
97.974900000000005
 30
0.0
 10
-46.851300000000002
 20
97.108099999999993
 30
0.0
 10
-46.851300000000002
 20
97.108099999999993
 30
0.0
 10
-64.336600000000004
 20
95.202399999999997
 30
0.0
 10
-77.950000000000003
 20
80.385900000000007
 30
0.0
 10
-77.950000000000003
 20
62.394399999999997
 30
0.0
 10
-77.950000000000003
 20
62.394399999999997
 30
0.0
 10
-77.950000000000003
 20
43.110100000000003
 30
0.0
 10
-62.311100000000003
 20
27.4712
 30
0.0
 10
-43.026800000000001
 20
27.4712
 30
0.0
 10
-43.026800000000001
 20
27.4712
 30
0.0
 10
-39.498399999999997
 20
27.4712
 30
0.0
 10
-36.0931
 20
27.997
 30
0.0
 10
-32.882199999999997
 20
28.970600000000001
 30
0.0
  0
SPLINE
  5
28
100
AcDbEntity
  8
RÚteg 1
 62
     7
100
AcDbSpline
210
0.0
220
0.0
230
1.0
 70
     1
 71
     3
 72
    76
 73
    72
 74
     0
 42
0.0000000001
 43
0.0000000001
 40
0.0
 40
0.0
 40
0.0
 40
0.0
 40
0.0555555555555556
 40
0.0555555555555556
 40
0.0555555555555556
 40
0.0555555555555556
 40
0.1111111111111111
 40
0.1111111111111111
 40
0.1111111111111111
 40
0.1111111111111111
 40
0.1666666666666667
 40
0.1666666666666667
 40
0.1666666666666667
 40
0.1666666666666667
 40
0.2222222222222222
 40
0.2222222222222222
 40
0.2222222222222222
 40
0.2222222222222222
 40
0.2777777777777778
 40
0.2777777777777778
 40
0.2777777777777778
 40
0.2777777777777778
 40
0.3333333333333334
 40
0.3333333333333334
 40
0.3333333333333334
 40
0.3333333333333334
 40
0.388888888888889
 40
0.388888888888889
 40
0.388888888888889
 40
0.388888888888889
 40
0.4444444444444445
 40
0.4444444444444445
 40
0.4444444444444445
 40
0.4444444444444445
 40
0.5000000000000001
 40
0.5000000000000001
 40
0.5000000000000001
 40
0.5000000000000001
 40
0.5555555555555557
 40
0.5555555555555557
 40
0.5555555555555557
 40
0.5555555555555557
 40
0.6111111111111113
 40
0.6111111111111113
 40
0.6111111111111113
 40
0.6111111111111113
 40
0.6666666666666669
 40
0.6666666666666669
 40
0.6666666666666669
 40
0.6666666666666669
 40
0.7222222222222224
 40
0.7222222222222224
 40
0.7222222222222224
 40
0.7222222222222224
 40
0.777777777777778
 40
0.777777777777778
 40
0.777777777777778
 40
0.777777777777778
 40
0.8333333333333336
 40
0.8333333333333336
 40
0.8333333333333336
 40
0.8333333333333336
 40
0.8888888888888892
 40
0.8888888888888892
 40
0.8888888888888892
 40
0.8888888888888892
 40
0.9444444444444448
 40
0.9444444444444448
 40
0.9444444444444448
 40
0.9444444444444448
 40
1.0
 40
1.0
 40
1.0
 40
1.0
 10
-19.4298
 20
42.397199999999998
 30
0.0
 10
-21.767399999999999
 20
44.420200000000001
 30
0.0
 10
-22.7849
 20
46.694600000000001
 30
0.0
 10
-21.696400000000001
 20
49.301699999999997
 30
0.0
 10
-21.696400000000001
 20
49.301699999999997
 30
0.0
 10
-25.6538
 20
49.130200000000002
 30
0.0
 10
-28.5883
 20
50.250700000000002
 30
0.0
 10
-29.7927
 20
53.552799999999998
 30
0.0
 10
-29.7927
 20
53.552799999999998
 30
0.0
 10
-28.964300000000001
 20
53.389499999999998
 30
0.0
 10
-28.088100000000001
 20
53.409500000000001
 30
0.0
 10
-27.2302
 20
53.647599999999997
 30
0.0
 10
-27.2302
 20
53.647599999999997
 30
0.0
 10
-24.435500000000001
 20
54.4238
 30
0.0
 10
-22.892399999999999
 20
57.217799999999997
 30
0.0
 10
-23.784199999999998
 20
59.8872
 30
0.0
 10
-23.784199999999998
 20
59.8872
 30
0.0
 10
-24.5198
 20
62.089199999999998
 30
0.0
 10
-26.683
 20
63.519500000000001
 30
0.0
 10
-28.986699999999999
 20
63.517099999999999
 30
0.0
 10
-28.986699999999999
 20
63.517099999999999
 30
0.0
 10
-28.978300000000001
 20
67.307699999999997
 30
0.0
 10
-26.4148
 20
68.439499999999995
 30
0.0
 10
-22.046600000000002
 20
67.693299999999994
 30
0.0
 10
-22.046600000000002
 20
67.693299999999994
 30
0.0
 10
-23.502199999999998
 20
71.098699999999994
 30
0.0
 10
-22.5014
 20
73.339299999999994
 30
0.0
 10
-18.239100000000001
 20
74.033199999999994
 30
0.0
 10
-18.239100000000001
 20
74.033199999999994
 30
0.0
 10
-21.540400000000002
 20
75.506799999999998
 30
0.0
 10
-24.222300000000001
 20
77.460099999999997
 30
0.0
 10
-24.6905
 20
81.125699999999995
 30
0.0
 10
-24.6905
 20
81.125699999999995
 30
0.0
 10
-29.029599999999999
 20
79.161500000000004
 30
0.0
 10
-33.2836
 20
77.406199999999998
 30
0.0
 10
-34.9024
 20
82.131699999999995
 30
0.0
 10
-34.9024
 20
82.131699999999995
 30
0.0
 10
-38.347799999999999
 20
79.5625
 30
0.0
 10
-41.444099999999999
 20
78.547499999999999
 30
0.0
 10
-44.190800000000003
 20
79.0852
 30
0.0
 10
-44.190800000000003
 20
79.0852
 30
0.0
 10
-42.7211
 20
80.334599999999995
 30
0.0
 10
-42.082599999999999
 20
82.339799999999997
 30
0.0
 10
-42.730600000000003
 20
84.279799999999994
 30
0.0
 10
-42.730600000000003
 20
84.279799999999994
 30
0.0
 10
-43.622300000000003
 20
86.949100000000001
 30
0.0
 10
-46.611600000000003
 20
88.484499999999997
 30
0.0
 10
-49.406599999999997
 20
87.708200000000005
 30
0.0
 10
-49.406599999999997
 20
87.708200000000005
 30
0.0
 10
-50.359200000000001
 20
87.443700000000007
 30
0.0
 10
-51.166400000000003
 20
86.944199999999995
 30
0.0
 10
-51.781399999999998
 20
86.295400000000001
 30
0.0
 10
-51.781399999999998
 20
86.295400000000001
 30
0.0
 10
-51.465499999999999
 20
87.241699999999994
 30
0.0
 10
-51.445500000000003
 20
88.293899999999994
 30
0.0
 10
-51.790700000000001
 20
89.327299999999994
 30
0.0
 10
-51.790700000000001
 20
89.327299999999994
 30
0.0
 10
-52.088500000000003
 20
90.218800000000002
 30
0.0
 10
-52.620399999999997
 20
90.983599999999996
 30
0.0
 10
-53.300600000000003
 20
91.578199999999995
 30
0.0
 10
-53.300600000000003
 20
91.578199999999995
 30
0.0
 10
-50.085900000000002
 20
92.710599999999999
 30
0.0
 10
-46.628500000000003
 20
93.328199999999995
 30
0.0
 10
-43.026800000000001
 20
93.328199999999995
 30
0.0
 10
-43.026800000000001
 20
93.328199999999995
 30
0.0
 10
-25.945399999999999
 20
93.328199999999995
 30
0.0
 10
-12.093
 20
79.475800000000007
 30
0.0
 10
-12.093
 20
62.394399999999997
 30
0.0
 10
-12.093
 20
62.394399999999997
 30
0.0
 10
-12.093
 20
54.7699
 30
0.0
 10
-14.8546
 20
47.789900000000003
 30
0.0
 10
-19.4298
 20
42.397199999999998
 30
0.0
  0
SPLINE
  5
29
100
AcDbEntity
  8
RÚteg 1
 62
     7
100
AcDbSpline
210
0.0
220
0.0
230
1.0
 70
     1
 71
     3
 72
    24
 73
    20
 74
     0
 42
0.0000000001
 43
0.0000000001
 40
0.0
 40
0.0
 40
0.0
 40
0.0
 40
0.2
 40
0.2
 40
0.2
 40
0.2
 40
0.4
 40
0.4
 40
0.4
 40
0.4
 40
0.6000000000000001
 40
0.6000000000000001
 40
0.6000000000000001
 40
0.6000000000000001
 40
0.8
 40
0.8
 40
0.8
 40
0.8
 40
1.0
 40
1.0
 40
1.0
 40
1.0
 10
-62.003399999999999
 20
86.821899999999999
 30
0.0
 10
-61.976500000000001
 20
86.720100000000002
 30
0.0
 10
-61.946599999999997
 20
86.617900000000006
 30
0.0
 10
-61.912599999999998
 20
86.516300000000001
 30
0.0
 10
-61.912599999999998
 20
86.516300000000001
 30
0.0
 10
-61.601100000000002
 20
85.583699999999993
 30
0.0
 10
-61.033299999999997
 20
84.789299999999997
 30
0.0
 10
-60.307400000000001
 20
84.183800000000005
 30
0.0
 10
-60.307400000000001
 20
84.183800000000005
 30
0.0
 10
-61.013300000000001
 20
83.138300000000001
 30
0.0
 10
-62.004100000000001
 20
82.412300000000002
 30
0.0
 10
-63.3157
 20
82.044700000000006
 30
0.0
 10
-63.3157
 20
82.044700000000006
 30
0.0
 10
-64.6828
 20
81.763499999999993
 30
0.0
 10
-65.834999999999994
 20
81.820400000000006
 30
0.0
 10
-66.773600000000002
 20
82.214699999999993
 30
0.0
 10
-66.773600000000002
 20
82.214699999999993
 30
0.0
 10
-65.352900000000005
 20
83.9148
 30
0.0
 10
-63.753300000000003
 20
85.460499999999996
 30
0.0
 10
-62.003399999999999
 20
86.821899999999999
 30
0.0
  0
SPLINE
  5
2A
100
AcDbEntity
  8
RÚteg 1
 62
     7
100
AcDbSpline
210
0.0
220
0.0
230
1.0
 70
     1
 71
     3
 72
    32
 73
    28
 74
     0
 42
0.0000000001
 43
0.0000000001
 40
0.0
 40
0.0
 40
0.0
 40
0.0
 40
0.1428571428571429
 40
0.1428571428571429
 40
0.1428571428571429
 40
0.1428571428571429
 40
0.2857142857142857
 40
0.2857142857142857
 40
0.2857142857142857
 40
0.2857142857142857
 40
0.4285714285714286
 40
0.4285714285714286
 40
0.4285714285714286
 40
0.4285714285714286
 40
0.5714285714285714
 40
0.5714285714285714
 40
0.5714285714285714
 40
0.5714285714285714
 40
0.7142857142857142
 40
0.7142857142857142
 40
0.7142857142857142
 40
0.7142857142857142
 40
0.857142857142857
 40
0.857142857142857
 40
0.857142857142857
 40
0.857142857142857
 40
1.0
 40
1.0
 40
1.0
 40
1.0
 10
-52.862200000000001
 20
84.500500000000002
 30
0.0
 10
-53.178199999999997
 20
83.554100000000005
 30
0.0
 10
-53.197699999999998
 20
82.501999999999995
 30
0.0
 10
-52.852499999999999
 20
81.468800000000002
 30
0.0
 10
-52.852499999999999
 20
81.468800000000002
 30
0.0
 10
-52.689900000000002
 20
80.982500000000002
 30
0.0
 10
-52.458100000000002
 20
80.534400000000005
 30
0.0
 10
-52.170400000000001
 20
80.130899999999997
 30
0.0
 10
-52.170400000000001
 20
80.130899999999997
 30
0.0
 10
-52.170400000000001
 20
80.130899999999997
 30
0.0
 10
-57.0381
 20
78.625600000000006
 30
0.0
 10
-57.0381
 20
78.625600000000006
 30
0.0
 10
-57.0381
 20
78.625600000000006
 30
0.0
 10
-58.962299999999999
 20
78.821299999999994
 30
0.0
 10
-60.496600000000001
 20
79.290099999999995
 30
0.0
 10
-61.172400000000003
 20
80.358599999999996
 30
0.0
 10
-61.172400000000003
 20
80.358599999999996
 30
0.0
 10
-59.549199999999999
 20
80.9773
 30
0.0
 10
-58.383099999999999
 20
81.855000000000004
 30
0.0
 10
-57.617199999999997
 20
82.959800000000001
 30
0.0
 10
-57.617199999999997
 20
82.959800000000001
 30
0.0
 10
-56.8431
 20
82.833600000000004
 30
0.0
 10
-56.031999999999996
 20
82.866900000000001
 30
0.0
 10
-55.236800000000002
 20
83.087699999999998
 30
0.0
 10
-55.236800000000002
 20
83.087699999999998
 30
0.0
 10
-54.283999999999999
 20
83.3523
 30
0.0
 10
-53.477200000000003
 20
83.851799999999997
 30
0.0
 10
-52.862200000000001
 20
84.500500000000002
 30
0.0
  0
SPLINE
  5
2B
100
AcDbEntity
  8
RÚteg 1
 62
     7
100
AcDbSpline
210
0.0
220
0.0
230
1.0
 70
     1
 71
     3
 72
    24
 73
    20
 74
     0
 42
0.0000000001
 43
0.0000000001
 40
0.0
 40
0.0
 40
0.0
 40
0.0
 40
0.2
 40
0.2
 40
0.2
 40
0.2
 40
0.4
 40
0.4
 40
0.4
 40
0.4
 40
0.6000000000000001
 40
0.6000000000000001
 40
0.6000000000000001
 40
0.6000000000000001
 40
0.8
 40
0.8
 40
0.8
 40
0.8
 40
1.0
 40
1.0
 40
1.0
 40
1.0
 10
-45.819200000000002
 20
78.153099999999995
 30
0.0
 10
-46.438600000000001
 20
75.858800000000002
 30
0.0
 10
-48.4129
 20
74.6584
 30
0.0
 10
-51.540900000000001
 20
74.389399999999995
 30
0.0
 10
-51.540900000000001
 20
74.389399999999995
 30
0.0
 10
-54.197499999999998
 20
73.960300000000004
 30
0.0
 10
-55.969900000000003
 20
74.818399999999997
 30
0.0
 10
-57.1372
 20
76.557199999999995
 30
0.0
 10
-57.1372
 20
76.557199999999995
 30
0.0
 10
-57.1372
 20
76.557199999999995
 30
0.0
 10
-50.244799999999998
 20
78.471199999999996
 30
0.0
 10
-50.244799999999998
 20
78.471199999999996
 30
0.0
 10
-50.244799999999998
 20
78.471199999999996
 30
0.0
 10
-49.0334
 20
77.843800000000002
 30
0.0
 10
-47.580399999999997
 20
77.650300000000001
 30
0.0
 10
-46.176699999999997
 20
78.040199999999999
 30
0.0
 10
-46.176699999999997
 20
78.040199999999999
 30
0.0
 10
-46.054900000000004
 20
78.073999999999998
 30
0.0
 10
-45.936
 20
78.111900000000006
 30
0.0
 10
-45.819200000000002
 20
78.153099999999995
 30
0.0
  0
SPLINE
  5
2C
100
AcDbEntity
  8
RÚteg 1
 62
     7
100
AcDbSpline
210
0.0
220
0.0
230
1.0
 70
     1
 71
     3
 72
    20
 73
    16
 74
     0
 42
0.0000000001
 43
0.0000000001
 40
0.0
 40
0.0
 40
0.0
 40
0.0
 40
0.25
 40
0.25
 40
0.25
 40
0.25
 40
0.5
 40
0.5
 40
0.5
 40
0.5
 40
0.75
 40
0.75
 40
0.75
 40
0.75
 40
1.0
 40
1.0
 40
1.0
 40
1.0
 10
-31.8933
 20
54.435099999999998
 30
0.0
 10
-35.293799999999997
 20
53.697000000000003
 30
0.0
 10
-37.455199999999998
 20
55.582700000000003
 30
0.0
 10
-39.124899999999997
 20
58.508299999999998
 30
0.0
 10
-39.124899999999997
 20
58.508299999999998
 30
0.0
 10
-39.124899999999997
 20
58.508299999999998
 30
0.0
 10
-34.143999999999998
 20
58.240299999999998
 30
0.0
 10
-34.143999999999998
 20
58.240299999999998
 30
0.0
 10
-34.143999999999998
 20
58.240299999999998
 30
0.0
 10
-34.113500000000002
 20
57.853900000000003
 30
0.0
 10
-34.035600000000002
 20
57.4636
 30
0.0
 10
-33.906100000000002
 20
57.0762
 30
0.0
 10
-33.906100000000002
 20
57.0762
 30
0.0
 10
-33.538400000000003
 20
55.9754
 30
0.0
 10
-32.813800000000001
 20
55.067500000000003
 30
0.0
 10
-31.8933
 20
54.435099999999998
 30
0.0
  0
SPLINE
  5
2D
100
AcDbEntity
  8
RÚteg 1
 62
     7
100
AcDbSpline
210
0.0
220
0.0
230
1.0
 70
     1
 71
     3
 72
    32
 73
    28
 74
     0
 42
0.0000000001
 43
0.0000000001
 40
0.0
 40
0.0
 40
0.0
 40
0.0
 40
0.1428571428571429
 40
0.1428571428571429
 40
0.1428571428571429
 40
0.1428571428571429
 40
0.2857142857142857
 40
0.2857142857142857
 40
0.2857142857142857
 40
0.2857142857142857
 40
0.4285714285714286
 40
0.4285714285714286
 40
0.4285714285714286
 40
0.4285714285714286
 40
0.5714285714285714
 40
0.5714285714285714
 40
0.5714285714285714
 40
0.5714285714285714
 40
0.7142857142857142
 40
0.7142857142857142
 40
0.7142857142857142
 40
0.7142857142857142
 40
0.857142857142857
 40
0.857142857142857
 40
0.857142857142857
 40
0.857142857142857
 40
1.0
 40
1.0
 40
1.0
 40
1.0
 10
-33.8354
 20
60.329900000000002
 30
0.0
 10
-37.1462
 20
60.231400000000001
 30
0.0
 10
-40.127600000000001
 20
61.069600000000001
 30
0.0
 10
-42.526499999999999
 20
63.566400000000002
 30
0.0
 10
-42.526499999999999
 20
63.566400000000002
 30
0.0
 10
-45.213299999999997
 20
66.221999999999994
 30
0.0
 10
-47.899900000000002
 20
68.877399999999994
 30
0.0
 10
-50.586599999999997
 20
71.532799999999995
 30
0.0
 10
-50.586599999999997
 20
71.532799999999995
 30
0.0
 10
-47.755200000000002
 20
71.6845
 30
0.0
 10
-45.335799999999999
 20
70.260199999999998
 30
0.0
 10
-43.517499999999998
 20
66.532799999999995
 30
0.0
 10
-43.517499999999998
 20
66.532799999999995
 30
0.0
 10
-40.4193
 20
68.176000000000002
 30
0.0
 10
-38.380200000000002
 20
66.230900000000005
 30
0.0
 10
-36.637300000000003
 20
63.281100000000002
 30
0.0
 10
-36.637300000000003
 20
63.281100000000002
 30
0.0
 10
-34.331400000000002
 20
67.340000000000003
 30
0.0
 10
-32.100299999999997
 20
66.068399999999997
 30
0.0
 10
-29.888200000000001
 20
63.442100000000003
 30
0.0
 10
-29.888200000000001
 20
63.442100000000003
 30
0.0
 10
-30.0793
 20
63.410299999999999
 30
0.0
 10
-30.27
 20
63.368600000000001
 30
0.0
 10
-30.460000000000001
 20
63.315800000000003
 30
0.0
 10
-30.460000000000001
 20
63.315800000000003
 30
0.0
 10
-32.087600000000002
 20
62.863700000000001
 30
0.0
 10
-33.290900000000001
 20
61.7273
 30
0.0
 10
-33.8354
 20
60.329900000000002
 30
0.0
  0
SPLINE
  5
2E
100
AcDbEntity
  8
RÚteg 1
 62
     7
100
AcDbSpline
210
0.0
220
0.0
230
1.0
 70
     1
 71
     3
 72
    28
 73
    24
 74
     0
 42
0.0000000001
 43
0.0000000001
 40
0.0
 40
0.0
 40
0.0
 40
0.0
 40
0.1666666666666667
 40
0.1666666666666667
 40
0.1666666666666667
 40
0.1666666666666667
 40
0.3333333333333333
 40
0.3333333333333333
 40
0.3333333333333333
 40
0.3333333333333333
 40
0.5
 40
0.5
 40
0.5
 40
0.5
 40
0.6666666666666666
 40
0.6666666666666666
 40
0.6666666666666666
 40
0.6666666666666666
 40
0.8333333333333333
 40
0.8333333333333333
 40
0.8333333333333333
 40
0.8333333333333333
 40
1.0
 40
1.0
 40
1.0
 40
1.0
 10
33.032600000000002
 20
97.524699999999996
 30
0.0
 10
33.058100000000003
 20
97.524699999999996
 30
0.0
 10
33.083300000000001
 20
97.523799999999994
 30
0.0
 10
33.108800000000002
 20
97.523600000000002
 30
0.0
 10
33.108800000000002
 20
97.523600000000002
 30
0.0
 10
34.684699999999999
 20
97.564099999999996
 30
0.0
 10
35.950400000000002
 20
98.854799999999997
 30
0.0
 10
35.950400000000002
 20
100.44029999999999
 30
0.0
 10
35.950400000000002
 20
100.44029999999999
 30
0.0
 10
35.950400000000002
 20
102.05159999999999
 30
0.0
 10
34.643799999999999
 20
103.35809999999999
 30
0.0
 10
33.032600000000002
 20
103.35809999999999
 30
0.0
 10
33.032600000000002
 20
103.35809999999999
 30
0.0
 10
31.421399999999998
 20
103.35809999999999
 30
0.0
 10
30.114899999999999
 20
102.05159999999999
 30
0.0
 10
30.114899999999999
 20
100.44029999999999
 30
0.0
 10
30.114899999999999
 20
100.44029999999999
 30
0.0
 10
30.114899999999999
 20
98.854799999999997
 30
0.0
 10
31.380500000000001
 20
97.564099999999996
 30
0.0
 10
32.956299999999999
 20
97.523600000000002
 30
0.0
 10
32.956299999999999
 20
97.523600000000002
 30
0.0
 10
32.9818
 20
97.523799999999994
 30
0.0
 10
33.007199999999997
 20
97.524699999999996
 30
0.0
 10
33.032600000000002
 20
97.524699999999996
 30
0.0
  0
SPLINE
  5
2F
100
AcDbEntity
  8
RÚteg 1
 62
     7
100
AcDbSpline
210
0.0
220
0.0
230
1.0
 70
     1
 71
     3
 72
    60
 73
    56
 74
     0
 42
0.0000000001
 43
0.0000000001
 40
0.0
 40
0.0
 40
0.0
 40
0.0
 40
0.0714285714285714
 40
0.0714285714285714
 40
0.0714285714285714
 40
0.0714285714285714
 40
0.1428571428571429
 40
0.1428571428571429
 40
0.1428571428571429
 40
0.1428571428571429
 40
0.2142857142857143
 40
0.2142857142857143
 40
0.2142857142857143
 40
0.2142857142857143
 40
0.2857142857142857
 40
0.2857142857142857
 40
0.2857142857142857
 40
0.2857142857142857
 40
0.3571428571428571
 40
0.3571428571428571
 40
0.3571428571428571
 40
0.3571428571428571
 40
0.4285714285714285
 40
0.4285714285714285
 40
0.4285714285714285
 40
0.4285714285714285
 40
0.4999999999999999
 40
0.4999999999999999
 40
0.4999999999999999
 40
0.4999999999999999
 40
0.5714285714285713
 40
0.5714285714285713
 40
0.5714285714285713
 40
0.5714285714285713
 40
0.6428571428571427
 40
0.6428571428571427
 40
0.6428571428571427
 40
0.6428571428571427
 40
0.7142857142857141
 40
0.7142857142857141
 40
0.7142857142857141
 40
0.7142857142857141
 40
0.7857142857142855
 40
0.7857142857142855
 40
0.7857142857142855
 40
0.7857142857142855
 40
0.8571428571428569
 40
0.8571428571428569
 40
0.8571428571428569
 40
0.8571428571428569
 40
0.9285714285714283
 40
0.9285714285714283
 40
0.9285714285714283
 40
0.9285714285714283
 40
1.0
 40
1.0
 40
1.0
 40
1.0
 10
28.876200000000001
 20
33.662500000000001
 30
0.0
 10
28.876200000000001
 20
33.662500000000001
 30
0.0
 10
27.243200000000002
 20
43.203400000000002
 30
0.0
 10
27.243200000000002
 20
43.203400000000002
 30
0.0
 10
27.243200000000002
 20
43.203400000000002
 30
0.0
 10
27.243200000000002
 20
43.203400000000002
 30
0.0
 10
30.175000000000001
 20
43.203200000000002
 30
0.0
 10
30.175000000000001
 20
43.203200000000002
 30
0.0
 10
30.175000000000001
 20
43.203200000000002
 30
0.0
 10
30.175000000000001
 20
43.203200000000002
 30
0.0
 10
30.638200000000001
 20
43.975299999999997
 30
0.0
 10
30.638200000000001
 20
43.975299999999997
 30
0.0
 10
30.638200000000001
 20
43.975299999999997
 30
0.0
 10
30.638200000000001
 20
43.975299999999997
 30
0.0
 10
31.067
 20
45.262300000000003
 30
0.0
 10
31.067
 20
45.262300000000003
 30
0.0
 10
31.067
 20
45.262300000000003
 30
0.0
 10
21.2622
 20
41.756799999999998
 30
0.0
 10
13.5817
 20
41.969099999999997
 30
0.0
 10
9.0060000000000002
 20
47.615499999999997
 30
0.0
 10
9.0060000000000002
 20
47.615499999999997
 30
0.0
 10
13.9575
 20
49.314700000000002
 30
0.0
 10
18.663799999999998
 20
51.504300000000001
 30
0.0
 10
22.8309
 20
54.773000000000003
 30
0.0
 10
22.8309
 20
54.773000000000003
 30
0.0
 10
18.059200000000001
 20
55.606400000000001
 30
0.0
 10
14.5296
 20
57.371200000000002
 30
0.0
 10
11.849399999999999
 20
59.773600000000002
 30
0.0
 10
11.849399999999999
 20
59.773600000000002
 30
0.0
 10
17.8963
 20
61.652700000000003
 30
0.0
 10
22.962199999999999
 20
64.430300000000003
 30
0.0
 10
25.8705
 20
69.186499999999995
 30
0.0
 10
25.8705
 20
69.186499999999995
 30
0.0
 10
21.5809
 20
70.587299999999999
 30
0.0
 10
18.7211
 20
72.131799999999998
 30
0.0
 10
17.0459
 20
73.794700000000006
 30
0.0
 10
17.0459
 20
73.794700000000006
 30
0.0
 10
22.456900000000001
 20
75.189800000000005
 30
0.0
 10
27.066199999999998
 20
77.329899999999995
 30
0.0
 10
28.811900000000001
 20
82.128799999999998
 30
0.0
 10
28.811900000000001
 20
82.128799999999998
 30
0.0
 10
27.1126
 20
81.834699999999998
 30
0.0
 10
25.2822
 20
82.325000000000003
 30
0.0
 10
23.321200000000001
 20
83.599599999999995
 30
0.0
 10
23.321200000000001
 20
83.599599999999995
 30
0.0
 10
27.171199999999999
 20
86.257199999999997
 30
0.0
 10
29.998100000000001
 20
89.630799999999994
 30
0.0
 10
31.9498
 20
93.617099999999994
 30
0.0
 10
31.9498
 20
93.617099999999994
 30
0.0
 10
15.8131
 20
93.046599999999998
 30
0.0
 10
2.9011
 20
79.782899999999998
 30
0.0
 10
2.9011
 20
63.507300000000001
 30
0.0
 10
2.9011
 20
63.507300000000001
 30
0.0
 10
2.9011
 20
48.279299999999999
 30
0.0
 10
14.204499999999999
 20
35.688200000000002
 30
0.0
 10
28.876200000000001
 20
33.662500000000001
 30
0.0
  0
SPLINE
  5
30
100
AcDbEntity
  8
RÚteg 1
 62
     7
100
AcDbSpline
210
0.0
220
0.0
230
1.0
 70
     1
 71
     3
 72
    56
 73
    52
 74
     0
 42
0.0000000001
 43
0.0000000001
 40
0.0
 40
0.0
 40
0.0
 40
0.0
 40
0.0769230769230769
 40
0.0769230769230769
 40
0.0769230769230769
 40
0.0769230769230769
 40
0.1538461538461539
 40
0.1538461538461539
 40
0.1538461538461539
 40
0.1538461538461539
 40
0.2307692307692308
 40
0.2307692307692308
 40
0.2307692307692308
 40
0.2307692307692308
 40
0.3076923076923077
 40
0.3076923076923077
 40
0.3076923076923077
 40
0.3076923076923077
 40
0.3846153846153846
 40
0.3846153846153846
 40
0.3846153846153846
 40
0.3846153846153846
 40
0.4615384615384616
 40
0.4615384615384616
 40
0.4615384615384616
 40
0.4615384615384616
 40
0.5384615384615386
 40
0.5384615384615386
 40
0.5384615384615386
 40
0.5384615384615386
 40
0.6153846153846154
 40
0.6153846153846154
 40
0.6153846153846154
 40
0.6153846153846154
 40
0.6923076923076923
 40
0.6923076923076923
 40
0.6923076923076923
 40
0.6923076923076923
 40
0.7692307692307692
 40
0.7692307692307692
 40
0.7692307692307692
 40
0.7692307692307692
 40
0.846153846153846
 40
0.846153846153846
 40
0.846153846153846
 40
0.846153846153846
 40
0.9230769230769229
 40
0.9230769230769229
 40
0.9230769230769229
 40
0.9230769230769229
 40
1.0
 40
1.0
 40
1.0
 40
1.0
 10
33.988500000000002
 20
93.622
 30
0.0
 10
36.072200000000002
 20
89.579800000000006
 30
0.0
 10
38.809600000000003
 20
86.191999999999993
 30
0.0
 10
42.4407
 20
83.697500000000005
 30
0.0
 10
42.4407
 20
83.697500000000005
 30
0.0
 10
40.904600000000002
 20
82.684399999999997
 30
0.0
 10
39.106999999999999
 20
82.194000000000003
 30
0.0
 10
37.048099999999998
 20
82.226699999999994
 30
0.0
 10
37.048099999999998
 20
82.226699999999994
 30
0.0
 10
38.4422
 20
78.319999999999993
 30
0.0
 10
42.904400000000003
 20
75.6404
 30
0.0
 10
48.2258
 20
73.304500000000004
 30
0.0
 10
48.2258
 20
73.304500000000004
 30
0.0
 10
46.134
 20
71.081800000000001
 30
0.0
 10
43.388500000000001
 20
69.774500000000003
 30
0.0
 10
39.9895
 20
69.382199999999997
 30
0.0
 10
39.9895
 20
69.382199999999997
 30
0.0
 10
42.685200000000002
 20
64.724699999999999
 30
0.0
 10
47.718600000000002
 20
61.685299999999998
 30
0.0
 10
53.814599999999999
 20
59.381300000000003
 30
0.0
 10
53.814599999999999
 20
59.381300000000003
 30
0.0
 10
51.240699999999997
 20
57.256900000000002
 30
0.0
 10
47.890500000000003
 20
55.753599999999999
 30
0.0
 10
44.009599999999999
 20
54.6751
 30
0.0
 10
44.009599999999999
 20
54.6751
 30
0.0
 10
47.768000000000001
 20
51.472000000000001
 30
0.0
 10
52.180199999999999
 20
49.184100000000001
 30
0.0
 10
57.246000000000002
 20
47.811599999999999
 30
0.0
 10
57.246000000000002
 20
47.811599999999999
 30
0.0
 10
53.107599999999998
 20
42.263599999999997
 30
0.0
 10
45.729399999999998
 20
42.149000000000001
 30
0.0
 10
34.7928
 20
45.752499999999998
 30
0.0
 10
34.7928
 20
45.752499999999998
 30
0.0
 10
34.858199999999997
 20
45.066299999999998
 30
0.0
 10
34.9236
 20
44.379899999999999
 30
0.0
 10
34.988900000000001
 20
43.6935
 30
0.0
 10
34.988900000000001
 20
43.6935
 30
0.0
 10
36.230800000000002
 20
43.6935
 30
0.0
 10
37.472799999999999
 20
43.6935
 30
0.0
 10
38.714799999999997
 20
43.6935
 30
0.0
 10
38.714799999999997
 20
43.6935
 30
0.0
 10
38.714799999999997
 20
43.6935
 30
0.0
 10
36.948999999999998
 20
33.628900000000002
 30
0.0
 10
36.948999999999998
 20
33.628900000000002
 30
0.0
 10
36.948999999999998
 20
33.628900000000002
 30
0.0
 10
51.737499999999997
 20
35.549399999999999
 30
0.0
 10
63.164099999999998
 20
48.196300000000001
 30
0.0
 10
63.164099999999998
 20
63.507300000000001
 30
0.0
 10
63.164099999999998
 20
63.507300000000001
 30
0.0
 10
63.164099999999998
 20
79.825699999999998
 30
0.0
 10
50.184399999999997
 20
93.116799999999998
 30
0.0
 10
33.988500000000002
 20
93.622
 30
0.0
  0
SPLINE
  5
31
100
AcDbEntity
  8
RÚteg 1
 62
     7
100
AcDbSpline
210
0.0
220
0.0
230
1.0
 70
     1
 71
     3
 72
    36
 73
    32
 74
     0
 42
0.0000000001
 43
0.0000000001
 40
0.0
 40
0.0
 40
0.0
 40
0.0
 40
0.125
 40
0.125
 40
0.125
 40
0.125
 40
0.25
 40
0.25
 40
0.25
 40
0.25
 40
0.375
 40
0.375
 40
0.375
 40
0.375
 40
0.5
 40
0.5
 40
0.5
 40
0.5
 40
0.625
 40
0.625
 40
0.625
 40
0.625
 40
0.75
 40
0.75
 40
0.75
 40
0.75
 40
0.875
 40
0.875
 40
0.875
 40
0.875
 40
1.0
 40
1.0
 40
1.0
 40
1.0
 10
36.757899999999999
 20
97.320599999999999
 30
0.0
 10
53.789700000000003
 20
95.464299999999994
 30
0.0
 10
67.049999999999997
 20
81.032200000000003
 30
0.0
 10
67.049999999999997
 20
63.507300000000001
 30
0.0
 10
67.049999999999997
 20
63.507300000000001
 30
0.0
 10
67.049999999999997
 20
44.723199999999999
 30
0.0
 10
51.816600000000001
 20
29.489999999999998
 30
0.0
 10
33.032600000000002
 20
29.489999999999998
 30
0.0
 10
33.032600000000002
 20
29.489999999999998
 30
0.0
 10
14.2485
 20
29.489999999999998
 30
0.0
 10
-0.9847
 20
44.723199999999999
 30
0.0
 10
-0.9847
 20
63.507300000000001
 30
0.0
 10
-0.9847
 20
63.507300000000001
 30
0.0
 10
-0.9847
 20
81.032200000000003
 30
0.0
 10
12.275499999999999
 20
95.464299999999994
 30
0.0
 10
29.307300000000001
 20
97.320599999999999
 30
0.0
 10
29.307300000000001
 20
97.320599999999999
 30
0.0
 10
28.599499999999999
 20
98.164900000000003
 30
0.0
 10
28.172899999999998
 20
99.252799999999993
 30
0.0
 10
28.172899999999998
 20
100.44029999999999
 30
0.0
 10
28.172899999999998
 20
100.44029999999999
 30
0.0
 10
28.172899999999998
 20
103.12390000000001
 30
0.0
 10
30.3492
 20
105.3
 30
0.0
 10
33.032600000000002
 20
105.3
 30
0.0
 10
33.032600000000002
 20
105.3
 30
0.0
 10
35.716099999999997
 20
105.3
 30
0.0
 10
37.892200000000003
 20
103.12390000000001
 30
0.0
 10
37.892200000000003
 20
100.44029999999999
 30
0.0
 10
37.892200000000003
 20
100.44029999999999
 30
0.0
 10
37.892200000000003
 20
99.252799999999993
 30
0.0
 10
37.465699999999998
 20
98.164900000000003
 30
0.0
 10
36.757899999999999
 20
97.320599999999999
 30
0.0
  0
SPLINE
  5
32
100
AcDbEntity
  8
RÚteg 1
 62
     7
100
AcDbSpline
210
0.0
220
0.0
230
1.0
 70
     1
 71
     3
 72
   252
 73
   248
 74
     0
 42
0.0000000001
 43
0.0000000001
 40
0.0
 40
0.0
 40
0.0
 40
0.0
 40
0.0161290322580645
 40
0.0161290322580645
 40
0.0161290322580645
 40
0.0161290322580645
 40
0.032258064516129
 40
0.032258064516129
 40
0.032258064516129
 40
0.032258064516129
 40
0.0483870967741935
 40
0.0483870967741935
 40
0.0483870967741935
 40
0.0483870967741935
 40
0.0645161290322581
 40
0.0645161290322581
 40
0.0645161290322581
 40
0.0645161290322581
 40
0.0806451612903226
 40
0.0806451612903226
 40
0.0806451612903226
 40
0.0806451612903226
 40
0.0967741935483871
 40
0.0967741935483871
 40
0.0967741935483871
 40
0.0967741935483871
 40
0.1129032258064516
 40
0.1129032258064516
 40
0.1129032258064516
 40
0.1129032258064516
 40
0.1290322580645161
 40
0.1290322580645161
 40
0.1290322580645161
 40
0.1290322580645161
 40
0.1451612903225806
 40
0.1451612903225806
 40
0.1451612903225806
 40
0.1451612903225806
 40
0.1612903225806451
 40
0.1612903225806451
 40
0.1612903225806451
 40
0.1612903225806451
 40
0.1774193548387096
 40
0.1774193548387096
 40
0.1774193548387096
 40
0.1774193548387096
 40
0.1935483870967741
 40
0.1935483870967741
 40
0.1935483870967741
 40
0.1935483870967741
 40
0.2096774193548386
 40
0.2096774193548386
 40
0.2096774193548386
 40
0.2096774193548386
 40
0.2258064516129031
 40
0.2258064516129031
 40
0.2258064516129031
 40
0.2258064516129031
 40
0.2419354838709676
 40
0.2419354838709676
 40
0.2419354838709676
 40
0.2419354838709676
 40
0.2580645161290321
 40
0.2580645161290321
 40
0.2580645161290321
 40
0.2580645161290321
 40
0.2741935483870966
 40
0.2741935483870966
 40
0.2741935483870966
 40
0.2741935483870966
 40
0.2903225806451611
 40
0.2903225806451611
 40
0.2903225806451611
 40
0.2903225806451611
 40
0.3064516129032257
 40
0.3064516129032257
 40
0.3064516129032257
 40
0.3064516129032257
 40
0.3225806451612902
 40
0.3225806451612902
 40
0.3225806451612902
 40
0.3225806451612902
 40
0.3387096774193547
 40
0.3387096774193547
 40
0.3387096774193547
 40
0.3387096774193547
 40
0.3548387096774192
 40
0.3548387096774192
 40
0.3548387096774192
 40
0.3548387096774192
 40
0.3709677419354837
 40
0.3709677419354837
 40
0.3709677419354837
 40
0.3709677419354837
 40
0.3870967741935482
 40
0.3870967741935482
 40
0.3870967741935482
 40
0.3870967741935482
 40
0.4032258064516127
 40
0.4032258064516127
 40
0.4032258064516127
 40
0.4032258064516127
 40
0.4193548387096772
 40
0.4193548387096772
 40
0.4193548387096772
 40
0.4193548387096772
 40
0.4354838709677417
 40
0.4354838709677417
 40
0.4354838709677417
 40
0.4354838709677417
 40
0.4516129032258062
 40
0.4516129032258062
 40
0.4516129032258062
 40
0.4516129032258062
 40
0.4677419354838707
 40
0.4677419354838707
 40
0.4677419354838707
 40
0.4677419354838707
 40
0.4838709677419352
 40
0.4838709677419352
 40
0.4838709677419352
 40
0.4838709677419352
 40
0.4999999999999997
 40
0.4999999999999997
 40
0.4999999999999997
 40
0.4999999999999997
 40
0.5161290322580642
 40
0.5161290322580642
 40
0.5161290322580642
 40
0.5161290322580642
 40
0.5322580645161287
 40
0.5322580645161287
 40
0.5322580645161287
 40
0.5322580645161287
 40
0.5483870967741932
 40
0.5483870967741932
 40
0.5483870967741932
 40
0.5483870967741932
 40
0.5645161290322577
 40
0.5645161290322577
 40
0.5645161290322577
 40
0.5645161290322577
 40
0.5806451612903222
 40
0.5806451612903222
 40
0.5806451612903222
 40
0.5806451612903222
 40
0.5967741935483867
 40
0.5967741935483867
 40
0.5967741935483867
 40
0.5967741935483867
 40
0.6129032258064512
 40
0.6129032258064512
 40
0.6129032258064512
 40
0.6129032258064512
 40
0.6290322580645157
 40
0.6290322580645157
 40
0.6290322580645157
 40
0.6290322580645157
 40
0.6451612903225802
 40
0.6451612903225802
 40
0.6451612903225802
 40
0.6451612903225802
 40
0.6612903225806447
 40
0.6612903225806447
 40
0.6612903225806447
 40
0.6612903225806447
 40
0.6774193548387092
 40
0.6774193548387092
 40
0.6774193548387092
 40
0.6774193548387092
 40
0.6935483870967737
 40
0.6935483870967737
 40
0.6935483870967737
 40
0.6935483870967737
 40
0.7096774193548382
 40
0.7096774193548382
 40
0.7096774193548382
 40
0.7096774193548382
 40
0.7258064516129027
 40
0.7258064516129027
 40
0.7258064516129027
 40
0.7258064516129027
 40
0.7419354838709672
 40
0.7419354838709672
 40
0.7419354838709672
 40
0.7419354838709672
 40
0.7580645161290317
 40
0.7580645161290317
 40
0.7580645161290317
 40
0.7580645161290317
 40
0.7741935483870962
 40
0.7741935483870962
 40
0.7741935483870962
 40
0.7741935483870962
 40
0.7903225806451607
 40
0.7903225806451607
 40
0.7903225806451607
 40
0.7903225806451607
 40
0.8064516129032252
 40
0.8064516129032252
 40
0.8064516129032252
 40
0.8064516129032252
 40
0.8225806451612897
 40
0.8225806451612897
 40
0.8225806451612897
 40
0.8225806451612897
 40
0.8387096774193542
 40
0.8387096774193542
 40
0.8387096774193542
 40
0.8387096774193542
 40
0.8548387096774187
 40
0.8548387096774187
 40
0.8548387096774187
 40
0.8548387096774187
 40
0.8709677419354832
 40
0.8709677419354832
 40
0.8709677419354832
 40
0.8709677419354832
 40
0.8870967741935477
 40
0.8870967741935477
 40
0.8870967741935477
 40
0.8870967741935477
 40
0.9032258064516122
 40
0.9032258064516122
 40
0.9032258064516122
 40
0.9032258064516122
 40
0.9193548387096767
 40
0.9193548387096767
 40
0.9193548387096767
 40
0.9193548387096767
 40
0.9354838709677412
 40
0.9354838709677412
 40
0.9354838709677412
 40
0.9354838709677412
 40
0.9516129032258057
 40
0.9516129032258057
 40
0.9516129032258057
 40
0.9516129032258057
 40
0.9677419354838702
 40
0.9677419354838702
 40
0.9677419354838702
 40
0.9677419354838702
 40
0.9838709677419347
 40
0.9838709677419347
 40
0.9838709677419347
 40
0.9838709677419347
 40
1.0
 40
1.0
 40
1.0
 40
1.0
 10
47.022399999999998
 20
50.455399999999997
 30
0.0
 10
47.036900000000003
 20
50.334400000000002
 30
0.0
 10
47.044499999999999
 20
50.211599999999997
 30
0.0
 10
47.044499999999999
 20
50.087000000000003
 30
0.0
 10
47.044499999999999
 20
50.087000000000003
 30
0.0
 10
47.044499999999999
 20
48.381799999999998
 30
0.0
 10
45.661900000000003
 20
46.999299999999998
 30
0.0
 10
43.956800000000001
 20
46.999299999999998
 30
0.0
 10
43.956800000000001
 20
46.999299999999998
 30
0.0
 10
42.251899999999999
 20
46.999299999999998
 30
0.0
 10
40.869399999999999
 20
48.381799999999998
 30
0.0
 10
40.869399999999999
 20
50.087000000000003
 30
0.0
 10
40.869399999999999
 20
50.087000000000003
 30
0.0
 10
40.869399999999999
 20
51.578400000000002
 30
0.0
 10
41.927100000000003
 20
52.823
 30
0.0
 10
43.333300000000001
 20
53.111400000000003
 30
0.0
 10
43.333300000000001
 20
53.111400000000003
 30
0.0
 10
43.205100000000002
 20
53.217199999999998
 30
0.0
 10
43.077399999999997
 20
53.324599999999997
 30
0.0
 10
42.950699999999998
 20
53.432699999999997
 30
0.0
 10
42.950699999999998
 20
53.432699999999997
 30
0.0
 10
42.950699999999998
 20
53.432699999999997
 30
0.0
 10
40.6126
 20
55.4253
 30
0.0
 10
40.6126
 20
55.4253
 30
0.0
 10
40.6126
 20
55.4253
 30
0.0
 10
40.6126
 20
55.4253
 30
0.0
 10
43.572499999999998
 20
56.247900000000001
 30
0.0
 10
43.572499999999998
 20
56.247900000000001
 30
0.0
 10
43.572499999999998
 20
56.247900000000001
 30
0.0
 10
45.898299999999999
 20
56.894300000000001
 30
0.0
 10
48.286499999999997
 20
57.767099999999999
 30
0.0
 10
50.4163
 20
59.008099999999999
 30
0.0
 10
50.4163
 20
59.008099999999999
 30
0.0
 10
47.597000000000001
 20
60.260399999999997
 30
0.0
 10
44.853099999999998
 20
61.813800000000001
 30
0.0
 10
42.5428
 20
63.827500000000001
 30
0.0
 10
42.5428
 20
63.827500000000001
 30
0.0
 10
42.928199999999997
 20
63.312199999999997
 30
0.0
 10
43.156399999999998
 20
62.672899999999998
 30
0.0
 10
43.156399999999998
 20
61.980200000000004
 30
0.0
 10
43.156399999999998
 20
61.980200000000004
 30
0.0
 10
43.156399999999998
 20
60.275199999999998
 30
0.0
 10
41.773600000000002
 20
58.892499999999998
 30
0.0
 10
40.068899999999999
 20
58.892499999999998
 30
0.0
 10
40.068899999999999
 20
58.892499999999998
 30
0.0
 10
38.363700000000001
 20
58.892499999999998
 30
0.0
 10
36.981099999999998
 20
60.275199999999998
 30
0.0
 10
36.981099999999998
 20
61.980200000000004
 30
0.0
 10
36.981099999999998
 20
61.980200000000004
 30
0.0
 10
36.981099999999998
 20
63.685200000000002
 30
0.0
 10
38.363700000000001
 20
65.067800000000005
 30
0.0
 10
40.068899999999999
 20
65.067800000000005
 30
0.0
 10
40.068899999999999
 20
65.067800000000005
 30
0.0
 10
40.667099999999998
 20
65.067800000000005
 30
0.0
 10
41.2256
 20
64.897199999999998
 30
0.0
 10
41.698999999999998
 20
64.602400000000003
 30
0.0
 10
41.698999999999998
 20
64.602400000000003
 30
0.0
 10
40.494799999999998
 20
65.770099999999999
 30
0.0
 10
39.434800000000003
 20
67.082499999999996
 30
0.0
 10
38.576799999999999
 20
68.564800000000005
 30
0.0
 10
38.576799999999999
 20
68.564800000000005
 30
0.0
 10
38.576799999999999
 20
68.564800000000005
 30
0.0
 10
37.329999999999998
 20
70.718699999999998
 30
0.0
 10
37.329999999999998
 20
70.718699999999998
 30
0.0
 10
37.329999999999998
 20
70.718699999999998
 30
0.0
 10
37.329999999999998
 20
70.718699999999998
 30
0.0
 10
39.802500000000002
 20
71.004000000000005
 30
0.0
 10
39.802500000000002
 20
71.004000000000005
 30
0.0
 10
39.802500000000002
 20
71.004000000000005
 30
0.0
 10
41.799199999999999
 20
71.234200000000001
 30
0.0
 10
43.633400000000002
 20
71.820999999999998
 30
0.0
 10
45.227400000000003
 20
72.887299999999996
 30
0.0
 10
45.227400000000003
 20
72.887299999999996
 30
0.0
 10
43.073599999999999
 20
73.935599999999994
 30
0.0
 10
40.840000000000003
 20
75.214399999999998
 30
0.0
 10
39.009500000000003
 20
76.818700000000007
 30
0.0
 10
39.009500000000003
 20
76.818700000000007
 30
0.0
 10
39.029200000000003
 20
76.678299999999993
 30
0.0
 10
39.039400000000001
 20
76.5351
 30
0.0
 10
39.039400000000001
 20
76.389300000000006
 30
0.0
 10
39.039400000000001
 20
76.389300000000006
 30
0.0
 10
39.039400000000001
 20
74.684399999999997
 30
0.0
 10
37.656700000000001
 20
73.301699999999997
 30
0.0
 10
35.951700000000002
 20
73.301699999999997
 30
0.0
 10
35.951700000000002
 20
73.301699999999997
 30
0.0
 10
34.246699999999997
 20
73.301699999999997
 30
0.0
 10
32.8643
 20
74.684399999999997
 30
0.0
 10
32.8643
 20
76.389300000000006
 30
0.0
 10
32.8643
 20
76.389300000000006
 30
0.0
 10
32.8643
 20
78.0946
 30
0.0
 10
34.246699999999997
 20
79.477000000000004
 30
0.0
 10
35.951700000000002
 20
79.477000000000004
 30
0.0
 10
35.951700000000002
 20
79.477000000000004
 30
0.0
 10
36.206200000000003
 20
79.477000000000004
 30
0.0
 10
36.453200000000002
 20
79.445999999999998
 30
0.0
 10
36.689999999999998
 20
79.387799999999999
 30
0.0
 10
36.689999999999998
 20
79.387799999999999
 30
0.0
 10
36.203099999999999
 20
80.099999999999994
 30
0.0
 10
35.802
 20
80.861900000000006
 30
0.0
 10
35.5107
 20
81.678299999999993
 30
0.0
 10
35.5107
 20
81.678299999999993
 30
0.0
 10
35.5107
 20
81.678299999999993
 30
0.0
 10
34.719000000000001
 20
83.896500000000003
 30
0.0
 10
34.719000000000001
 20
83.896500000000003
 30
0.0
 10
34.719000000000001
 20
83.896500000000003
 30
0.0
 10
34.719000000000001
 20
83.896500000000003
 30
0.0
 10
37.073999999999998
 20
83.858999999999995
 30
0.0
 10
37.073999999999998
 20
83.858999999999995
 30
0.0
 10
37.073999999999998
 20
83.858999999999995
 30
0.0
 10
37.828899999999997
 20
83.847099999999998
 30
0.0
 10
38.566400000000002
 20
83.916200000000003
 30
0.0
 10
39.2759
 20
84.085800000000006
 30
0.0
 10
39.2759
 20
84.085800000000006
 30
0.0
 10
36.687800000000003
 20
86.3322
 30
0.0
 10
34.629300000000001
 20
89.040000000000006
 30
0.0
 10
32.979399999999998
 20
92.043999999999997
 30
0.0
 10
32.979399999999998
 20
92.043999999999997
 30
0.0
 10
31.3187
 20
88.9178
 30
0.0
 10
29.1373
 20
86.194599999999994
 30
0.0
 10
26.409800000000001
 20
83.902600000000007
 30
0.0
 10
26.409800000000001
 20
83.902600000000007
 30
0.0
 10
27.0991
 20
83.695800000000006
 30
0.0
 10
27.816400000000002
 20
83.613100000000003
 30
0.0
 10
28.5335
 20
83.737200000000001
 30
0.0
 10
28.5335
 20
83.737200000000001
 30
0.0
 10
28.5335
 20
83.737200000000001
 30
0.0
 10
31.308900000000001
 20
84.217600000000004
 30
0.0
 10
31.308900000000001
 20
84.217600000000004
 30
0.0
 10
31.308900000000001
 20
84.217600000000004
 30
0.0
 10
31.308900000000001
 20
84.217600000000004
 30
0.0
 10
30.3459
 20
81.570700000000002
 30
0.0
 10
30.3459
 20
81.570700000000002
 30
0.0
 10
30.3459
 20
81.570700000000002
 30
0.0
 10
28.695799999999998
 20
77.0351
 30
0.0
 10
24.879200000000001
 20
74.652100000000004
 30
0.0
 10
20.631499999999999
 20
73.165000000000006
 30
0.0
 10
20.631499999999999
 20
73.165000000000006
 30
0.0
 10
22.471800000000002
 20
72.109300000000005
 30
0.0
 10
24.6358
 20
71.306899999999999
 30
0.0
 10
26.377099999999999
 20
70.738
 30
0.0
 10
26.377099999999999
 20
70.738
 30
0.0
 10
26.377099999999999
 20
70.738
 30
0.0
 10
28.340399999999999
 20
70.096599999999995
 30
0.0
 10
28.340399999999999
 20
70.096599999999995
 30
0.0
 10
28.340399999999999
 20
70.096599999999995
 30
0.0
 10
28.340399999999999
 20
70.096599999999995
 30
0.0
 10
27.263100000000001
 20
68.334800000000001
 30
0.0
 10
27.263100000000001
 20
68.334800000000001
 30
0.0
 10
27.263100000000001
 20
68.334800000000001
 30
0.0
 10
27.0852
 20
68.043599999999998
 30
0.0
 10
26.900600000000001
 20
67.760300000000001
 30
0.0
 10
26.7088
 20
67.483900000000006
 30
0.0
 10
26.7088
 20
67.483900000000006
 30
0.0
 10
26.958200000000001
 20
67.5488
 30
0.0
 10
27.2196
 20
67.583699999999993
 30
0.0
 10
27.4892
 20
67.583699999999993
 30
0.0
 10
27.4892
 20
67.583699999999993
 30
0.0
 10
29.194199999999999
 20
67.583699999999993
 30
0.0
 10
30.576899999999998
 20
66.200999999999993
 30
0.0
 10
30.576899999999998
 20
64.496099999999998
 30
0.0
 10
30.576899999999998
 20
64.496099999999998
 30
0.0
 10
30.576899999999998
 20
62.7911
 30
0.0
 10
29.194199999999999
 20
61.4086
 30
0.0
 10
27.4892
 20
61.4086
 30
0.0
 10
27.4892
 20
61.4086
 30
0.0
 10
25.784300000000002
 20
61.4086
 30
0.0
 10
24.401599999999998
 20
62.7911
 30
0.0
 10
24.401599999999998
 20
64.496099999999998
 30
0.0
 10
24.401599999999998
 20
64.496099999999998
 30
0.0
 10
24.401599999999998
 20
64.591099999999997
 30
0.0
 10
24.406300000000002
 20
64.685100000000006
 30
0.0
 10
24.4146
 20
64.777799999999999
 30
0.0
 10
24.4146
 20
64.777799999999999
 30
0.0
 10
21.855799999999999
 20
62.282600000000002
 30
0.0
 10
18.657499999999999
 20
60.534399999999998
 30
0.0
 10
15.2773
 20
59.232500000000002
 30
0.0
 10
15.2773
 20
59.232500000000002
 30
0.0
 10
17.642600000000002
 20
57.752400000000002
 30
0.0
 10
20.3078
 20
56.870800000000003
 30
0.0
 10
23.111799999999999
 20
56.3812
 30
0.0
 10
23.111799999999999
 20
56.3812
 30
0.0
 10
23.111799999999999
 20
56.3812
 30
0.0
 10
25.174399999999999
 20
56.020699999999998
 30
0.0
 10
25.174399999999999
 20
56.020699999999998
 30
0.0
 10
25.174399999999999
 20
56.020699999999998
 30
0.0
 10
25.677299999999999
 20
57.044199999999996
 30
0.0
 10
26.729500000000002
 20
57.748899999999999
 30
0.0
 10
27.9468
 20
57.748899999999999
 30
0.0
 10
27.9468
 20
57.748899999999999
 30
0.0
 10
29.651800000000001
 20
57.748899999999999
 30
0.0
 10
31.034300000000002
 20
56.366399999999999
 30
0.0
 10
31.034300000000002
 20
54.661299999999997
 30
0.0
 10
31.034300000000002
 20
54.661299999999997
 30
0.0
 10
31.034300000000002
 20
52.956299999999999
 30
0.0
 10
29.651800000000001
 20
51.573599999999999
 30
0.0
 10
27.9468
 20
51.573599999999999
 30
0.0
 10
27.9468
 20
51.573599999999999
 30
0.0
 10
26.362200000000001
 20
51.573599999999999
 30
0.0
 10
25.055900000000001
 20
52.768000000000001
 30
0.0
 10
24.8795
 20
54.305599999999998
 30
0.0
 10
24.8795
 20
54.305599999999998
 30
0.0
 10
24.8795
 20
54.305599999999998
 30
0.0
 10
23.8384
 20
53.488799999999998
 30
0.0
 10
23.8384
 20
53.488799999999998
 30
0.0
 10
23.8384
 20
53.488799999999998
 30
0.0
 10
20.229600000000001
 20
50.658099999999997
 30
0.0
 10
16.216000000000001
 20
48.5929
 30
0.0
 10
11.9778
 20
46.959400000000002
 30
0.0
 10
11.9778
 20
46.959400000000002
 30
0.0
 10
17.0915
 20
42.946899999999999
 30
0.0
 10
24.793900000000001
 20
44.753100000000003
 30
0.0
 10
30.517700000000001
 20
46.799500000000002
 30
0.0
 10
30.517700000000001
 20
46.799500000000002
 30
0.0
 10
30.517700000000001
 20
46.799500000000002
 30
0.0
 10
32.969799999999999
 20
47.676400000000001
 30
0.0
 10
32.969799999999999
 20
47.676400000000001
 30
0.0
 10
32.969799999999999
 20
47.676400000000001
 30
0.0
 10
32.969799999999999
 20
47.676400000000001
 30
0.0
 10
32.930900000000001
 20
48.085000000000001
 30
0.0
 10
32.930900000000001
 20
48.085000000000001
 30
0.0
 10
32.930900000000001
 20
48.085000000000001
 30
0.0
 10
32.930900000000001
 20
48.085000000000001
 30
0.0
 10
33.545900000000003
 20
47.882199999999997
 30
0.0
 10
33.545900000000003
 20
47.882199999999997
 30
0.0
 10
33.545900000000003
 20
47.882199999999997
 30
0.0
 10
33.545900000000003
 20
47.882199999999997
 30
0.0
 10
33.676099999999998
 20
47.928699999999999
 30
0.0
 10
33.676099999999998
 20
47.928699999999999
 30
0.0
 10
33.676099999999998
 20
47.928699999999999
 30
0.0
 10
33.676099999999998
 20
47.928699999999999
 30
0.0
 10
33.6492
 20
47.847999999999999
 30
0.0
 10
33.6492
 20
47.847999999999999
 30
0.0
 10
33.6492
 20
47.847999999999999
 30
0.0
 10
33.6492
 20
47.847999999999999
 30
0.0
 10
35.303600000000003
 20
47.302900000000001
 30
0.0
 10
35.303600000000003
 20
47.302900000000001
 30
0.0
 10
35.303600000000003
 20
47.302900000000001
 30
0.0
 10
40.404400000000003
 20
45.622199999999999
 30
0.0
 10
48.630400000000002
 20
43.348399999999998
 30
0.0
 10
53.577800000000003
 20
46.550800000000002
 30
0.0
 10
53.577800000000003
 20
46.550800000000002
 30
0.0
 10
53.808599999999998
 20
46.700200000000002
 30
0.0
 10
54.030700000000003
 20
46.859900000000003
 30
0.0
 10
54.243600000000001
 20
47.028599999999997
 30
0.0
 10
54.243600000000001
 20
47.028599999999997
 30
0.0
 10
51.703899999999997
 20
47.907600000000002
 30
0.0
 10
49.2881
 20
49.043999999999997
 30
0.0
 10
47.022399999999998
 20
50.455399999999997
 30
0.0
  0
SPLINE
  5
33
100
AcDbEntity
  8
RÚteg 1
 62
     7
100
AcDbSpline
210
0.0
220
0.0
230
1.0
 70
     1
 71
     3
 72
    32
 73
    28
 74
     0
 42
0.0000000001
 43
0.0000000001
 40
0.0
 40
0.0
 40
0.0
 40
0.0
 40
0.1428571428571429
 40
0.1428571428571429
 40
0.1428571428571429
 40
0.1428571428571429
 40
0.2857142857142857
 40
0.2857142857142857
 40
0.2857142857142857
 40
0.2857142857142857
 40
0.4285714285714286
 40
0.4285714285714286
 40
0.4285714285714286
 40
0.4285714285714286
 40
0.5714285714285714
 40
0.5714285714285714
 40
0.5714285714285714
 40
0.5714285714285714
 40
0.7142857142857142
 40
0.7142857142857142
 40
0.7142857142857142
 40
0.7142857142857142
 40
0.857142857142857
 40
0.857142857142857
 40
0.857142857142857
 40
0.857142857142857
 40
1.0
 40
1.0
 40
1.0
 40
1.0
 10
31.564299999999999
 20
41.593299999999999
 30
0.0
 10
31.564299999999999
 20
41.593299999999999
 30
0.0
 10
36.693600000000004
 20
41.618899999999996
 30
0.0
 10
36.693600000000004
 20
41.618899999999996
 30
0.0
 10
36.693600000000004
 20
41.618899999999996
 30
0.0
 10
36.693600000000004
 20
41.618899999999996
 30
0.0
 10
35.376899999999999
 20
34.113399999999999
 30
0.0
 10
35.376899999999999
 20
34.113399999999999
 30
0.0
 10
35.376899999999999
 20
34.113399999999999
 30
0.0
 10
33.743499999999997
 20
34.0717
 30
0.0
 10
32.109999999999999
 20
34.029800000000002
 30
0.0
 10
30.476700000000001
 20
33.988
 30
0.0
 10
30.476700000000001
 20
33.988
 30
0.0
 10
30.044
 20
36.515599999999999
 30
0.0
 10
29.6113
 20
39.043300000000002
 30
0.0
 10
29.178799999999999
 20
41.570999999999998
 30
0.0
 10
29.178799999999999
 20
41.570999999999998
 30
0.0
 10
29.5794
 20
41.570999999999998
 30
0.0
 10
29.98
 20
41.570999999999998
 30
0.0
 10
30.3809
 20
41.570999999999998
 30
0.0
 10
30.3809
 20
41.570999999999998
 30
0.0
 10
30.3809
 20
41.570999999999998
 30
0.0
 10
31.556999999999999
 20
41.570999999999998
 30
0.0
 10
31.556999999999999
 20
41.570999999999998
 30
0.0
 10
31.556999999999999
 20
41.570999999999998
 30
0.0
 10
31.556999999999999
 20
41.570999999999998
 30
0.0
 10
31.564299999999999
 20
41.593299999999999
 30
0.0
 10
31.564299999999999
 20
41.593299999999999
 30
0.0
  0
ENDSEC
  0
SECTION
  2
OBJECTS
  0
DICTIONARY
  5
19
100
AcDbDictionary
280
     0
281
     1
  3
ACAD_GROUP
350
1A
  3
ACAD_MLINESTYLE
350
1B
  3
ACAD_LAYOUT
350
1E
  3
ACAD_PLOTSETTINGS
350
22
  3
ACAD_PLOTSTYLENAME
350
1F
  3
ACAD_WIPEOUT_VARS
350
23
  0
DICTIONARY
  5
1A
102
{ACAD_REACTORS
330
19
102
}
100
AcDbDictionary
280
     0
281
     1
  0
DICTIONARY
  5
1B
102
{ACAD_REACTORS
330
19
102
}
100
AcDbDictionary
280
     0
281
     1
  3
Standard
350
1C
  0
MLINESTYLE
  5
1C
102
{ACAD_REACTORS
330
1B
102
}
100
AcDbMlineStyle
  2
Standard
 70
     0
  3

 62
     0
 51
90.0
 52
90.0
 71
     2
 49
0.5
 62
   256
  6
BYLAYER
 49
-0.5
 62
   256
  6
BYLAYER
  0
ACDBDICTIONARYWDFLT
  5
1F
102
{ACAD_REACTORS
330
19
102
}
100
AcDbDictionary
281
     1
  3
Normal
350
1D
100
AcDbDictionaryWithDefault
340
1D
  0
ACDBPLACEHOLDER
  5
1D
102
{ACAD_REACTORS
330
1F
102
}
  0
LAYOUT
  5
20
102
{ACAD_REACTORS
330
1E
102
}
100
AcDbPlotSettings
  1

  2

  4

  6

 40
0.0
 41
0.0
 42
0.0
 43
0.0
 44
0.0
 45
0.0
 46
0.0
 47
0.0
 48
0.0
 49
0.0
140
0.0
141
0.0
142
1.0
143
1.0
 70
  1024
 72
     0
 73
     0
 74
     0
  7

 75
     0
147
1.0
148
0.0
149
0.0
100
AcDbLayout
  1
Model
 70
     0
 71
     0
 10
0.0
 20
0.0
 11
0.0
 21
0.0
 12
0.0
 22
0.0
 32
0.0
 14
0.0
 24
0.0
 34
0.0
 15
0.0
 25
0.0
 35
0.0
146
0.0
 13
0.0
 23
0.0
 33
0.0
 16
0.0
 26
0.0
 36
0.0
 17
0.0
 27
0.0
 37
0.0
 76
     0
330
A
331
0
345
0
346
0
  0
LAYOUT
  5
21
102
{ACAD_REACTORS
330
1E
102
}
100
AcDbPlotSettings
  1

  2

  4

  6

 40
0.0
 41
0.0
 42
0.0
 43
0.0
 44
0.0
 45
0.0
 46
0.0
 47
0.0
 48
0.0
 49
0.0
140
0.0
141
0.0
142
1.0
143
1.0
 70
     0
 72
     0
 73
     0
 74
     0
  7

 75
     0
147
1.0
148
0.0
149
0.0
100
AcDbLayout
  1
Layout1
 70
     0
 71
     0
 10
0.0
 20
0.0
 11
0.0
 21
0.0
 12
0.0
 22
0.0
 32
0.0
 14
0.0
 24
0.0
 34
0.0
 15
0.0
 25
0.0
 35
0.0
146
0.0
 13
0.0
 23
0.0
 33
0.0
 16
0.0
 26
0.0
 36
0.0
 17
0.0
 27
0.0
 37
0.0
 76
     0
330
B
331
0
345
0
346
0
  0
DICTIONARY
  5
1E
102
{ACAD_REACTORS
330
19
102
}
100
AcDbDictionary
280
     0
281
     1
  3
Layout1
350
21
  3
Model
350
20
  0
DICTIONARY
  5
22
102
{ACAD_REACTORS
330
19
102
}
100
AcDbDictionary
280
     0
281
     1
  0
WIPEOUTVARIABLES
  5
23
100
AcDbWipeoutVariables
 70
     1
  0
ENDSEC
  0
EOF
