  0
SECTION
  2
HEADER
  9
$ACADVER
  1
AC1015
  9
$ACADMAINTVER
 70
     6
  9
$DWGCODEPAGE
  3
DOS850
  9
$INSBASE
 10
0.0
 20
0.0
 30
0.0
  9
$EXTMIN
 10
-87.9881
 20
21.1619
 30
1.000000E+20
  9
$EXTMAX
 10
52.0881
 20
95.3381
 30
-1.000000E+20
  9
$LIMMIN
 10
0.0
 20
0.0
  9
$LIMMAX
 10
0.0
 20
0.0
  9
$ORTHOMODE
 70
     0
  9
$REGENMODE
 70
     1
  9
$FILLMODE
 70
     1
  9
$QTEXTMODE
 70
     0
  9
$MIRRTEXT
 70
     1
  9
$LTSCALE
 40
1.0
  9
$ATTMODE
 70
     1
  9
$TEXTSIZE
 40
0.2
  9
$TRACEWID
 40
0.05
  9
$TEXTSTYLE
  7
Standard
  9
$CLAYER
  8
0
  9
$CELTYPE
  6
Continuous
  9
$CECOLOR
 62
   256
  9
$CELTSCALE
 40
1.0
  9
$DISPSILH
 70
     0
  9
$DIMSCALE
 40
1.0
  9
$DIMASZ
 40
0.18
  9
$DIMEXO
 40
0.0625
  9
$DIMDLI
 40
0.38
  9
$DIMRND
 40
0.0
  9
$DIMDLE
 40
0.0
  9
$DIMEXE
 40
0.18
  9
$DIMTP
 40
0.0
  9
$DIMTM
 40
0.0
  9
$DIMTXT
 40
0.18
  9
$DIMCEN
 40
0.09
  9
$DIMTSZ
 40
0.0
  9
$DIMTOL
 70
     0
  9
$DIMLIM
 70
     0
  9
$DIMTIH
 70
     1
  9
$DIMTOH
 70
     1
  9
$DIMSE1
 70
     0
  9
$DIMSE2
 70
     0
  9
$DIMTAD
 70
     0
  9
$DIMZIN
 70
     0
  9
$DIMBLK
  1

  9
$DIMASO
 70
     1
  9
$DIMSHO
 70
     1
  9
$DIMPOST
  1

  9
$DIMAPOST
  1

  9
$DIMALT
 70
     0
  9
$DIMALTD
 70
     2
  9
$DIMALTF
 40
25.4
  9
$DIMLFAC
 40
1.0
  9
$DIMTOFL
 70
     0
  9
$DIMTVP
 40
0.0
  9
$DIMTIX
 70
     0
  9
$DIMSOXD
 70
     0
  9
$DIMSAH
 70
     0
  9
$DIMBLK1
  1

  9
$DIMBLK2
  1

  9
$DIMSTYLE
  2
Standard
  9
$DIMCLRD
 70
     0
  9
$DIMCLRE
 70
     0
  9
$DIMCLRT
 70
     0
  9
$DIMTFAC
 40
1.0
  9
$DIMGAP
 40
0.09
  9
$DIMJUST
 70
     0
  9
$DIMSD1
 70
     0
  9
$DIMSD2
 70
     0
  9
$DIMTOLJ
 70
     1
  9
$DIMTZIN
 70
     0
  9
$DIMALTZ
 70
     0
  9
$DIMALTTZ
 70
     0
  9
$DIMUPT
 70
     0
  9
$DIMDEC
 70
     4
  9
$DIMTDEC
 70
     4
  9
$DIMALTU
 70
     2
  9
$DIMALTTD
 70
     2
  9
$DIMTXSTY
  7
Standard
  9
$DIMAUNIT
 70
     0
  9
$DIMADEC
 70
     0
  9
$DIMALTRND
 40
0.0
  9
$DIMAZIN
 70
     0
  9
$DIMDSEP
 70
     0
  9
$DIMATFIT
 70
     3
  9
$DIMFRAC
 70
     0
  9
$DIMLDRBLK
  1

  9
$DIMLUNIT
 70
     2
  9
$DIMLWD
 70
     0
  9
$DIMLWE
 70
     0
  9
$DIMTMOVE
 70
     0
  9
$LUNITS
 70
     2
  9
$LUPREC
 70
     4
  9
$SKETCHINC
 40
0.1
  9
$FILLETRAD
 40
0.0
  9
$AUNITS
 70
     0
  9
$AUPREC
 70
     0
  9
$MENU
  1
acad
  9
$ELEVATION
 40
0.0
  9
$PELEVATION
 40
0.0
  9
$THICKNESS
 40
0.0
  9
$LIMCHECK
 70
     0
  9
$CHAMFERA
 40
0.0
  9
$CHAMFERB
 40
0.0
  9
$CHAMFERC
 40
0.0
  9
$CHAMFERD
 40
0.0
  9
$SKPOLY
 70
     0
  9
$TDCREATE
 40
0.000000000
  9
$TDUCREATE
 40
0.000000000
  9
$TDUPDATE
 40
0.000000000
  9
$TDUUPDATE
 40
0.000000000
  9
$TDINDWG
 40
0.0000000000
  9
$TDUSRTIMER
 40
0.0000000000
  9
$USRTIMER
 70
     1
  9
$ANGBASE
 50
0.0
  9
$ANGDIR
 70
     0
  9
$PDMODE
 70
     0
  9
$PDSIZE
 40
0.0
  9
$PLINEWID
 40
0.0
  9
$SPLFRAME
 70
     0
  9
$SPLINETYPE
 70
     6
  9
$SPLINESEGS
 70
     8
  9
$HANDSEED
  5
34
  9
$SURFTAB1
 70
     6
  9
$SURFTAB2
 70
     6
  9
$SURFTYPE
 70
     6
  9
$SURFU
 70
     6
  9
$SURFV
 70
     6
  9
$UCSBASE
  2

  9
$UCSNAME
  2

  9
$UCSORG
 10
0.0
 20
0.0
 30
0.0
  9
$UCSXDIR
 10
1.0
 20
0.0
 30
0.0
  9
$UCSYDIR
 10
0.0
 20
1.0
 30
0.0
  9
$UCSORTHOREF
  2

  9
$UCSORTHOVIEW
 70
     0
  9
$UCSORGTOP
 10
0.0
 20
0.0
 30
0.0
  9
$UCSORGBOTTOM
 10
0.0
 20
0.0
 30
0.0
  9
$UCSORGLEFT
 10
0.0
 20
0.0
 30
0.0
  9
$UCSORGRIGHT
 10
0.0
 20
0.0
 30
0.0
  9
$UCSORGFRONT
 10
0.0
 20
0.0
 30
0.0
  9
$UCSORGBACK
 10
0.0
 20
0.0
 30
0.0
  9
$PUCSBASE
  2

  9
$PUCSNAME
  2

  9
$PUCSORG
 10
0.0
 20
0.0
 30
0.0
  9
$PUCSXDIR
 10
1.0
 20
0.0
 30
0.0
  9
$PUCSYDIR
 10
0.0
 20
1.0
 30
0.0
  9
$PUCSORTHOREF
  2

  9
$PUCSORTHOVIEW
 70
     0
  9
$PUCSORGTOP
 10
0.0
 20
0.0
 30
0.0
  9
$PUCSORGBOTTOM
 10
0.0
 20
0.0
 30
0.0
  9
$PUCSORGLEFT
 10
0.0
 20
0.0
 30
0.0
  9
$PUCSORGRIGHT
 10
0.0
 20
0.0
 30
0.0
  9
$PUCSORGFRONT
 10
0.0
 20
0.0
 30
0.0
  9
$PUCSORGBACK
 10
0.0
 20
0.0
 30
0.0
  9
$USERI1
 70
     0
  9
$USERI2
 70
     0
  9
$USERI3
 70
     0
  9
$USERI4
 70
     0
  9
$USERI5
 70
     0
  9
$USERR1
 40
0.0
  9
$USERR2
 40
0.0
  9
$USERR3
 40
0.0
  9
$USERR4
 40
0.0
  9
$USERR5
 40
0.0
  9
$WORLDVIEW
 70
     1
  9
$SHADEDGE
 70
     3
  9
$SHADEDIF
 70
    70
  9
$TILEMODE
 70
     1
  9
$MAXACTVP
 70
    16
  9
$PINSBASE
 10
0.0
 20
0.0
 30
0.0
  9
$PLIMCHECK
 70
     0
  9
$PEXTMIN
 10
1.000000E+20
 20
1.000000E+20
 30
1.000000E+20
  9
$PEXTMAX
 10
-1.000000E+20
 20
-1.000000E+20
 30
-1.000000E+20
  9
$PLIMMIN
 10
0.0
 20
0.0
  9
$PLIMMAX
 10
12.0
 20
9.0
  9
$UNITMODE
 70
     0
  9
$VISRETAIN
 70
     0
  9
$PLINEGEN
 70
     1
  9
$PSLTSCALE
 70
     0
  9
$TREEDEPTH
 70
  3020
  9
$CMLSTYLE
  2
Standard
  9
$CMLJUST
 70
     0
  9
$CMLSCALE
 40
1.0
  9
$PROXYGRAPHICS
 70
     0
  9
$MEASUREMENT
 70
     0
  9
$CELWEIGHT
370
     0
  9
$ENDCAPS
280
     0
  9
$JOINSTYLE
280
     0
  9
$LWDISPLAY
290
     0
  9
$INSUNITS
 70
     4
  9
$HYPERLINKBASE
  1

  9
$XEDIT
290
     1
  9
$CEPSNTYPE
380
     0
  9
$PSTYLEMODE
290
     1
  9
$FINGERPRINTGUID
  2

  9
$VERSIONGUID
  2

  9
$EXTNAMES
290
     1
  9
$PSVPSCALE
 40
0.0
  0
ENDSEC
  0
SECTION
  2
CLASSES
  0
CLASS
  1
LWPOLYLINE
  2
AcDbPolyline
  3
AutoCAD 2000
 90
    32768
280
     0
281
     1
  0
CLASS
  1
IMAGE
  2
AcDbRasterImage
  3
ISM
 90
    32895
280
     0
281
     1
  0
CLASS
  1
OLE2FRAME
  2
AcDbOle2Frame
  3
AutoCAD 2000
 90
    32768
280
     0
281
     1
  0
CLASS
  1
HATCH
  2
AcDbHatch
  3
AutoCAD 2000
 90
    32768
280
     0
281
     1
  0
CLASS
  1
DICTIONARYVAR
  2
AcDbDictionaryVar
  3
AutoCAD 2000
 90
    32768
280
     0
281
     0
  0
CLASS
  1
RASTERVARIABLES
  2
AcDbRasterVariables
  3
ISM
 90
    32768
280
     0
281
     0
  0
CLASS
  1
IMAGEDEF
  2
AcDbRasterImageDef
  3
ISM
 90
    32768
280
     0
281
     0
  0
CLASS
  1
IMAGEDEF_REACTOR
  2
AcDbRasterImageDefReactor
  3
ISM
 90
    32769
280
     0
281
     0
  0
CLASS
  1
IDBUFFER
  2
AcDbIdBuffer
  3
AutoCAD 2000
 90
    32768
280
     0
281
     0
  0
CLASS
  1
SPATIAL_FILTER
  2
AcDbSpatialFilter
  3
AutoCAD 2000
 90
    32768
280
     0
281
     0
  0
CLASS
  1
XRECORD
  2
AcDbXrecord
  3
AutoCAD 2000
 90
    32768
280
     0
281
     0
  0
CLASS
  1
SORTENTSTABLE
  2
AcDbSortentsTable
  3
AutoCAD 2000
 90
    32768
280
     0
281
     0
  0
CLASS
  1
LAYER_INDEX
  2
AcDbLayerIndex
  3
AutoCAD 2000
 90
    32768
280
     0
281
     0
  0
CLASS
  1
SPATIAL_INDEX
  2
AcDbSpatialIndex
  3
AutoCAD 2000
 90
    32768
280
     0
281
     0
  0
CLASS
  1
OBJECT_PTR
  2
CAseDLPNTableRecord
  3
"ASE-LPNTableRecord"
 90
    32769
280
     0
281
     0
  0
CLASS
  1
LAYOUT
  2
AcDbLayout
  3
AutoCAD 2000
 90
        0
280
     0
281
     0
  0
CLASS
  1
PLOTSETTINGS
  2
AcDbPlotSettings
  3
AutoCAD 2000
 90
    32768
280
     0
281
     0
  0
CLASS
  1
ACDBDICTIONARYWDFLT
  2
AcDbDictionaryWithDefault
  3
AutoCAD 2000
 90
        0
280
     0
281
     0
  0
CLASS
  1
ACDBPLACEHOLDER
  2
AcDbPlaceHolder
  3
AutoCAD 2000
 90
        0
280
     0
281
     0
  0
CLASS
  1
VBA_PROJECT
  2
AcDbVbaProject
  3
acadvba
 90
    32768
280
     0
281
     0
  0
CLASS
  1
WIPEOUT
  2
AcDbWipeout
  3
WipeOut|AutoCAD Express Tool|expresstools@autodesk.com
 90
    32895
280
     0
281
     1
  0
CLASS
  1
WIPEOUTVARIABLES
  2
AcDbWipeoutVariables
  3
WipeOut|AutoCAD Express Tool|expresstools@autodesk.com
 90
        0
280
     0
281
     0
  0
CLASS
  1
RTEXT
  2
RText
  3
RText|AutoCAD Express Tool|expresstools@autodesk.com
 90
    32768
280
     0
281
     1
  0
CLASS
  1
ARCALIGNEDTEXT
  2
AcDbArcAlignedText
  3
ATEXT|AutoCAD Express Tool|expresstools@autodesk.com
 90
    32768
280
     0
281
     1
  0
ENDSEC
  0
SECTION
  2
TABLES
  0
TABLE
  2
VPORT
  5
7
100
AcDbSymbolTable
 70
     1
  0
VPORT
  5
15
100
AcDbSymbolTableRecord
100
AcDbViewportTableRecord
  2
*ACTIVE
 70
     0
 10
0.0
 20
0.0
 11
1.0
 21
1.0
 12
6.591288
 22
4.579184
 13
0.0
 23
0.0
 14
1.0
 24
1.0
 15
0.0
 25
0.0
 16
0.0
 26
0.0
 36
1.0
 17
0.0
 27
0.0
 37
0.0
 40
9.158369
 41
0.688564
 42
50.0
 43
0.0
 44
0.0
 50
0.0
 51
0.0
 71
     0
 72
   100
 73
     1
 74
     1
 75
     0
 76
     0
 77
     0
 78
     0
281
     0
 65
     0
110
0.0
120
0.0
130
0.0
111
1.0
121
0.0
131
0.0
112
0.0
122
1.0
132
0.0
345
0
346
0
 79
     0
146
0.0
  0
ENDTAB
  0
TABLE
  2
LTYPE
  5
4
100
AcDbSymbolTable
 70
     3
  0
LTYPE
  5
11
100
AcDbSymbolTableRecord
100
AcDbLinetypeTableRecord
  2
ByBlock
 70
    64
  3

 72
    65
 73
     0
 40
0.0
  0
LTYPE
  5
12
100
AcDbSymbolTableRecord
100
AcDbLinetypeTableRecord
  2
ByLayer
 70
    64
  3

 72
    65
 73
     0
 40
0.0
  0
LTYPE
  5
13
100
AcDbSymbolTableRecord
100
AcDbLinetypeTableRecord
  2
Continuous
 70
    64
  3
Solid line
 72
    65
 73
     0
 40
0.0
  0
ENDTAB
  0
TABLE
  2
LAYER
  5
2
100
AcDbSymbolTable
 70
     2
  0
LAYER
  5
14
100
AcDbSymbolTableRecord
100
AcDbLayerTableRecord
  2
0
 70
     0
 62
     7
  6
Continuous
290
     1
370
    -3
390
1D
  0
LAYER
  5
24
100
AcDbSymbolTableRecord
100
AcDbLayerTableRecord
  2
RÚteg 1
 70
     0
 62
     7
  6
Continuous
290
     1
370
    -3
390
1F
  0
ENDTAB
  0
TABLE
  2
STYLE
  5
3
100
AcDbSymbolTable
 70
     1
  0
STYLE
  5
17
100
AcDbSymbolTableRecord
100
AcDbTextStyleTableRecord
  2
Standard
 70
     0
 40
0.0
 41
1.0
 50
0.0
 71
     0
 42
0.0
  3
txt
  4

  0
ENDTAB
  0
TABLE
  2
VIEW
  5
5
100
AcDbSymbolTable
 70
     0
  0
ENDTAB
  0
TABLE
  2
UCS
  5
6
100
AcDbSymbolTable
 70
     0
  0
ENDTAB
  0
TABLE
  2
APPID
  5
8
100
AcDbSymbolTable
 70
     1
  0
APPID
  5
16
100
AcDbSymbolTableRecord
100
AcDbRegAppTableRecord
  2
ACAD
 70
     0
  0
ENDTAB
  0
TABLE
  2
DIMSTYLE
  5
9
100
AcDbSymbolTable
 70
     1
100
AcDbDimStyleTable
 71
     0
  0
DIMSTYLE
105
18
100
AcDbSymbolTableRecord
100
AcDbDimStyleTableRecord
  2
Standard
 70
     0
  3

  4

 40
1.0
 41
0.18
 42
0.0625
 43
0.38
 44
0.18
 45
0.0
 46
0.0
 47
0.0
 48
0.0
 71
     0
 72
     0
 73
     1
 74
     1
 75
     0
 76
     0
 77
     0
 78
     0
 79
     0
140
0.18
141
0.09
142
0.0
143
25.4
144
1.0
145
0.0
146
1.0
147
0.09
148
0.0
170
     0
171
     2
172
     0
173
     0
174
     0
175
     0
176
     0
177
     0
178
     0
179
     0
271
     4
272
     4
273
     2
274
     2
275
     0
276
     0
277
     2
278
    46
279
     0
280
     0
281
     0
282
     0
283
     1
284
     0
285
     0
286
     0
288
     0
340
17
341
0
342
0
343
0
344
0
371
    -2
372
    -2
  0
ENDTAB
  0
TABLE
  2
BLOCK_RECORD
  5
1
100
AcDbSymbolTable
 70
     0
  0
BLOCK_RECORD
  5
A
100
AcDbSymbolTableRecord
100
AcDbBlockTableRecord
  2
*MODEL_SPACE
340
20
  0
BLOCK_RECORD
  5
B
100
AcDbSymbolTableRecord
100
AcDbBlockTableRecord
  2
*PAPER_SPACE
340
21
  0
ENDTAB
  0
ENDSEC
  0
SECTION
  2
BLOCKS
  0
BLOCK
  5
D
100
AcDbEntity
  8
0
100
AcDbBlockBegin
  2
*MODEL_SPACE
 70
     0
 10
0.0
 20
0.0
 30
0.0
  3
*MODEL_SPACE
  1

  0
ENDBLK
  5
E
100
AcDbEntity
  8
0
100
AcDbBlockEnd
  0
BLOCK
  5
F
100
AcDbEntity
 67
     1
  8
0
100
AcDbBlockBegin
  2
*PAPER_SPACE
 70
     0
 10
0.0
 20
0.0
 30
0.0
  3
*PAPER_SPACE
  1

  0
ENDBLK
  5
10
100
AcDbEntity
 67
     1
  8
0
100
AcDbBlockEnd
  0
ENDSEC
  0
SECTION
  2
ENTITIES
  0
SPLINE
  5
25
100
AcDbEntity
  8
RÚteg 1
 62
     7
100
AcDbSpline
210
0.0
220
0.0
230
1.0
 70
     1
 71
     3
 72
    28
 73
    24
 74
     0
 42
0.0000000001
 43
0.0000000001
 40
0.0
 40
0.0
 40
0.0
 40
0.0
 40
0.1666666666666667
 40
0.1666666666666667
 40
0.1666666666666667
 40
0.1666666666666667
 40
0.3333333333333333
 40
0.3333333333333333
 40
0.3333333333333333
 40
0.3333333333333333
 40
0.5
 40
0.5
 40
0.5
 40
0.5
 40
0.6666666666666666
 40
0.6666666666666666
 40
0.6666666666666666
 40
0.6666666666666666
 40
0.8333333333333333
 40
0.8333333333333333
 40
0.8333333333333333
 40
0.8333333333333333
 40
1.0
 40
1.0
 40
1.0
 40
1.0
 10
-54.700000000000003
 20
87.700000000000003
 30
0.0
 10
-54.674999999999997
 20
87.700000000000003
 30
0.0
 10
-54.650300000000001
 20
87.699100000000001
 30
0.0
 10
-54.625500000000002
 20
87.698999999999998
 30
0.0
 10
-54.625500000000002
 20
87.698999999999998
 30
0.0
 10
-53.085099999999997
 20
87.738500000000002
 30
0.0
 10
-51.848100000000002
 20
89.000200000000007
 30
0.0
 10
-51.848100000000002
 20
90.5501
 30
0.0
 10
-51.848100000000002
 20
90.5501
 30
0.0
 10
-51.848100000000002
 20
92.124799999999993
 30
0.0
 10
-53.1252
 20
93.401899999999998
 30
0.0
 10
-54.700000000000003
 20
93.401899999999998
 30
0.0
 10
-54.700000000000003
 20
93.401899999999998
 30
0.0
 10
-56.274799999999999
 20
93.401899999999998
 30
0.0
 10
-57.551900000000003
 20
92.124799999999993
 30
0.0
 10
-57.551900000000003
 20
90.5501
 30
0.0
 10
-57.551900000000003
 20
90.5501
 30
0.0
 10
-57.551900000000003
 20
89.000200000000007
 30
0.0
 10
-56.314900000000002
 20
87.738500000000002
 30
0.0
 10
-54.774500000000003
 20
87.698999999999998
 30
0.0
 10
-54.774500000000003
 20
87.698999999999998
 30
0.0
 10
-54.749699999999997
 20
87.699100000000001
 30
0.0
 10
-54.725000000000001
 20
87.700000000000003
 30
0.0
 10
-54.700000000000003
 20
87.700000000000003
 30
0.0
  0
SPLINE
  5
26
100
AcDbEntity
  8
RÚteg 1
 62
     7
100
AcDbSpline
210
0.0
220
0.0
230
1.0
 70
     1
 71
     3
 72
   452
 73
   448
 74
     0
 42
0.0000000001
 43
0.0000000001
 40
0.0
 40
0.0
 40
0.0
 40
0.0
 40
0.0089285714285714
 40
0.0089285714285714
 40
0.0089285714285714
 40
0.0089285714285714
 40
0.0178571428571429
 40
0.0178571428571429
 40
0.0178571428571429
 40
0.0178571428571429
 40
0.0267857142857143
 40
0.0267857142857143
 40
0.0267857142857143
 40
0.0267857142857143
 40
0.0357142857142857
 40
0.0357142857142857
 40
0.0357142857142857
 40
0.0357142857142857
 40
0.0446428571428571
 40
0.0446428571428571
 40
0.0446428571428571
 40
0.0446428571428571
 40
0.0535714285714286
 40
0.0535714285714286
 40
0.0535714285714286
 40
0.0535714285714286
 40
0.0625
 40
0.0625
 40
0.0625
 40
0.0625
 40
0.0714285714285714
 40
0.0714285714285714
 40
0.0714285714285714
 40
0.0714285714285714
 40
0.0803571428571428
 40
0.0803571428571428
 40
0.0803571428571428
 40
0.0803571428571428
 40
0.0892857142857143
 40
0.0892857142857143
 40
0.0892857142857143
 40
0.0892857142857143
 40
0.0982142857142857
 40
0.0982142857142857
 40
0.0982142857142857
 40
0.0982142857142857
 40
0.1071428571428571
 40
0.1071428571428571
 40
0.1071428571428571
 40
0.1071428571428571
 40
0.1160714285714285
 40
0.1160714285714285
 40
0.1160714285714285
 40
0.1160714285714285
 40
0.125
 40
0.125
 40
0.125
 40
0.125
 40
0.1339285714285714
 40
0.1339285714285714
 40
0.1339285714285714
 40
0.1339285714285714
 40
0.1428571428571428
 40
0.1428571428571428
 40
0.1428571428571428
 40
0.1428571428571428
 40
0.1517857142857143
 40
0.1517857142857143
 40
0.1517857142857143
 40
0.1517857142857143
 40
0.1607142857142857
 40
0.1607142857142857
 40
0.1607142857142857
 40
0.1607142857142857
 40
0.1696428571428571
 40
0.1696428571428571
 40
0.1696428571428571
 40
0.1696428571428571
 40
0.1785714285714285
 40
0.1785714285714285
 40
0.1785714285714285
 40
0.1785714285714285
 40
0.1874999999999999
 40
0.1874999999999999
 40
0.1874999999999999
 40
0.1874999999999999
 40
0.1964285714285714
 40
0.1964285714285714
 40
0.1964285714285714
 40
0.1964285714285714
 40
0.2053571428571428
 40
0.2053571428571428
 40
0.2053571428571428
 40
0.2053571428571428
 40
0.2142857142857142
 40
0.2142857142857142
 40
0.2142857142857142
 40
0.2142857142857142
 40
0.2232142857142856
 40
0.2232142857142856
 40
0.2232142857142856
 40
0.2232142857142856
 40
0.2321428571428571
 40
0.2321428571428571
 40
0.2321428571428571
 40
0.2321428571428571
 40
0.2410714285714285
 40
0.2410714285714285
 40
0.2410714285714285
 40
0.2410714285714285
 40
0.2499999999999999
 40
0.2499999999999999
 40
0.2499999999999999
 40
0.2499999999999999
 40
0.2589285714285713
 40
0.2589285714285713
 40
0.2589285714285713
 40
0.2589285714285713
 40
0.2678571428571428
 40
0.2678571428571428
 40
0.2678571428571428
 40
0.2678571428571428
 40
0.2767857142857143
 40
0.2767857142857143
 40
0.2767857142857143
 40
0.2767857142857143
 40
0.2857142857142857
 40
0.2857142857142857
 40
0.2857142857142857
 40
0.2857142857142857
 40
0.2946428571428572
 40
0.2946428571428572
 40
0.2946428571428572
 40
0.2946428571428572
 40
0.3035714285714286
 40
0.3035714285714286
 40
0.3035714285714286
 40
0.3035714285714286
 40
0.3125000000000001
 40
0.3125000000000001
 40
0.3125000000000001
 40
0.3125000000000001
 40
0.3214285714285715
 40
0.3214285714285715
 40
0.3214285714285715
 40
0.3214285714285715
 40
0.330357142857143
 40
0.330357142857143
 40
0.330357142857143
 40
0.330357142857143
 40
0.3392857142857144
 40
0.3392857142857144
 40
0.3392857142857144
 40
0.3392857142857144
 40
0.3482142857142859
 40
0.3482142857142859
 40
0.3482142857142859
 40
0.3482142857142859
 40
0.3571428571428573
 40
0.3571428571428573
 40
0.3571428571428573
 40
0.3571428571428573
 40
0.3660714285714288
 40
0.3660714285714288
 40
0.3660714285714288
 40
0.3660714285714288
 40
0.3750000000000002
 40
0.3750000000000002
 40
0.3750000000000002
 40
0.3750000000000002
 40
0.3839285714285717
 40
0.3839285714285717
 40
0.3839285714285717
 40
0.3839285714285717
 40
0.3928571428571431
 40
0.3928571428571431
 40
0.3928571428571431
 40
0.3928571428571431
 40
0.4017857142857146
 40
0.4017857142857146
 40
0.4017857142857146
 40
0.4017857142857146
 40
0.410714285714286
 40
0.410714285714286
 40
0.410714285714286
 40
0.410714285714286
 40
0.4196428571428575
 40
0.4196428571428575
 40
0.4196428571428575
 40
0.4196428571428575
 40
0.4285714285714289
 40
0.4285714285714289
 40
0.4285714285714289
 40
0.4285714285714289
 40
0.4375000000000004
 40
0.4375000000000004
 40
0.4375000000000004
 40
0.4375000000000004
 40
0.4464285714285718
 40
0.4464285714285718
 40
0.4464285714285718
 40
0.4464285714285718
 40
0.4553571428571433
 40
0.4553571428571433
 40
0.4553571428571433
 40
0.4553571428571433
 40
0.4642857142857148
 40
0.4642857142857148
 40
0.4642857142857148
 40
0.4642857142857148
 40
0.4732142857142862
 40
0.4732142857142862
 40
0.4732142857142862
 40
0.4732142857142862
 40
0.4821428571428577
 40
0.4821428571428577
 40
0.4821428571428577
 40
0.4821428571428577
 40
0.4910714285714291
 40
0.4910714285714291
 40
0.4910714285714291
 40
0.4910714285714291
 40
0.5000000000000006
 40
0.5000000000000006
 40
0.5000000000000006
 40
0.5000000000000006
 40
0.508928571428572
 40
0.508928571428572
 40
0.508928571428572
 40
0.508928571428572
 40
0.5178571428571434
 40
0.5178571428571434
 40
0.5178571428571434
 40
0.5178571428571434
 40
0.5267857142857148
 40
0.5267857142857148
 40
0.5267857142857148
 40
0.5267857142857148
 40
0.5357142857142861
 40
0.5357142857142861
 40
0.5357142857142861
 40
0.5357142857142861
 40
0.5446428571428575
 40
0.5446428571428575
 40
0.5446428571428575
 40
0.5446428571428575
 40
0.5535714285714289
 40
0.5535714285714289
 40
0.5535714285714289
 40
0.5535714285714289
 40
0.5625000000000003
 40
0.5625000000000003
 40
0.5625000000000003
 40
0.5625000000000003
 40
0.5714285714285717
 40
0.5714285714285717
 40
0.5714285714285717
 40
0.5714285714285717
 40
0.5803571428571431
 40
0.5803571428571431
 40
0.5803571428571431
 40
0.5803571428571431
 40
0.5892857142857145
 40
0.5892857142857145
 40
0.5892857142857145
 40
0.5892857142857145
 40
0.5982142857142859
 40
0.5982142857142859
 40
0.5982142857142859
 40
0.5982142857142859
 40
0.6071428571428573
 40
0.6071428571428573
 40
0.6071428571428573
 40
0.6071428571428573
 40
0.6160714285714287
 40
0.6160714285714287
 40
0.6160714285714287
 40
0.6160714285714287
 40
0.6250000000000001
 40
0.6250000000000001
 40
0.6250000000000001
 40
0.6250000000000001
 40
0.6339285714285715
 40
0.6339285714285715
 40
0.6339285714285715
 40
0.6339285714285715
 40
0.6428571428571429
 40
0.6428571428571429
 40
0.6428571428571429
 40
0.6428571428571429
 40
0.6517857142857143
 40
0.6517857142857143
 40
0.6517857142857143
 40
0.6517857142857143
 40
0.6607142857142857
 40
0.6607142857142857
 40
0.6607142857142857
 40
0.6607142857142857
 40
0.6696428571428571
 40
0.6696428571428571
 40
0.6696428571428571
 40
0.6696428571428571
 40
0.6785714285714285
 40
0.6785714285714285
 40
0.6785714285714285
 40
0.6785714285714285
 40
0.6874999999999999
 40
0.6874999999999999
 40
0.6874999999999999
 40
0.6874999999999999
 40
0.6964285714285713
 40
0.6964285714285713
 40
0.6964285714285713
 40
0.6964285714285713
 40
0.7053571428571427
 40
0.7053571428571427
 40
0.7053571428571427
 40
0.7053571428571427
 40
0.7142857142857141
 40
0.7142857142857141
 40
0.7142857142857141
 40
0.7142857142857141
 40
0.7232142857142855
 40
0.7232142857142855
 40
0.7232142857142855
 40
0.7232142857142855
 40
0.7321428571428569
 40
0.7321428571428569
 40
0.7321428571428569
 40
0.7321428571428569
 40
0.7410714285714283
 40
0.7410714285714283
 40
0.7410714285714283
 40
0.7410714285714283
 40
0.7499999999999997
 40
0.7499999999999997
 40
0.7499999999999997
 40
0.7499999999999997
 40
0.7589285714285711
 40
0.7589285714285711
 40
0.7589285714285711
 40
0.7589285714285711
 40
0.7678571428571425
 40
0.7678571428571425
 40
0.7678571428571425
 40
0.7678571428571425
 40
0.7767857142857139
 40
0.7767857142857139
 40
0.7767857142857139
 40
0.7767857142857139
 40
0.7857142857142853
 40
0.7857142857142853
 40
0.7857142857142853
 40
0.7857142857142853
 40
0.7946428571428567
 40
0.7946428571428567
 40
0.7946428571428567
 40
0.7946428571428567
 40
0.8035714285714281
 40
0.8035714285714281
 40
0.8035714285714281
 40
0.8035714285714281
 40
0.8124999999999994
 40
0.8124999999999994
 40
0.8124999999999994
 40
0.8124999999999994
 40
0.8214285714285708
 40
0.8214285714285708
 40
0.8214285714285708
 40
0.8214285714285708
 40
0.8303571428571422
 40
0.8303571428571422
 40
0.8303571428571422
 40
0.8303571428571422
 40
0.8392857142857136
 40
0.8392857142857136
 40
0.8392857142857136
 40
0.8392857142857136
 40
0.848214285714285
 40
0.848214285714285
 40
0.848214285714285
 40
0.848214285714285
 40
0.8571428571428564
 40
0.8571428571428564
 40
0.8571428571428564
 40
0.8571428571428564
 40
0.8660714285714278
 40
0.8660714285714278
 40
0.8660714285714278
 40
0.8660714285714278
 40
0.8749999999999992
 40
0.8749999999999992
 40
0.8749999999999992
 40
0.8749999999999992
 40
0.8839285714285706
 40
0.8839285714285706
 40
0.8839285714285706
 40
0.8839285714285706
 40
0.892857142857142
 40
0.892857142857142
 40
0.892857142857142
 40
0.892857142857142
 40
0.9017857142857134
 40
0.9017857142857134
 40
0.9017857142857134
 40
0.9017857142857134
 40
0.9107142857142848
 40
0.9107142857142848
 40
0.9107142857142848
 40
0.9107142857142848
 40
0.9196428571428562
 40
0.9196428571428562
 40
0.9196428571428562
 40
0.9196428571428562
 40
0.9285714285714276
 40
0.9285714285714276
 40
0.9285714285714276
 40
0.9285714285714276
 40
0.937499999999999
 40
0.937499999999999
 40
0.937499999999999
 40
0.937499999999999
 40
0.9464285714285704
 40
0.9464285714285704
 40
0.9464285714285704
 40
0.9464285714285704
 40
0.9553571428571418
 40
0.9553571428571418
 40
0.9553571428571418
 40
0.9553571428571418
 40
0.9642857142857132
 40
0.9642857142857132
 40
0.9642857142857132
 40
0.9642857142857132
 40
0.9732142857142846
 40
0.9732142857142846
 40
0.9732142857142846
 40
0.9732142857142846
 40
0.982142857142856
 40
0.982142857142856
 40
0.982142857142856
 40
0.982142857142856
 40
0.9910714285714274
 40
0.9910714285714274
 40
0.9910714285714274
 40
0.9910714285714274
 40
1.0
 40
1.0
 40
1.0
 40
1.0
 10
-69.898099999999999
 20
54.3324
 30
0.0
 10
-68.642399999999995
 20
54.3324
 30
0.0
 10
-67.623999999999995
 20
53.606299999999997
 30
0.0
 10
-67.623999999999995
 20
52.711199999999998
 30
0.0
 10
-67.623999999999995
 20
52.711199999999998
 30
0.0
 10
-67.623999999999995
 20
52.2819
 30
0.0
 10
-67.858099999999993
 20
51.891800000000003
 30
0.0
 10
-68.240300000000005
 20
51.601799999999997
 30
0.0
 10
-68.240300000000005
 20
51.601799999999997
 30
0.0
 10
-68.240300000000005
 20
51.601799999999997
 30
0.0
 10
-65.868700000000004
 20
51.601799999999997
 30
0.0
 10
-65.868700000000004
 20
51.601799999999997
 30
0.0
 10
-65.868700000000004
 20
51.601799999999997
 30
0.0
 10
-65.868700000000004
 20
51.601799999999997
 30
0.0
 10
-65.868700000000004
 20
42.213000000000001
 30
0.0
 10
-65.868700000000004
 20
42.213000000000001
 30
0.0
 10
-65.868700000000004
 20
42.213000000000001
 30
0.0
 10
-65.868700000000004
 20
42.213000000000001
 30
0.0
 10
-64.134200000000007
 20
42.205199999999998
 30
0.0
 10
-64.134200000000007
 20
42.205199999999998
 30
0.0
 10
-64.134200000000007
 20
42.205199999999998
 30
0.0
 10
-64.155299999999997
 20
42.254800000000003
 30
0.0
 10
-64.180899999999994
 20
42.310299999999998
 30
0.0
 10
-64.212500000000006
 20
42.374000000000002
 30
0.0
 10
-64.212500000000006
 20
42.374000000000002
 30
0.0
 10
-64.212500000000006
 20
42.374000000000002
 30
0.0
 10
-62.737400000000001
 20
43.762099999999997
 30
0.0
 10
-62.737400000000001
 20
43.762099999999997
 30
0.0
 10
-62.737400000000001
 20
43.762099999999997
 30
0.0
 10
-62.737400000000001
 20
43.762099999999997
 30
0.0
 10
-60.5105
 20
43.9071
 30
0.0
 10
-60.5105
 20
43.9071
 30
0.0
 10
-60.5105
 20
43.9071
 30
0.0
 10
-60.356999999999999
 20
44.3309
 30
0.0
 10
-59.330500000000001
 20
46.301299999999998
 30
0.0
 10
-59.0593
 20
46.802300000000002
 30
0.0
 10
-59.0593
 20
46.802300000000002
 30
0.0
 10
-58.834200000000003
 20
47.2179
 30
0.0
 10
-57.963500000000003
 20
49.5259
 30
0.0
 10
-57.828499999999998
 20
50.029400000000003
 30
0.0
 10
-57.828499999999998
 20
50.029400000000003
 30
0.0
 10
-57.648099999999999
 20
50.702399999999997
 30
0.0
 10
-57.159799999999997
 20
50.767299999999999
 30
0.0
 10
-56.850099999999998
 20
51.279699999999998
 30
0.0
 10
-56.850099999999998
 20
51.279699999999998
 30
0.0
 10
-56.4636
 20
51.918700000000001
 30
0.0
 10
-56.5944
 20
52.296300000000002
 30
0.0
 10
-56.320500000000003
 20
52.978999999999999
 30
0.0
 10
-56.320500000000003
 20
52.978999999999999
 30
0.0
 10
-55.9499
 20
53.902700000000003
 30
0.0
 10
-55.499200000000002
 20
55.4163
 30
0.0
 10
-55.272500000000001
 20
56.389000000000003
 30
0.0
 10
-55.272500000000001
 20
56.389000000000003
 30
0.0
 10
-55.633600000000001
 20
56.579900000000002
 30
0.0
 10
-56.0929
 20
56.682600000000001
 30
0.0
 10
-56.411000000000001
 20
56.9223
 30
0.0
 10
-56.411000000000001
 20
56.9223
 30
0.0
 10
-56.840899999999998
 20
57.246099999999998
 30
0.0
 10
-56.801000000000002
 20
57.518099999999997
 30
0.0
 10
-57.278500000000001
 20
57.837800000000001
 30
0.0
 10
-57.278500000000001
 20
57.837800000000001
 30
0.0
 10
-57.984499999999997
 20
57.499200000000002
 30
0.0
 10
-58.466000000000001
 20
57.280500000000004
 30
0.0
 10
-59.284599999999998
 20
57.280500000000004
 30
0.0
 10
-59.284599999999998
 20
57.280500000000004
 30
0.0
 10
-59.284599999999998
 20
57.280500000000004
 30
0.0
 10
-59.6188
 20
57.280500000000004
 30
0.0
 10
-59.6188
 20
57.280500000000004
 30
0.0
 10
-59.6188
 20
57.280500000000004
 30
0.0
 10
-60.244
 20
57.280500000000004
 30
0.0
 10
-60.0747
 20
57.945999999999998
 30
0.0
 10
-60.064700000000002
 20
58.395000000000003
 30
0.0
 10
-60.064700000000002
 20
58.395000000000003
 30
0.0
 10
-60.421900000000001
 20
58.402900000000002
 30
0.0
 10
-60.621899999999997
 20
58.358600000000003
 30
0.0
 10
-60.621899999999997
 20
58.729300000000002
 30
0.0
 10
-60.621899999999997
 20
58.729300000000002
 30
0.0
 10
-60.621899999999997
 20
59.128300000000003
 30
0.0
 10
-60.484099999999998
 20
59.211500000000001
 30
0.0
 10
-60.286900000000003
 20
59.393799999999999
 30
0.0
 10
-60.286900000000003
 20
59.393799999999999
 30
0.0
 10
-60.286900000000003
 20
59.393799999999999
 30
0.0
 10
-61.2699
 20
59.294699999999999
 30
0.0
 10
-61.2699
 20
59.294699999999999
 30
0.0
 10
-61.2699
 20
59.294699999999999
 30
0.0
 10
-61.2699
 20
59.294699999999999
 30
0.0
 10
-61.430300000000003
 20
59.6449
 30
0.0
 10
-61.430300000000003
 20
59.6449
 30
0.0
 10
-61.430300000000003
 20
59.6449
 30
0.0
 10
-61.430300000000003
 20
59.6449
 30
0.0
 10
-61.067700000000002
 20
59.955199999999998
 30
0.0
 10
-61.067700000000002
 20
59.955199999999998
 30
0.0
 10
-61.067700000000002
 20
59.955199999999998
 30
0.0
 10
-61.413200000000003
 20
60.4268
 30
0.0
 10
-62.182299999999998
 20
60.168599999999998
 30
0.0
 10
-62.182299999999998
 20
60.735300000000002
 30
0.0
 10
-62.182299999999998
 20
60.735300000000002
 30
0.0
 10
-62.182299999999998
 20
60.735300000000002
 30
0.0
 10
-62.182299999999998
 20
60.958199999999998
 30
0.0
 10
-62.182299999999998
 20
60.958199999999998
 30
0.0
 10
-62.182299999999998
 20
60.958199999999998
 30
0.0
 10
-62.182299999999998
 20
61.366
 30
0.0
 10
-61.513500000000001
 20
61.6066
 30
0.0
 10
-61.513500000000001
 20
61.849800000000002
 30
0.0
 10
-61.513500000000001
 20
61.849800000000002
 30
0.0
 10
-61.513500000000001
 20
62.232399999999998
 30
0.0
 10
-62.070700000000002
 20
63.158200000000001
 30
0.0
 10
-62.070700000000002
 20
64.301500000000004
 30
0.0
 10
-62.070700000000002
 20
64.301500000000004
 30
0.0
 10
-62.381799999999998
 20
64.073599999999999
 30
0.0
 10
-62.293199999999999
 20
63.855899999999998
 30
0.0
 10
-62.850900000000003
 20
63.855899999999998
 30
0.0
 10
-62.850900000000003
 20
63.855899999999998
 30
0.0
 10
-63.207099999999997
 20
63.855899999999998
 30
0.0
 10
-63.337800000000001
 20
64.334299999999999
 30
0.0
 10
-63.388199999999998
 20
64.690299999999993
 30
0.0
 10
-63.388199999999998
 20
64.690299999999993
 30
0.0
 10
-63.388199999999998
 20
64.690299999999993
 30
0.0
 10
-62.627899999999997
 20
64.412999999999997
 30
0.0
 10
-62.627899999999997
 20
64.412999999999997
 30
0.0
 10
-62.627899999999997
 20
64.412999999999997
 30
0.0
 10
-62.551600000000001
 20
64.548900000000003
 30
0.0
 10
-62.516500000000001
 20
64.532300000000006
 30
0.0
 10
-62.516500000000001
 20
64.747500000000002
 30
0.0
 10
-62.516500000000001
 20
64.747500000000002
 30
0.0
 10
-62.516500000000001
 20
64.747500000000002
 30
0.0
 10
-62.592199999999998
 20
65.014300000000006
 30
0.0
 10
-62.592199999999998
 20
65.014300000000006
 30
0.0
 10
-62.592199999999998
 20
65.014300000000006
 30
0.0
 10
-62.592199999999998
 20
65.014300000000006
 30
0.0
 10
-63.073700000000002
 20
65.638800000000003
 30
0.0
 10
-63.073700000000002
 20
65.638800000000003
 30
0.0
 10
-63.073700000000002
 20
65.638800000000003
 30
0.0
 10
-62.914299999999997
 20
65.971299999999999
 30
0.0
 10
-63.008600000000001
 20
66.111199999999997
 30
0.0
 10
-62.686900000000001
 20
66.366500000000002
 30
0.0
 10
-62.686900000000001
 20
66.366500000000002
 30
0.0
 10
-62.334899999999998
 20
66.645899999999997
 30
0.0
 10
-62.235700000000001
 20
66.487499999999997
 30
0.0
 10
-61.960099999999997
 20
66.868899999999996
 30
0.0
 10
-61.960099999999997
 20
66.868899999999996
 30
0.0
 10
-61.960099999999997
 20
66.868899999999996
 30
0.0
 10
-62.510899999999999
 20
66.730699999999999
 30
0.0
 10
-62.510899999999999
 20
66.730699999999999
 30
0.0
 10
-62.510899999999999
 20
66.730699999999999
 30
0.0
 10
-62.510899999999999
 20
66.730699999999999
 30
0.0
 10
-62.603099999999998
 20
66.840199999999996
 30
0.0
 10
-62.603099999999998
 20
66.840199999999996
 30
0.0
 10
-62.603099999999998
 20
66.840199999999996
 30
0.0
 10
-62.603099999999998
 20
66.840199999999996
 30
0.0
 10
-62.157499999999999
 20
67.285799999999995
 30
0.0
 10
-62.157499999999999
 20
67.285799999999995
 30
0.0
 10
-62.157499999999999
 20
67.285799999999995
 30
0.0
 10
-62.157499999999999
 20
67.285799999999995
 30
0.0
 10
-62.070700000000002
 20
67.199100000000001
 30
0.0
 10
-62.070700000000002
 20
67.199100000000001
 30
0.0
 10
-62.070700000000002
 20
67.199100000000001
 30
0.0
 10
-62.070700000000002
 20
69.471500000000006
 30
0.0
 10
-60.801900000000003
 20
68.521699999999996
 30
0.0
 10
-59.800199999999997
 20
69.070899999999995
 30
0.0
 10
-59.800199999999997
 20
69.070899999999995
 30
0.0
 10
-59.800199999999997
 20
69.070899999999995
 30
0.0
 10
-60.5105
 20
69.316599999999994
 30
0.0
 10
-60.5105
 20
69.316599999999994
 30
0.0
 10
-60.5105
 20
69.316599999999994
 30
0.0
 10
-60.5105
 20
69.316599999999994
 30
0.0
 10
-60.460999999999999
 20
69.489999999999995
 30
0.0
 10
-60.460999999999999
 20
69.489999999999995
 30
0.0
 10
-60.460999999999999
 20
69.489999999999995
 30
0.0
 10
-60.460999999999999
 20
69.489999999999995
 30
0.0
 10
-60.064700000000002
 20
69.985299999999995
 30
0.0
 10
-60.064700000000002
 20
69.985299999999995
 30
0.0
 10
-60.064700000000002
 20
69.985299999999995
 30
0.0
 10
-60.064700000000002
 20
69.985299999999995
 30
0.0
 10
-59.333199999999998
 20
69.927999999999997
 30
0.0
 10
-59.333199999999998
 20
69.927999999999997
 30
0.0
 10
-59.333199999999998
 20
69.927999999999997
 30
0.0
 10
-59.333199999999998
 20
69.927999999999997
 30
0.0
 10
-58.9572
 20
69.669700000000006
 30
0.0
 10
-58.9572
 20
69.669700000000006
 30
0.0
 10
-58.9572
 20
69.669700000000006
 30
0.0
 10
-58.9572
 20
69.669700000000006
 30
0.0
 10
-57.526600000000002
 20
70.212999999999994
 30
0.0
 10
-57.526600000000002
 20
70.212999999999994
 30
0.0
 10
-57.526600000000002
 20
70.212999999999994
 30
0.0
 10
-57.526600000000002
 20
70.212999999999994
 30
0.0
 10
-57.481900000000003
 20
70.827500000000001
 30
0.0
 10
-57.481900000000003
 20
70.827500000000001
 30
0.0
 10
-57.481900000000003
 20
70.827500000000001
 30
0.0
 10
-57.481900000000003
 20
70.827500000000001
 30
0.0
 10
-57.724299999999999
 20
70.319599999999994
 30
0.0
 10
-57.724299999999999
 20
70.319599999999994
 30
0.0
 10
-57.724299999999999
 20
70.319599999999994
 30
0.0
 10
-58.504600000000003
 20
70.384600000000006
 30
0.0
 10
-57.9621
 20
70.750399999999999
 30
0.0
 10
-57.842700000000001
 20
71.115399999999994
 30
0.0
 10
-57.842700000000001
 20
71.115399999999994
 30
0.0
 10
-57.842700000000001
 20
71.115399999999994
 30
0.0
 10
-58.487699999999997
 20
70.882499999999993
 30
0.0
 10
-58.487699999999997
 20
70.882499999999993
 30
0.0
 10
-58.487699999999997
 20
70.882499999999993
 30
0.0
 10
-58.487699999999997
 20
70.882499999999993
 30
0.0
 10
-58.615900000000003
 20
71.099800000000002
 30
0.0
 10
-58.615900000000003
 20
71.099800000000002
 30
0.0
 10
-58.615900000000003
 20
71.099800000000002
 30
0.0
 10
-58.410899999999998
 20
71.405799999999999
 30
0.0
 10
-57.790799999999997
 20
71.768500000000003
 30
0.0
 10
-57.390099999999997
 20
71.768500000000003
 30
0.0
 10
-57.390099999999997
 20
71.768500000000003
 30
0.0
 10
-57.1355
 20
71.768500000000003
 30
0.0
 10
-56.747100000000003
 20
71.414900000000003
 30
0.0
 10
-56.350200000000001
 20
71.247900000000001
 30
0.0
 10
-56.350200000000001
 20
71.247900000000001
 30
0.0
 10
-55.565399999999997
 20
70.918099999999995
 30
0.0
 10
-56.063200000000002
 20
70.636600000000001
 30
0.0
 10
-55.4955
 20
70.431200000000004
 30
0.0
 10
-55.4955
 20
70.431200000000004
 30
0.0
 10
-55.4955
 20
70.431200000000004
 30
0.0
 10
-55.4955
 20
69.650999999999996
 30
0.0
 10
-55.4955
 20
69.650999999999996
 30
0.0
 10
-55.4955
 20
69.650999999999996
 30
0.0
 10
-55.4955
 20
69.650999999999996
 30
0.0
 10
-55.161200000000001
 20
69.650999999999996
 30
0.0
 10
-55.161200000000001
 20
69.650999999999996
 30
0.0
 10
-55.161200000000001
 20
69.650999999999996
 30
0.0
 10
-54.590699999999998
 20
69.650999999999996
 30
0.0
 10
-54.164700000000003
 20
69.424700000000001
 30
0.0
 10
-54.046599999999998
 20
68.982299999999995
 30
0.0
 10
-54.046599999999998
 20
68.982299999999995
 30
0.0
 10
-54.046599999999998
 20
68.982299999999995
 30
0.0
 10
-53.495600000000003
 20
68.980000000000004
 30
0.0
 10
-53.495600000000003
 20
68.980000000000004
 30
0.0
 10
-53.495600000000003
 20
68.980000000000004
 30
0.0
 10
-53.495600000000003
 20
68.980000000000004
 30
0.0
 10
-53.600900000000003
 20
69.316599999999994
 30
0.0
 10
-53.600900000000003
 20
69.316599999999994
 30
0.0
 10
-53.600900000000003
 20
69.316599999999994
 30
0.0
 10
-52.967700000000001
 20
69.369299999999996
 30
0.0
 10
-52.597900000000003
 20
69.431399999999996
 30
0.0
 10
-52.597900000000003
 20
68.536500000000004
 30
0.0
 10
-52.597900000000003
 20
68.536500000000004
 30
0.0
 10
-52.597900000000003
 20
68.462100000000007
 30
0.0
 10
-52.948900000000002
 20
68.120900000000006
 30
0.0
 10
-53.038200000000003
 20
67.952500000000001
 30
0.0
 10
-53.038200000000003
 20
67.952500000000001
 30
0.0
 10
-53.038200000000003
 20
67.952500000000001
 30
0.0
 10
-52.375
 20
68.090699999999998
 30
0.0
 10
-52.375
 20
68.090699999999998
 30
0.0
 10
-52.375
 20
68.090699999999998
 30
0.0
 10
-51.660200000000003
 20
67.612099999999998
 30
0.0
 10
-51.929200000000002
 20
67.217200000000005
 30
0.0
 10
-51.934399999999997
 20
66.327200000000005
 30
0.0
 10
-51.934399999999997
 20
66.327200000000005
 30
0.0
 10
-51.934399999999997
 20
66.327200000000005
 30
0.0
 10
-51.504399999999997
 20
66.411100000000005
 30
0.0
 10
-51.504399999999997
 20
66.411100000000005
 30
0.0
 10
-51.504399999999997
 20
66.411100000000005
 30
0.0
 10
-51.504399999999997
 20
66.411100000000005
 30
0.0
 10
-51.343699999999998
 20
66.060699999999997
 30
0.0
 10
-51.343699999999998
 20
66.060699999999997
 30
0.0
 10
-51.343699999999998
 20
66.060699999999997
 30
0.0
 10
-51.343699999999998
 20
66.060699999999997
 30
0.0
 10
-51.706299999999999
 20
65.750399999999999
 30
0.0
 10
-51.706299999999999
 20
65.750399999999999
 30
0.0
 10
-51.706299999999999
 20
65.750399999999999
 30
0.0
 10
-51.560200000000002
 20
65.203000000000003
 30
0.0
 10
-51.234299999999998
 20
65.543000000000006
 30
0.0
 10
-51.2027
 20
64.608199999999997
 30
0.0
 10
-51.2027
 20
64.608199999999997
 30
0.0
 10
-51.179099999999998
 20
63.908999999999999
 30
0.0
 10
-51.295900000000003
 20
64.022900000000007
 30
0.0
 10
-51.741900000000001
 20
63.379300000000001
 30
0.0
 10
-51.741900000000001
 20
63.379300000000001
 30
0.0
 10
-51.741900000000001
 20
63.379300000000001
 30
0.0
 10
-51.2605
 20
62.964199999999998
 30
0.0
 10
-51.2605
 20
62.964199999999998
 30
0.0
 10
-51.2605
 20
62.964199999999998
 30
0.0
 10
-51.326500000000003
 20
62.680999999999997
 30
0.0
 10
-51.3536
 20
62.406999999999996
 30
0.0
 10
-51.706299999999999
 20
62.406999999999996
 30
0.0
 10
-51.706299999999999
 20
62.406999999999996
 30
0.0
 10
-51.706299999999999
 20
62.406999999999996
 30
0.0
 10
-52.184399999999997
 20
62.383600000000001
 30
0.0
 10
-52.184399999999997
 20
62.383600000000001
 30
0.0
 10
-52.184399999999997
 20
62.383600000000001
 30
0.0
 10
-52.184399999999997
 20
62.383600000000001
 30
0.0
 10
-51.929200000000002
 20
61.961300000000001
 30
0.0
 10
-51.929200000000002
 20
61.961300000000001
 30
0.0
 10
-51.929200000000002
 20
61.961300000000001
 30
0.0
 10
-51.654200000000003
 20
61.984200000000001
 30
0.0
 10
-51.372
 20
62.135899999999999
 30
0.0
 10
-51.372
 20
61.849800000000002
 30
0.0
 10
-51.372
 20
61.849800000000002
 30
0.0
 10
-51.372
 20
61.599899999999998
 30
0.0
 10
-51.4602
 20
61.605200000000004
 30
0.0
 10
-51.594799999999999
 20
61.404000000000003
 30
0.0
 10
-51.594799999999999
 20
61.404000000000003
 30
0.0
 10
-52.009900000000002
 20
61.404000000000003
 30
0.0
 10
-52.597900000000003
 20
61.5886
 30
0.0
 10
-52.597900000000003
 20
61.292499999999997
 30
0.0
 10
-52.597900000000003
 20
61.292499999999997
 30
0.0
 10
-52.597900000000003
 20
61.042700000000004
 30
0.0
 10
-52.509599999999999
 20
61.048000000000002
 30
0.0
 10
-52.378599999999999
 20
60.788800000000002
 30
0.0
 10
-52.378599999999999
 20
60.788800000000002
 30
0.0
 10
-52.378599999999999
 20
60.788800000000002
 30
0.0
 10
-52.828699999999998
 20
60.839399999999998
 30
0.0
 10
-52.828699999999998
 20
60.839399999999998
 30
0.0
 10
-52.828699999999998
 20
60.839399999999998
 30
0.0
 10
-52.828699999999998
 20
60.839399999999998
 30
0.0
 10
-52.828699999999998
 20
60.810499999999998
 30
0.0
 10
-52.828699999999998
 20
60.810499999999998
 30
0.0
 10
-52.828699999999998
 20
60.810499999999998
 30
0.0
 10
-52.828699999999998
 20
60.810499999999998
 30
0.0
 10
-52.898899999999998
 20
60.810499999999998
 30
0.0
 10
-52.898899999999998
 20
60.810499999999998
 30
0.0
 10
-52.898899999999998
 20
60.810499999999998
 30
0.0
 10
-52.898899999999998
 20
60.810499999999998
 30
0.0
 10
-52.931100000000001
 20
60.517800000000001
 30
0.0
 10
-52.931100000000001
 20
60.517800000000001
 30
0.0
 10
-52.931100000000001
 20
60.517800000000001
 30
0.0
 10
-52.931100000000001
 20
60.517800000000001
 30
0.0
 10
-53.580100000000002
 20
60.6158
 30
0.0
 10
-53.580100000000002
 20
60.6158
 30
0.0
 10
-53.580100000000002
 20
60.6158
 30
0.0
 10
-53.580100000000002
 20
60.6158
 30
0.0
 10
-53.712299999999999
 20
60.2896
 30
0.0
 10
-53.712299999999999
 20
60.2896
 30
0.0
 10
-53.712299999999999
 20
60.2896
 30
0.0
 10
-52.8919
 20
59.895899999999997
 30
0.0
 10
-52.3611
 20
60.5124
 30
0.0
 10
-52.040700000000001
 20
60.5124
 30
0.0
 10
-52.040700000000001
 20
60.5124
 30
0.0
 10
-51.701500000000003
 20
60.5124
 30
0.0
 10
-51.0426
 20
60.107700000000001
 30
0.0
 10
-50.814599999999999
 20
59.955199999999998
 30
0.0
 10
-50.814599999999999
 20
59.955199999999998
 30
0.0
 10
-49.9435
 20
59.955199999999998
 30
0.0
 10
-47.469999999999999
 20
59.183700000000002
 30
0.0
 10
-47.137
 20
58.729300000000002
 30
0.0
 10
-47.137
 20
58.729300000000002
 30
0.0
 10
-47.000999999999998
 20
58.805599999999998
 30
0.0
 10
-47.017800000000001
 20
58.840699999999998
 30
0.0
 10
-46.802799999999998
 20
58.840699999999998
 30
0.0
 10
-46.802799999999998
 20
58.840699999999998
 30
0.0
 10
-46.802799999999998
 20
58.840699999999998
 30
0.0
 10
-46.579799999999999
 20
58.840699999999998
 30
0.0
 10
-46.579799999999999
 20
58.840699999999998
 30
0.0
 10
-46.579799999999999
 20
58.840699999999998
 30
0.0
 10
-44.5122
 20
58.840699999999998
 30
0.0
 10
-40.310299999999998
 20
56.999899999999997
 30
0.0
 10
-38.687899999999999
 20
56.033799999999999
 30
0.0
 10
-38.687899999999999
 20
56.033799999999999
 30
0.0
 10
-37.643799999999999
 20
55.412199999999999
 30
0.0
 10
-36.485900000000001
 20
54.405200000000001
 30
0.0
 10
-35.884099999999997
 20
53.376899999999999
 30
0.0
 10
-35.884099999999997
 20
53.376899999999999
 30
0.0
 10
-35.538200000000003
 20
52.785899999999998
 30
0.0
 10
-35.337699999999998
 20
52.225999999999999
 30
0.0
 10
-34.849299999999999
 20
51.736899999999999
 30
0.0
 10
-34.849299999999999
 20
51.736899999999999
 30
0.0
 10
-34.629300000000001
 20
51.5167
 30
0.0
 10
-33.763599999999997
 20
50.326999999999998
 30
0.0
 10
-33.763599999999997
 20
50.036499999999997
 30
0.0
 10
-33.763599999999997
 20
50.036499999999997
 30
0.0
 10
-33.763599999999997
 20
49.759099999999997
 30
0.0
 10
-34.3232
 20
49.122199999999999
 30
0.0
 10
-34.655099999999997
 20
49.0336
 30
0.0
 10
-34.655099999999997
 20
49.0336
 30
0.0
 10
-34.441099999999999
 20
48.587299999999999
 30
0.0
 10
-34.738100000000003
 20
47.9679
 30
0.0
 10
-35.323700000000002
 20
47.9191
 30
0.0
 10
-35.323700000000002
 20
47.9191
 30
0.0
 10
-35.323700000000002
 20
47.9191
 30
0.0
 10
-35.323700000000002
 20
47.584800000000001
 30
0.0
 10
-35.323700000000002
 20
47.584800000000001
 30
0.0
 10
-35.323700000000002
 20
47.584800000000001
 30
0.0
 10
-34.854399999999998
 20
47.623800000000003
 30
0.0
 10
-34.732799999999997
 20
47.807600000000001
 30
0.0
 10
-34.320900000000002
 20
47.807600000000001
 30
0.0
 10
-34.320900000000002
 20
47.807600000000001
 30
0.0
 10
-33.894799999999996
 20
47.807600000000001
 30
0.0
 10
-33.652099999999997
 20
47.477600000000002
 30
0.0
 10
-33.652099999999997
 20
47.0276
 30
0.0
 10
-33.652099999999997
 20
47.0276
 30
0.0
 10
-33.652099999999997
 20
47.0276
 30
0.0
 10
-33.650399999999998
 20
46.451300000000003
 30
0.0
 10
-33.650399999999998
 20
46.451300000000003
 30
0.0
 10
-33.650399999999998
 20
46.451300000000003
 30
0.0
 10
-33.650399999999998
 20
46.451300000000003
 30
0.0
 10
-31.980599999999999
 20
46.579799999999999
 30
0.0
 10
-31.980599999999999
 20
46.579799999999999
 30
0.0
 10
-31.980599999999999
 20
46.579799999999999
 30
0.0
 10
-31.980599999999999
 20
46.579799999999999
 30
0.0
 10
-30.420300000000001
 20
46.470300000000002
 30
0.0
 10
-30.420300000000001
 20
46.470300000000002
 30
0.0
 10
-30.420300000000001
 20
46.470300000000002
 30
0.0
 10
-29.773299999999999
 20
46.427100000000003
 30
0.0
 10
-29.670999999999999
 20
46.581800000000001
 30
0.0
 10
-29.069400000000002
 20
46.5657
 30
0.0
 10
-29.069400000000002
 20
46.5657
 30
0.0
 10
-29.069400000000002
 20
46.5657
 30
0.0
 10
-28.748899999999999
 20
46.8367
 30
0.0
 10
-28.748899999999999
 20
46.8367
 30
0.0
 10
-28.748899999999999
 20
46.8367
 30
0.0
 10
-28.748899999999999
 20
46.8367
 30
0.0
 10
-26.519600000000001
 20
46.804699999999997
 30
0.0
 10
-26.519600000000001
 20
46.804699999999997
 30
0.0
 10
-26.519600000000001
 20
46.804699999999997
 30
0.0
 10
-26.4574
 20
46.711799999999997
 30
0.0
 10
-26.399999999999999
 20
46.5961
 30
0.0
 10
-26.346
 20
46.464199999999998
 30
0.0
 10
-26.346
 20
46.464199999999998
 30
0.0
 10
-25.6311
 20
49.003799999999998
 30
0.0
 10
-25.248200000000001
 20
51.682099999999998
 30
0.0
 10
-25.248200000000001
 20
54.450000000000003
 30
0.0
 10
-25.248200000000001
 20
54.450000000000003
 30
0.0
 10
-25.248200000000001
 20
70.712999999999994
 30
0.0
 10
-38.436999999999998
 20
83.901799999999994
 30
0.0
 10
-54.700000000000003
 20
83.901799999999994
 30
0.0
 10
-54.700000000000003
 20
83.901799999999994
 30
0.0
 10
-70.962999999999994
 20
83.901799999999994
 30
0.0
 10
-84.151799999999994
 20
70.712999999999994
 30
0.0
 10
-84.151799999999994
 20
54.450000000000003
 30
0.0
 10
-84.151799999999994
 20
54.450000000000003
 30
0.0
 10
-84.151799999999994
 20
50.111499999999999
 30
0.0
 10
-83.212500000000006
 20
45.9925
 30
0.0
 10
-81.527299999999997
 20
42.2836
 30
0.0
 10
-81.527299999999997
 20
42.2836
 30
0.0
 10
-81.527299999999997
 20
42.2836
 30
0.0
 10
-80.494799999999998
 20
42.2789
 30
0.0
 10
-80.494799999999998
 20
42.2789
 30
0.0
 10
-80.494799999999998
 20
42.2789
 30
0.0
 10
-80.494799999999998
 20
42.2789
 30
0.0
 10
-80.494799999999998
 20
51.601799999999997
 30
0.0
 10
-80.494799999999998
 20
51.601799999999997
 30
0.0
 10
-80.494799999999998
 20
51.601799999999997
 30
0.0
 10
-80.494799999999998
 20
51.601799999999997
 30
0.0
 10
-71.555700000000002
 20
51.601799999999997
 30
0.0
 10
-71.555700000000002
 20
51.601799999999997
 30
0.0
 10
-71.555700000000002
 20
51.601799999999997
 30
0.0
 10
-71.937799999999996
 20
51.891800000000003
 30
0.0
 10
-72.172200000000004
 20
52.2819
 30
0.0
 10
-72.172200000000004
 20
52.711199999999998
 30
0.0
 10
-72.172200000000004
 20
52.711199999999998
 30
0.0
 10
-72.172200000000004
 20
53.606299999999997
 30
0.0
 10
-71.153899999999993
 20
54.3324
 30
0.0
 10
-69.898099999999999
 20
54.3324
 30
0.0
  0
SPLINE
  5
27
100
AcDbEntity
  8
RÚteg 1
 62
     7
100
AcDbSpline
210
0.0
220
0.0
230
1.0
 70
     1
 71
     3
 72
    52
 73
    48
 74
     0
 42
0.0000000001
 43
0.0000000001
 40
0.0
 40
0.0
 40
0.0
 40
0.0
 40
0.0833333333333333
 40
0.0833333333333333
 40
0.0833333333333333
 40
0.0833333333333333
 40
0.1666666666666667
 40
0.1666666666666667
 40
0.1666666666666667
 40
0.1666666666666667
 40
0.25
 40
0.25
 40
0.25
 40
0.25
 40
0.3333333333333333
 40
0.3333333333333333
 40
0.3333333333333333
 40
0.3333333333333333
 40
0.4166666666666666
 40
0.4166666666666666
 40
0.4166666666666666
 40
0.4166666666666666
 40
0.4999999999999999
 40
0.4999999999999999
 40
0.4999999999999999
 40
0.4999999999999999
 40
0.5833333333333333
 40
0.5833333333333333
 40
0.5833333333333333
 40
0.5833333333333333
 40
0.6666666666666666
 40
0.6666666666666666
 40
0.6666666666666666
 40
0.6666666666666666
 40
0.75
 40
0.75
 40
0.75
 40
0.75
 40
0.8333333333333334
 40
0.8333333333333334
 40
0.8333333333333334
 40
0.8333333333333334
 40
0.9166666666666667
 40
0.9166666666666667
 40
0.9166666666666667
 40
0.9166666666666667
 40
1.0
 40
1.0
 40
1.0
 40
1.0
 10
-78.971999999999994
 20
49.063600000000001
 30
0.0
 10
-78.971999999999994
 20
49.063600000000001
 30
0.0
 10
-71.001400000000004
 20
49.063600000000001
 30
0.0
 10
-71.001400000000004
 20
49.063600000000001
 30
0.0
 10
-71.001400000000004
 20
49.063600000000001
 30
0.0
 10
-71.001400000000004
 20
49.063600000000001
 30
0.0
 10
-71.001400000000004
 20
50.819899999999997
 30
0.0
 10
-71.001400000000004
 20
50.819899999999997
 30
0.0
 10
-71.001400000000004
 20
50.819899999999997
 30
0.0
 10
-71.001400000000004
 20
50.819899999999997
 30
0.0
 10
-68.974999999999994
 20
50.819899999999997
 30
0.0
 10
-68.974999999999994
 20
50.819899999999997
 30
0.0
 10
-68.974999999999994
 20
50.819899999999997
 30
0.0
 10
-68.974999999999994
 20
50.819899999999997
 30
0.0
 10
-68.974999999999994
 20
49.063600000000001
 30
0.0
 10
-68.974999999999994
 20
49.063600000000001
 30
0.0
 10
-68.974999999999994
 20
49.063600000000001
 30
0.0
 10
-68.974999999999994
 20
49.063600000000001
 30
0.0
 10
-67.218800000000002
 20
49.063600000000001
 30
0.0
 10
-67.218800000000002
 20
49.063600000000001
 30
0.0
 10
-67.218800000000002
 20
49.063600000000001
 30
0.0
 10
-67.218800000000002
 20
49.063600000000001
 30
0.0
 10
-67.218800000000002
 20
47.217199999999998
 30
0.0
 10
-67.218800000000002
 20
47.217199999999998
 30
0.0
 10
-67.218800000000002
 20
47.217199999999998
 30
0.0
 10
-67.218800000000002
 20
47.217199999999998
 30
0.0
 10
-68.974999999999994
 20
47.217199999999998
 30
0.0
 10
-68.974999999999994
 20
47.217199999999998
 30
0.0
 10
-68.974999999999994
 20
47.217199999999998
 30
0.0
 10
-68.974999999999994
 20
47.217199999999998
 30
0.0
 10
-68.974999999999994
 20
42.173699999999997
 30
0.0
 10
-68.974999999999994
 20
42.173699999999997
 30
0.0
 10
-68.974999999999994
 20
42.173699999999997
 30
0.0
 10
-68.974999999999994
 20
42.173699999999997
 30
0.0
 10
-71.001400000000004
 20
42.173699999999997
 30
0.0
 10
-71.001400000000004
 20
42.173699999999997
 30
0.0
 10
-71.001400000000004
 20
42.173699999999997
 30
0.0
 10
-71.001400000000004
 20
42.173699999999997
 30
0.0
 10
-71.001400000000004
 20
47.217199999999998
 30
0.0
 10
-71.001400000000004
 20
47.217199999999998
 30
0.0
 10
-71.001400000000004
 20
47.217199999999998
 30
0.0
 10
-71.001400000000004
 20
47.217199999999998
 30
0.0
 10
-78.971999999999994
 20
47.217199999999998
 30
0.0
 10
-78.971999999999994
 20
47.217199999999998
 30
0.0
 10
-78.971999999999994
 20
47.217199999999998
 30
0.0
 10
-78.971999999999994
 20
47.217199999999998
 30
0.0
 10
-78.971999999999994
 20
49.063600000000001
 30
0.0
 10
-78.971999999999994
 20
49.063600000000001
 30
0.0
  0
SPLINE
  5
28
100
AcDbEntity
  8
RÚteg 1
 62
     7
100
AcDbSpline
210
0.0
220
0.0
230
1.0
 70
     1
 71
     3
 72
    32
 73
    28
 74
     0
 42
0.0000000001
 43
0.0000000001
 40
0.0
 40
0.0
 40
0.0
 40
0.0
 40
0.1428571428571429
 40
0.1428571428571429
 40
0.1428571428571429
 40
0.1428571428571429
 40
0.2857142857142857
 40
0.2857142857142857
 40
0.2857142857142857
 40
0.2857142857142857
 40
0.4285714285714286
 40
0.4285714285714286
 40
0.4285714285714286
 40
0.4285714285714286
 40
0.5714285714285714
 40
0.5714285714285714
 40
0.5714285714285714
 40
0.5714285714285714
 40
0.7142857142857142
 40
0.7142857142857142
 40
0.7142857142857142
 40
0.7142857142857142
 40
0.857142857142857
 40
0.857142857142857
 40
0.857142857142857
 40
0.857142857142857
 40
1.0
 40
1.0
 40
1.0
 40
1.0
 10
-27.6295
 20
42.838299999999997
 30
0.0
 10
-27.8931
 20
43.144799999999996
 30
0.0
 10
-28.243200000000002
 20
43.461300000000001
 30
0.0
 10
-28.414200000000001
 20
43.461300000000001
 30
0.0
 10
-28.414200000000001
 20
43.461300000000001
 30
0.0
 10
-28.414200000000001
 20
43.461300000000001
 30
0.0
 10
-28.8599
 20
43.461300000000001
 30
0.0
 10
-28.8599
 20
43.461300000000001
 30
0.0
 10
-28.8599
 20
43.461300000000001
 30
0.0
 10
-28.898499999999999
 20
43.461300000000001
 30
0.0
 10
-31.2148
 20
42.765500000000003
 30
0.0
 10
-31.344200000000001
 20
42.713500000000003
 30
0.0
 10
-31.344200000000001
 20
42.713500000000003
 30
0.0
 10
-32.2149
 20
42.364100000000001
 30
0.0
 10
-33.412599999999998
 20
42.4071
 30
0.0
 10
-34.3093
 20
42.112299999999998
 30
0.0
 10
-34.3093
 20
42.112299999999998
 30
0.0
 10
-34.351100000000002
 20
42.098500000000001
 30
0.0
 10
-34.392099999999999
 20
42.085000000000001
 30
0.0
 10
-34.4313
 20
42.071399999999997
 30
0.0
 10
-34.4313
 20
42.071399999999997
 30
0.0
 10
-34.4313
 20
42.071399999999997
 30
0.0
 10
-27.985299999999999
 20
42.042400000000001
 30
0.0
 10
-27.985299999999999
 20
42.042400000000001
 30
0.0
 10
-27.985299999999999
 20
42.042400000000001
 30
0.0
 10
-27.8628
 20
42.305500000000002
 30
0.0
 10
-27.744499999999999
 20
42.571100000000001
 30
0.0
 10
-27.6295
 20
42.838299999999997
 30
0.0
  0
SPLINE
  5
29
100
AcDbEntity
  8
RÚteg 1
 62
     7
100
AcDbSpline
210
0.0
220
0.0
230
1.0
 70
     1
 71
     3
 72
    24
 73
    20
 74
     0
 42
0.0000000001
 43
0.0000000001
 40
0.0
 40
0.0
 40
0.0
 40
0.0
 40
0.2
 40
0.2
 40
0.2
 40
0.2
 40
0.4
 40
0.4
 40
0.4
 40
0.4
 40
0.6000000000000001
 40
0.6000000000000001
 40
0.6000000000000001
 40
0.6000000000000001
 40
0.8
 40
0.8
 40
0.8
 40
0.8
 40
1.0
 40
1.0
 40
1.0
 40
1.0
 10
-37.022599999999997
 20
42.083199999999998
 30
0.0
 10
-37.616100000000003
 20
42.457599999999999
 30
0.0
 10
-38.886600000000001
 20
43.461300000000001
 30
0.0
 10
-38.890099999999997
 20
43.461300000000001
 30
0.0
 10
-38.890099999999997
 20
43.461300000000001
 30
0.0
 10
-38.897500000000001
 20
43.461300000000001
 30
0.0
 10
-40.551400000000001
 20
42.864400000000003
 30
0.0
 10
-40.983400000000003
 20
42.7684
 30
0.0
 10
-40.983400000000003
 20
42.7684
 30
0.0
 10
-41.7166
 20
42.605699999999999
 30
0.0
 10
-42.385899999999999
 20
42.430999999999997
 30
0.0
 10
-43.280500000000004
 20
42.279499999999999
 30
0.0
 10
-43.280500000000004
 20
42.279499999999999
 30
0.0
 10
-43.659599999999998
 20
42.215400000000002
 30
0.0
 10
-44.002899999999997
 20
42.158299999999997
 30
0.0
 10
-44.316699999999997
 20
42.115900000000003
 30
0.0
 10
-44.316699999999997
 20
42.115900000000003
 30
0.0
 10
-44.316699999999997
 20
42.115900000000003
 30
0.0
 10
-37.022599999999997
 20
42.083199999999998
 30
0.0
 10
-37.022599999999997
 20
42.083199999999998
 30
0.0
  0
SPLINE
  5
2A
100
AcDbEntity
  8
RÚteg 1
 62
     7
100
AcDbSpline
210
0.0
220
0.0
230
1.0
 70
     1
 71
     3
 72
    56
 73
    52
 74
     0
 42
0.0000000001
 43
0.0000000001
 40
0.0
 40
0.0
 40
0.0
 40
0.0
 40
0.0769230769230769
 40
0.0769230769230769
 40
0.0769230769230769
 40
0.0769230769230769
 40
0.1538461538461539
 40
0.1538461538461539
 40
0.1538461538461539
 40
0.1538461538461539
 40
0.2307692307692308
 40
0.2307692307692308
 40
0.2307692307692308
 40
0.2307692307692308
 40
0.3076923076923077
 40
0.3076923076923077
 40
0.3076923076923077
 40
0.3076923076923077
 40
0.3846153846153846
 40
0.3846153846153846
 40
0.3846153846153846
 40
0.3846153846153846
 40
0.4615384615384616
 40
0.4615384615384616
 40
0.4615384615384616
 40
0.4615384615384616
 40
0.5384615384615386
 40
0.5384615384615386
 40
0.5384615384615386
 40
0.5384615384615386
 40
0.6153846153846154
 40
0.6153846153846154
 40
0.6153846153846154
 40
0.6153846153846154
 40
0.6923076923076923
 40
0.6923076923076923
 40
0.6923076923076923
 40
0.6923076923076923
 40
0.7692307692307692
 40
0.7692307692307692
 40
0.7692307692307692
 40
0.7692307692307692
 40
0.846153846153846
 40
0.846153846153846
 40
0.846153846153846
 40
0.846153846153846
 40
0.9230769230769229
 40
0.9230769230769229
 40
0.9230769230769229
 40
0.9230769230769229
 40
1.0
 40
1.0
 40
1.0
 40
1.0
 10
-45.957299999999996
 20
42.1233
 30
0.0
 10
-46.491199999999999
 20
42.261800000000001
 30
0.0
 10
-46.927999999999997
 20
42.593299999999999
 30
0.0
 10
-47.359999999999999
 20
43.238399999999999
 30
0.0
 10
-47.359999999999999
 20
43.238399999999999
 30
0.0
 10
-47.359999999999999
 20
43.238399999999999
 30
0.0
 10
-47.3855
 20
43.982900000000001
 30
0.0
 10
-47.3855
 20
43.982900000000001
 30
0.0
 10
-47.3855
 20
43.982900000000001
 30
0.0
 10
-47.3855
 20
43.982900000000001
 30
0.0
 10
-47.917099999999998
 20
44.464300000000001
 30
0.0
 10
-47.917099999999998
 20
44.464300000000001
 30
0.0
 10
-47.917099999999998
 20
44.464300000000001
 30
0.0
 10
-47.269399999999997
 20
45.431699999999999
 30
0.0
 10
-47.532400000000003
 20
46.296199999999999
 30
0.0
 10
-46.895200000000003
 20
47.601900000000001
 30
0.0
 10
-46.895200000000003
 20
47.601900000000001
 30
0.0
 10
-46.895200000000003
 20
47.601900000000001
 30
0.0
 10
-47.277200000000001
 20
48.051299999999998
 30
0.0
 10
-47.277200000000001
 20
48.051299999999998
 30
0.0
 10
-47.277200000000001
 20
48.051299999999998
 30
0.0
 10
-47.277200000000001
 20
48.051299999999998
 30
0.0
 10
-46.767600000000002
 20
48.7545
 30
0.0
 10
-46.767600000000002
 20
48.7545
 30
0.0
 10
-46.767600000000002
 20
48.7545
 30
0.0
 10
-46.767600000000002
 20
48.7545
 30
0.0
 10
-46.639699999999998
 20
48.756999999999998
 30
0.0
 10
-46.639699999999998
 20
48.756999999999998
 30
0.0
 10
-46.639699999999998
 20
48.756999999999998
 30
0.0
 10
-46.639699999999998
 20
48.756999999999998
 30
0.0
 10
-48.808700000000002
 20
50.705300000000001
 30
0.0
 10
-48.808700000000002
 20
50.705300000000001
 30
0.0
 10
-48.808700000000002
 20
50.705300000000001
 30
0.0
 10
-48.793999999999997
 20
50.042299999999997
 30
0.0
 10
-48.363
 20
49.875799999999998
 30
0.0
 10
-48.363
 20
49.256599999999999
 30
0.0
 10
-48.363
 20
49.256599999999999
 30
0.0
 10
-48.363
 20
49.256599999999999
 30
0.0
 10
-48.363
 20
48.365000000000002
 30
0.0
 10
-48.363
 20
48.365000000000002
 30
0.0
 10
-48.363
 20
48.365000000000002
 30
0.0
 10
-48.363
 20
47.022599999999997
 30
0.0
 10
-48.540500000000002
 20
45.735599999999998
 30
0.0
 10
-48.722000000000001
 20
44.488999999999997
 30
0.0
 10
-48.722000000000001
 20
44.488999999999997
 30
0.0
 10
-48.948500000000003
 20
42.934100000000001
 30
0.0
 10
-49.0852
 20
42.6691
 30
0.0
 10
-50.0334
 20
42.1417
 30
0.0
 10
-50.0334
 20
42.1417
 30
0.0
 10
-50.0334
 20
42.1417
 30
0.0
 10
-45.957299999999996
 20
42.1233
 30
0.0
 10
-45.957299999999996
 20
42.1233
 30
0.0
  0
SPLINE
  5
2B
100
AcDbEntity
  8
RÚteg 1
 62
     7
100
AcDbSpline
210
0.0
220
0.0
230
1.0
 70
     1
 71
     3
 72
    20
 73
    16
 74
     0
 42
0.0000000001
 43
0.0000000001
 40
0.0
 40
0.0
 40
0.0
 40
0.0
 40
0.25
 40
0.25
 40
0.25
 40
0.25
 40
0.5
 40
0.5
 40
0.5
 40
0.5
 40
0.75
 40
0.75
 40
0.75
 40
0.75
 40
1.0
 40
1.0
 40
1.0
 40
1.0
 10
-52.2074
 20
42.151499999999999
 30
0.0
 10
-52.2074
 20
42.151499999999999
 30
0.0
 10
-52.152099999999997
 20
42.346899999999998
 30
0.0
 10
-52.152099999999997
 20
42.346899999999998
 30
0.0
 10
-52.152099999999997
 20
42.346899999999998
 30
0.0
 10
-52.451000000000001
 20
42.418399999999998
 30
0.0
 10
-52.362099999999998
 20
42.458199999999998
 30
0.0
 10
-52.597900000000003
 20
42.458199999999998
 30
0.0
 10
-52.597900000000003
 20
42.458199999999998
 30
0.0
 10
-53.080800000000004
 20
42.458199999999998
 30
0.0
 10
-53.127699999999997
 20
42.240400000000001
 30
0.0
 10
-53.319800000000001
 20
42.156500000000001
 30
0.0
 10
-53.319800000000001
 20
42.156500000000001
 30
0.0
 10
-53.319800000000001
 20
42.156500000000001
 30
0.0
 10
-52.2074
 20
42.151499999999999
 30
0.0
 10
-52.2074
 20
42.151499999999999
 30
0.0
  0
SPLINE
  5
2C
100
AcDbEntity
  8
RÚteg 1
 62
     7
100
AcDbSpline
210
0.0
220
0.0
230
1.0
 70
     1
 71
     3
 72
    52
 73
    48
 74
     0
 42
0.0000000001
 43
0.0000000001
 40
0.0
 40
0.0
 40
0.0
 40
0.0
 40
0.0833333333333333
 40
0.0833333333333333
 40
0.0833333333333333
 40
0.0833333333333333
 40
0.1666666666666667
 40
0.1666666666666667
 40
0.1666666666666667
 40
0.1666666666666667
 40
0.25
 40
0.25
 40
0.25
 40
0.25
 40
0.3333333333333333
 40
0.3333333333333333
 40
0.3333333333333333
 40
0.3333333333333333
 40
0.4166666666666666
 40
0.4166666666666666
 40
0.4166666666666666
 40
0.4166666666666666
 40
0.4999999999999999
 40
0.4999999999999999
 40
0.4999999999999999
 40
0.4999999999999999
 40
0.5833333333333333
 40
0.5833333333333333
 40
0.5833333333333333
 40
0.5833333333333333
 40
0.6666666666666666
 40
0.6666666666666666
 40
0.6666666666666666
 40
0.6666666666666666
 40
0.75
 40
0.75
 40
0.75
 40
0.75
 40
0.8333333333333334
 40
0.8333333333333334
 40
0.8333333333333334
 40
0.8333333333333334
 40
0.9166666666666667
 40
0.9166666666666667
 40
0.9166666666666667
 40
0.9166666666666667
 40
1.0
 40
1.0
 40
1.0
 40
1.0
 10
-54.232599999999998
 20
42.160499999999999
 30
0.0
 10
-54.862200000000001
 20
42.3596
 30
0.0
 10
-53.807299999999998
 20
43.314399999999999
 30
0.0
 10
-53.471499999999999
 20
43.554600000000001
 30
0.0
 10
-53.471499999999999
 20
43.554600000000001
 30
0.0
 10
-52.679299999999998
 20
44.121299999999998
 30
0.0
 10
-52.351799999999997
 20
43.626899999999999
 30
0.0
 10
-51.149099999999997
 20
43.9071
 30
0.0
 10
-51.149099999999997
 20
43.9071
 30
0.0
 10
-50.692900000000002
 20
45.8645
 30
0.0
 10
-51.343800000000002
 20
46.704500000000003
 30
0.0
 10
-51.332500000000003
 20
48.254100000000001
 30
0.0
 10
-51.332500000000003
 20
48.254100000000001
 30
0.0
 10
-51.332500000000003
 20
48.254100000000001
 30
0.0
 10
-51.349600000000002
 20
50.838999999999999
 30
0.0
 10
-51.349600000000002
 20
50.838999999999999
 30
0.0
 10
-51.349600000000002
 20
50.838999999999999
 30
0.0
 10
-51.349600000000002
 20
50.838999999999999
 30
0.0
 10
-51.594799999999999
 20
51.0396
 30
0.0
 10
-51.594799999999999
 20
51.0396
 30
0.0
 10
-51.594799999999999
 20
51.0396
 30
0.0
 10
-50.958500000000001
 20
52.365600000000001
 30
0.0
 10
-53.057000000000002
 20
52.038200000000003
 30
0.0
 10
-53.155099999999997
 20
52.934199999999997
 30
0.0
 10
-53.155099999999997
 20
52.934199999999997
 30
0.0
 10
-53.155099999999997
 20
52.934199999999997
 30
0.0
 10
-53.377899999999997
 20
52.934199999999997
 30
0.0
 10
-53.377899999999997
 20
52.934199999999997
 30
0.0
 10
-53.377899999999997
 20
52.934199999999997
 30
0.0
 10
-53.567
 20
52.123399999999997
 30
0.0
 10
-54.336100000000002
 20
50.344000000000001
 30
0.0
 10
-54.716299999999997
 20
49.703099999999999
 30
0.0
 10
-54.716299999999997
 20
49.703099999999999
 30
0.0
 10
-54.981999999999999
 20
49.254199999999997
 30
0.0
 10
-55.129399999999997
 20
48.585299999999997
 30
0.0
 10
-55.272100000000002
 20
48.030099999999997
 30
0.0
 10
-55.272100000000002
 20
48.030099999999997
 30
0.0
 10
-55.437199999999997
 20
47.388199999999998
 30
0.0
 10
-55.754100000000001
 20
46.984000000000002
 30
0.0
 10
-56.055999999999997
 20
46.473700000000001
 30
0.0
 10
-56.055999999999997
 20
46.473700000000001
 30
0.0
 10
-56.535299999999999
 20
45.663499999999999
 30
0.0
 10
-57.755400000000002
 20
43.07
 30
0.0
 10
-59.149299999999997
 20
42.1828
 30
0.0
 10
-59.149299999999997
 20
42.1828
 30
0.0
 10
-59.149299999999997
 20
42.1828
 30
0.0
 10
-54.232599999999998
 20
42.160499999999999
 30
0.0
 10
-54.232599999999998
 20
42.160499999999999
 30
0.0
  0
SPLINE
  5
2D
100
AcDbEntity
  8
RÚteg 1
 62
     7
100
AcDbSpline
210
0.0
220
0.0
230
1.0
 70
     1
 71
     3
 72
    36
 73
    32
 74
     0
 42
0.0000000001
 43
0.0000000001
 40
0.0
 40
0.0
 40
0.0
 40
0.0
 40
0.125
 40
0.125
 40
0.125
 40
0.125
 40
0.25
 40
0.25
 40
0.25
 40
0.25
 40
0.375
 40
0.375
 40
0.375
 40
0.375
 40
0.5
 40
0.5
 40
0.5
 40
0.5
 40
0.625
 40
0.625
 40
0.625
 40
0.625
 40
0.75
 40
0.75
 40
0.75
 40
0.75
 40
0.875
 40
0.875
 40
0.875
 40
0.875
 40
1.0
 40
1.0
 40
1.0
 40
1.0
 10
-51.058799999999998
 20
87.500600000000006
 30
0.0
 10
-34.411099999999998
 20
85.686099999999996
 30
0.0
 10
-21.449999999999999
 20
71.579599999999999
 30
0.0
 10
-21.449999999999999
 20
54.450000000000003
 30
0.0
 10
-21.449999999999999
 20
54.450000000000003
 30
0.0
 10
-21.449999999999999
 20
36.089599999999997
 30
0.0
 10
-36.339599999999997
 20
21.199999999999999
 30
0.0
 10
-54.700000000000003
 20
21.199999999999999
 30
0.0
 10
-54.700000000000003
 20
21.199999999999999
 30
0.0
 10
-73.060400000000001
 20
21.199999999999999
 30
0.0
 10
-87.950000000000003
 20
36.089599999999997
 30
0.0
 10
-87.950000000000003
 20
54.450000000000003
 30
0.0
 10
-87.950000000000003
 20
54.450000000000003
 30
0.0
 10
-87.950000000000003
 20
71.579599999999999
 30
0.0
 10
-74.988900000000001
 20
85.686099999999996
 30
0.0
 10
-58.341200000000001
 20
87.500600000000006
 30
0.0
 10
-58.341200000000001
 20
87.500600000000006
 30
0.0
 10
-59.033099999999997
 20
88.325900000000004
 30
0.0
 10
-59.4499
 20
89.389200000000002
 30
0.0
 10
-59.4499
 20
90.5501
 30
0.0
 10
-59.4499
 20
90.5501
 30
0.0
 10
-59.4499
 20
93.172899999999998
 30
0.0
 10
-57.322899999999997
 20
95.299999999999997
 30
0.0
 10
-54.700000000000003
 20
95.299999999999997
 30
0.0
 10
-54.700000000000003
 20
95.299999999999997
 30
0.0
 10
-52.077100000000002
 20
95.299999999999997
 30
0.0
 10
-49.950099999999999
 20
93.172899999999998
 30
0.0
 10
-49.950099999999999
 20
90.5501
 30
0.0
 10
-49.950099999999999
 20
90.5501
 30
0.0
 10
-49.950099999999999
 20
89.389200000000002
 30
0.0
 10
-50.366900000000001
 20
88.325900000000004
 30
0.0
 10
-51.058799999999998
 20
87.500600000000006
 30
0.0
  0
SPLINE
  5
2E
100
AcDbEntity
  8
RÚteg 1
 62
     7
100
AcDbSpline
210
0.0
220
0.0
230
1.0
 70
     1
 71
     3
 72
    28
 73
    24
 74
     0
 42
0.0000000001
 43
0.0000000001
 40
0.0
 40
0.0
 40
0.0
 40
0.0
 40
0.1666666666666667
 40
0.1666666666666667
 40
0.1666666666666667
 40
0.1666666666666667
 40
0.3333333333333333
 40
0.3333333333333333
 40
0.3333333333333333
 40
0.3333333333333333
 40
0.5
 40
0.5
 40
0.5
 40
0.5
 40
0.6666666666666666
 40
0.6666666666666666
 40
0.6666666666666666
 40
0.6666666666666666
 40
0.8333333333333333
 40
0.8333333333333333
 40
0.8333333333333333
 40
0.8333333333333333
 40
1.0
 40
1.0
 40
1.0
 40
1.0
 10
18.800000000000001
 20
87.700000000000003
 30
0.0
 10
18.824999999999999
 20
87.700000000000003
 30
0.0
 10
18.849699999999999
 20
87.699100000000001
 30
0.0
 10
18.874500000000001
 20
87.699100000000001
 30
0.0
 10
18.874500000000001
 20
87.699100000000001
 30
0.0
 10
20.414899999999999
 20
87.738600000000005
 30
0.0
 10
21.651900000000001
 20
89.000200000000007
 30
0.0
 10
21.651900000000001
 20
90.549999999999997
 30
0.0
 10
21.651900000000001
 20
90.549999999999997
 30
0.0
 10
21.651900000000001
 20
92.124799999999993
 30
0.0
 10
20.3748
 20
93.401899999999998
 30
0.0
 10
18.800000000000001
 20
93.401899999999998
 30
0.0
 10
18.800000000000001
 20
93.401899999999998
 30
0.0
 10
17.225200000000001
 20
93.401899999999998
 30
0.0
 10
15.9481
 20
92.124799999999993
 30
0.0
 10
15.9481
 20
90.549999999999997
 30
0.0
 10
15.9481
 20
90.549999999999997
 30
0.0
 10
15.9481
 20
89.000200000000007
 30
0.0
 10
17.185099999999998
 20
87.738600000000005
 30
0.0
 10
18.7255
 20
87.699100000000001
 30
0.0
 10
18.7255
 20
87.699100000000001
 30
0.0
 10
18.750299999999999
 20
87.699100000000001
 30
0.0
 10
18.774999999999999
 20
87.700000000000003
 30
0.0
 10
18.800000000000001
 20
87.700000000000003
 30
0.0
  0
SPLINE
  5
2F
100
AcDbEntity
  8
RÚteg 1
 62
     7
100
AcDbSpline
210
0.0
220
0.0
230
1.0
 70
     1
 71
     3
 72
    72
 73
    68
 74
     0
 42
0.0000000001
 43
0.0000000001
 40
0.0
 40
0.0
 40
0.0
 40
0.0
 40
0.0588235294117647
 40
0.0588235294117647
 40
0.0588235294117647
 40
0.0588235294117647
 40
0.1176470588235294
 40
0.1176470588235294
 40
0.1176470588235294
 40
0.1176470588235294
 40
0.1764705882352941
 40
0.1764705882352941
 40
0.1764705882352941
 40
0.1764705882352941
 40
0.2352941176470588
 40
0.2352941176470588
 40
0.2352941176470588
 40
0.2352941176470588
 40
0.2941176470588235
 40
0.2941176470588235
 40
0.2941176470588235
 40
0.2941176470588235
 40
0.3529411764705883
 40
0.3529411764705883
 40
0.3529411764705883
 40
0.3529411764705883
 40
0.411764705882353
 40
0.411764705882353
 40
0.411764705882353
 40
0.411764705882353
 40
0.4705882352941177
 40
0.4705882352941177
 40
0.4705882352941177
 40
0.4705882352941177
 40
0.5294117647058824
 40
0.5294117647058824
 40
0.5294117647058824
 40
0.5294117647058824
 40
0.5882352941176471
 40
0.5882352941176471
 40
0.5882352941176471
 40
0.5882352941176471
 40
0.6470588235294118
 40
0.6470588235294118
 40
0.6470588235294118
 40
0.6470588235294118
 40
0.7058823529411765
 40
0.7058823529411765
 40
0.7058823529411765
 40
0.7058823529411765
 40
0.7647058823529412
 40
0.7647058823529412
 40
0.7647058823529412
 40
0.7647058823529412
 40
0.823529411764706
 40
0.823529411764706
 40
0.823529411764706
 40
0.823529411764706
 40
0.8823529411764707
 40
0.8823529411764707
 40
0.8823529411764707
 40
0.8823529411764707
 40
0.9411764705882354
 40
0.9411764705882354
 40
0.9411764705882354
 40
0.9411764705882354
 40
1.0
 40
1.0
 40
1.0
 40
1.0
 10
24.448699999999999
 20
58.184600000000003
 30
0.0
 10
24.1096
 20
58.184600000000003
 30
0.0
 10
24.675599999999999
 20
59.377800000000001
 30
0.0
 10
24.7729
 20
59.5471
 30
0.0
 10
24.7729
 20
59.5471
 30
0.0
 10
24.962700000000002
 20
59.877000000000002
 30
0.0
 10
25.613600000000002
 20
60.111600000000003
 30
0.0
 10
26.000900000000001
 20
60.308900000000001
 30
0.0
 10
26.000900000000001
 20
60.308900000000001
 30
0.0
 10
26.9114
 20
60.773099999999999
 30
0.0
 10
27.557099999999998
 20
61.3249
 30
0.0
 10
28.3172
 20
61.894399999999997
 30
0.0
 10
28.3172
 20
61.894399999999997
 30
0.0
 10
29.067
 20
62.4559
 30
0.0
 10
29.649699999999999
 20
63.146500000000003
 30
0.0
 10
30.3095
 20
63.811199999999999
 30
0.0
 10
30.3095
 20
63.811199999999999
 30
0.0
 10
30.765499999999999
 20
64.270499999999998
 30
0.0
 10
31.6876
 20
65.605500000000006
 30
0.0
 10
32.421700000000001
 20
65.605500000000006
 30
0.0
 10
32.421700000000001
 20
65.605500000000006
 30
0.0
 10
32.421700000000001
 20
65.605500000000006
 30
0.0
 10
32.579599999999999
 20
65.605500000000006
 30
0.0
 10
32.579599999999999
 20
65.605500000000006
 30
0.0
 10
32.579599999999999
 20
65.605500000000006
 30
0.0
 10
33.065300000000001
 20
65.605500000000006
 30
0.0
 10
33.520600000000002
 20
65.271799999999999
 30
0.0
 10
33.686
 20
64.961299999999994
 30
0.0
 10
33.686
 20
64.961299999999994
 30
0.0
 10
33.914499999999997
 20
64.532799999999995
 30
0.0
 10
34.131100000000004
 20
64.188199999999995
 30
0.0
 10
34.316299999999998
 20
63.830800000000004
 30
0.0
 10
34.316299999999998
 20
63.830800000000004
 30
0.0
 10
34.047600000000003
 20
63.421100000000003
 30
0.0
 10
33.414400000000001
 20
63.151600000000002
 30
0.0
 10
33.051499999999997
 20
62.864699999999999
 30
0.0
 10
33.051499999999997
 20
62.864699999999999
 30
0.0
 10
32.526000000000003
 20
62.448999999999998
 30
0.0
 10
32.7742
 20
61.767600000000002
 30
0.0
 10
32.816299999999998
 20
61.249699999999997
 30
0.0
 10
32.816299999999998
 20
61.249699999999997
 30
0.0
 10
32.232300000000002
 20
60.933799999999998
 30
0.0
 10
31.038499999999999
 20
59.636499999999998
 30
0.0
 10
30.369199999999999
 20
59.636499999999998
 30
0.0
 10
30.369199999999999
 20
59.636499999999998
 30
0.0
 10
30.369199999999999
 20
59.636499999999998
 30
0.0
 10
30.290400000000002
 20
59.636499999999998
 30
0.0
 10
30.290400000000002
 20
59.636499999999998
 30
0.0
 10
30.290400000000002
 20
59.636499999999998
 30
0.0
 10
29.9998
 20
59.636499999999998
 30
0.0
 10
30.106999999999999
 20
59.878500000000003
 30
0.0
 10
29.816700000000001
 20
59.878500000000003
 30
0.0
 10
29.816700000000001
 20
59.878500000000003
 30
0.0
 10
29.816700000000001
 20
59.878500000000003
 30
0.0
 10
29.264099999999999
 20
59.878500000000003
 30
0.0
 10
29.264099999999999
 20
59.878500000000003
 30
0.0
 10
29.264099999999999
 20
59.878500000000003
 30
0.0
 10
29.1068
 20
59.480600000000003
 30
0.0
 10
28.338999999999999
 20
59.722099999999998
 30
0.0
 10
27.888000000000002
 20
59.590600000000002
 30
0.0
 10
27.888000000000002
 20
59.590600000000002
 30
0.0
 10
27.4999
 20
59.477499999999999
 30
0.0
 10
27.1751
 20
59.261600000000001
 30
0.0
 10
26.784300000000002
 20
59.1051
 30
0.0
 10
26.784300000000002
 20
59.1051
 30
0.0
 10
26.344899999999999
 20
58.929400000000001
 30
0.0
 10
24.827000000000002
 20
58.184600000000003
 30
0.0
 10
24.448699999999999
 20
58.184600000000003
 30
0.0
  0
SPLINE
  5
30
100
AcDbEntity
  8
RÚteg 1
 62
     7
100
AcDbSpline
210
0.0
220
0.0
230
1.0
 70
     1
 71
     3
 72
   152
 73
   148
 74
     0
 42
0.0000000001
 43
0.0000000001
 40
0.0
 40
0.0
 40
0.0
 40
0.0
 40
0.027027027027027
 40
0.027027027027027
 40
0.027027027027027
 40
0.027027027027027
 40
0.0540540540540541
 40
0.0540540540540541
 40
0.0540540540540541
 40
0.0540540540540541
 40
0.0810810810810811
 40
0.0810810810810811
 40
0.0810810810810811
 40
0.0810810810810811
 40
0.1081081081081081
 40
0.1081081081081081
 40
0.1081081081081081
 40
0.1081081081081081
 40
0.1351351351351351
 40
0.1351351351351351
 40
0.1351351351351351
 40
0.1351351351351351
 40
0.1621621621621622
 40
0.1621621621621622
 40
0.1621621621621622
 40
0.1621621621621622
 40
0.1891891891891892
 40
0.1891891891891892
 40
0.1891891891891892
 40
0.1891891891891892
 40
0.2162162162162162
 40
0.2162162162162162
 40
0.2162162162162162
 40
0.2162162162162162
 40
0.2432432432432433
 40
0.2432432432432433
 40
0.2432432432432433
 40
0.2432432432432433
 40
0.2702702702702703
 40
0.2702702702702703
 40
0.2702702702702703
 40
0.2702702702702703
 40
0.2972972972972973
 40
0.2972972972972973
 40
0.2972972972972973
 40
0.2972972972972973
 40
0.3243243243243243
 40
0.3243243243243243
 40
0.3243243243243243
 40
0.3243243243243243
 40
0.3513513513513514
 40
0.3513513513513514
 40
0.3513513513513514
 40
0.3513513513513514
 40
0.3783783783783784
 40
0.3783783783783784
 40
0.3783783783783784
 40
0.3783783783783784
 40
0.4054054054054054
 40
0.4054054054054054
 40
0.4054054054054054
 40
0.4054054054054054
 40
0.4324324324324325
 40
0.4324324324324325
 40
0.4324324324324325
 40
0.4324324324324325
 40
0.4594594594594595
 40
0.4594594594594595
 40
0.4594594594594595
 40
0.4594594594594595
 40
0.4864864864864865
 40
0.4864864864864865
 40
0.4864864864864865
 40
0.4864864864864865
 40
0.5135135135135136
 40
0.5135135135135136
 40
0.5135135135135136
 40
0.5135135135135136
 40
0.5405405405405406
 40
0.5405405405405406
 40
0.5405405405405406
 40
0.5405405405405406
 40
0.5675675675675675
 40
0.5675675675675675
 40
0.5675675675675675
 40
0.5675675675675675
 40
0.5945945945945945
 40
0.5945945945945945
 40
0.5945945945945945
 40
0.5945945945945945
 40
0.6216216216216215
 40
0.6216216216216215
 40
0.6216216216216215
 40
0.6216216216216215
 40
0.6486486486486485
 40
0.6486486486486485
 40
0.6486486486486485
 40
0.6486486486486485
 40
0.6756756756756754
 40
0.6756756756756754
 40
0.6756756756756754
 40
0.6756756756756754
 40
0.7027027027027024
 40
0.7027027027027024
 40
0.7027027027027024
 40
0.7027027027027024
 40
0.7297297297297294
 40
0.7297297297297294
 40
0.7297297297297294
 40
0.7297297297297294
 40
0.7567567567567564
 40
0.7567567567567564
 40
0.7567567567567564
 40
0.7567567567567564
 40
0.7837837837837833
 40
0.7837837837837833
 40
0.7837837837837833
 40
0.7837837837837833
 40
0.8108108108108103
 40
0.8108108108108103
 40
0.8108108108108103
 40
0.8108108108108103
 40
0.8378378378378373
 40
0.8378378378378373
 40
0.8378378378378373
 40
0.8378378378378373
 40
0.8648648648648643
 40
0.8648648648648643
 40
0.8648648648648643
 40
0.8648648648648643
 40
0.8918918918918912
 40
0.8918918918918912
 40
0.8918918918918912
 40
0.8918918918918912
 40
0.9189189189189182
 40
0.9189189189189182
 40
0.9189189189189182
 40
0.9189189189189182
 40
0.9459459459459452
 40
0.9459459459459452
 40
0.9459459459459452
 40
0.9459459459459452
 40
0.9729729729729721
 40
0.9729729729729721
 40
0.9729729729729721
 40
0.9729729729729721
 40
1.0
 40
1.0
 40
1.0
 40
1.0
 10
12.894399999999999
 20
83.308999999999997
 30
0.0
 10
12.722200000000001
 20
83.117599999999996
 30
0.0
 10
12.560600000000001
 20
82.883399999999995
 30
0.0
 10
12.4076
 20
82.587199999999996
 30
0.0
 10
12.4076
 20
82.587199999999996
 30
0.0
 10
12.270099999999999
 20
82.320899999999995
 30
0.0
 10
12.170299999999999
 20
81.9833
 30
0.0
 10
12.025399999999999
 20
81.767899999999997
 30
0.0
 10
12.025399999999999
 20
81.767899999999997
 30
0.0
 10
11.8741
 20
81.543000000000006
 30
0.0
 10
11.642799999999999
 20
81.3262
 30
0.0
 10
11.5022
 20
81.092200000000005
 30
0.0
 10
11.5022
 20
81.092200000000005
 30
0.0
 10
11.1241
 20
80.463099999999997
 30
0.0
 10
11.293699999999999
 20
79.526499999999999
 30
0.0
 10
10.8706
 20
79.236999999999995
 30
0.0
 10
10.8706
 20
79.236999999999995
 30
0.0
 10
10.8706
 20
77.620999999999995
 30
0.0
 10
10.1106
 20
76.638900000000007
 30
0.0
 10
11.121600000000001
 20
75.057000000000002
 30
0.0
 10
11.121600000000001
 20
75.057000000000002
 30
0.0
 10
11.347899999999999
 20
74.703199999999995
 30
0.0
 10
11.4704
 20
74.656199999999998
 30
0.0
 10
11.7362
 20
74.394300000000001
 30
0.0
 10
11.7362
 20
74.394300000000001
 30
0.0
 10
12.0236
 20
74.111400000000003
 30
0.0
 10
11.8264
 20
74.079700000000003
 30
0.0
 10
12.315
 20
73.6952
 30
0.0
 10
12.315
 20
73.6952
 30
0.0
 10
12.951599999999999
 20
73.194500000000005
 30
0.0
 10
12.4961
 20
72.732299999999995
 30
0.0
 10
13.633699999999999
 20
72.461500000000001
 30
0.0
 10
13.633699999999999
 20
72.461500000000001
 30
0.0
 10
13.679399999999999
 20
71.900899999999993
 30
0.0
 10
14.103899999999999
 20
72.109800000000007
 30
0.0
 10
14.389200000000001
 20
71.942899999999995
 30
0.0
 10
14.389200000000001
 20
71.942899999999995
 30
0.0
 10
14.488300000000001
 20
71.885000000000005
 30
0.0
 10
14.75
 20
71.221400000000003
 30
0.0
 10
14.8178
 20
71.090199999999996
 30
0.0
 10
14.8178
 20
71.090199999999996
 30
0.0
 10
14.5418
 20
69.879900000000006
 30
0.0
 10
14.526300000000001
 20
70.014300000000006
 30
0.0
 10
13.986599999999999
 20
68.955200000000005
 30
0.0
 10
13.986599999999999
 20
68.955200000000005
 30
0.0
 10
13.6517
 20
68.297899999999998
 30
0.0
 10
13.194000000000001
 20
67.555800000000005
 30
0.0
 10
12.967700000000001
 20
66.850499999999997
 30
0.0
 10
12.967700000000001
 20
66.850499999999997
 30
0.0
 10
12.831300000000001
 20
66.424899999999994
 30
0.0
 10
12.723100000000001
 20
66.145499999999998
 30
0.0
 10
12.639200000000001
 20
65.653800000000004
 30
0.0
 10
12.639200000000001
 20
65.653800000000004
 30
0.0
 10
12.489800000000001
 20
64.780699999999996
 30
0.0
 10
12.4748
 20
65.163499999999999
 30
0.0
 10
12.1149
 20
64.576099999999997
 30
0.0
 10
12.1149
 20
64.576099999999997
 30
0.0
 10
11.623100000000001
 20
63.774099999999997
 30
0.0
 10
11.8789
 20
62.865400000000001
 30
0.0
 10
12.0265
 20
62.107900000000001
 30
0.0
 10
12.0265
 20
62.107900000000001
 30
0.0
 10
12.137700000000001
 20
61.537100000000002
 30
0.0
 10
12.032
 20
61.307200000000002
 30
0.0
 10
12.201599999999999
 20
60.754199999999997
 30
0.0
 10
12.201599999999999
 20
60.754199999999997
 30
0.0
 10
12.336600000000001
 20
60.313400000000001
 30
0.0
 10
12.5097
 20
60.033099999999997
 30
0.0
 10
12.5296
 20
59.476199999999999
 30
0.0
 10
12.5296
 20
59.476199999999999
 30
0.0
 10
12.565
 20
58.490900000000003
 30
0.0
 10
13.148
 20
57.462299999999999
 30
0.0
 10
13.1518
 20
56.9758
 30
0.0
 10
13.1518
 20
56.9758
 30
0.0
 10
13.157299999999999
 20
56.267000000000003
 30
0.0
 10
12.1212
 20
55.706499999999998
 30
0.0
 10
11.674300000000001
 20
55.347099999999998
 30
0.0
 10
11.674300000000001
 20
55.347099999999998
 30
0.0
 10
11.075799999999999
 20
54.865299999999998
 30
0.0
 10
10.568099999999999
 20
54.344900000000003
 30
0.0
 10
10.0962
 20
53.733199999999997
 30
0.0
 10
10.0962
 20
53.733199999999997
 30
0.0
 10
8.3552
 20
51.478400000000001
 30
0.0
 10
6.7168000000000001
 20
48.566299999999998
 30
0.0
 10
5.3974000000000002
 20
45.870800000000003
 30
0.0
 10
5.3974000000000002
 20
45.870800000000003
 30
0.0
 10
5.056
 20
45.173900000000003
 30
0.0
 10
4.7324000000000002
 20
44.441000000000003
 30
0.0
 10
4.4439000000000002
 20
43.699100000000001
 30
0.0
 10
4.4439000000000002
 20
43.699100000000001
 30
0.0
 10
4.1691000000000003
 20
42.9925
 30
0.0
 10
3.9028999999999998
 20
42.042000000000002
 30
0.0
 10
3.5996999999999999
 20
41.415900000000001
 30
0.0
 10
3.5996999999999999
 20
41.415900000000001
 30
0.0
 10
3.5387
 20
41.290199999999999
 30
0.0
 10
2.4310999999999998
 20
40.0152
 30
0.0
 10
2.2004000000000001
 20
39.6999
 30
0.0
 10
2.2004000000000001
 20
39.6999
 30
0.0
 10
1.9421999999999999
 20
39.347299999999997
 30
0.0
 10
1.0032000000000001
 20
38.149299999999997
 30
0.0
 10
1.0032000000000001
 20
37.6967
 30
0.0
 10
1.0032000000000001
 20
37.6967
 30
0.0
 10
1.0032000000000001
 20
37.6967
 30
0.0
 10
1.0032000000000001
 20
37.454599999999999
 30
0.0
 10
1.0032000000000001
 20
37.454599999999999
 30
0.0
 10
1.0032000000000001
 20
37.454599999999999
 30
0.0
 10
1.0032000000000001
 20
37.130699999999997
 30
0.0
 10
1.24
 20
36.921799999999998
 30
0.0
 10
1.24
 20
36.648099999999999
 30
0.0
 10
1.24
 20
36.648099999999999
 30
0.0
 10
1.24
 20
36.3611
 30
0.0
 10
0.3718
 20
34.573300000000003
 30
0.0
 10
0.3718
 20
34.389699999999998
 30
0.0
 10
0.3718
 20
34.389699999999998
 30
0.0
 10
0.3718
 20
34.2104
 30
0.0
 10
1.6269
 20
33.863100000000003
 30
0.0
 10
1.905
 20
33.697899999999997
 30
0.0
 10
1.905
 20
33.697899999999997
 30
0.0
 10
2.4260000000000002
 20
33.3887
 30
0.0
 10
2.7587999999999999
 20
33.030999999999999
 30
0.0
 10
3.1345999999999998
 20
32.615000000000002
 30
0.0
 10
3.1345999999999998
 20
32.615000000000002
 30
0.0
 10
3.8683999999999998
 20
31.802700000000002
 30
0.0
 10
4.6912000000000003
 20
31.024000000000001
 30
0.0
 10
6.1658999999999997
 20
31.292400000000001
 30
0.0
 10
6.1658999999999997
 20
31.292400000000001
 30
0.0
 10
8.1396999999999995
 20
31.651299999999999
 30
0.0
 10
8.3423999999999996
 20
30.9863
 30
0.0
 10
9.4986999999999995
 20
30.325700000000001
 30
0.0
 10
9.4986999999999995
 20
30.325700000000001
 30
0.0
 10
10.581
 20
29.7073
 30
0.0
 10
12.6075
 20
30.973299999999998
 30
0.0
 10
12.6075
 20
29.146699999999999
 30
0.0
 10
12.6075
 20
29.146699999999999
 30
0.0
 10
12.6075
 20
29.146699999999999
 30
0.0
 10
12.6075
 20
28.098099999999999
 30
0.0
 10
12.6075
 20
28.098099999999999
 30
0.0
 10
12.6075
 20
28.098099999999999
 30
0.0
 10
12.6075
 20
26.9619
 30
0.0
 10
12.1877
 20
26.484999999999999
 30
0.0
 10
12.0799
 20
25.7697
 30
0.0
 10
12.0799
 20
25.7697
 30
0.0
 10
-0.946
 20
28.811199999999999
 30
0.0
 10
-10.6518
 20
40.499000000000002
 30
0.0
 10
-10.6518
 20
54.450000000000003
 30
0.0
 10
-10.6518
 20
54.450000000000003
 30
0.0
 10
-10.6518
 20
68.690399999999997
 30
0.0
 10
-0.5393
 20
80.573400000000007
 30
0.0
 10
12.894399999999999
 20
83.308999999999997
 30
0.0
  0
SPLINE
  5
31
100
AcDbEntity
  8
RÚteg 1
 62
     7
100
AcDbSpline
210
0.0
220
0.0
230
1.0
 70
     1
 71
     3
 72
    32
 73
    28
 74
     0
 42
0.0000000001
 43
0.0000000001
 40
0.0
 40
0.0
 40
0.0
 40
0.0
 40
0.1428571428571429
 40
0.1428571428571429
 40
0.1428571428571429
 40
0.1428571428571429
 40
0.2857142857142857
 40
0.2857142857142857
 40
0.2857142857142857
 40
0.2857142857142857
 40
0.4285714285714286
 40
0.4285714285714286
 40
0.4285714285714286
 40
0.4285714285714286
 40
0.5714285714285714
 40
0.5714285714285714
 40
0.5714285714285714
 40
0.5714285714285714
 40
0.7142857142857142
 40
0.7142857142857142
 40
0.7142857142857142
 40
0.7142857142857142
 40
0.857142857142857
 40
0.857142857142857
 40
0.857142857142857
 40
0.857142857142857
 40
1.0
 40
1.0
 40
1.0
 40
1.0
 10
15.249499999999999
 20
25.2121
 30
0.0
 10
15.1198
 20
25.408300000000001
 30
0.0
 10
15.005699999999999
 20
25.600100000000001
 30
0.0
 10
14.919600000000001
 20
25.782800000000002
 30
0.0
 10
14.919600000000001
 20
25.782800000000002
 30
0.0
 10
14.680300000000001
 20
26.290700000000001
 30
0.0
 10
15.4757
 20
29.424199999999999
 30
0.0
 10
15.6876
 20
29.889700000000001
 30
0.0
 10
15.6876
 20
29.889700000000001
 30
0.0
 10
15.6876
 20
29.889700000000001
 30
0.0
 10
17.107099999999999
 20
29.792100000000001
 30
0.0
 10
17.107099999999999
 20
29.792100000000001
 30
0.0
 10
17.107099999999999
 20
29.792100000000001
 30
0.0
 10
17.306899999999999
 20
29.487100000000002
 30
0.0
 10
17.817699999999999
 20
26.9435
 30
0.0
 10
17.817699999999999
 20
26.404199999999999
 30
0.0
 10
17.817699999999999
 20
26.404199999999999
 30
0.0
 10
17.817699999999999
 20
25.893699999999999
 30
0.0
 10
17.5808
 20
25.608699999999999
 30
0.0
 10
17.5808
 20
25.033100000000001
 30
0.0
 10
17.5808
 20
25.033100000000001
 30
0.0
 10
17.5808
 20
25.033100000000001
 30
0.0
 10
17.5808
 20
25.025500000000001
 30
0.0
 10
17.5808
 20
25.025500000000001
 30
0.0
 10
17.5808
 20
25.025500000000001
 30
0.0
 10
16.795500000000001
 20
25.0579
 30
0.0
 10
16.017800000000001
 20
25.119499999999999
 30
0.0
 10
15.249499999999999
 20
25.2121
 30
0.0
  0
SPLINE
  5
32
100
AcDbEntity
  8
RÚteg 1
 62
     7
100
AcDbSpline
210
0.0
220
0.0
230
1.0
 70
     1
 71
     3
 72
   436
 73
   432
 74
     0
 42
0.0000000001
 43
0.0000000001
 40
0.0
 40
0.0
 40
0.0
 40
0.0
 40
0.0092592592592593
 40
0.0092592592592593
 40
0.0092592592592593
 40
0.0092592592592593
 40
0.0185185185185185
 40
0.0185185185185185
 40
0.0185185185185185
 40
0.0185185185185185
 40
0.0277777777777778
 40
0.0277777777777778
 40
0.0277777777777778
 40
0.0277777777777778
 40
0.037037037037037
 40
0.037037037037037
 40
0.037037037037037
 40
0.037037037037037
 40
0.0462962962962963
 40
0.0462962962962963
 40
0.0462962962962963
 40
0.0462962962962963
 40
0.0555555555555556
 40
0.0555555555555556
 40
0.0555555555555556
 40
0.0555555555555556
 40
0.0648148148148148
 40
0.0648148148148148
 40
0.0648148148148148
 40
0.0648148148148148
 40
0.0740740740740741
 40
0.0740740740740741
 40
0.0740740740740741
 40
0.0740740740740741
 40
0.0833333333333333
 40
0.0833333333333333
 40
0.0833333333333333
 40
0.0833333333333333
 40
0.0925925925925926
 40
0.0925925925925926
 40
0.0925925925925926
 40
0.0925925925925926
 40
0.1018518518518519
 40
0.1018518518518519
 40
0.1018518518518519
 40
0.1018518518518519
 40
0.1111111111111111
 40
0.1111111111111111
 40
0.1111111111111111
 40
0.1111111111111111
 40
0.1203703703703704
 40
0.1203703703703704
 40
0.1203703703703704
 40
0.1203703703703704
 40
0.1296296296296296
 40
0.1296296296296296
 40
0.1296296296296296
 40
0.1296296296296296
 40
0.1388888888888889
 40
0.1388888888888889
 40
0.1388888888888889
 40
0.1388888888888889
 40
0.1481481481481481
 40
0.1481481481481481
 40
0.1481481481481481
 40
0.1481481481481481
 40
0.1574074074074074
 40
0.1574074074074074
 40
0.1574074074074074
 40
0.1574074074074074
 40
0.1666666666666666
 40
0.1666666666666666
 40
0.1666666666666666
 40
0.1666666666666666
 40
0.1759259259259259
 40
0.1759259259259259
 40
0.1759259259259259
 40
0.1759259259259259
 40
0.1851851851851851
 40
0.1851851851851851
 40
0.1851851851851851
 40
0.1851851851851851
 40
0.1944444444444444
 40
0.1944444444444444
 40
0.1944444444444444
 40
0.1944444444444444
 40
0.2037037037037036
 40
0.2037037037037036
 40
0.2037037037037036
 40
0.2037037037037036
 40
0.2129629629629629
 40
0.2129629629629629
 40
0.2129629629629629
 40
0.2129629629629629
 40
0.2222222222222221
 40
0.2222222222222221
 40
0.2222222222222221
 40
0.2222222222222221
 40
0.2314814814814813
 40
0.2314814814814813
 40
0.2314814814814813
 40
0.2314814814814813
 40
0.2407407407407406
 40
0.2407407407407406
 40
0.2407407407407406
 40
0.2407407407407406
 40
0.2499999999999998
 40
0.2499999999999998
 40
0.2499999999999998
 40
0.2499999999999998
 40
0.2592592592592591
 40
0.2592592592592591
 40
0.2592592592592591
 40
0.2592592592592591
 40
0.2685185185185183
 40
0.2685185185185183
 40
0.2685185185185183
 40
0.2685185185185183
 40
0.2777777777777776
 40
0.2777777777777776
 40
0.2777777777777776
 40
0.2777777777777776
 40
0.2870370370370368
 40
0.2870370370370368
 40
0.2870370370370368
 40
0.2870370370370368
 40
0.2962962962962961
 40
0.2962962962962961
 40
0.2962962962962961
 40
0.2962962962962961
 40
0.3055555555555553
 40
0.3055555555555553
 40
0.3055555555555553
 40
0.3055555555555553
 40
0.3148148148148146
 40
0.3148148148148146
 40
0.3148148148148146
 40
0.3148148148148146
 40
0.3240740740740738
 40
0.3240740740740738
 40
0.3240740740740738
 40
0.3240740740740738
 40
0.333333333333333
 40
0.333333333333333
 40
0.333333333333333
 40
0.333333333333333
 40
0.3425925925925923
 40
0.3425925925925923
 40
0.3425925925925923
 40
0.3425925925925923
 40
0.3518518518518515
 40
0.3518518518518515
 40
0.3518518518518515
 40
0.3518518518518515
 40
0.3611111111111108
 40
0.3611111111111108
 40
0.3611111111111108
 40
0.3611111111111108
 40
0.37037037037037
 40
0.37037037037037
 40
0.37037037037037
 40
0.37037037037037
 40
0.3796296296296293
 40
0.3796296296296293
 40
0.3796296296296293
 40
0.3796296296296293
 40
0.3888888888888885
 40
0.3888888888888885
 40
0.3888888888888885
 40
0.3888888888888885
 40
0.3981481481481478
 40
0.3981481481481478
 40
0.3981481481481478
 40
0.3981481481481478
 40
0.407407407407407
 40
0.407407407407407
 40
0.407407407407407
 40
0.407407407407407
 40
0.4166666666666662
 40
0.4166666666666662
 40
0.4166666666666662
 40
0.4166666666666662
 40
0.4259259259259255
 40
0.4259259259259255
 40
0.4259259259259255
 40
0.4259259259259255
 40
0.4351851851851847
 40
0.4351851851851847
 40
0.4351851851851847
 40
0.4351851851851847
 40
0.444444444444444
 40
0.444444444444444
 40
0.444444444444444
 40
0.444444444444444
 40
0.4537037037037032
 40
0.4537037037037032
 40
0.4537037037037032
 40
0.4537037037037032
 40
0.4629629629629625
 40
0.4629629629629625
 40
0.4629629629629625
 40
0.4629629629629625
 40
0.4722222222222217
 40
0.4722222222222217
 40
0.4722222222222217
 40
0.4722222222222217
 40
0.481481481481481
 40
0.481481481481481
 40
0.481481481481481
 40
0.481481481481481
 40
0.4907407407407402
 40
0.4907407407407402
 40
0.4907407407407402
 40
0.4907407407407402
 40
0.4999999999999994
 40
0.4999999999999994
 40
0.4999999999999994
 40
0.4999999999999994
 40
0.5092592592592588
 40
0.5092592592592588
 40
0.5092592592592588
 40
0.5092592592592588
 40
0.5185185185185181
 40
0.5185185185185181
 40
0.5185185185185181
 40
0.5185185185185181
 40
0.5277777777777774
 40
0.5277777777777774
 40
0.5277777777777774
 40
0.5277777777777774
 40
0.5370370370370367
 40
0.5370370370370367
 40
0.5370370370370367
 40
0.5370370370370367
 40
0.546296296296296
 40
0.546296296296296
 40
0.546296296296296
 40
0.546296296296296
 40
0.5555555555555553
 40
0.5555555555555553
 40
0.5555555555555553
 40
0.5555555555555553
 40
0.5648148148148146
 40
0.5648148148148146
 40
0.5648148148148146
 40
0.5648148148148146
 40
0.5740740740740739
 40
0.5740740740740739
 40
0.5740740740740739
 40
0.5740740740740739
 40
0.5833333333333332
 40
0.5833333333333332
 40
0.5833333333333332
 40
0.5833333333333332
 40
0.5925925925925925
 40
0.5925925925925925
 40
0.5925925925925925
 40
0.5925925925925925
 40
0.6018518518518518
 40
0.6018518518518518
 40
0.6018518518518518
 40
0.6018518518518518
 40
0.6111111111111111
 40
0.6111111111111111
 40
0.6111111111111111
 40
0.6111111111111111
 40
0.6203703703703704
 40
0.6203703703703704
 40
0.6203703703703704
 40
0.6203703703703704
 40
0.6296296296296297
 40
0.6296296296296297
 40
0.6296296296296297
 40
0.6296296296296297
 40
0.638888888888889
 40
0.638888888888889
 40
0.638888888888889
 40
0.638888888888889
 40
0.6481481481481483
 40
0.6481481481481483
 40
0.6481481481481483
 40
0.6481481481481483
 40
0.6574074074074076
 40
0.6574074074074076
 40
0.6574074074074076
 40
0.6574074074074076
 40
0.6666666666666669
 40
0.6666666666666669
 40
0.6666666666666669
 40
0.6666666666666669
 40
0.6759259259259262
 40
0.6759259259259262
 40
0.6759259259259262
 40
0.6759259259259262
 40
0.6851851851851855
 40
0.6851851851851855
 40
0.6851851851851855
 40
0.6851851851851855
 40
0.6944444444444448
 40
0.6944444444444448
 40
0.6944444444444448
 40
0.6944444444444448
 40
0.7037037037037041
 40
0.7037037037037041
 40
0.7037037037037041
 40
0.7037037037037041
 40
0.7129629629629634
 40
0.7129629629629634
 40
0.7129629629629634
 40
0.7129629629629634
 40
0.7222222222222227
 40
0.7222222222222227
 40
0.7222222222222227
 40
0.7222222222222227
 40
0.731481481481482
 40
0.731481481481482
 40
0.731481481481482
 40
0.731481481481482
 40
0.7407407407407413
 40
0.7407407407407413
 40
0.7407407407407413
 40
0.7407407407407413
 40
0.7500000000000006
 40
0.7500000000000006
 40
0.7500000000000006
 40
0.7500000000000006
 40
0.7592592592592599
 40
0.7592592592592599
 40
0.7592592592592599
 40
0.7592592592592599
 40
0.7685185185185192
 40
0.7685185185185192
 40
0.7685185185185192
 40
0.7685185185185192
 40
0.7777777777777785
 40
0.7777777777777785
 40
0.7777777777777785
 40
0.7777777777777785
 40
0.7870370370370378
 40
0.7870370370370378
 40
0.7870370370370378
 40
0.7870370370370378
 40
0.7962962962962971
 40
0.7962962962962971
 40
0.7962962962962971
 40
0.7962962962962971
 40
0.8055555555555564
 40
0.8055555555555564
 40
0.8055555555555564
 40
0.8055555555555564
 40
0.8148148148148157
 40
0.8148148148148157
 40
0.8148148148148157
 40
0.8148148148148157
 40
0.824074074074075
 40
0.824074074074075
 40
0.824074074074075
 40
0.824074074074075
 40
0.8333333333333343
 40
0.8333333333333343
 40
0.8333333333333343
 40
0.8333333333333343
 40
0.8425925925925936
 40
0.8425925925925936
 40
0.8425925925925936
 40
0.8425925925925936
 40
0.8518518518518529
 40
0.8518518518518529
 40
0.8518518518518529
 40
0.8518518518518529
 40
0.8611111111111122
 40
0.8611111111111122
 40
0.8611111111111122
 40
0.8611111111111122
 40
0.8703703703703715
 40
0.8703703703703715
 40
0.8703703703703715
 40
0.8703703703703715
 40
0.8796296296296308
 40
0.8796296296296308
 40
0.8796296296296308
 40
0.8796296296296308
 40
0.8888888888888901
 40
0.8888888888888901
 40
0.8888888888888901
 40
0.8888888888888901
 40
0.8981481481481494
 40
0.8981481481481494
 40
0.8981481481481494
 40
0.8981481481481494
 40
0.9074074074074087
 40
0.9074074074074087
 40
0.9074074074074087
 40
0.9074074074074087
 40
0.916666666666668
 40
0.916666666666668
 40
0.916666666666668
 40
0.916666666666668
 40
0.9259259259259273
 40
0.9259259259259273
 40
0.9259259259259273
 40
0.9259259259259273
 40
0.9351851851851866
 40
0.9351851851851866
 40
0.9351851851851866
 40
0.9351851851851866
 40
0.9444444444444459
 40
0.9444444444444459
 40
0.9444444444444459
 40
0.9444444444444459
 40
0.9537037037037052
 40
0.9537037037037052
 40
0.9537037037037052
 40
0.9537037037037052
 40
0.9629629629629645
 40
0.9629629629629645
 40
0.9629629629629645
 40
0.9629629629629645
 40
0.9722222222222238
 40
0.9722222222222238
 40
0.9722222222222238
 40
0.9722222222222238
 40
0.9814814814814831
 40
0.9814814814814831
 40
0.9814814814814831
 40
0.9814814814814831
 40
0.9907407407407424
 40
0.9907407407407424
 40
0.9907407407407424
 40
0.9907407407407424
 40
1.0
 40
1.0
 40
1.0
 40
1.0
 10
21.442
 20
25.1175
 30
0.0
 10
21.061900000000001
 20
25.371500000000001
 30
0.0
 10
20.761099999999999
 20
25.640499999999999
 30
0.0
 10
20.738399999999999
 20
25.920300000000001
 30
0.0
 10
20.738399999999999
 20
25.920300000000001
 30
0.0
 10
19.525300000000001
 20
26.023299999999999
 30
0.0
 10
20.343599999999999
 20
29.051300000000001
 30
0.0
 10
20.752099999999999
 20
29.697199999999999
 30
0.0
 10
20.752099999999999
 20
29.697199999999999
 30
0.0
 10
21.341699999999999
 20
30.628900000000002
 30
0.0
 10
23.804600000000001
 20
30.082599999999999
 30
0.0
 10
25.051100000000002
 20
30.466699999999999
 30
0.0
 10
25.051100000000002
 20
30.466699999999999
 30
0.0
 10
25.9374
 20
30.739599999999999
 30
0.0
 10
26.541
 20
30.570799999999998
 30
0.0
 10
27.352399999999999
 20
30.7774
 30
0.0
 10
27.352399999999999
 20
30.7774
 30
0.0
 10
28.427900000000001
 20
31.051100000000002
 30
0.0
 10
28.341200000000001
 20
31.116599999999998
 30
0.0
 10
29.208300000000001
 20
31.5427
 30
0.0
 10
29.208300000000001
 20
31.5427
 30
0.0
 10
29.8385
 20
31.8523
 30
0.0
 10
30.918900000000001
 20
31.537600000000001
 30
0.0
 10
31.696400000000001
 20
31.662299999999998
 30
0.0
 10
31.696400000000001
 20
31.662299999999998
 30
0.0
 10
32.1126
 20
31.729099999999999
 30
0.0
 10
33.447699999999998
 20
32.096200000000003
 30
0.0
 10
33.447699999999998
 20
32.534399999999998
 30
0.0
 10
33.447699999999998
 20
32.534399999999998
 30
0.0
 10
33.447699999999998
 20
32.637300000000003
 30
0.0
 10
32.756799999999998
 20
33.957799999999999
 30
0.0
 10
32.691099999999999
 20
34.128900000000002
 30
0.0
 10
32.691099999999999
 20
34.128900000000002
 30
0.0
 10
32.691099999999999
 20
34.128900000000002
 30
0.0
 10
33.132199999999997
 20
34.9544
 30
0.0
 10
33.132199999999997
 20
34.9544
 30
0.0
 10
33.132199999999997
 20
34.9544
 30
0.0
 10
32.282400000000003
 20
36.594999999999999
 30
0.0
 10
31.368099999999998
 20
37.832700000000003
 30
0.0
 10
30.686
 20
39.633699999999997
 30
0.0
 10
30.686
 20
39.633699999999997
 30
0.0
 10
29.972899999999999
 20
41.516399999999997
 30
0.0
 10
29.666699999999999
 20
43.151200000000003
 30
0.0
 10
28.617699999999999
 20
44.780000000000001
 30
0.0
 10
28.617699999999999
 20
44.780000000000001
 30
0.0
 10
28.1508
 20
45.505400000000002
 30
0.0
 10
27.659500000000001
 20
46.242100000000001
 30
0.0
 10
27.358000000000001
 20
47.122300000000003
 30
0.0
 10
27.358000000000001
 20
47.122300000000003
 30
0.0
 10
27.063099999999999
 20
47.983199999999997
 30
0.0
 10
26.784099999999999
 20
48.985399999999998
 30
0.0
 10
26.422899999999998
 20
49.796599999999998
 30
0.0
 10
26.422899999999998
 20
49.796599999999998
 30
0.0
 10
26.0291
 20
50.6813
 30
0.0
 10
25.815999999999999
 20
51.496200000000002
 30
0.0
 10
25.4434
 20
52.4255
 30
0.0
 10
25.4434
 20
52.4255
 30
0.0
 10
25.170000000000002
 20
53.107500000000002
 30
0.0
 10
24.424600000000002
 20
54.284599999999998
 30
0.0
 10
24.369700000000002
 20
54.958100000000002
 30
0.0
 10
24.369700000000002
 20
54.958100000000002
 30
0.0
 10
24.843
 20
55.070799999999998
 30
0.0
 10
25.959900000000001
 20
56.079000000000001
 30
0.0
 10
26.343299999999999
 20
56.409999999999997
 30
0.0
 10
26.343299999999999
 20
56.409999999999997
 30
0.0
 10
26.593
 20
56.625799999999998
 30
0.0
 10
26.970300000000002
 20
56.986800000000002
 30
0.0
 10
27.254000000000001
 20
57.173200000000001
 30
0.0
 10
27.254000000000001
 20
57.173200000000001
 30
0.0
 10
27.7545
 20
57.502099999999999
 30
0.0
 10
28.068100000000001
 20
57.216700000000003
 30
0.0
 10
28.6325
 20
57.216700000000003
 30
0.0
 10
28.6325
 20
57.216700000000003
 30
0.0
 10
29.649899999999999
 20
57.216700000000003
 30
0.0
 10
30.2989
 20
58.945
 30
0.0
 10
31.790199999999999
 20
59.072000000000003
 30
0.0
 10
31.790199999999999
 20
59.072000000000003
 30
0.0
 10
31.790199999999999
 20
58.478299999999997
 30
0.0
 10
30.4697
 20
54.829599999999999
 30
0.0
 10
30.212299999999999
 20
53.9084
 30
0.0
 10
30.212299999999999
 20
53.9084
 30
0.0
 10
29.815000000000001
 20
52.485799999999998
 30
0.0
 10
29.185099999999998
 20
49.917200000000001
 30
0.0
 10
29.185099999999998
 20
48.182699999999997
 30
0.0
 10
29.185099999999998
 20
48.182699999999997
 30
0.0
 10
29.185099999999998
 20
48.182699999999997
 30
0.0
 10
29.167200000000001
 20
46.889699999999998
 30
0.0
 10
29.167200000000001
 20
46.889699999999998
 30
0.0
 10
29.167200000000001
 20
46.889699999999998
 30
0.0
 10
29.167200000000001
 20
46.889699999999998
 30
0.0
 10
29.2697
 20
46.019799999999996
 30
0.0
 10
29.2697
 20
46.019799999999996
 30
0.0
 10
29.2697
 20
46.019799999999996
 30
0.0
 10
29.2697
 20
46.019799999999996
 30
0.0
 10
29.500800000000002
 20
45.924199999999999
 30
0.0
 10
29.500800000000002
 20
45.924199999999999
 30
0.0
 10
29.500800000000002
 20
45.924199999999999
 30
0.0
 10
29.695799999999998
 20
45.970599999999997
 30
0.0
 10
30.416
 20
46.246600000000001
 30
0.0
 10
30.4481
 20
46.246600000000001
 30
0.0
 10
30.4481
 20
46.246600000000001
 30
0.0
 10
31.127500000000001
 20
46.246600000000001
 30
0.0
 10
31.316600000000001
 20
45.813499999999998
 30
0.0
 10
31.316600000000001
 20
45.1175
 30
0.0
 10
31.316600000000001
 20
45.1175
 30
0.0
 10
31.316600000000001
 20
45.1175
 30
0.0
 10
31.316600000000001
 20
44.875500000000002
 30
0.0
 10
31.316600000000001
 20
44.875500000000002
 30
0.0
 10
31.316600000000001
 20
44.875500000000002
 30
0.0
 10
31.316600000000001
 20
43.4101
 30
0.0
 10
30.1142
 20
43.857300000000002
 30
0.0
 10
29.902100000000001
 20
42.991300000000003
 30
0.0
 10
29.902100000000001
 20
42.991300000000003
 30
0.0
 10
29.902100000000001
 20
42.991300000000003
 30
0.0
 10
31.9847
 20
43.4161
 30
0.0
 10
31.9847
 20
43.4161
 30
0.0
 10
31.9847
 20
43.4161
 30
0.0
 10
31.9847
 20
43.4161
 30
0.0
 10
32.352200000000003
 20
45.5092
 30
0.0
 10
32.352200000000003
 20
45.5092
 30
0.0
 10
32.352200000000003
 20
45.5092
 30
0.0
 10
32.352200000000003
 20
45.5092
 30
0.0
 10
32.585599999999999
 20
45.700000000000003
 30
0.0
 10
32.585599999999999
 20
45.700000000000003
 30
0.0
 10
32.585599999999999
 20
45.700000000000003
 30
0.0
 10
32.585599999999999
 20
45.700000000000003
 30
0.0
 10
33.423099999999998
 20
45.355600000000003
 30
0.0
 10
33.423099999999998
 20
45.355600000000003
 30
0.0
 10
33.423099999999998
 20
45.355600000000003
 30
0.0
 10
33.423099999999998
 20
45.355600000000003
 30
0.0
 10
33.605600000000003
 20
43.988300000000002
 30
0.0
 10
33.605600000000003
 20
43.988300000000002
 30
0.0
 10
33.605600000000003
 20
43.988300000000002
 30
0.0
 10
33.668500000000002
 20
43.575800000000001
 30
0.0
 10
32.683199999999999
 20
43.589100000000002
 30
0.0
 10
32.658499999999997
 20
42.4557
 30
0.0
 10
32.658499999999997
 20
42.4557
 30
0.0
 10
32.976100000000002
 20
42.673099999999998
 30
0.0
 10
33.211500000000001
 20
42.927500000000002
 30
0.0
 10
33.577300000000001
 20
43.130000000000003
 30
0.0
 10
33.577300000000001
 20
43.130000000000003
 30
0.0
 10
33.833100000000002
 20
43.271500000000003
 30
0.0
 10
34.631999999999998
 20
43.4512
 30
0.0
 10
34.631999999999998
 20
43.746299999999998
 30
0.0
 10
34.631999999999998
 20
43.746299999999998
 30
0.0
 10
34.631999999999998
 20
44.352200000000003
 30
0.0
 10
34.395299999999999
 20
44.673200000000001
 30
0.0
 10
34.395299999999999
 20
45.359499999999997
 30
0.0
 10
34.395299999999999
 20
45.359499999999997
 30
0.0
 10
34.572099999999999
 20
45.401699999999998
 30
0.0
 10
34.576799999999999
 20
45.440100000000001
 30
0.0
 10
34.789900000000003
 20
45.440100000000001
 30
0.0
 10
34.789900000000003
 20
45.440100000000001
 30
0.0
 10
34.789900000000003
 20
45.440100000000001
 30
0.0
 10
34.949100000000001
 20
45.454799999999999
 30
0.0
 10
34.949100000000001
 20
45.454799999999999
 30
0.0
 10
34.949100000000001
 20
45.454799999999999
 30
0.0
 10
34.949100000000001
 20
45.454799999999999
 30
0.0
 10
37.158099999999997
 20
45.198099999999997
 30
0.0
 10
37.158099999999997
 20
45.198099999999997
 30
0.0
 10
37.158099999999997
 20
45.198099999999997
 30
0.0
 10
37.421399999999998
 20
45.173299999999998
 30
0.0
 10
37.467100000000002
 20
45.822400000000002
 30
0.0
 10
37.552900000000001
 20
46.004600000000003
 30
0.0
 10
37.552900000000001
 20
46.004600000000003
 30
0.0
 10
37.2042
 20
46.133899999999997
 30
0.0
 10
37.302900000000001
 20
47.139299999999999
 30
0.0
 10
37.237200000000001
 20
47.456699999999998
 30
0.0
 10
37.237200000000001
 20
47.456699999999998
 30
0.0
 10
37.237200000000001
 20
47.456699999999998
 30
0.0
 10
37.3949
 20
47.456699999999998
 30
0.0
 10
37.3949
 20
47.456699999999998
 30
0.0
 10
37.3949
 20
47.456699999999998
 30
0.0
 10
37.3949
 20
47.456699999999998
 30
0.0
 10
37.3949
 20
47.698500000000003
 30
0.0
 10
37.3949
 20
47.698500000000003
 30
0.0
 10
37.3949
 20
47.698500000000003
 30
0.0
 10
37.3949
 20
47.966999999999999
 30
0.0
 10
37.536700000000003
 20
47.934899999999999
 30
0.0
 10
37.808799999999998
 20
47.9711
 30
0.0
 10
37.808799999999998
 20
47.9711
 30
0.0
 10
37.808799999999998
 20
47.9711
 30
0.0
 10
37.3949
 20
48.182699999999997
 30
0.0
 10
37.3949
 20
48.182699999999997
 30
0.0
 10
37.3949
 20
48.182699999999997
 30
0.0
 10
37.3949
 20
48.874200000000002
 30
0.0
 10
36.581800000000001
 20
52.764800000000001
 30
0.0
 10
36.378100000000003
 20
53.435200000000002
 30
0.0
 10
36.378100000000003
 20
53.435200000000002
 30
0.0
 10
36.127899999999997
 20
54.258600000000001
 30
0.0
 10
35.342399999999998
 20
57.805100000000003
 30
0.0
 10
35.342399999999998
 20
58.668500000000002
 30
0.0
 10
35.342399999999998
 20
58.668500000000002
 30
0.0
 10
35.342399999999998
 20
58.668500000000002
 30
0.0
 10
35.342399999999998
 20
58.749200000000002
 30
0.0
 10
35.342399999999998
 20
58.749200000000002
 30
0.0
 10
35.342399999999998
 20
58.749200000000002
 30
0.0
 10
35.342399999999998
 20
59.856999999999999
 30
0.0
 10
37.049999999999997
 20
60.311199999999999
 30
0.0
 10
37.581200000000003
 20
61.301400000000001
 30
0.0
 10
37.581200000000003
 20
61.301400000000001
 30
0.0
 10
37.738999999999997
 20
61.595700000000001
 30
0.0
 10
37.912199999999999
 20
61.806899999999999
 30
0.0
 10
37.947299999999998
 20
62.137
 30
0.0
 10
37.947299999999998
 20
62.137
 30
0.0
 10
37.988300000000002
 20
62.523499999999999
 30
0.0
 10
38.029600000000002
 20
62.802900000000001
 30
0.0
 10
38.213099999999997
 20
63.075600000000001
 30
0.0
 10
38.213099999999997
 20
63.075600000000001
 30
0.0
 10
38.4681
 20
63.454999999999998
 30
0.0
 10
39.097700000000003
 20
64.059200000000004
 30
0.0
 10
39.684800000000003
 20
64.045400000000001
 30
0.0
 10
39.684800000000003
 20
64.045400000000001
 30
0.0
 10
39.684800000000003
 20
64.045400000000001
 30
0.0
 10
40.473599999999998
 20
64.072800000000001
 30
0.0
 10
40.473599999999998
 20
64.072800000000001
 30
0.0
 10
40.473599999999998
 20
64.072800000000001
 30
0.0
 10
40.740900000000003
 20
64.480800000000002
 30
0.0
 10
41.262999999999998
 20
64.585999999999999
 30
0.0
 10
41.262999999999998
 20
65.202100000000002
 30
0.0
 10
41.262999999999998
 20
65.202100000000002
 30
0.0
 10
41.262999999999998
 20
65.202100000000002
 30
0.0
 10
41.262999999999998
 20
65.363399999999999
 30
0.0
 10
41.262999999999998
 20
65.363399999999999
 30
0.0
 10
41.262999999999998
 20
65.363399999999999
 30
0.0
 10
41.262999999999998
 20
65.668400000000005
 30
0.0
 10
40.868400000000001
 20
65.651499999999999
 30
0.0
 10
40.885199999999998
 20
66.671300000000002
 30
0.0
 10
40.885199999999998
 20
66.671300000000002
 30
0.0
 10
40.885199999999998
 20
66.671300000000002
 30
0.0
 10
40.631500000000003
 20
66.896000000000001
 30
0.0
 10
40.631500000000003
 20
66.896000000000001
 30
0.0
 10
40.631500000000003
 20
66.896000000000001
 30
0.0
 10
40.631500000000003
 20
67.455799999999996
 30
0.0
 10
40.191499999999998
 20
68.025300000000001
 30
0.0
 10
39.6843
 20
68.025300000000001
 30
0.0
 10
39.6843
 20
68.025300000000001
 30
0.0
 10
39.6843
 20
68.025300000000001
 30
0.0
 10
39.447400000000002
 20
68.025300000000001
 30
0.0
 10
39.447400000000002
 20
68.025300000000001
 30
0.0
 10
39.447400000000002
 20
68.025300000000001
 30
0.0
 10
39.1434
 20
68.025300000000001
 30
0.0
 10
39.122700000000002
 20
67.980500000000006
 30
0.0
 10
39.052700000000002
 20
67.783299999999997
 30
0.0
 10
39.052700000000002
 20
67.783299999999997
 30
0.0
 10
39.052700000000002
 20
67.783299999999997
 30
0.0
 10
38.736899999999999
 20
67.783299999999997
 30
0.0
 10
38.736899999999999
 20
67.783299999999997
 30
0.0
 10
38.736899999999999
 20
67.783299999999997
 30
0.0
 10
38.1631
 20
67.783299999999997
 30
0.0
 10
38.6464
 20
67.883700000000005
 30
0.0
 10
38.260599999999997
 20
67.3215
 30
0.0
 10
38.260599999999997
 20
67.3215
 30
0.0
 10
38.260599999999997
 20
67.3215
 30
0.0
 10
37.4739
 20
67.218500000000006
 30
0.0
 10
37.4739
 20
67.218500000000006
 30
0.0
 10
37.4739
 20
67.218500000000006
 30
0.0
 10
37.515099999999997
 20
67.037700000000001
 30
0.0
 10
37.552900000000001
 20
67.033299999999997
 30
0.0
 10
37.552900000000001
 20
66.815399999999997
 30
0.0
 10
37.552900000000001
 20
66.815399999999997
 30
0.0
 10
37.552900000000001
 20
66.815399999999997
 30
0.0
 10
37.552900000000001
 20
66.734800000000007
 30
0.0
 10
37.552900000000001
 20
66.734800000000007
 30
0.0
 10
37.552900000000001
 20
66.734800000000007
 30
0.0
 10
37.552900000000001
 20
66.446299999999994
 30
0.0
 10
37.369399999999999
 20
66.561499999999995
 30
0.0
 10
37.228099999999998
 20
66.421099999999996
 30
0.0
 10
37.228099999999998
 20
66.421099999999996
 30
0.0
 10
37.166600000000003
 20
66.359999999999999
 30
0.0
 10
37.052500000000002
 20
66.0291
 30
0.0
 10
37.000300000000003
 20
65.927999999999997
 30
0.0
 10
37.000300000000003
 20
65.927999999999997
 30
0.0
 10
37.052199999999999
 20
65.848699999999994
 30
0.0
 10
37.4739
 20
65.371300000000005
 30
0.0
 10
37.4739
 20
65.363399999999999
 30
0.0
 10
37.4739
 20
65.363399999999999
 30
0.0
 10
37.4739
 20
65.174599999999998
 30
0.0
 10
37.3429
 20
65.040800000000004
 30
0.0
 10
37.158099999999997
 20
65.040800000000004
 30
0.0
 10
37.158099999999997
 20
65.040800000000004
 30
0.0
 10
37.158099999999997
 20
65.040800000000004
 30
0.0
 10
36.131700000000002
 20
65.040800000000004
 30
0.0
 10
36.131700000000002
 20
65.040800000000004
 30
0.0
 10
36.131700000000002
 20
65.040800000000004
 30
0.0
 10
36.082000000000001
 20
65.040800000000004
 30
0.0
 10
35.052500000000002
 20
65.887299999999996
 30
0.0
 10
34.8703
 20
66.010199999999998
 30
0.0
 10
34.8703
 20
66.010199999999998
 30
0.0
 10
34.625100000000003
 20
66.175299999999993
 30
0.0
 10
34.360599999999998
 20
66.224599999999995
 30
0.0
 10
34.1417
 20
66.394999999999996
 30
0.0
 10
34.1417
 20
66.394999999999996
 30
0.0
 10
33.904600000000002
 20
66.579400000000007
 30
0.0
 10
33.788899999999998
 20
66.797499999999999
 30
0.0
 10
33.526899999999998
 20
66.976799999999997
 30
0.0
 10
33.526899999999998
 20
66.976799999999997
 30
0.0
 10
33.526899999999998
 20
67.350099999999998
 30
0.0
 10
33.477600000000002
 20
67.495599999999996
 30
0.0
 10
33.238399999999999
 20
67.649900000000002
 30
0.0
 10
33.238399999999999
 20
67.649900000000002
 30
0.0
 10
32.886099999999999
 20
67.876999999999995
 30
0.0
 10
32.884599999999999
 20
67.962800000000001
 30
0.0
 10
32.658299999999997
 20
68.105699999999999
 30
0.0
 10
32.658299999999997
 20
68.105699999999999
 30
0.0
 10
32.296199999999999
 20
68.334100000000007
 30
0.0
 10
31.891999999999999
 20
68.751099999999994
 30
0.0
 10
31.316600000000001
 20
68.751099999999994
 30
0.0
 10
31.316600000000001
 20
68.751099999999994
 30
0.0
 10
31.088699999999999
 20
68.751099999999994
 30
0.0
 10
31.119800000000001
 20
68.599599999999995
 30
0.0
 10
30.684999999999999
 20
68.5899
 30
0.0
 10
30.684999999999999
 20
68.5899
 30
0.0
 10
30.623000000000001
 20
68.826300000000003
 30
0.0
 10
29.827400000000001
 20
69.879900000000006
 30
0.0
 10
29.815100000000001
 20
69.845399999999998
 30
0.0
 10
29.815100000000001
 20
69.845399999999998
 30
0.0
 10
29.815100000000001
 20
69.845399999999998
 30
0.0
 10
29.106100000000001
 20
69.880499999999998
 30
0.0
 10
29.106100000000001
 20
69.880499999999998
 30
0.0
 10
29.106100000000001
 20
69.880499999999998
 30
0.0
 10
29.225899999999999
 20
68.410399999999996
 30
0.0
 10
30.606000000000002
 20
68.215000000000003
 30
0.0
 10
30.606000000000002
 20
67.460599999999999
 30
0.0
 10
30.606000000000002
 20
67.460599999999999
 30
0.0
 10
30.606000000000002
 20
67.414100000000005
 30
0.0
 10
30.295000000000002
 20
66.725999999999999
 30
0.0
 10
30.240600000000001
 20
66.624099999999999
 30
0.0
 10
30.240600000000001
 20
66.624099999999999
 30
0.0
 10
30.040700000000001
 20
66.251300000000001
 30
0.0
 10
29.8947
 20
66.304100000000005
 30
0.0
 10
29.510100000000001
 20
66.160399999999996
 30
0.0
 10
29.510100000000001
 20
66.160399999999996
 30
0.0
 10
29.0379
 20
65.983999999999995
 30
0.0
 10
28.3203
 20
65.608900000000006
 30
0.0
 10
27.874700000000001
 20
65.331199999999995
 30
0.0
 10
27.874700000000001
 20
65.331199999999995
 30
0.0
 10
27.461300000000001
 20
65.073499999999996
 30
0.0
 10
25.123699999999999
 20
63.508299999999998
 30
0.0
 10
24.843299999999999
 20
63.508299999999998
 30
0.0
 10
24.843299999999999
 20
63.508299999999998
 30
0.0
 10
24.568200000000001
 20
63.508299999999998
 30
0.0
 10
24.261700000000001
 20
65.1768
 30
0.0
 10
23.8337
 20
65.461100000000002
 30
0.0
 10
23.8337
 20
65.461100000000002
 30
0.0
 10
23.382000000000001
 20
65.761399999999995
 30
0.0
 10
23.405000000000001
 20
65.528499999999994
 30
0.0
 10
23.041899999999998
 20
66.103800000000007
 30
0.0
 10
23.041899999999998
 20
66.103800000000007
 30
0.0
 10
22.773499999999999
 20
66.528499999999994
 30
0.0
 10
22.640699999999999
 20
66.632599999999996
 30
0.0
 10
22.3962
 20
66.976799999999997
 30
0.0
 10
22.3962
 20
66.976799999999997
 30
0.0
 10
21.024000000000001
 20
68.908000000000001
 30
0.0
 10
20.738399999999999
 20
67.722800000000007
 30
0.0
 10
20.738399999999999
 20
71.009399999999999
 30
0.0
 10
20.738399999999999
 20
71.009399999999999
 30
0.0
 10
20.738399999999999
 20
71.009399999999999
 30
0.0
 10
20.738399999999999
 20
71.3322
 30
0.0
 10
20.738399999999999
 20
71.3322
 30
0.0
 10
20.738399999999999
 20
71.3322
 30
0.0
 10
21.079499999999999
 20
71.425399999999996
 30
0.0
 10
20.9421
 20
71.557599999999994
 30
0.0
 10
21.3858
 20
71.6387
 30
0.0
 10
21.3858
 20
71.6387
 30
0.0
 10
21.797000000000001
 20
71.713999999999999
 30
0.0
 10
21.848800000000001
 20
71.701599999999999
 30
0.0
 10
22.2059
 20
71.849299999999999
 30
0.0
 10
22.2059
 20
71.849299999999999
 30
0.0
 10
22.910799999999998
 20
72.140900000000002
 30
0.0
 10
23.139800000000001
 20
71.789400000000001
 30
0.0
 10
23.580300000000001
 20
72.461500000000001
 30
0.0
 10
23.580300000000001
 20
72.461500000000001
 30
0.0
 10
23.580300000000001
 20
72.461500000000001
 30
0.0
 10
23.582599999999999
 20
73.667000000000002
 30
0.0
 10
23.582599999999999
 20
73.667000000000002
 30
0.0
 10
23.582599999999999
 20
73.667000000000002
 30
0.0
 10
23.582599999999999
 20
73.667000000000002
 30
0.0
 10
23.896000000000001
 20
73.832800000000006
 30
0.0
 10
23.896000000000001
 20
73.832800000000006
 30
0.0
 10
23.896000000000001
 20
73.832800000000006
 30
0.0
 10
23.869
 20
74.164199999999994
 30
0.0
 10
23.817
 20
74.013000000000005
 30
0.0
 10
23.817
 20
74.316699999999997
 30
0.0
 10
23.817
 20
74.316699999999997
 30
0.0
 10
23.817
 20
74.370500000000007
 30
0.0
 10
24.0657
 20
74.617599999999996
 30
0.0
 10
24.132899999999999
 20
74.719999999999999
 30
0.0
 10
24.132899999999999
 20
74.719999999999999
 30
0.0
 10
24.068899999999999
 20
74.856300000000005
 30
0.0
 10
23.974900000000002
 20
75.279499999999999
 30
0.0
 10
23.974900000000002
 20
75.365300000000005
 30
0.0
 10
23.974900000000002
 20
75.365300000000005
 30
0.0
 10
23.974900000000002
 20
75.8215
 30
0.0
 10
24.6065
 20
75.933999999999997
 30
0.0
 10
24.6065
 20
76.333200000000005
 30
0.0
 10
24.6065
 20
76.333200000000005
 30
0.0
 10
24.6065
 20
76.709500000000006
 30
0.0
 10
23.929400000000001
 20
77.174300000000002
 30
0.0
 10
23.715399999999999
 20
77.572199999999995
 30
0.0
 10
23.715399999999999
 20
77.572199999999995
 30
0.0
 10
23.715399999999999
 20
77.572199999999995
 30
0.0
 10
24.132899999999999
 20
77.946600000000004
 30
0.0
 10
24.132899999999999
 20
77.946600000000004
 30
0.0
 10
24.132899999999999
 20
77.946600000000004
 30
0.0
 10
24.132899999999999
 20
77.946600000000004
 30
0.0
 10
23.580300000000001
 20
77.946600000000004
 30
0.0
 10
23.580300000000001
 20
77.946600000000004
 30
0.0
 10
23.580300000000001
 20
77.946600000000004
 30
0.0
 10
23.854700000000001
 20
78.625100000000003
 30
0.0
 10
23.992999999999999
 20
79.631299999999996
 30
0.0
 10
23.825800000000001
 20
80.697800000000001
 30
0.0
 10
23.825800000000001
 20
80.697800000000001
 30
0.0
 10
23.7546
 20
81.152900000000002
 30
0.0
 10
23.578900000000001
 20
81.7072
 30
0.0
 10
23.360099999999999
 20
81.996600000000001
 30
0.0
 10
23.360099999999999
 20
81.996600000000001
 30
0.0
 10
22.991099999999999
 20
82.484200000000001
 30
0.0
 10
23.003599999999999
 20
82.687399999999997
 30
0.0
 10
22.699200000000001
 20
83.095600000000005
 30
0.0
 10
22.699200000000001
 20
83.095600000000005
 30
0.0
 10
22.5501
 20
83.2958
 30
0.0
 10
22.318100000000001
 20
83.514600000000002
 30
0.0
 10
22.050000000000001
 20
83.722499999999997
 30
0.0
 10
22.050000000000001
 20
83.722499999999997
 30
0.0
 10
36.783999999999999
 20
82.103800000000007
 30
0.0
 10
48.251800000000003
 20
69.614500000000007
 30
0.0
 10
48.251800000000003
 20
54.450000000000003
 30
0.0
 10
48.251800000000003
 20
54.450000000000003
 30
0.0
 10
48.251800000000003
 20
39.0777
 30
0.0
 10
36.467500000000001
 20
26.4544
 30
0.0
 10
21.442
 20
25.1175
 30
0.0
  0
SPLINE
  5
33
100
AcDbEntity
  8
RÚteg 1
 62
     7
100
AcDbSpline
210
0.0
220
0.0
230
1.0
 70
     1
 71
     3
 72
    36
 73
    32
 74
     0
 42
0.0000000001
 43
0.0000000001
 40
0.0
 40
0.0
 40
0.0
 40
0.0
 40
0.125
 40
0.125
 40
0.125
 40
0.125
 40
0.25
 40
0.25
 40
0.25
 40
0.25
 40
0.375
 40
0.375
 40
0.375
 40
0.375
 40
0.5
 40
0.5
 40
0.5
 40
0.5
 40
0.625
 40
0.625
 40
0.625
 40
0.625
 40
0.75
 40
0.75
 40
0.75
 40
0.75
 40
0.875
 40
0.875
 40
0.875
 40
0.875
 40
1.0
 40
1.0
 40
1.0
 40
1.0
 10
22.441199999999998
 20
87.500600000000006
 30
0.0
 10
39.088900000000002
 20
85.686099999999996
 30
0.0
 10
52.049999999999997
 20
71.579499999999996
 30
0.0
 10
52.049999999999997
 20
54.450000000000003
 30
0.0
 10
52.049999999999997
 20
54.450000000000003
 30
0.0
 10
52.049999999999997
 20
36.089599999999997
 30
0.0
 10
37.160400000000003
 20
21.199999999999999
 30
0.0
 10
18.800000000000001
 20
21.199999999999999
 30
0.0
 10
18.800000000000001
 20
21.199999999999999
 30
0.0
 10
0.4396
 20
21.199999999999999
 30
0.0
 10
-14.449999999999999
 20
36.089599999999997
 30
0.0
 10
-14.449999999999999
 20
54.450000000000003
 30
0.0
 10
-14.449999999999999
 20
54.450000000000003
 30
0.0
 10
-14.449999999999999
 20
71.579499999999996
 30
0.0
 10
-1.4888999999999999
 20
85.686099999999996
 30
0.0
 10
15.158799999999999
 20
87.500600000000006
 30
0.0
 10
15.158799999999999
 20
87.500600000000006
 30
0.0
 10
14.466900000000001
 20
88.325999999999993
 30
0.0
 10
14.0501
 20
89.389200000000002
 30
0.0
 10
14.0501
 20
90.549999999999997
 30
0.0
 10
14.0501
 20
90.549999999999997
 30
0.0
 10
14.0501
 20
93.172899999999998
 30
0.0
 10
16.177099999999999
 20
95.299999999999997
 30
0.0
 10
18.800000000000001
 20
95.299999999999997
 30
0.0
 10
18.800000000000001
 20
95.299999999999997
 30
0.0
 10
21.422899999999998
 20
95.299999999999997
 30
0.0
 10
23.549900000000001
 20
93.172899999999998
 30
0.0
 10
23.549900000000001
 20
90.549999999999997
 30
0.0
 10
23.549900000000001
 20
90.549999999999997
 30
0.0
 10
23.549900000000001
 20
89.389200000000002
 30
0.0
 10
23.133099999999999
 20
88.325999999999993
 30
0.0
 10
22.441199999999998
 20
87.500600000000006
 30
0.0
  0
ENDSEC
  0
SECTION
  2
OBJECTS
  0
DICTIONARY
  5
19
100
AcDbDictionary
280
     0
281
     1
  3
ACAD_GROUP
350
1A
  3
ACAD_MLINESTYLE
350
1B
  3
ACAD_LAYOUT
350
1E
  3
ACAD_PLOTSETTINGS
350
22
  3
ACAD_PLOTSTYLENAME
350
1F
  3
ACAD_WIPEOUT_VARS
350
23
  0
DICTIONARY
  5
1A
102
{ACAD_REACTORS
330
19
102
}
100
AcDbDictionary
280
     0
281
     1
  0
DICTIONARY
  5
1B
102
{ACAD_REACTORS
330
19
102
}
100
AcDbDictionary
280
     0
281
     1
  3
Standard
350
1C
  0
MLINESTYLE
  5
1C
102
{ACAD_REACTORS
330
1B
102
}
100
AcDbMlineStyle
  2
Standard
 70
     0
  3

 62
     0
 51
90.0
 52
90.0
 71
     2
 49
0.5
 62
   256
  6
BYLAYER
 49
-0.5
 62
   256
  6
BYLAYER
  0
ACDBDICTIONARYWDFLT
  5
1F
102
{ACAD_REACTORS
330
19
102
}
100
AcDbDictionary
281
     1
  3
Normal
350
1D
100
AcDbDictionaryWithDefault
340
1D
  0
ACDBPLACEHOLDER
  5
1D
102
{ACAD_REACTORS
330
1F
102
}
  0
LAYOUT
  5
20
102
{ACAD_REACTORS
330
1E
102
}
100
AcDbPlotSettings
  1

  2

  4

  6

 40
0.0
 41
0.0
 42
0.0
 43
0.0
 44
0.0
 45
0.0
 46
0.0
 47
0.0
 48
0.0
 49
0.0
140
0.0
141
0.0
142
1.0
143
1.0
 70
  1024
 72
     0
 73
     0
 74
     0
  7

 75
     0
147
1.0
148
0.0
149
0.0
100
AcDbLayout
  1
Model
 70
     0
 71
     0
 10
0.0
 20
0.0
 11
0.0
 21
0.0
 12
0.0
 22
0.0
 32
0.0
 14
0.0
 24
0.0
 34
0.0
 15
0.0
 25
0.0
 35
0.0
146
0.0
 13
0.0
 23
0.0
 33
0.0
 16
0.0
 26
0.0
 36
0.0
 17
0.0
 27
0.0
 37
0.0
 76
     0
330
A
331
0
345
0
346
0
  0
LAYOUT
  5
21
102
{ACAD_REACTORS
330
1E
102
}
100
AcDbPlotSettings
  1

  2

  4

  6

 40
0.0
 41
0.0
 42
0.0
 43
0.0
 44
0.0
 45
0.0
 46
0.0
 47
0.0
 48
0.0
 49
0.0
140
0.0
141
0.0
142
1.0
143
1.0
 70
     0
 72
     0
 73
     0
 74
     0
  7

 75
     0
147
1.0
148
0.0
149
0.0
100
AcDbLayout
  1
Layout1
 70
     0
 71
     0
 10
0.0
 20
0.0
 11
0.0
 21
0.0
 12
0.0
 22
0.0
 32
0.0
 14
0.0
 24
0.0
 34
0.0
 15
0.0
 25
0.0
 35
0.0
146
0.0
 13
0.0
 23
0.0
 33
0.0
 16
0.0
 26
0.0
 36
0.0
 17
0.0
 27
0.0
 37
0.0
 76
     0
330
B
331
0
345
0
346
0
  0
DICTIONARY
  5
1E
102
{ACAD_REACTORS
330
19
102
}
100
AcDbDictionary
280
     0
281
     1
  3
Layout1
350
21
  3
Model
350
20
  0
DICTIONARY
  5
22
102
{ACAD_REACTORS
330
19
102
}
100
AcDbDictionary
280
     0
281
     1
  0
WIPEOUTVARIABLES
  5
23
100
AcDbWipeoutVariables
 70
     1
  0
ENDSEC
  0
EOF
