  0
SECTION
  2
HEADER
  9
$ACADVER
  1
AC1015
  9
$ACADMAINTVER
 70
     6
  9
$DWGCODEPAGE
  3
DOS850
  9
$INSBASE
 10
0.0
 20
0.0
 30
0.0
  9
$EXTMIN
 10
-92.9881
 20
19.9119
 30
1.000000E+20
  9
$EXTMAX
 10
57.0881
 20
95.3381
 30
-1.000000E+20
  9
$LIMMIN
 10
0.0
 20
0.0
  9
$LIMMAX
 10
0.0
 20
0.0
  9
$ORTHOMODE
 70
     0
  9
$REGENMODE
 70
     1
  9
$FILLMODE
 70
     1
  9
$QTEXTMODE
 70
     0
  9
$MIRRTEXT
 70
     1
  9
$LTSCALE
 40
1.0
  9
$ATTMODE
 70
     1
  9
$TEXTSIZE
 40
0.2
  9
$TRACEWID
 40
0.05
  9
$TEXTSTYLE
  7
Standard
  9
$CLAYER
  8
0
  9
$CELTYPE
  6
Continuous
  9
$CECOLOR
 62
   256
  9
$CELTSCALE
 40
1.0
  9
$DISPSILH
 70
     0
  9
$DIMSCALE
 40
1.0
  9
$DIMASZ
 40
0.18
  9
$DIMEXO
 40
0.0625
  9
$DIMDLI
 40
0.38
  9
$DIMRND
 40
0.0
  9
$DIMDLE
 40
0.0
  9
$DIMEXE
 40
0.18
  9
$DIMTP
 40
0.0
  9
$DIMTM
 40
0.0
  9
$DIMTXT
 40
0.18
  9
$DIMCEN
 40
0.09
  9
$DIMTSZ
 40
0.0
  9
$DIMTOL
 70
     0
  9
$DIMLIM
 70
     0
  9
$DIMTIH
 70
     1
  9
$DIMTOH
 70
     1
  9
$DIMSE1
 70
     0
  9
$DIMSE2
 70
     0
  9
$DIMTAD
 70
     0
  9
$DIMZIN
 70
     0
  9
$DIMBLK
  1

  9
$DIMASO
 70
     1
  9
$DIMSHO
 70
     1
  9
$DIMPOST
  1

  9
$DIMAPOST
  1

  9
$DIMALT
 70
     0
  9
$DIMALTD
 70
     2
  9
$DIMALTF
 40
25.4
  9
$DIMLFAC
 40
1.0
  9
$DIMTOFL
 70
     0
  9
$DIMTVP
 40
0.0
  9
$DIMTIX
 70
     0
  9
$DIMSOXD
 70
     0
  9
$DIMSAH
 70
     0
  9
$DIMBLK1
  1

  9
$DIMBLK2
  1

  9
$DIMSTYLE
  2
Standard
  9
$DIMCLRD
 70
     0
  9
$DIMCLRE
 70
     0
  9
$DIMCLRT
 70
     0
  9
$DIMTFAC
 40
1.0
  9
$DIMGAP
 40
0.09
  9
$DIMJUST
 70
     0
  9
$DIMSD1
 70
     0
  9
$DIMSD2
 70
     0
  9
$DIMTOLJ
 70
     1
  9
$DIMTZIN
 70
     0
  9
$DIMALTZ
 70
     0
  9
$DIMALTTZ
 70
     0
  9
$DIMUPT
 70
     0
  9
$DIMDEC
 70
     4
  9
$DIMTDEC
 70
     4
  9
$DIMALTU
 70
     2
  9
$DIMALTTD
 70
     2
  9
$DIMTXSTY
  7
Standard
  9
$DIMAUNIT
 70
     0
  9
$DIMADEC
 70
     0
  9
$DIMALTRND
 40
0.0
  9
$DIMAZIN
 70
     0
  9
$DIMDSEP
 70
     0
  9
$DIMATFIT
 70
     3
  9
$DIMFRAC
 70
     0
  9
$DIMLDRBLK
  1

  9
$DIMLUNIT
 70
     2
  9
$DIMLWD
 70
     0
  9
$DIMLWE
 70
     0
  9
$DIMTMOVE
 70
     0
  9
$LUNITS
 70
     2
  9
$LUPREC
 70
     4
  9
$SKETCHINC
 40
0.1
  9
$FILLETRAD
 40
0.0
  9
$AUNITS
 70
     0
  9
$AUPREC
 70
     0
  9
$MENU
  1
acad
  9
$ELEVATION
 40
0.0
  9
$PELEVATION
 40
0.0
  9
$THICKNESS
 40
0.0
  9
$LIMCHECK
 70
     0
  9
$CHAMFERA
 40
0.0
  9
$CHAMFERB
 40
0.0
  9
$CHAMFERC
 40
0.0
  9
$CHAMFERD
 40
0.0
  9
$SKPOLY
 70
     0
  9
$TDCREATE
 40
0.000000000
  9
$TDUCREATE
 40
0.000000000
  9
$TDUPDATE
 40
0.000000000
  9
$TDUUPDATE
 40
0.000000000
  9
$TDINDWG
 40
0.0000000000
  9
$TDUSRTIMER
 40
0.0000000000
  9
$USRTIMER
 70
     1
  9
$ANGBASE
 50
0.0
  9
$ANGDIR
 70
     0
  9
$PDMODE
 70
     0
  9
$PDSIZE
 40
0.0
  9
$PLINEWID
 40
0.0
  9
$SPLFRAME
 70
     0
  9
$SPLINETYPE
 70
     6
  9
$SPLINESEGS
 70
     8
  9
$HANDSEED
  5
39
  9
$SURFTAB1
 70
     6
  9
$SURFTAB2
 70
     6
  9
$SURFTYPE
 70
     6
  9
$SURFU
 70
     6
  9
$SURFV
 70
     6
  9
$UCSBASE
  2

  9
$UCSNAME
  2

  9
$UCSORG
 10
0.0
 20
0.0
 30
0.0
  9
$UCSXDIR
 10
1.0
 20
0.0
 30
0.0
  9
$UCSYDIR
 10
0.0
 20
1.0
 30
0.0
  9
$UCSORTHOREF
  2

  9
$UCSORTHOVIEW
 70
     0
  9
$UCSORGTOP
 10
0.0
 20
0.0
 30
0.0
  9
$UCSORGBOTTOM
 10
0.0
 20
0.0
 30
0.0
  9
$UCSORGLEFT
 10
0.0
 20
0.0
 30
0.0
  9
$UCSORGRIGHT
 10
0.0
 20
0.0
 30
0.0
  9
$UCSORGFRONT
 10
0.0
 20
0.0
 30
0.0
  9
$UCSORGBACK
 10
0.0
 20
0.0
 30
0.0
  9
$PUCSBASE
  2

  9
$PUCSNAME
  2

  9
$PUCSORG
 10
0.0
 20
0.0
 30
0.0
  9
$PUCSXDIR
 10
1.0
 20
0.0
 30
0.0
  9
$PUCSYDIR
 10
0.0
 20
1.0
 30
0.0
  9
$PUCSORTHOREF
  2

  9
$PUCSORTHOVIEW
 70
     0
  9
$PUCSORGTOP
 10
0.0
 20
0.0
 30
0.0
  9
$PUCSORGBOTTOM
 10
0.0
 20
0.0
 30
0.0
  9
$PUCSORGLEFT
 10
0.0
 20
0.0
 30
0.0
  9
$PUCSORGRIGHT
 10
0.0
 20
0.0
 30
0.0
  9
$PUCSORGFRONT
 10
0.0
 20
0.0
 30
0.0
  9
$PUCSORGBACK
 10
0.0
 20
0.0
 30
0.0
  9
$USERI1
 70
     0
  9
$USERI2
 70
     0
  9
$USERI3
 70
     0
  9
$USERI4
 70
     0
  9
$USERI5
 70
     0
  9
$USERR1
 40
0.0
  9
$USERR2
 40
0.0
  9
$USERR3
 40
0.0
  9
$USERR4
 40
0.0
  9
$USERR5
 40
0.0
  9
$WORLDVIEW
 70
     1
  9
$SHADEDGE
 70
     3
  9
$SHADEDIF
 70
    70
  9
$TILEMODE
 70
     1
  9
$MAXACTVP
 70
    16
  9
$PINSBASE
 10
0.0
 20
0.0
 30
0.0
  9
$PLIMCHECK
 70
     0
  9
$PEXTMIN
 10
1.000000E+20
 20
1.000000E+20
 30
1.000000E+20
  9
$PEXTMAX
 10
-1.000000E+20
 20
-1.000000E+20
 30
-1.000000E+20
  9
$PLIMMIN
 10
0.0
 20
0.0
  9
$PLIMMAX
 10
12.0
 20
9.0
  9
$UNITMODE
 70
     0
  9
$VISRETAIN
 70
     0
  9
$PLINEGEN
 70
     1
  9
$PSLTSCALE
 70
     0
  9
$TREEDEPTH
 70
  3020
  9
$CMLSTYLE
  2
Standard
  9
$CMLJUST
 70
     0
  9
$CMLSCALE
 40
1.0
  9
$PROXYGRAPHICS
 70
     0
  9
$MEASUREMENT
 70
     0
  9
$CELWEIGHT
370
     0
  9
$ENDCAPS
280
     0
  9
$JOINSTYLE
280
     0
  9
$LWDISPLAY
290
     0
  9
$INSUNITS
 70
     4
  9
$HYPERLINKBASE
  1

  9
$XEDIT
290
     1
  9
$CEPSNTYPE
380
     0
  9
$PSTYLEMODE
290
     1
  9
$FINGERPRINTGUID
  2

  9
$VERSIONGUID
  2

  9
$EXTNAMES
290
     1
  9
$PSVPSCALE
 40
0.0
  0
ENDSEC
  0
SECTION
  2
CLASSES
  0
CLASS
  1
LWPOLYLINE
  2
AcDbPolyline
  3
AutoCAD 2000
 90
    32768
280
     0
281
     1
  0
CLASS
  1
IMAGE
  2
AcDbRasterImage
  3
ISM
 90
    32895
280
     0
281
     1
  0
CLASS
  1
OLE2FRAME
  2
AcDbOle2Frame
  3
AutoCAD 2000
 90
    32768
280
     0
281
     1
  0
CLASS
  1
HATCH
  2
AcDbHatch
  3
AutoCAD 2000
 90
    32768
280
     0
281
     1
  0
CLASS
  1
DICTIONARYVAR
  2
AcDbDictionaryVar
  3
AutoCAD 2000
 90
    32768
280
     0
281
     0
  0
CLASS
  1
RASTERVARIABLES
  2
AcDbRasterVariables
  3
ISM
 90
    32768
280
     0
281
     0
  0
CLASS
  1
IMAGEDEF
  2
AcDbRasterImageDef
  3
ISM
 90
    32768
280
     0
281
     0
  0
CLASS
  1
IMAGEDEF_REACTOR
  2
AcDbRasterImageDefReactor
  3
ISM
 90
    32769
280
     0
281
     0
  0
CLASS
  1
IDBUFFER
  2
AcDbIdBuffer
  3
AutoCAD 2000
 90
    32768
280
     0
281
     0
  0
CLASS
  1
SPATIAL_FILTER
  2
AcDbSpatialFilter
  3
AutoCAD 2000
 90
    32768
280
     0
281
     0
  0
CLASS
  1
XRECORD
  2
AcDbXrecord
  3
AutoCAD 2000
 90
    32768
280
     0
281
     0
  0
CLASS
  1
SORTENTSTABLE
  2
AcDbSortentsTable
  3
AutoCAD 2000
 90
    32768
280
     0
281
     0
  0
CLASS
  1
LAYER_INDEX
  2
AcDbLayerIndex
  3
AutoCAD 2000
 90
    32768
280
     0
281
     0
  0
CLASS
  1
SPATIAL_INDEX
  2
AcDbSpatialIndex
  3
AutoCAD 2000
 90
    32768
280
     0
281
     0
  0
CLASS
  1
OBJECT_PTR
  2
CAseDLPNTableRecord
  3
"ASE-LPNTableRecord"
 90
    32769
280
     0
281
     0
  0
CLASS
  1
LAYOUT
  2
AcDbLayout
  3
AutoCAD 2000
 90
        0
280
     0
281
     0
  0
CLASS
  1
PLOTSETTINGS
  2
AcDbPlotSettings
  3
AutoCAD 2000
 90
    32768
280
     0
281
     0
  0
CLASS
  1
ACDBDICTIONARYWDFLT
  2
AcDbDictionaryWithDefault
  3
AutoCAD 2000
 90
        0
280
     0
281
     0
  0
CLASS
  1
ACDBPLACEHOLDER
  2
AcDbPlaceHolder
  3
AutoCAD 2000
 90
        0
280
     0
281
     0
  0
CLASS
  1
VBA_PROJECT
  2
AcDbVbaProject
  3
acadvba
 90
    32768
280
     0
281
     0
  0
CLASS
  1
WIPEOUT
  2
AcDbWipeout
  3
WipeOut|AutoCAD Express Tool|expresstools@autodesk.com
 90
    32895
280
     0
281
     1
  0
CLASS
  1
WIPEOUTVARIABLES
  2
AcDbWipeoutVariables
  3
WipeOut|AutoCAD Express Tool|expresstools@autodesk.com
 90
        0
280
     0
281
     0
  0
CLASS
  1
RTEXT
  2
RText
  3
RText|AutoCAD Express Tool|expresstools@autodesk.com
 90
    32768
280
     0
281
     1
  0
CLASS
  1
ARCALIGNEDTEXT
  2
AcDbArcAlignedText
  3
ATEXT|AutoCAD Express Tool|expresstools@autodesk.com
 90
    32768
280
     0
281
     1
  0
ENDSEC
  0
SECTION
  2
TABLES
  0
TABLE
  2
VPORT
  5
7
100
AcDbSymbolTable
 70
     1
  0
VPORT
  5
15
100
AcDbSymbolTableRecord
100
AcDbViewportTableRecord
  2
*ACTIVE
 70
     0
 10
0.0
 20
0.0
 11
1.0
 21
1.0
 12
6.591288
 22
4.579184
 13
0.0
 23
0.0
 14
1.0
 24
1.0
 15
0.0
 25
0.0
 16
0.0
 26
0.0
 36
1.0
 17
0.0
 27
0.0
 37
0.0
 40
9.158369
 41
0.688564
 42
50.0
 43
0.0
 44
0.0
 50
0.0
 51
0.0
 71
     0
 72
   100
 73
     1
 74
     1
 75
     0
 76
     0
 77
     0
 78
     0
281
     0
 65
     0
110
0.0
120
0.0
130
0.0
111
1.0
121
0.0
131
0.0
112
0.0
122
1.0
132
0.0
345
0
346
0
 79
     0
146
0.0
  0
ENDTAB
  0
TABLE
  2
LTYPE
  5
4
100
AcDbSymbolTable
 70
     3
  0
LTYPE
  5
11
100
AcDbSymbolTableRecord
100
AcDbLinetypeTableRecord
  2
ByBlock
 70
    64
  3

 72
    65
 73
     0
 40
0.0
  0
LTYPE
  5
12
100
AcDbSymbolTableRecord
100
AcDbLinetypeTableRecord
  2
ByLayer
 70
    64
  3

 72
    65
 73
     0
 40
0.0
  0
LTYPE
  5
13
100
AcDbSymbolTableRecord
100
AcDbLinetypeTableRecord
  2
Continuous
 70
    64
  3
Solid line
 72
    65
 73
     0
 40
0.0
  0
ENDTAB
  0
TABLE
  2
LAYER
  5
2
100
AcDbSymbolTable
 70
     2
  0
LAYER
  5
14
100
AcDbSymbolTableRecord
100
AcDbLayerTableRecord
  2
0
 70
     0
 62
     7
  6
Continuous
290
     1
370
    -3
390
1D
  0
LAYER
  5
24
100
AcDbSymbolTableRecord
100
AcDbLayerTableRecord
  2
RÚteg 1
 70
     0
 62
     7
  6
Continuous
290
     1
370
    -3
390
1F
  0
ENDTAB
  0
TABLE
  2
STYLE
  5
3
100
AcDbSymbolTable
 70
     1
  0
STYLE
  5
17
100
AcDbSymbolTableRecord
100
AcDbTextStyleTableRecord
  2
Standard
 70
     0
 40
0.0
 41
1.0
 50
0.0
 71
     0
 42
0.0
  3
txt
  4

  0
ENDTAB
  0
TABLE
  2
VIEW
  5
5
100
AcDbSymbolTable
 70
     0
  0
ENDTAB
  0
TABLE
  2
UCS
  5
6
100
AcDbSymbolTable
 70
     0
  0
ENDTAB
  0
TABLE
  2
APPID
  5
8
100
AcDbSymbolTable
 70
     1
  0
APPID
  5
16
100
AcDbSymbolTableRecord
100
AcDbRegAppTableRecord
  2
ACAD
 70
     0
  0
ENDTAB
  0
TABLE
  2
DIMSTYLE
  5
9
100
AcDbSymbolTable
 70
     1
100
AcDbDimStyleTable
 71
     0
  0
DIMSTYLE
105
18
100
AcDbSymbolTableRecord
100
AcDbDimStyleTableRecord
  2
Standard
 70
     0
  3

  4

 40
1.0
 41
0.18
 42
0.0625
 43
0.38
 44
0.18
 45
0.0
 46
0.0
 47
0.0
 48
0.0
 71
     0
 72
     0
 73
     1
 74
     1
 75
     0
 76
     0
 77
     0
 78
     0
 79
     0
140
0.18
141
0.09
142
0.0
143
25.4
144
1.0
145
0.0
146
1.0
147
0.09
148
0.0
170
     0
171
     2
172
     0
173
     0
174
     0
175
     0
176
     0
177
     0
178
     0
179
     0
271
     4
272
     4
273
     2
274
     2
275
     0
276
     0
277
     2
278
    46
279
     0
280
     0
281
     0
282
     0
283
     1
284
     0
285
     0
286
     0
288
     0
340
17
341
0
342
0
343
0
344
0
371
    -2
372
    -2
  0
ENDTAB
  0
TABLE
  2
BLOCK_RECORD
  5
1
100
AcDbSymbolTable
 70
     0
  0
BLOCK_RECORD
  5
A
100
AcDbSymbolTableRecord
100
AcDbBlockTableRecord
  2
*MODEL_SPACE
340
20
  0
BLOCK_RECORD
  5
B
100
AcDbSymbolTableRecord
100
AcDbBlockTableRecord
  2
*PAPER_SPACE
340
21
  0
ENDTAB
  0
ENDSEC
  0
SECTION
  2
BLOCKS
  0
BLOCK
  5
D
100
AcDbEntity
  8
0
100
AcDbBlockBegin
  2
*MODEL_SPACE
 70
     0
 10
0.0
 20
0.0
 30
0.0
  3
*MODEL_SPACE
  1

  0
ENDBLK
  5
E
100
AcDbEntity
  8
0
100
AcDbBlockEnd
  0
BLOCK
  5
F
100
AcDbEntity
 67
     1
  8
0
100
AcDbBlockBegin
  2
*PAPER_SPACE
 70
     0
 10
0.0
 20
0.0
 30
0.0
  3
*PAPER_SPACE
  1

  0
ENDBLK
  5
10
100
AcDbEntity
 67
     1
  8
0
100
AcDbBlockEnd
  0
ENDSEC
  0
SECTION
  2
ENTITIES
  0
SPLINE
  5
25
100
AcDbEntity
  8
RÚteg 1
 62
     7
100
AcDbSpline
210
0.0
220
0.0
230
1.0
 70
     1
 71
     3
 72
    28
 73
    24
 74
     0
 42
0.0000000001
 43
0.0000000001
 40
0.0
 40
0.0
 40
0.0
 40
0.0
 40
0.1666666666666667
 40
0.1666666666666667
 40
0.1666666666666667
 40
0.1666666666666667
 40
0.3333333333333333
 40
0.3333333333333333
 40
0.3333333333333333
 40
0.3333333333333333
 40
0.5
 40
0.5
 40
0.5
 40
0.5
 40
0.6666666666666666
 40
0.6666666666666666
 40
0.6666666666666666
 40
0.6666666666666666
 40
0.8333333333333333
 40
0.8333333333333333
 40
0.8333333333333333
 40
0.8333333333333333
 40
1.0
 40
1.0
 40
1.0
 40
1.0
 10
-59.139099999999999
 20
87.571799999999996
 30
0.0
 10
-59.113700000000001
 20
87.571799999999996
 30
0.0
 10
-59.088700000000003
 20
87.570899999999995
 30
0.0
 10
-59.063299999999998
 20
87.570800000000006
 30
0.0
 10
-59.063299999999998
 20
87.570800000000006
 30
0.0
 10
-57.496899999999997
 20
87.611000000000004
 30
0.0
 10
-56.239199999999997
 20
88.894000000000005
 30
0.0
 10
-56.239199999999997
 20
90.469899999999996
 30
0.0
 10
-56.239199999999997
 20
90.469899999999996
 30
0.0
 10
-56.239199999999997
 20
92.071299999999994
 30
0.0
 10
-57.537700000000001
 20
93.369900000000001
 30
0.0
 10
-59.139099999999999
 20
93.369900000000001
 30
0.0
 10
-59.139099999999999
 20
93.369900000000001
 30
0.0
 10
-60.740499999999997
 20
93.369900000000001
 30
0.0
 10
-62.039000000000001
 20
92.071299999999994
 30
0.0
 10
-62.039000000000001
 20
90.469899999999996
 30
0.0
 10
-62.039000000000001
 20
90.469899999999996
 30
0.0
 10
-62.039000000000001
 20
88.894000000000005
 30
0.0
 10
-60.781300000000002
 20
87.611000000000004
 30
0.0
 10
-59.2149
 20
87.570800000000006
 30
0.0
 10
-59.2149
 20
87.570800000000006
 30
0.0
 10
-59.189500000000002
 20
87.570899999999995
 30
0.0
 10
-59.164499999999997
 20
87.571799999999996
 30
0.0
 10
-59.139099999999999
 20
87.571799999999996
 30
0.0
  0
SPLINE
  5
26
100
AcDbEntity
  8
RÚteg 1
 62
     7
100
AcDbSpline
210
0.0
220
0.0
230
1.0
 70
     1
 71
     3
 72
    20
 73
    16
 74
     0
 42
0.0000000001
 43
0.0000000001
 40
0.0
 40
0.0
 40
0.0
 40
0.0
 40
0.25
 40
0.25
 40
0.25
 40
0.25
 40
0.5
 40
0.5
 40
0.5
 40
0.5
 40
0.75
 40
0.75
 40
0.75
 40
0.75
 40
1.0
 40
1.0
 40
1.0
 40
1.0
 10
-71.120000000000005
 20
33.697800000000001
 30
0.0
 10
-71.120000000000005
 20
33.697800000000001
 30
0.0
 10
-67.979500000000002
 20
33.697800000000001
 30
0.0
 10
-67.979500000000002
 20
33.697800000000001
 30
0.0
 10
-67.979500000000002
 20
33.697800000000001
 30
0.0
 10
-67.979500000000002
 20
33.697800000000001
 30
0.0
 10
-67.979500000000002
 20
35.472099999999998
 30
0.0
 10
-67.979500000000002
 20
35.472099999999998
 30
0.0
 10
-67.979500000000002
 20
35.472099999999998
 30
0.0
 10
-68.769099999999995
 20
35.516399999999997
 30
0.0
 10
-69.632300000000001
 20
35.392800000000001
 30
0.0
 10
-70.569100000000006
 20
35.1006
 30
0.0
 10
-70.569100000000006
 20
35.1006
 30
0.0
 10
-70.859499999999997
 20
34.6556
 30
0.0
 10
-71.043499999999995
 20
34.1877
 30
0.0
 10
-71.120000000000005
 20
33.697800000000001
 30
0.0
  0
SPLINE
  5
27
100
AcDbEntity
  8
RÚteg 1
 62
     7
100
AcDbSpline
210
0.0
220
0.0
230
1.0
 70
     1
 71
     3
 72
    48
 73
    44
 74
     0
 42
0.0000000001
 43
0.0000000001
 40
0.0
 40
0.0
 40
0.0
 40
0.0
 40
0.0909090909090909
 40
0.0909090909090909
 40
0.0909090909090909
 40
0.0909090909090909
 40
0.1818181818181818
 40
0.1818181818181818
 40
0.1818181818181818
 40
0.1818181818181818
 40
0.2727272727272727
 40
0.2727272727272727
 40
0.2727272727272727
 40
0.2727272727272727
 40
0.3636363636363637
 40
0.3636363636363637
 40
0.3636363636363637
 40
0.3636363636363637
 40
0.4545454545454546
 40
0.4545454545454546
 40
0.4545454545454546
 40
0.4545454545454546
 40
0.5454545454545455
 40
0.5454545454545455
 40
0.5454545454545455
 40
0.5454545454545455
 40
0.6363636363636365
 40
0.6363636363636365
 40
0.6363636363636365
 40
0.6363636363636365
 40
0.7272727272727274
 40
0.7272727272727274
 40
0.7272727272727274
 40
0.7272727272727274
 40
0.8181818181818183
 40
0.8181818181818183
 40
0.8181818181818183
 40
0.8181818181818183
 40
0.9090909090909093
 40
0.9090909090909093
 40
0.9090909090909093
 40
0.9090909090909093
 40
1.0
 40
1.0
 40
1.0
 40
1.0
 10
-44.0426
 20
79.628299999999996
 30
0.0
 10
-42.065100000000001
 20
77.180199999999999
 30
0.0
 10
-40.8797
 20
74.065200000000004
 30
0.0
 10
-40.8797
 20
70.673599999999993
 30
0.0
 10
-40.8797
 20
70.673599999999993
 30
0.0
 10
-40.8797
 20
63.657299999999999
 30
0.0
 10
-45.948599999999999
 20
57.822400000000002
 30
0.0
 10
-52.6233
 20
56.633099999999999
 30
0.0
 10
-52.6233
 20
56.633099999999999
 30
0.0
 10
-52.6233
 20
56.633099999999999
 30
0.0
 10
-52.6233
 20
35.961100000000002
 30
0.0
 10
-52.6233
 20
35.961100000000002
 30
0.0
 10
-52.6233
 20
35.961100000000002
 30
0.0
 10
-52.6233
 20
35.961100000000002
 30
0.0
 10
-45.421199999999999
 20
35.961100000000002
 30
0.0
 10
-45.421199999999999
 20
35.961100000000002
 30
0.0
 10
-45.421199999999999
 20
35.961100000000002
 30
0.0
 10
-45.421199999999999
 20
35.961100000000002
 30
0.0
 10
-45.421199999999999
 20
33.697800000000001
 30
0.0
 10
-45.421199999999999
 20
33.697800000000001
 30
0.0
 10
-45.421199999999999
 20
33.697800000000001
 30
0.0
 10
-45.421199999999999
 20
33.697800000000001
 30
0.0
 10
-39.538400000000003
 20
33.697800000000001
 30
0.0
 10
-39.538400000000003
 20
33.697800000000001
 30
0.0
 10
-39.538400000000003
 20
33.697800000000001
 30
0.0
 10
-40.603900000000003
 20
34.4587
 30
0.0
 10
-41.299300000000002
 20
35.705199999999998
 30
0.0
 10
-41.299300000000002
 20
37.114199999999997
 30
0.0
 10
-41.299300000000002
 20
37.114199999999997
 30
0.0
 10
-41.299300000000002
 20
39.430999999999997
 30
0.0
 10
-39.4206
 20
41.309100000000001
 30
0.0
 10
-37.104399999999998
 20
41.309100000000001
 30
0.0
 10
-37.104399999999998
 20
41.309100000000001
 30
0.0
 10
-35.360999999999997
 20
41.309100000000001
 30
0.0
 10
-33.865699999999997
 20
40.2453
 30
0.0
 10
-33.232799999999997
 20
38.731099999999998
 30
0.0
 10
-33.232799999999997
 20
38.731099999999998
 30
0.0
 10
-30.663499999999999
 20
43.149299999999997
 30
0.0
 10
-29.1905
 20
48.283200000000001
 30
0.0
 10
-29.1905
 20
53.760899999999999
 30
0.0
 10
-29.1905
 20
53.760899999999999
 30
0.0
 10
-29.1905
 20
64.792500000000004
 30
0.0
 10
-35.159799999999997
 20
74.431899999999999
 30
0.0
 10
-44.0426
 20
79.628299999999996
 30
0.0
  0
SPLINE
  5
28
100
AcDbEntity
  8
RÚteg 1
 62
     7
100
AcDbSpline
210
0.0
220
0.0
230
1.0
 70
     1
 71
     3
 72
    32
 73
    28
 74
     0
 42
0.0000000001
 43
0.0000000001
 40
0.0
 40
0.0
 40
0.0
 40
0.0
 40
0.1428571428571429
 40
0.1428571428571429
 40
0.1428571428571429
 40
0.1428571428571429
 40
0.2857142857142857
 40
0.2857142857142857
 40
0.2857142857142857
 40
0.2857142857142857
 40
0.4285714285714286
 40
0.4285714285714286
 40
0.4285714285714286
 40
0.4285714285714286
 40
0.5714285714285714
 40
0.5714285714285714
 40
0.5714285714285714
 40
0.5714285714285714
 40
0.7142857142857142
 40
0.7142857142857142
 40
0.7142857142857142
 40
0.7142857142857142
 40
0.857142857142857
 40
0.857142857142857
 40
0.857142857142857
 40
0.857142857142857
 40
1.0
 40
1.0
 40
1.0
 40
1.0
 10
-37.607300000000002
 20
32.9499
 30
0.0
 10
-37.698799999999999
 20
32.960799999999999
 30
0.0
 10
-37.789299999999997
 20
32.974499999999999
 30
0.0
 10
-37.878799999999998
 20
32.991300000000003
 30
0.0
 10
-37.878799999999998
 20
32.991300000000003
 30
0.0
 10
-37.878799999999998
 20
32.991300000000003
 30
0.0
 10
-44.484499999999997
 20
29.083400000000001
 30
0.0
 10
-44.484499999999997
 20
29.083400000000001
 30
0.0
 10
-44.484499999999997
 20
29.083400000000001
 30
0.0
 10
-44.484499999999997
 20
29.083400000000001
 30
0.0
 10
-68.915199999999999
 20
29.083400000000001
 30
0.0
 10
-68.915199999999999
 20
29.083400000000001
 30
0.0
 10
-68.915199999999999
 20
29.083400000000001
 30
0.0
 10
-68.915199999999999
 20
29.083400000000001
 30
0.0
 10
-76.123099999999994
 20
33.347000000000001
 30
0.0
 10
-76.123099999999994
 20
33.347000000000001
 30
0.0
 10
-76.123099999999994
 20
33.347000000000001
 30
0.0
 10
-77.384200000000007
 20
33.122599999999998
 30
0.0
 10
-78.528999999999996
 20
32.6004
 30
0.0
 10
-79.578299999999999
 20
31.8765
 30
0.0
 10
-79.578299999999999
 20
31.8765
 30
0.0
 10
-74.225899999999996
 20
26.8752
 30
0.0
 10
-67.040300000000002
 20
23.8125
 30
0.0
 10
-59.139099999999999
 20
23.8125
 30
0.0
 10
-59.139099999999999
 20
23.8125
 30
0.0
 10
-50.687100000000001
 20
23.8125
 30
0.0
 10
-43.052599999999998
 20
27.316500000000001
 30
0.0
 10
-37.607300000000002
 20
32.9499
 30
0.0
  0
SPLINE
  5
29
100
AcDbEntity
  8
RÚteg 1
 62
     7
100
AcDbSpline
210
0.0
220
0.0
230
1.0
 70
     1
 71
     3
 72
    56
 73
    52
 74
     0
 42
0.0000000001
 43
0.0000000001
 40
0.0
 40
0.0
 40
0.0
 40
0.0
 40
0.0769230769230769
 40
0.0769230769230769
 40
0.0769230769230769
 40
0.0769230769230769
 40
0.1538461538461539
 40
0.1538461538461539
 40
0.1538461538461539
 40
0.1538461538461539
 40
0.2307692307692308
 40
0.2307692307692308
 40
0.2307692307692308
 40
0.2307692307692308
 40
0.3076923076923077
 40
0.3076923076923077
 40
0.3076923076923077
 40
0.3076923076923077
 40
0.3846153846153846
 40
0.3846153846153846
 40
0.3846153846153846
 40
0.3846153846153846
 40
0.4615384615384616
 40
0.4615384615384616
 40
0.4615384615384616
 40
0.4615384615384616
 40
0.5384615384615386
 40
0.5384615384615386
 40
0.5384615384615386
 40
0.5384615384615386
 40
0.6153846153846154
 40
0.6153846153846154
 40
0.6153846153846154
 40
0.6153846153846154
 40
0.6923076923076923
 40
0.6923076923076923
 40
0.6923076923076923
 40
0.6923076923076923
 40
0.7692307692307692
 40
0.7692307692307692
 40
0.7692307692307692
 40
0.7692307692307692
 40
0.846153846153846
 40
0.846153846153846
 40
0.846153846153846
 40
0.846153846153846
 40
0.9230769230769229
 40
0.9230769230769229
 40
0.9230769230769229
 40
0.9230769230769229
 40
1.0
 40
1.0
 40
1.0
 40
1.0
 10
-83.952699999999993
 20
36.989699999999999
 30
0.0
 10
-82.104699999999994
 20
37.704300000000003
 30
0.0
 10
-80.650999999999996
 20
39.022300000000001
 30
0.0
 10
-79.592299999999994
 20
40.944499999999998
 30
0.0
 10
-79.592299999999994
 20
40.944499999999998
 30
0.0
 10
-78.072299999999998
 20
39.467700000000001
 30
0.0
 10
-76.182500000000005
 20
38.877800000000001
 30
0.0
 10
-73.924700000000001
 20
39.174199999999999
 30
0.0
 10
-73.924700000000001
 20
39.174199999999999
 30
0.0
 10
-75.252300000000005
 20
40.847499999999997
 30
0.0
 10
-76.927599999999998
 20
41.715699999999998
 30
0.0
 10
-78.951400000000007
 20
41.780299999999997
 30
0.0
 10
-78.951400000000007
 20
41.780299999999997
 30
0.0
 10
-77.970500000000001
 20
44.961100000000002
 30
0.0
 10
-78.619600000000005
 20
47.830800000000004
 30
0.0
 10
-80.898200000000003
 20
50.386000000000003
 30
0.0
 10
-80.898200000000003
 20
50.386000000000003
 30
0.0
 10
-78.550600000000003
 20
49.002699999999997
 30
0.0
 10
-75.774600000000007
 20
48.7119
 30
0.0
 10
-72.569699999999997
 20
49.512900000000002
 30
0.0
 10
-72.569699999999997
 20
49.512900000000002
 30
0.0
 10
-72.426000000000002
 20
46.475499999999997
 30
0.0
 10
-71.3048
 20
43.721200000000003
 30
0.0
 10
-68.155799999999999
 20
41.902700000000003
 30
0.0
 10
-68.155799999999999
 20
41.902700000000003
 30
0.0
 10
-66.292299999999997
 20
43.395499999999998
 30
0.0
 10
-65.387799999999999
 20
45.444699999999997
 30
0.0
 10
-65.023799999999994
 20
47.718600000000002
 30
0.0
 10
-65.023799999999994
 20
47.718600000000002
 30
0.0
 10
-62.825000000000003
 20
46.898400000000002
 30
0.0
 10
-60.779200000000003
 20
46.650100000000002
 30
0.0
 10
-58.8874
 20
46.974800000000002
 30
0.0
 10
-58.8874
 20
46.974800000000002
 30
0.0
 10
-58.8874
 20
46.974800000000002
 30
0.0
 10
-58.8874
 20
56.909500000000001
 30
0.0
 10
-58.8874
 20
56.909500000000001
 30
0.0
 10
-58.8874
 20
56.909500000000001
 30
0.0
 10
-64.947100000000006
 20
58.554299999999998
 30
0.0
 10
-69.404499999999999
 20
64.094300000000004
 30
0.0
 10
-69.404499999999999
 20
70.673599999999993
 30
0.0
 10
-69.404499999999999
 20
70.673599999999993
 30
0.0
 10
-69.404499999999999
 20
76.431299999999993
 30
0.0
 10
-65.991
 20
81.392899999999997
 30
0.0
 10
-61.078000000000003
 20
83.645399999999995
 30
0.0
 10
-61.078000000000003
 20
83.645399999999995
 30
0.0
 10
-76.711699999999993
 20
82.645399999999995
 30
0.0
 10
-89.087699999999998
 20
69.646600000000007
 30
0.0
 10
-89.087699999999998
 20
53.760899999999999
 30
0.0
 10
-89.087699999999998
 20
53.760899999999999
 30
0.0
 10
-89.087699999999998
 20
47.547199999999997
 30
0.0
 10
-87.194299999999998
 20
41.7746
 30
0.0
 10
-83.952699999999993
 20
36.989699999999999
 30
0.0
  0
SPLINE
  5
2A
100
AcDbEntity
  8
RÚteg 1
 62
     7
100
AcDbSpline
210
0.0
220
0.0
230
1.0
 70
     1
 71
     3
 72
    76
 73
    72
 74
     0
 42
0.0000000001
 43
0.0000000001
 40
0.0
 40
0.0
 40
0.0
 40
0.0
 40
0.0555555555555556
 40
0.0555555555555556
 40
0.0555555555555556
 40
0.0555555555555556
 40
0.1111111111111111
 40
0.1111111111111111
 40
0.1111111111111111
 40
0.1111111111111111
 40
0.1666666666666667
 40
0.1666666666666667
 40
0.1666666666666667
 40
0.1666666666666667
 40
0.2222222222222222
 40
0.2222222222222222
 40
0.2222222222222222
 40
0.2222222222222222
 40
0.2777777777777778
 40
0.2777777777777778
 40
0.2777777777777778
 40
0.2777777777777778
 40
0.3333333333333334
 40
0.3333333333333334
 40
0.3333333333333334
 40
0.3333333333333334
 40
0.388888888888889
 40
0.388888888888889
 40
0.388888888888889
 40
0.388888888888889
 40
0.4444444444444445
 40
0.4444444444444445
 40
0.4444444444444445
 40
0.4444444444444445
 40
0.5000000000000001
 40
0.5000000000000001
 40
0.5000000000000001
 40
0.5000000000000001
 40
0.5555555555555557
 40
0.5555555555555557
 40
0.5555555555555557
 40
0.5555555555555557
 40
0.6111111111111113
 40
0.6111111111111113
 40
0.6111111111111113
 40
0.6111111111111113
 40
0.6666666666666669
 40
0.6666666666666669
 40
0.6666666666666669
 40
0.6666666666666669
 40
0.7222222222222224
 40
0.7222222222222224
 40
0.7222222222222224
 40
0.7222222222222224
 40
0.777777777777778
 40
0.777777777777778
 40
0.777777777777778
 40
0.777777777777778
 40
0.8333333333333336
 40
0.8333333333333336
 40
0.8333333333333336
 40
0.8333333333333336
 40
0.8888888888888892
 40
0.8888888888888892
 40
0.8888888888888892
 40
0.8888888888888892
 40
0.9444444444444448
 40
0.9444444444444448
 40
0.9444444444444448
 40
0.9444444444444448
 40
1.0
 40
1.0
 40
1.0
 40
1.0
 10
-55.142299999999999
 20
82.690100000000001
 30
0.0
 10
-48.506500000000003
 20
82.690100000000001
 30
0.0
 10
-43.126100000000001
 20
77.309200000000004
 30
0.0
 10
-43.126100000000001
 20
70.673599999999993
 30
0.0
 10
-43.126100000000001
 20
70.673599999999993
 30
0.0
 10
-43.126100000000001
 20
64.902600000000007
 30
0.0
 10
-47.197499999999998
 20
60.080199999999998
 30
0.0
 10
-52.6233
 20
58.922899999999998
 30
0.0
 10
-52.6233
 20
58.922899999999998
 30
0.0
 10
-52.6233
 20
58.922899999999998
 30
0.0
 10
-52.6233
 20
65.010499999999993
 30
0.0
 10
-52.6233
 20
65.010499999999993
 30
0.0
 10
-52.6233
 20
65.010499999999993
 30
0.0
 10
-52.6233
 20
65.010499999999993
 30
0.0
 10
-54.831299999999999
 20
65.010499999999993
 30
0.0
 10
-54.831299999999999
 20
65.010499999999993
 30
0.0
 10
-54.831299999999999
 20
65.010499999999993
 30
0.0
 10
-53.666400000000003
 20
65.495900000000006
 30
0.0
 10
-52.835299999999997
 20
66.768199999999993
 30
0.0
 10
-52.835299999999997
 20
68.261600000000001
 30
0.0
 10
-52.835299999999997
 20
68.261600000000001
 30
0.0
 10
-52.835299999999997
 20
68.342200000000005
 30
0.0
 10
-52.837899999999998
 20
68.421099999999996
 30
0.0
 10
-52.842100000000002
 20
68.500200000000007
 30
0.0
 10
-52.842100000000002
 20
68.500200000000007
 30
0.0
 10
-52.842100000000002
 20
68.500200000000007
 30
0.0
 10
-52.841799999999999
 20
68.499600000000001
 30
0.0
 10
-52.841799999999999
 20
68.499600000000001
 30
0.0
 10
-52.841799999999999
 20
68.499600000000001
 30
0.0
 10
-52.717199999999998
 20
72.198099999999997
 30
0.0
 10
-53.209600000000002
 20
75.897199999999998
 30
0.0
 10
-54.603400000000001
 20
79.595200000000006
 30
0.0
 10
-54.603400000000001
 20
79.595200000000006
 30
0.0
 10
-55.063000000000002
 20
76.4846
 30
0.0
 10
-56.247900000000001
 20
73.602699999999999
 30
0.0
 10
-57.881399999999999
 20
70.863299999999995
 30
0.0
 10
-57.881399999999999
 20
70.863299999999995
 30
0.0
 10
-58.233899999999998
 20
70.511700000000005
 30
0.0
 10
-58.513100000000001
 20
70.069199999999995
 30
0.0
 10
-58.692799999999998
 20
69.569299999999998
 30
0.0
 10
-58.692799999999998
 20
69.569299999999998
 30
0.0
 10
-58.692799999999998
 20
69.569299999999998
 30
0.0
 10
-58.693399999999997
 20
69.567899999999995
 30
0.0
 10
-58.693399999999997
 20
69.567899999999995
 30
0.0
 10
-58.693399999999997
 20
69.567899999999995
 30
0.0
 10
-58.693399999999997
 20
69.567899999999995
 30
0.0
 10
-58.693199999999997
 20
69.567899999999995
 30
0.0
 10
-58.693199999999997
 20
69.567899999999995
 30
0.0
 10
-58.693199999999997
 20
69.567899999999995
 30
0.0
 10
-58.837400000000002
 20
69.165000000000006
 30
0.0
 10
-58.918199999999999
 20
68.724599999999995
 30
0.0
 10
-58.918199999999999
 20
68.261600000000001
 30
0.0
 10
-58.918199999999999
 20
68.261600000000001
 30
0.0
 10
-58.918199999999999
 20
66.768199999999993
 30
0.0
 10
-58.086199999999998
 20
65.495900000000006
 30
0.0
 10
-56.921599999999998
 20
65.010499999999993
 30
0.0
 10
-56.921599999999998
 20
65.010499999999993
 30
0.0
 10
-56.921599999999998
 20
65.010499999999993
 30
0.0
 10
-58.8874
 20
65.010499999999993
 30
0.0
 10
-58.8874
 20
65.010499999999993
 30
0.0
 10
-58.8874
 20
65.010499999999993
 30
0.0
 10
-58.8874
 20
65.010499999999993
 30
0.0
 10
-58.8874
 20
59.253399999999999
 30
0.0
 10
-58.8874
 20
59.253399999999999
 30
0.0
 10
-58.8874
 20
59.253399999999999
 30
0.0
 10
-63.689100000000003
 20
60.8279
 30
0.0
 10
-67.158600000000007
 20
65.345799999999997
 30
0.0
 10
-67.158600000000007
 20
70.673599999999993
 30
0.0
 10
-67.158600000000007
 20
70.673599999999993
 30
0.0
 10
-67.158600000000007
 20
77.309200000000004
 30
0.0
 10
-61.7776
 20
82.690100000000001
 30
0.0
 10
-55.142299999999999
 20
82.690100000000001
 30
0.0
  0
SPLINE
  5
2B
100
AcDbEntity
  8
RÚteg 1
 62
     7
100
AcDbSpline
210
0.0
220
0.0
230
1.0
 70
     1
 71
     3
 72
    20
 73
    16
 74
     0
 42
0.0000000001
 43
0.0000000001
 40
0.0
 40
0.0
 40
0.0
 40
0.0
 40
0.25
 40
0.25
 40
0.25
 40
0.25
 40
0.5
 40
0.5
 40
0.5
 40
0.5
 40
0.75
 40
0.75
 40
0.75
 40
0.75
 40
1.0
 40
1.0
 40
1.0
 40
1.0
 10
-65.941400000000002
 20
35.961100000000002
 30
0.0
 10
-65.941400000000002
 20
35.961100000000002
 30
0.0
 10
-58.8874
 20
35.961100000000002
 30
0.0
 10
-58.8874
 20
35.961100000000002
 30
0.0
 10
-58.8874
 20
35.961100000000002
 30
0.0
 10
-58.8874
 20
35.961100000000002
 30
0.0
 10
-58.8874
 20
44.802700000000002
 30
0.0
 10
-58.8874
 20
44.802700000000002
 30
0.0
 10
-58.8874
 20
44.802700000000002
 30
0.0
 10
-59.707500000000003
 20
43.162300000000002
 30
0.0
 10
-59.927300000000002
 20
41.335599999999999
 30
0.0
 10
-59.545699999999997
 20
39.320099999999996
 30
0.0
 10
-59.545699999999997
 20
39.320099999999996
 30
0.0
 10
-62.0824
 20
39.524799999999999
 30
0.0
 10
-64.214200000000005
 20
38.404800000000002
 30
0.0
 10
-65.941400000000002
 20
35.961100000000002
 30
0.0
  0
SPLINE
  5
2C
100
AcDbEntity
  8
RÚteg 1
 62
     7
100
AcDbSpline
210
0.0
220
0.0
230
1.0
 70
     1
 71
     3
 72
    24
 73
    20
 74
     0
 42
0.0000000001
 43
0.0000000001
 40
0.0
 40
0.0
 40
0.0
 40
0.0
 40
0.2
 40
0.2
 40
0.2
 40
0.2
 40
0.4
 40
0.4
 40
0.4
 40
0.4
 40
0.6000000000000001
 40
0.6000000000000001
 40
0.6000000000000001
 40
0.6000000000000001
 40
0.8
 40
0.8
 40
0.8
 40
0.8
 40
1.0
 40
1.0
 40
1.0
 40
1.0
 10
-78.292000000000002
 20
48.030200000000001
 30
0.0
 10
-74.870599999999996
 20
45.933900000000001
 30
0.0
 10
-72.284599999999998
 20
43.149299999999997
 30
0.0
 10
-70.918099999999995
 20
39.3581
 30
0.0
 10
-70.918099999999995
 20
39.3581
 30
0.0
 10
-70.727400000000003
 20
39.514099999999999
 30
0.0
 10
-70.535200000000003
 20
39.6691
 30
0.0
 10
-70.344099999999997
 20
39.824300000000001
 30
0.0
 10
-70.344099999999997
 20
39.824300000000001
 30
0.0
 10
-71.944000000000003
 20
43.441200000000002
 30
0.0
 10
-74.483000000000004
 20
46.173900000000003
 30
0.0
 10
-77.8005
 20
48.172800000000002
 30
0.0
 10
-77.8005
 20
48.172800000000002
 30
0.0
 10
-77.941000000000003
 20
48.171900000000001
 30
0.0
 10
-78.081900000000005
 20
48.170999999999999
 30
0.0
 10
-78.222300000000004
 20
48.170699999999997
 30
0.0
 10
-78.222300000000004
 20
48.170699999999997
 30
0.0
 10
-78.246099999999998
 20
48.123899999999999
 30
0.0
 10
-78.269099999999995
 20
48.076300000000003
 30
0.0
 10
-78.292000000000002
 20
48.030200000000001
 30
0.0
  0
SPLINE
  5
2D
100
AcDbEntity
  8
RÚteg 1
 62
     7
100
AcDbSpline
210
0.0
220
0.0
230
1.0
 70
     1
 71
     3
 72
    20
 73
    16
 74
     0
 42
0.0000000001
 43
0.0000000001
 40
0.0
 40
0.0
 40
0.0
 40
0.0
 40
0.25
 40
0.25
 40
0.25
 40
0.25
 40
0.5
 40
0.5
 40
0.5
 40
0.5
 40
0.75
 40
0.75
 40
0.75
 40
0.75
 40
1.0
 40
1.0
 40
1.0
 40
1.0
 10
-66.311199999999999
 20
39.740600000000001
 30
0.0
 10
-66.136799999999994
 20
39.701799999999999
 30
0.0
 10
-65.962199999999996
 20
39.663499999999999
 30
0.0
 10
-65.787599999999998
 20
39.625100000000003
 30
0.0
 10
-65.787599999999998
 20
39.625100000000003
 30
0.0
 10
-64.508099999999999
 20
41.615400000000001
 30
0.0
 10
-62.472499999999997
 20
43.655000000000001
 30
0.0
 10
-59.332999999999998
 20
45.764299999999999
 30
0.0
 10
-59.332999999999998
 20
45.764299999999999
 30
0.0
 10
-59.399900000000002
 20
45.806600000000003
 30
0.0
 10
-59.466900000000003
 20
45.849200000000003
 30
0.0
 10
-59.532699999999998
 20
45.891100000000002
 30
0.0
 10
-59.532699999999998
 20
45.891100000000002
 30
0.0
 10
-62.630699999999997
 20
44.227800000000002
 30
0.0
 10
-64.683199999999999
 20
42.081600000000002
 30
0.0
 10
-66.311199999999999
 20
39.740600000000001
 30
0.0
  0
SPLINE
  5
2E
100
AcDbEntity
  8
RÚteg 1
 62
     7
100
AcDbSpline
210
0.0
220
0.0
230
1.0
 70
     1
 71
     3
 72
    24
 73
    20
 74
     0
 42
0.0000000001
 43
0.0000000001
 40
0.0
 40
0.0
 40
0.0
 40
0.0
 40
0.2
 40
0.2
 40
0.2
 40
0.2
 40
0.4
 40
0.4
 40
0.4
 40
0.4
 40
0.6000000000000001
 40
0.6000000000000001
 40
0.6000000000000001
 40
0.6000000000000001
 40
0.8
 40
0.8
 40
0.8
 40
0.8
 40
1.0
 40
1.0
 40
1.0
 40
1.0
 10
-83.038700000000006
 20
35.715499999999999
 30
0.0
 10
-82.944599999999994
 20
35.887300000000003
 30
0.0
 10
-82.851100000000002
 20
36.058999999999997
 30
0.0
 10
-82.756699999999995
 20
36.230899999999998
 30
0.0
 10
-82.756699999999995
 20
36.230899999999998
 30
0.0
 10
-80.093699999999998
 20
35.838900000000002
 30
0.0
 10
-76.823999999999998
 20
36.058300000000003
 30
0.0
 10
-72.667100000000005
 20
37.1721
 30
0.0
 10
-72.667100000000005
 20
37.1721
 30
0.0
 10
-72.680999999999997
 20
37.082799999999999
 30
0.0
 10
-72.694299999999998
 20
36.9938
 30
0.0
 10
-72.708399999999997
 20
36.905299999999997
 30
0.0
 10
-72.708399999999997
 20
36.905299999999997
 30
0.0
 10
-76.439700000000002
 20
35.499299999999998
 30
0.0
 10
-79.805199999999999
 20
35.3416
 30
0.0
 10
-83.0214
 20
35.692900000000002
 30
0.0
 10
-83.0214
 20
35.692900000000002
 30
0.0
 10
-83.0214
 20
35.692900000000002
 30
0.0
 10
-83.038700000000006
 20
35.715499999999999
 30
0.0
 10
-83.038700000000006
 20
35.715499999999999
 30
0.0
  0
SPLINE
  5
2F
100
AcDbEntity
  8
RÚteg 1
 62
     7
100
AcDbSpline
210
0.0
220
0.0
230
1.0
 70
     1
 71
     3
 72
    20
 73
    16
 74
     0
 42
0.0000000001
 43
0.0000000001
 40
0.0
 40
0.0
 40
0.0
 40
0.0
 40
0.25
 40
0.25
 40
0.25
 40
0.25
 40
0.5
 40
0.5
 40
0.5
 40
0.5
 40
0.75
 40
0.75
 40
0.75
 40
0.75
 40
1.0
 40
1.0
 40
1.0
 40
1.0
 10
-37.104399999999998
 20
39.063099999999999
 30
0.0
 10
-36.027999999999999
 20
39.063099999999999
 30
0.0
 10
-35.155500000000004
 20
38.190199999999997
 30
0.0
 10
-35.155500000000004
 20
37.114199999999997
 30
0.0
 10
-35.155500000000004
 20
37.114199999999997
 30
0.0
 10
-35.155500000000004
 20
36.038600000000002
 30
0.0
 10
-36.027999999999999
 20
35.165900000000001
 30
0.0
 10
-37.104399999999998
 20
35.165900000000001
 30
0.0
 10
-37.104399999999998
 20
35.165900000000001
 30
0.0
 10
-38.180300000000003
 20
35.165900000000001
 30
0.0
 10
-39.052799999999998
 20
36.038600000000002
 30
0.0
 10
-39.052799999999998
 20
37.114199999999997
 30
0.0
 10
-39.052799999999998
 20
37.114199999999997
 30
0.0
 10
-39.052799999999998
 20
38.190199999999997
 30
0.0
 10
-38.180300000000003
 20
39.063099999999999
 30
0.0
 10
-37.104399999999998
 20
39.063099999999999
 30
0.0
  0
SPLINE
  5
30
100
AcDbEntity
  8
RÚteg 1
 62
     7
100
AcDbSpline
210
0.0
220
0.0
230
1.0
 70
     1
 71
     3
 72
    36
 73
    32
 74
     0
 42
0.0000000001
 43
0.0000000001
 40
0.0
 40
0.0
 40
0.0
 40
0.0
 40
0.125
 40
0.125
 40
0.125
 40
0.125
 40
0.25
 40
0.25
 40
0.25
 40
0.25
 40
0.375
 40
0.375
 40
0.375
 40
0.375
 40
0.5
 40
0.5
 40
0.5
 40
0.5
 40
0.625
 40
0.625
 40
0.625
 40
0.625
 40
0.75
 40
0.75
 40
0.75
 40
0.75
 40
0.875
 40
0.875
 40
0.875
 40
0.875
 40
1.0
 40
1.0
 40
1.0
 40
1.0
 10
-55.436500000000002
 20
87.369
 30
0.0
 10
-38.507899999999999
 20
85.523899999999998
 30
0.0
 10
-25.328199999999999
 20
71.179500000000004
 30
0.0
 10
-25.328199999999999
 20
53.760899999999999
 30
0.0
 10
-25.328199999999999
 20
53.760899999999999
 30
0.0
 10
-25.328199999999999
 20
35.090699999999998
 30
0.0
 10
-40.468899999999998
 20
19.949999999999999
 30
0.0
 10
-59.139099999999999
 20
19.949999999999999
 30
0.0
 10
-59.139099999999999
 20
19.949999999999999
 30
0.0
 10
-77.809299999999993
 20
19.949999999999999
 30
0.0
 10
-92.950000000000003
 20
35.090699999999998
 30
0.0
 10
-92.950000000000003
 20
53.760899999999999
 30
0.0
 10
-92.950000000000003
 20
53.760899999999999
 30
0.0
 10
-92.950000000000003
 20
71.179500000000004
 30
0.0
 10
-79.770300000000006
 20
85.523899999999998
 30
0.0
 10
-62.841700000000003
 20
87.369
 30
0.0
 10
-62.841700000000003
 20
87.369
 30
0.0
 10
-63.545299999999997
 20
88.208200000000005
 30
0.0
 10
-63.969200000000001
 20
89.289500000000004
 30
0.0
 10
-63.969200000000001
 20
90.469899999999996
 30
0.0
 10
-63.969200000000001
 20
90.469899999999996
 30
0.0
 10
-63.969200000000001
 20
93.137
 30
0.0
 10
-61.806199999999997
 20
95.299999999999997
 30
0.0
 10
-59.139099999999999
 20
95.299999999999997
 30
0.0
 10
-59.139099999999999
 20
95.299999999999997
 30
0.0
 10
-56.472000000000001
 20
95.299999999999997
 30
0.0
 10
-54.309100000000001
 20
93.137
 30
0.0
 10
-54.309100000000001
 20
90.469899999999996
 30
0.0
 10
-54.309100000000001
 20
90.469899999999996
 30
0.0
 10
-54.309100000000001
 20
89.289500000000004
 30
0.0
 10
-54.732900000000001
 20
88.208200000000005
 30
0.0
 10
-55.436500000000002
 20
87.369
 30
0.0
  0
SPLINE
  5
31
100
AcDbEntity
  8
RÚteg 1
 62
     7
100
AcDbSpline
210
0.0
220
0.0
230
1.0
 70
     1
 71
     3
 72
    28
 73
    24
 74
     0
 42
0.0000000001
 43
0.0000000001
 40
0.0
 40
0.0
 40
0.0
 40
0.0
 40
0.1666666666666667
 40
0.1666666666666667
 40
0.1666666666666667
 40
0.1666666666666667
 40
0.3333333333333333
 40
0.3333333333333333
 40
0.3333333333333333
 40
0.3333333333333333
 40
0.5
 40
0.5
 40
0.5
 40
0.5
 40
0.6666666666666666
 40
0.6666666666666666
 40
0.6666666666666666
 40
0.6666666666666666
 40
0.8333333333333333
 40
0.8333333333333333
 40
0.8333333333333333
 40
0.8333333333333333
 40
1.0
 40
1.0
 40
1.0
 40
1.0
 10
14.6137
 20
87.663300000000007
 30
0.0
 10
14.6387
 20
87.663300000000007
 30
0.0
 10
14.663600000000001
 20
87.662400000000005
 30
0.0
 10
14.688599999999999
 20
87.662300000000002
 30
0.0
 10
14.688599999999999
 20
87.662300000000002
 30
0.0
 10
16.2363
 20
87.701999999999998
 30
0.0
 10
17.479500000000002
 20
88.9696
 30
0.0
 10
17.479500000000002
 20
90.527000000000001
 30
0.0
 10
17.479500000000002
 20
90.527000000000001
 30
0.0
 10
17.479500000000002
 20
92.109499999999997
 30
0.0
 10
16.196100000000001
 20
93.392799999999994
 30
0.0
 10
14.6137
 20
93.392799999999994
 30
0.0
 10
14.6137
 20
93.392799999999994
 30
0.0
 10
13.0312
 20
93.392799999999994
 30
0.0
 10
11.747999999999999
 20
92.109499999999997
 30
0.0
 10
11.747999999999999
 20
90.527000000000001
 30
0.0
 10
11.747999999999999
 20
90.527000000000001
 30
0.0
 10
11.747999999999999
 20
88.9696
 30
0.0
 10
12.991
 20
87.701999999999998
 30
0.0
 10
14.5388
 20
87.662300000000002
 30
0.0
 10
14.5388
 20
87.662300000000002
 30
0.0
 10
14.563700000000001
 20
87.662400000000005
 30
0.0
 10
14.588699999999999
 20
87.663300000000007
 30
0.0
 10
14.6137
 20
87.663300000000007
 30
0.0
  0
SPLINE
  5
32
100
AcDbEntity
  8
RÚteg 1
 62
     7
100
AcDbSpline
210
0.0
220
0.0
230
1.0
 70
     1
 71
     3
 72
   188
 73
   184
 74
     0
 42
0.0000000001
 43
0.0000000001
 40
0.0
 40
0.0
 40
0.0
 40
0.0
 40
0.0217391304347826
 40
0.0217391304347826
 40
0.0217391304347826
 40
0.0217391304347826
 40
0.0434782608695652
 40
0.0434782608695652
 40
0.0434782608695652
 40
0.0434782608695652
 40
0.0652173913043478
 40
0.0652173913043478
 40
0.0652173913043478
 40
0.0652173913043478
 40
0.0869565217391304
 40
0.0869565217391304
 40
0.0869565217391304
 40
0.0869565217391304
 40
0.108695652173913
 40
0.108695652173913
 40
0.108695652173913
 40
0.108695652173913
 40
0.1304347826086957
 40
0.1304347826086957
 40
0.1304347826086957
 40
0.1304347826086957
 40
0.1521739130434783
 40
0.1521739130434783
 40
0.1521739130434783
 40
0.1521739130434783
 40
0.1739130434782609
 40
0.1739130434782609
 40
0.1739130434782609
 40
0.1739130434782609
 40
0.1956521739130435
 40
0.1956521739130435
 40
0.1956521739130435
 40
0.1956521739130435
 40
0.2173913043478261
 40
0.2173913043478261
 40
0.2173913043478261
 40
0.2173913043478261
 40
0.2391304347826087
 40
0.2391304347826087
 40
0.2391304347826087
 40
0.2391304347826087
 40
0.2608695652173912
 40
0.2608695652173912
 40
0.2608695652173912
 40
0.2608695652173912
 40
0.2826086956521738
 40
0.2826086956521738
 40
0.2826086956521738
 40
0.2826086956521738
 40
0.3043478260869564
 40
0.3043478260869564
 40
0.3043478260869564
 40
0.3043478260869564
 40
0.326086956521739
 40
0.326086956521739
 40
0.326086956521739
 40
0.326086956521739
 40
0.3478260869565216
 40
0.3478260869565216
 40
0.3478260869565216
 40
0.3478260869565216
 40
0.3695652173913042
 40
0.3695652173913042
 40
0.3695652173913042
 40
0.3695652173913042
 40
0.3913043478260868
 40
0.3913043478260868
 40
0.3913043478260868
 40
0.3913043478260868
 40
0.4130434782608694
 40
0.4130434782608694
 40
0.4130434782608694
 40
0.4130434782608694
 40
0.434782608695652
 40
0.434782608695652
 40
0.434782608695652
 40
0.434782608695652
 40
0.4565217391304346
 40
0.4565217391304346
 40
0.4565217391304346
 40
0.4565217391304346
 40
0.4782608695652172
 40
0.4782608695652172
 40
0.4782608695652172
 40
0.4782608695652172
 40
0.4999999999999998
 40
0.4999999999999998
 40
0.4999999999999998
 40
0.4999999999999998
 40
0.5217391304347824
 40
0.5217391304347824
 40
0.5217391304347824
 40
0.5217391304347824
 40
0.543478260869565
 40
0.543478260869565
 40
0.543478260869565
 40
0.543478260869565
 40
0.5652173913043476
 40
0.5652173913043476
 40
0.5652173913043476
 40
0.5652173913043476
 40
0.5869565217391302
 40
0.5869565217391302
 40
0.5869565217391302
 40
0.5869565217391302
 40
0.6086956521739128
 40
0.6086956521739128
 40
0.6086956521739128
 40
0.6086956521739128
 40
0.6304347826086953
 40
0.6304347826086953
 40
0.6304347826086953
 40
0.6304347826086953
 40
0.6521739130434779
 40
0.6521739130434779
 40
0.6521739130434779
 40
0.6521739130434779
 40
0.6739130434782605
 40
0.6739130434782605
 40
0.6739130434782605
 40
0.6739130434782605
 40
0.6956521739130431
 40
0.6956521739130431
 40
0.6956521739130431
 40
0.6956521739130431
 40
0.7173913043478257
 40
0.7173913043478257
 40
0.7173913043478257
 40
0.7173913043478257
 40
0.7391304347826083
 40
0.7391304347826083
 40
0.7391304347826083
 40
0.7391304347826083
 40
0.7608695652173909
 40
0.7608695652173909
 40
0.7608695652173909
 40
0.7608695652173909
 40
0.7826086956521735
 40
0.7826086956521735
 40
0.7826086956521735
 40
0.7826086956521735
 40
0.8043478260869561
 40
0.8043478260869561
 40
0.8043478260869561
 40
0.8043478260869561
 40
0.8260869565217387
 40
0.8260869565217387
 40
0.8260869565217387
 40
0.8260869565217387
 40
0.8478260869565213
 40
0.8478260869565213
 40
0.8478260869565213
 40
0.8478260869565213
 40
0.8695652173913039
 40
0.8695652173913039
 40
0.8695652173913039
 40
0.8695652173913039
 40
0.8913043478260865
 40
0.8913043478260865
 40
0.8913043478260865
 40
0.8913043478260865
 40
0.9130434782608691
 40
0.9130434782608691
 40
0.9130434782608691
 40
0.9130434782608691
 40
0.9347826086956517
 40
0.9347826086956517
 40
0.9347826086956517
 40
0.9347826086956517
 40
0.9565217391304343
 40
0.9565217391304343
 40
0.9565217391304343
 40
0.9565217391304343
 40
0.9782608695652169
 40
0.9782608695652169
 40
0.9782608695652169
 40
0.9782608695652169
 40
1.0
 40
1.0
 40
1.0
 40
1.0
 10
56.207799999999999
 20
65.9101
 30
0.0
 10
56.689599999999999
 20
66.367000000000004
 30
0.0
 10
57.049999999999997
 20
66.998099999999994
 30
0.0
 10
57.049999999999997
 20
67.931200000000004
 30
0.0
 10
57.049999999999997
 20
67.931200000000004
 30
0.0
 10
57.049999999999997
 20
68.155600000000007
 30
0.0
 10
57.049999999999997
 20
68.380499999999998
 30
0.0
 10
57.049999999999997
 20
68.604900000000001
 30
0.0
 10
57.049999999999997
 20
68.604900000000001
 30
0.0
 10
57.049999999999997
 20
69.564899999999994
 30
0.0
 10
55.869199999999999
 20
71.973299999999995
 30
0.0
 10
54.692100000000003
 20
71.973299999999995
 30
0.0
 10
54.692100000000003
 20
71.973299999999995
 30
0.0
 10
54.685899999999997
 20
71.973299999999995
 30
0.0
 10
52.643500000000003
 20
70.141000000000005
 30
0.0
 10
52.365699999999997
 20
69.920900000000003
 30
0.0
 10
52.365699999999997
 20
69.920900000000003
 30
0.0
 10
51.570799999999998
 20
69.290099999999995
 30
0.0
 10
50.751199999999997
 20
68.741399999999999
 30
0.0
 10
49.837000000000003
 20
68.239099999999993
 30
0.0
 10
49.837000000000003
 20
68.239099999999993
 30
0.0
 10
48.900100000000002
 20
67.724599999999995
 30
0.0
 10
47.973100000000002
 20
67.274900000000002
 30
0.0
 10
46.927300000000002
 20
66.938199999999995
 30
0.0
 10
46.927300000000002
 20
66.938199999999995
 30
0.0
 10
46.497500000000002
 20
66.799999999999997
 30
0.0
 10
46.055300000000003
 20
66.721000000000004
 30
0.0
 10
45.663699999999999
 20
66.604799999999997
 30
0.0
 10
45.663699999999999
 20
66.604799999999997
 30
0.0
 10
41.181600000000003
 20
77.857299999999995
 30
0.0
 10
30.759899999999998
 20
86.101900000000001
 30
0.0
 10
18.272400000000001
 20
87.462900000000005
 30
0.0
 10
18.272400000000001
 20
87.462900000000005
 30
0.0
 10
18.967600000000001
 20
88.292199999999994
 30
0.0
 10
19.386600000000001
 20
89.360699999999994
 30
0.0
 10
19.386600000000001
 20
90.527000000000001
 30
0.0
 10
19.386600000000001
 20
90.527000000000001
 30
0.0
 10
19.386600000000001
 20
93.162700000000001
 30
0.0
 10
17.249199999999998
 20
95.299999999999997
 30
0.0
 10
14.6137
 20
95.299999999999997
 30
0.0
 10
14.6137
 20
95.299999999999997
 30
0.0
 10
11.9781
 20
95.299999999999997
 30
0.0
 10
9.8407
 20
93.162700000000001
 30
0.0
 10
9.8407
 20
90.527000000000001
 30
0.0
 10
9.8407
 20
90.527000000000001
 30
0.0
 10
9.8407
 20
89.360699999999994
 30
0.0
 10
10.259600000000001
 20
88.292199999999994
 30
0.0
 10
10.9549
 20
87.462900000000005
 30
0.0
 10
10.9549
 20
87.462900000000005
 30
0.0
 10
0.3776
 20
86.310100000000006
 30
0.0
 10
-8.7165999999999997
 20
80.217600000000004
 30
0.0
 10
-13.975899999999999
 20
71.543000000000006
 30
0.0
 10
-13.975899999999999
 20
71.543000000000006
 30
0.0
 10
-15.518800000000001
 20
71.546599999999998
 30
0.0
 10
-17.038
 20
71.398300000000006
 30
0.0
 10
-18.907900000000001
 20
70.962699999999998
 30
0.0
 10
-18.907900000000001
 20
70.962699999999998
 30
0.0
 10
-18.706
 20
69.389600000000002
 30
0.0
 10
-16.125399999999999
 20
70.470699999999994
 30
0.0
 10
-15.035500000000001
 20
69.782700000000006
 30
0.0
 10
-15.035500000000001
 20
69.782700000000006
 30
0.0
 10
-15.0191
 20
69.772499999999994
 30
0.0
 10
-15.0036
 20
69.762200000000007
 30
0.0
 10
-14.9884
 20
69.751999999999995
 30
0.0
 10
-14.9884
 20
69.751999999999995
 30
0.0
 10
-16.3004
 20
67.252700000000004
 30
0.0
 10
-17.3035
 20
64.566599999999994
 30
0.0
 10
-17.950800000000001
 20
61.744999999999997
 30
0.0
 10
-17.950800000000001
 20
61.744999999999997
 30
0.0
 10
-20.289000000000001
 20
61.1708
 30
0.0
 10
-22.5505
 20
60.4437
 30
0.0
 10
-22.949999999999999
 20
59.847200000000001
 30
0.0
 10
-22.949999999999999
 20
59.847200000000001
 30
0.0
 10
-22.5853
 20
59.602800000000002
 30
0.0
 10
-22.389299999999999
 20
59.341900000000003
 30
0.0
 10
-21.771100000000001
 20
59.341900000000003
 30
0.0
 10
-21.771100000000001
 20
59.341900000000003
 30
0.0
 10
-21.3781
 20
59.341900000000003
 30
0.0
 10
-20.984999999999999
 20
59.341900000000003
 30
0.0
 10
-20.592099999999999
 20
59.341900000000003
 30
0.0
 10
-20.592099999999999
 20
59.341900000000003
 30
0.0
 10
-20.592099999999999
 20
59.341900000000003
 30
0.0
 10
-18.359100000000002
 20
59.667200000000001
 30
0.0
 10
-18.359100000000002
 20
59.667200000000001
 30
0.0
 10
-18.359100000000002
 20
59.667200000000001
 30
0.0
 10
-18.646999999999998
 20
57.905000000000001
 30
0.0
 10
-18.797000000000001
 20
56.0961
 30
0.0
 10
-18.797000000000001
 20
54.252600000000001
 30
0.0
 10
-18.797000000000001
 20
54.252600000000001
 30
0.0
 10
-18.797000000000001
 20
49.500399999999999
 30
0.0
 10
-17.802
 20
44.980899999999998
 30
0.0
 10
-16.012699999999999
 20
40.887700000000002
 30
0.0
 10
-16.012699999999999
 20
40.887700000000002
 30
0.0
 10
-16.116
 20
40.855600000000003
 30
0.0
 10
-16.2194
 20
40.819600000000001
 30
0.0
 10
-16.322800000000001
 20
40.780000000000001
 30
0.0
 10
-16.322800000000001
 20
40.780000000000001
 30
0.0
 10
-16.690000000000001
 20
40.438699999999997
 30
0.0
 10
-16.8413
 20
39.9893
 30
0.0
 10
-16.776599999999998
 20
39.431699999999999
 30
0.0
 10
-16.776599999999998
 20
39.431699999999999
 30
0.0
 10
-16.644300000000001
 20
39.219700000000003
 30
0.0
 10
-16.511900000000001
 20
39.0077
 30
0.0
 10
-16.3796
 20
38.795499999999997
 30
0.0
 10
-16.3796
 20
38.795499999999997
 30
0.0
 10
-16.754300000000001
 20
38.521500000000003
 30
0.0
 10
-17.172999999999998
 20
37.783900000000003
 30
0.0
 10
-16.381599999999999
 20
37.783900000000003
 30
0.0
 10
-16.381599999999999
 20
37.783900000000003
 30
0.0
 10
-16.3489
 20
37.783900000000003
 30
0.0
 10
-15.633900000000001
 20
38.462899999999998
 30
0.0
 10
-15.0214
 20
38.816899999999997
 30
0.0
 10
-15.0214
 20
38.816899999999997
 30
0.0
 10
-14.2249
 20
37.291200000000003
 30
0.0
 10
-13.314299999999999
 20
35.834899999999998
 30
0.0
 10
-12.3004
 20
34.458799999999997
 30
0.0
 10
-12.3004
 20
34.458799999999997
 30
0.0
 10
-12.4115
 20
34.431800000000003
 30
0.0
 10
-12.534599999999999
 20
34.415500000000002
 30
0.0
 10
-12.676299999999999
 20
34.415500000000002
 30
0.0
 10
-12.676299999999999
 20
34.415500000000002
 30
0.0
 10
-12.788500000000001
 20
34.415500000000002
 30
0.0
 10
-12.9009
 20
34.415500000000002
 30
0.0
 10
-13.013199999999999
 20
34.415500000000002
 30
0.0
 10
-13.013199999999999
 20
34.415500000000002
 30
0.0
 10
-13.893000000000001
 20
34.415500000000002
 30
0.0
 10
-15.2446
 20
36.336599999999997
 30
0.0
 10
-16.6236
 20
34.152200000000001
 30
0.0
 10
-16.6236
 20
34.152200000000001
 30
0.0
 10
-17.673400000000001
 20
32.489600000000003
 30
0.0
 10
-17.8462
 20
32.601599999999998
 30
0.0
 10
-19.4131
 20
31.552299999999999
 30
0.0
 10
-19.4131
 20
31.552299999999999
 30
0.0
 10
-20.119399999999999
 20
30.2027
 30
0.0
 10
-20.2315
 20
28.799600000000002
 30
0.0
 10
-19.7501
 20
27.341799999999999
 30
0.0
 10
-19.7501
 20
27.341799999999999
 30
0.0
 10
-18.4359
 20
28.036999999999999
 30
0.0
 10
-18.681799999999999
 20
28.618200000000002
 30
0.0
 10
-17.593800000000002
 20
29.396000000000001
 30
0.0
 10
-17.593800000000002
 20
29.396000000000001
 30
0.0
 10
-16.735800000000001
 20
30.0093
 30
0.0
 10
-15.914
 20
30.1981
 30
0.0
 10
-14.9329
 20
30.945799999999998
 30
0.0
 10
-14.9329
 20
30.945799999999998
 30
0.0
 10
-14.238799999999999
 20
31.475200000000001
 30
0.0
 10
-12.5495
 20
32.258200000000002
 30
0.0
 10
-12.333600000000001
 20
32.556899999999999
 30
0.0
 10
-12.333600000000001
 20
32.556899999999999
 30
0.0
 10
-12.333600000000001
 20
32.556899999999999
 30
0.0
 10
-11.2521
 20
32.630299999999998
 30
0.0
 10
-11.2521
 20
32.630299999999998
 30
0.0
 10
-11.2521
 20
32.630299999999998
 30
0.0
 10
-11.511799999999999
 20
32.225700000000003
 30
0.0
 10
-11.6929
 20
31.861000000000001
 30
0.0
 10
-12.0025
 20
31.215499999999999
 30
0.0
 10
-12.0025
 20
31.215499999999999
 30
0.0
 10
-11.744899999999999
 20
30.911899999999999
 30
0.0
 10
-11.4871
 20
30.6081
 30
0.0
 10
-11.2294
 20
30.304500000000001
 30
0.0
 10
-11.2294
 20
30.304500000000001
 30
0.0
 10
-10.534700000000001
 20
30.4833
 30
0.0
 10
-9.8838000000000008
 20
30.672799999999999
 30
0.0
 10
-9.2439999999999998
 20
30.8687
 30
0.0
 10
-9.2439999999999998
 20
30.8687
 30
0.0
 10
-3.1804999999999999
 20
24.681799999999999
 30
0.0
 10
5.2686999999999999
 20
20.841899999999999
 30
0.0
 10
14.6137
 20
20.841899999999999
 30
0.0
 10
14.6137
 20
20.841899999999999
 30
0.0
 10
33.062800000000003
 20
20.841899999999999
 30
0.0
 10
48.024299999999997
 20
35.8035
 30
0.0
 10
48.024299999999997
 20
54.252600000000001
 30
0.0
 10
48.024299999999997
 20
54.252600000000001
 30
0.0
 10
48.024299999999997
 20
58.213700000000003
 30
0.0
 10
47.332999999999998
 20
62.013199999999998
 30
0.0
 10
46.066899999999997
 20
65.538899999999998
 30
0.0
 10
46.066899999999997
 20
65.538899999999998
 30
0.0
 10
47.365000000000002
 20
65.886200000000002
 30
0.0
 10
48.895400000000002
 20
66.409199999999998
 30
0.0
 10
50.138500000000001
 20
66.421899999999994
 30
0.0
 10
50.138500000000001
 20
66.421899999999994
 30
0.0
 10
52.576599999999999
 20
66.446899999999999
 30
0.0
 10
54.262500000000003
 20
66.843800000000002
 30
0.0
 10
56.207799999999999
 20
65.9101
 30
0.0
  0
SPLINE
  5
33
100
AcDbEntity
  8
RÚteg 1
 62
     7
100
AcDbSpline
210
0.0
220
0.0
230
1.0
 70
     1
 71
     3
 72
   112
 73
   108
 74
     0
 42
0.0000000001
 43
0.0000000001
 40
0.0
 40
0.0
 40
0.0
 40
0.0
 40
0.037037037037037
 40
0.037037037037037
 40
0.037037037037037
 40
0.037037037037037
 40
0.0740740740740741
 40
0.0740740740740741
 40
0.0740740740740741
 40
0.0740740740740741
 40
0.1111111111111111
 40
0.1111111111111111
 40
0.1111111111111111
 40
0.1111111111111111
 40
0.1481481481481481
 40
0.1481481481481481
 40
0.1481481481481481
 40
0.1481481481481481
 40
0.1851851851851852
 40
0.1851851851851852
 40
0.1851851851851852
 40
0.1851851851851852
 40
0.2222222222222222
 40
0.2222222222222222
 40
0.2222222222222222
 40
0.2222222222222222
 40
0.2592592592592592
 40
0.2592592592592592
 40
0.2592592592592592
 40
0.2592592592592592
 40
0.2962962962962963
 40
0.2962962962962963
 40
0.2962962962962963
 40
0.2962962962962963
 40
0.3333333333333333
 40
0.3333333333333333
 40
0.3333333333333333
 40
0.3333333333333333
 40
0.3703703703703704
 40
0.3703703703703704
 40
0.3703703703703704
 40
0.3703703703703704
 40
0.4074074074074074
 40
0.4074074074074074
 40
0.4074074074074074
 40
0.4074074074074074
 40
0.4444444444444444
 40
0.4444444444444444
 40
0.4444444444444444
 40
0.4444444444444444
 40
0.4814814814814815
 40
0.4814814814814815
 40
0.4814814814814815
 40
0.4814814814814815
 40
0.5185185185185185
 40
0.5185185185185185
 40
0.5185185185185185
 40
0.5185185185185185
 40
0.5555555555555556
 40
0.5555555555555556
 40
0.5555555555555556
 40
0.5555555555555556
 40
0.5925925925925926
 40
0.5925925925925926
 40
0.5925925925925926
 40
0.5925925925925926
 40
0.6296296296296295
 40
0.6296296296296295
 40
0.6296296296296295
 40
0.6296296296296295
 40
0.6666666666666665
 40
0.6666666666666665
 40
0.6666666666666665
 40
0.6666666666666665
 40
0.7037037037037035
 40
0.7037037037037035
 40
0.7037037037037035
 40
0.7037037037037035
 40
0.7407407407407405
 40
0.7407407407407405
 40
0.7407407407407405
 40
0.7407407407407405
 40
0.7777777777777775
 40
0.7777777777777775
 40
0.7777777777777775
 40
0.7777777777777775
 40
0.8148148148148144
 40
0.8148148148148144
 40
0.8148148148148144
 40
0.8148148148148144
 40
0.8518518518518514
 40
0.8518518518518514
 40
0.8518518518518514
 40
0.8518518518518514
 40
0.8888888888888884
 40
0.8888888888888884
 40
0.8888888888888884
 40
0.8888888888888884
 40
0.9259259259259254
 40
0.9259259259259254
 40
0.9259259259259254
 40
0.9259259259259254
 40
0.9629629629629624
 40
0.9629629629629624
 40
0.9629629629629624
 40
0.9629629629629624
 40
1.0
 40
1.0
 40
1.0
 40
1.0
 10
41.596200000000003
 20
66.423100000000005
 30
0.0
 10
40.749299999999998
 20
65.939999999999998
 30
0.0
 10
40.040599999999998
 20
65.318600000000004
 30
0.0
 10
40.0396
 20
64.732399999999998
 30
0.0
 10
40.0396
 20
64.732399999999998
 30
0.0
 10
39.759
 20
64.675700000000006
 30
0.0
 10
39.478200000000001
 20
64.619299999999996
 30
0.0
 10
39.197600000000001
 20
64.562799999999996
 30
0.0
 10
39.197600000000001
 20
64.562799999999996
 30
0.0
 10
36.165999999999997
 20
63.945399999999999
 30
0.0
 10
33.1342
 20
63.3277
 30
0.0
 10
30.102699999999999
 20
62.710299999999997
 30
0.0
 10
30.102699999999999
 20
62.710299999999997
 30
0.0
 10
29.8017
 20
62.6554
 30
0.0
 10
29.500699999999998
 20
62.6006
 30
0.0
 10
29.1997
 20
62.5458
 30
0.0
 10
29.1997
 20
62.5458
 30
0.0
 10
29.1724
 20
62.607999999999997
 30
0.0
 10
29.136199999999999
 20
62.695099999999996
 30
0.0
 10
29.092199999999998
 20
62.878500000000003
 30
0.0
 10
29.092199999999998
 20
62.878500000000003
 30
0.0
 10
29.467400000000001
 20
62.9788
 30
0.0
 10
29.5975
 20
62.917900000000003
 30
0.0
 10
29.5975
 20
63.383899999999997
 30
0.0
 10
29.5975
 20
63.383899999999997
 30
0.0
 10
29.5975
 20
63.7819
 30
0.0
 10
27.7699
 20
66.678399999999996
 30
0.0
 10
27.407900000000001
 20
66.920699999999997
 30
0.0
 10
27.407900000000001
 20
66.920699999999997
 30
0.0
 10
27.407900000000001
 20
68.089699999999993
 30
0.0
 10
26.806999999999999
 20
68.941699999999997
 30
0.0
 10
25.723800000000001
 20
68.941699999999997
 30
0.0
 10
25.723800000000001
 20
68.941699999999997
 30
0.0
 10
25.555199999999999
 20
68.941699999999997
 30
0.0
 10
25.386800000000001
 20
68.941699999999997
 30
0.0
 10
25.218499999999999
 20
68.941699999999997
 30
0.0
 10
25.218499999999999
 20
68.941699999999997
 30
0.0
 10
23.7744
 20
68.941699999999997
 30
0.0
 10
22.950299999999999
 20
68.099699999999999
 30
0.0
 10
22.860600000000002
 20
68.099699999999999
 30
0.0
 10
22.860600000000002
 20
68.099699999999999
 30
0.0
 10
21.3948
 20
68.099699999999999
 30
0.0
 10
20.112400000000001
 20
67.944699999999997
 30
0.0
 10
21.007899999999999
 20
66.078500000000005
 30
0.0
 10
21.007899999999999
 20
66.078500000000005
 30
0.0
 10
20.5276
 20
65.361400000000003
 30
0.0
 10
19.997399999999999
 20
64.580600000000004
 30
0.0
 10
19.997399999999999
 20
63.383899999999997
 30
0.0
 10
19.997399999999999
 20
63.383899999999997
 30
0.0
 10
19.997399999999999
 20
62.749499999999998
 30
0.0
 10
20.1084
 20
63.0655
 30
0.0
 10
20.165800000000001
 20
62.3735
 30
0.0
 10
20.165800000000001
 20
62.3735
 30
0.0
 10
19.920000000000002
 20
62.0062
 30
0.0
 10
18.581099999999999
 20
61.192700000000002
 30
0.0
 10
18.0425
 20
60.791499999999999
 30
0.0
 10
18.0425
 20
60.791499999999999
 30
0.0
 10
17.913499999999999
 20
60.695399999999999
 30
0.0
 10
17.7605
 20
60.5364
 30
0.0
 10
17.5959
 20
60.351700000000001
 30
0.0
 10
17.5959
 20
60.351700000000001
 30
0.0
 10
17.5959
 20
60.351700000000001
 30
0.0
 10
17.747499999999999
 20
62.158099999999997
 30
0.0
 10
17.747499999999999
 20
62.158099999999997
 30
0.0
 10
17.747499999999999
 20
62.158099999999997
 30
0.0
 10
17.792300000000001
 20
62.358400000000003
 30
0.0
 10
17.8079
 20
62.596899999999998
 30
0.0
 10
17.8079
 20
62.878500000000003
 30
0.0
 10
17.8079
 20
62.878500000000003
 30
0.0
 10
17.8079
 20
65.738100000000003
 30
0.0
 10
15.0908
 20
67.2804
 30
0.0
 10
12.988799999999999
 20
68.670199999999994
 30
0.0
 10
12.988799999999999
 20
68.670199999999994
 30
0.0
 10
11.716699999999999
 20
69.511399999999995
 30
0.0
 10
7.0774999999999997
 20
71.636399999999995
 30
0.0
 10
5.1763000000000003
 20
71.636399999999995
 30
0.0
 10
5.1763000000000003
 20
71.636399999999995
 30
0.0
 10
4.4893000000000001
 20
71.636399999999995
 30
0.0
 10
3.7665999999999999
 20
71.093199999999996
 30
0.0
 10
3.4921000000000002
 20
71.131200000000007
 30
0.0
 10
3.4921000000000002
 20
71.131200000000007
 30
0.0
 10
0.4124
 20
71.581199999999995
 30
0.0
 10
-2.6675
 20
72.031300000000002
 30
0.0
 10
-5.7472000000000003
 20
72.481399999999994
 30
0.0
 10
-5.7472000000000003
 20
72.481399999999994
 30
0.0
 10
-5.7552000000000003
 20
72.424199999999999
 30
0.0
 10
-5.7632000000000003
 20
72.367199999999997
 30
0.0
 10
-5.7709999999999999
 20
72.310299999999998
 30
0.0
 10
-5.7709999999999999
 20
72.310299999999998
 30
0.0
 10
-5.9394999999999998
 20
72.310299999999998
 30
0.0
 10
-6.1079999999999997
 20
72.310299999999998
 30
0.0
 10
-6.2763999999999998
 20
72.310299999999998
 30
0.0
 10
-6.2763999999999998
 20
72.310299999999998
 30
0.0
 10
-7.2123999999999997
 20
72.310299999999998
 30
0.0
 10
-7.6315
 20
71.752899999999997
 30
0.0
 10
-7.9607000000000001
 20
71.131200000000007
 30
0.0
 10
-7.9607000000000001
 20
71.131200000000007
 30
0.0
 10
-8.5378000000000007
 20
71.179199999999994
 30
0.0
 10
-9.0800000000000001
 20
71.227400000000003
 30
0.0
 10
-9.5955999999999992
 20
71.273099999999999
 30
0.0
 10
-9.5955999999999992
 20
71.273099999999999
 30
0.0
 10
-4.2389000000000001
 20
78.877200000000002
 30
0.0
 10
4.6075999999999997
 20
83.846599999999995
 30
0.0
 10
14.6137
 20
83.846599999999995
 30
0.0
 10
14.6137
 20
83.846599999999995
 30
0.0
 10
26.6173
 20
83.846599999999995
 30
0.0
 10
36.953899999999997
 20
76.695999999999998
 30
0.0
 10
41.596200000000003
 20
66.423100000000005
 30
0.0
  0
SPLINE
  5
34
100
AcDbEntity
  8
RÚteg 1
 62
     7
100
AcDbSpline
210
0.0
220
0.0
230
1.0
 70
     1
 71
     3
 72
    32
 73
    28
 74
     0
 42
0.0000000001
 43
0.0000000001
 40
0.0
 40
0.0
 40
0.0
 40
0.0
 40
0.1428571428571429
 40
0.1428571428571429
 40
0.1428571428571429
 40
0.1428571428571429
 40
0.2857142857142857
 40
0.2857142857142857
 40
0.2857142857142857
 40
0.2857142857142857
 40
0.4285714285714286
 40
0.4285714285714286
 40
0.4285714285714286
 40
0.4285714285714286
 40
0.5714285714285714
 40
0.5714285714285714
 40
0.5714285714285714
 40
0.5714285714285714
 40
0.7142857142857142
 40
0.7142857142857142
 40
0.7142857142857142
 40
0.7142857142857142
 40
0.857142857142857
 40
0.857142857142857
 40
0.857142857142857
 40
0.857142857142857
 40
1.0
 40
1.0
 40
1.0
 40
1.0
 10
-11.269600000000001
 20
68.604900000000001
 30
0.0
 10
-11.269600000000001
 20
68.604900000000001
 30
0.0
 10
-10.9922
 20
68.604900000000001
 30
0.0
 10
-10.9922
 20
68.604900000000001
 30
0.0
 10
-10.9922
 20
68.604900000000001
 30
0.0
 10
-10.6387
 20
68.604900000000001
 30
0.0
 10
-10.3536
 20
68.036799999999999
 30
0.0
 10
-9.6996000000000002
 20
67.636499999999998
 30
0.0
 10
-9.6996000000000002
 20
67.636499999999998
 30
0.0
 10
-9.6996000000000002
 20
67.636499999999998
 30
0.0
 10
-9.6996000000000002
 20
67.636499999999998
 30
0.0
 10
-9.6996000000000002
 20
67.636499999999998
 30
0.0
 10
-9.6996000000000002
 20
67.636499999999998
 30
0.0
 10
-8.5700000000000003
 20
66.564800000000005
 30
0.0
 10
-7.0140000000000002
 20
65.545000000000002
 30
0.0
 10
-4.1127000000000002
 20
65.207499999999996
 30
0.0
 10
-4.1127000000000002
 20
65.207499999999996
 30
0.0
 10
-6.7325999999999997
 20
64.999499999999998
 30
0.0
 10
-12.4178
 20
64.543400000000005
 30
0.0
 10
-12.8447
 20
62.710299999999997
 30
0.0
 10
-12.8447
 20
62.710299999999997
 30
0.0
 10
-13.0923
 20
62.689599999999999
 30
0.0
 10
-13.4132
 20
62.6494
 30
0.0
 10
-13.786300000000001
 20
62.592700000000001
 30
0.0
 10
-13.786300000000001
 20
62.592700000000001
 30
0.0
 10
-13.166600000000001
 20
64.7042
 30
0.0
 10
-12.3187
 20
66.7179
 30
0.0
 10
-11.269600000000001
 20
68.604900000000001
 30
0.0
  0
SPLINE
  5
35
100
AcDbEntity
  8
RÚteg 1
 62
     7
100
AcDbSpline
210
0.0
220
0.0
230
1.0
 70
     1
 71
     3
 72
   200
 73
   196
 74
     0
 42
0.0000000001
 43
0.0000000001
 40
0.0
 40
0.0
 40
0.0
 40
0.0
 40
0.0204081632653061
 40
0.0204081632653061
 40
0.0204081632653061
 40
0.0204081632653061
 40
0.0408163265306122
 40
0.0408163265306122
 40
0.0408163265306122
 40
0.0408163265306122
 40
0.0612244897959184
 40
0.0612244897959184
 40
0.0612244897959184
 40
0.0612244897959184
 40
0.0816326530612245
 40
0.0816326530612245
 40
0.0816326530612245
 40
0.0816326530612245
 40
0.1020408163265306
 40
0.1020408163265306
 40
0.1020408163265306
 40
0.1020408163265306
 40
0.1224489795918367
 40
0.1224489795918367
 40
0.1224489795918367
 40
0.1224489795918367
 40
0.1428571428571429
 40
0.1428571428571429
 40
0.1428571428571429
 40
0.1428571428571429
 40
0.163265306122449
 40
0.163265306122449
 40
0.163265306122449
 40
0.163265306122449
 40
0.1836734693877551
 40
0.1836734693877551
 40
0.1836734693877551
 40
0.1836734693877551
 40
0.2040816326530612
 40
0.2040816326530612
 40
0.2040816326530612
 40
0.2040816326530612
 40
0.2244897959183673
 40
0.2244897959183673
 40
0.2244897959183673
 40
0.2244897959183673
 40
0.2448979591836734
 40
0.2448979591836734
 40
0.2448979591836734
 40
0.2448979591836734
 40
0.2653061224489796
 40
0.2653061224489796
 40
0.2653061224489796
 40
0.2653061224489796
 40
0.2857142857142857
 40
0.2857142857142857
 40
0.2857142857142857
 40
0.2857142857142857
 40
0.3061224489795918
 40
0.3061224489795918
 40
0.3061224489795918
 40
0.3061224489795918
 40
0.326530612244898
 40
0.326530612244898
 40
0.326530612244898
 40
0.326530612244898
 40
0.3469387755102041
 40
0.3469387755102041
 40
0.3469387755102041
 40
0.3469387755102041
 40
0.3673469387755103
 40
0.3673469387755103
 40
0.3673469387755103
 40
0.3673469387755103
 40
0.3877551020408164
 40
0.3877551020408164
 40
0.3877551020408164
 40
0.3877551020408164
 40
0.4081632653061226
 40
0.4081632653061226
 40
0.4081632653061226
 40
0.4081632653061226
 40
0.4285714285714287
 40
0.4285714285714287
 40
0.4285714285714287
 40
0.4285714285714287
 40
0.4489795918367349
 40
0.4489795918367349
 40
0.4489795918367349
 40
0.4489795918367349
 40
0.469387755102041
 40
0.469387755102041
 40
0.469387755102041
 40
0.469387755102041
 40
0.4897959183673472
 40
0.4897959183673472
 40
0.4897959183673472
 40
0.4897959183673472
 40
0.5102040816326533
 40
0.5102040816326533
 40
0.5102040816326533
 40
0.5102040816326533
 40
0.5306122448979594
 40
0.5306122448979594
 40
0.5306122448979594
 40
0.5306122448979594
 40
0.5510204081632656
 40
0.5510204081632656
 40
0.5510204081632656
 40
0.5510204081632656
 40
0.5714285714285717
 40
0.5714285714285717
 40
0.5714285714285717
 40
0.5714285714285717
 40
0.5918367346938779
 40
0.5918367346938779
 40
0.5918367346938779
 40
0.5918367346938779
 40
0.612244897959184
 40
0.612244897959184
 40
0.612244897959184
 40
0.612244897959184
 40
0.6326530612244902
 40
0.6326530612244902
 40
0.6326530612244902
 40
0.6326530612244902
 40
0.6530612244897963
 40
0.6530612244897963
 40
0.6530612244897963
 40
0.6530612244897963
 40
0.6734693877551025
 40
0.6734693877551025
 40
0.6734693877551025
 40
0.6734693877551025
 40
0.6938775510204086
 40
0.6938775510204086
 40
0.6938775510204086
 40
0.6938775510204086
 40
0.7142857142857148
 40
0.7142857142857148
 40
0.7142857142857148
 40
0.7142857142857148
 40
0.7346938775510209
 40
0.7346938775510209
 40
0.7346938775510209
 40
0.7346938775510209
 40
0.755102040816327
 40
0.755102040816327
 40
0.755102040816327
 40
0.755102040816327
 40
0.7755102040816332
 40
0.7755102040816332
 40
0.7755102040816332
 40
0.7755102040816332
 40
0.7959183673469393
 40
0.7959183673469393
 40
0.7959183673469393
 40
0.7959183673469393
 40
0.8163265306122455
 40
0.8163265306122455
 40
0.8163265306122455
 40
0.8163265306122455
 40
0.8367346938775516
 40
0.8367346938775516
 40
0.8367346938775516
 40
0.8367346938775516
 40
0.8571428571428578
 40
0.8571428571428578
 40
0.8571428571428578
 40
0.8571428571428578
 40
0.8775510204081639
 40
0.8775510204081639
 40
0.8775510204081639
 40
0.8775510204081639
 40
0.8979591836734701
 40
0.8979591836734701
 40
0.8979591836734701
 40
0.8979591836734701
 40
0.9183673469387762
 40
0.9183673469387762
 40
0.9183673469387762
 40
0.9183673469387762
 40
0.9387755102040823
 40
0.9387755102040823
 40
0.9387755102040823
 40
0.9387755102040823
 40
0.9591836734693885
 40
0.9591836734693885
 40
0.9591836734693885
 40
0.9591836734693885
 40
0.9795918367346946
 40
0.9795918367346946
 40
0.9795918367346946
 40
0.9795918367346946
 40
1.0
 40
1.0
 40
1.0
 40
1.0
 10
-14.509499999999999
 20
59.5349
 30
0.0
 10
-14.150399999999999
 20
59.426200000000001
 30
0.0
 10
-13.7562
 20
59.341900000000003
 30
0.0
 10
-13.3499
 20
59.341900000000003
 30
0.0
 10
-13.3499
 20
59.341900000000003
 30
0.0
 10
-12.956899999999999
 20
59.341900000000003
 30
0.0
 10
-12.564
 20
59.341900000000003
 30
0.0
 10
-12.171200000000001
 20
59.341900000000003
 30
0.0
 10
-12.171200000000001
 20
59.341900000000003
 30
0.0
 10
-11.445399999999999
 20
59.341900000000003
 30
0.0
 10
-9.4527000000000001
 20
59.784500000000001
 30
0.0
 10
-8.9710000000000001
 20
60.015300000000003
 30
0.0
 10
-8.9710000000000001
 20
60.015300000000003
 30
0.0
 10
-8.6971000000000007
 20
59.641399999999997
 30
0.0
 10
-8.2616999999999994
 20
59.341900000000003
 30
0.0
 10
-7.6237000000000004
 20
59.341900000000003
 30
0.0
 10
-7.6237000000000004
 20
59.341900000000003
 30
0.0
 10
-7.5114000000000001
 20
59.341900000000003
 30
0.0
 10
-7.399
 20
59.341900000000003
 30
0.0
 10
-7.2869999999999999
 20
59.341900000000003
 30
0.0
 10
-7.2869999999999999
 20
59.341900000000003
 30
0.0
 10
-6.4428000000000001
 20
59.441099999999999
 30
0.0
 10
-5.5989000000000004
 20
59.540399999999998
 30
0.0
 10
-4.7549000000000001
 20
59.639400000000002
 30
0.0
 10
-4.7549000000000001
 20
59.639400000000002
 30
0.0
 10
-3.3959999999999999
 20
58.764800000000001
 30
0.0
 10
-4.806
 20
58.4998
 30
0.0
 10
-1.8974
 20
58.4998
 30
0.0
 10
-1.8974
 20
58.4998
 30
0.0
 10
-1.4499
 20
57.654200000000003
 30
0.0
 10
-0.9685
 20
57.320700000000002
 30
0.0
 10
0.292
 20
57.320700000000002
 30
0.0
 10
0.292
 20
57.320700000000002
 30
0.0
 10
0.6975
 20
57.320700000000002
 30
0.0
 10
1.0403
 20
57.657699999999998
 30
0.0
 10
1.6394
 20
57.657699999999998
 30
0.0
 10
1.6394
 20
57.657699999999998
 30
0.0
 10
1.8089999999999999
 20
57.657699999999998
 30
0.0
 10
2.3919999999999999
 20
56.8155
 30
0.0
 10
3.3237000000000001
 20
56.8155
 30
0.0
 10
3.3237000000000001
 20
56.8155
 30
0.0
 10
4.0183
 20
56.8155
 30
0.0
 10
4.4989999999999997
 20
57.152299999999997
 30
0.0
 10
5.3446999999999996
 20
57.152299999999997
 30
0.0
 10
5.3446999999999996
 20
57.152299999999997
 30
0.0
 10
5.5129999999999999
 20
57.152299999999997
 30
0.0
 10
5.6814999999999998
 20
57.152299999999997
 30
0.0
 10
5.8498999999999999
 20
57.152299999999997
 30
0.0
 10
5.8498999999999999
 20
57.152299999999997
 30
0.0
 10
5.7954999999999997
 20
57.1143
 30
0.0
 10
5.7405999999999997
 20
57.0762
 30
0.0
 10
5.6860999999999997
 20
57.0379
 30
0.0
 10
5.6860999999999997
 20
57.0379
 30
0.0
 10
5.9627999999999997
 20
56.642000000000003
 30
0.0
 10
6.2393999999999998
 20
56.246200000000002
 30
0.0
 10
6.5159000000000002
 20
55.850200000000001
 30
0.0
 10
6.5159000000000002
 20
55.850200000000001
 30
0.0
 10
6.5747
 20
55.891199999999998
 30
0.0
 10
6.6333000000000002
 20
55.932299999999998
 30
0.0
 10
6.6921999999999997
 20
55.973500000000001
 30
0.0
 10
6.6921999999999997
 20
55.973500000000001
 30
0.0
 10
6.6506999999999996
 20
54.115699999999997
 30
0.0
 10
6.8875999999999999
 20
54.546100000000003
 30
0.0
 10
8.7132000000000005
 20
54.120800000000003
 30
0.0
 10
8.7132000000000005
 20
54.120800000000003
 30
0.0
 10
8.7544000000000004
 20
53.837200000000003
 30
0.0
 10
8.7954000000000008
 20
53.553600000000003
 30
0.0
 10
8.8363999999999994
 20
53.270099999999999
 30
0.0
 10
8.8363999999999994
 20
53.270099999999999
 30
0.0
 10
8.0315999999999992
 20
53.278500000000001
 30
0.0
 10
6.6921999999999997
 20
53.203200000000002
 30
0.0
 10
6.6921999999999997
 20
52.436500000000002
 30
0.0
 10
6.6921999999999997
 20
52.436500000000002
 30
0.0
 10
6.6921999999999997
 20
51.767400000000002
 30
0.0
 10
7.3657000000000004
 20
51.926400000000001
 30
0.0
 10
7.3657000000000004
 20
51.257599999999996
 30
0.0
 10
7.3657000000000004
 20
51.257599999999996
 30
0.0
 10
7.3657000000000004
 20
51.021599999999999
 30
0.0
 10
7.1363000000000003
 20
50.920699999999997
 30
0.0
 10
6.8605999999999998
 20
50.920699999999997
 30
0.0
 10
6.8605999999999998
 20
50.920699999999997
 30
0.0
 10
6.8044000000000002
 20
50.920699999999997
 30
0.0
 10
6.7481999999999998
 20
50.920699999999997
 30
0.0
 10
6.6921999999999997
 20
50.920699999999997
 30
0.0
 10
6.6921999999999997
 20
50.920699999999997
 30
0.0
 10
5.8521999999999998
 20
51.1828
 30
0.0
 10
5.0119999999999996
 20
51.160200000000003
 30
0.0
 10
4.1717000000000004
 20
51.097000000000001
 30
0.0
 10
4.1717000000000004
 20
51.097000000000001
 30
0.0
 10
4.1698000000000004
 20
51.038200000000003
 30
0.0
 10
4.1677
 20
50.979500000000002
 30
0.0
 10
4.1657000000000002
 20
50.920699999999997
 30
0.0
 10
4.1657000000000002
 20
50.920699999999997
 30
0.0
 10
3.8203
 20
50.752499999999998
 30
0.0
 10
4.0505000000000004
 20
50.584000000000003
 30
0.0
 10
4.1657000000000002
 20
50.415599999999998
 30
0.0
 10
4.1657000000000002
 20
50.415599999999998
 30
0.0
 10
4.1657000000000002
 20
49.830300000000001
 30
0.0
 10
4.4644000000000004
 20
50.179000000000002
 30
0.0
 10
4.6711
 20
49.404899999999998
 30
0.0
 10
4.6711
 20
49.404899999999998
 30
0.0
 10
3.9613
 20
48.747500000000002
 30
0.0
 10
2.8721999999999999
 20
48.374699999999997
 30
0.0
 10
1.7289000000000001
 20
48.042499999999997
 30
0.0
 10
1.7289000000000001
 20
48.042499999999997
 30
0.0
 10
1.7551000000000001
 20
47.991399999999999
 30
0.0
 10
1.7816000000000001
 20
47.940300000000001
 30
0.0
 10
1.8078000000000001
 20
47.889200000000002
 30
0.0
 10
1.8078000000000001
 20
47.889200000000002
 30
0.0
 10
3.2155999999999998
 20
47.889200000000002
 30
0.0
 10
6.3552
 20
47.633899999999997
 30
0.0
 10
6.3552
 20
49.236400000000003
 30
0.0
 10
6.3552
 20
49.236400000000003
 30
0.0
 10
6.3552
 20
49.404899999999998
 30
0.0
 10
6.3552
 20
49.5732
 30
0.0
 10
6.3552
 20
49.741799999999998
 30
0.0
 10
6.3552
 20
49.741799999999998
 30
0.0
 10
6.5797999999999996
 20
49.741799999999998
 30
0.0
 10
6.8044000000000002
 20
49.741799999999998
 30
0.0
 10
7.0289000000000001
 20
49.741799999999998
 30
0.0
 10
7.0289000000000001
 20
49.741799999999998
 30
0.0
 10
8.1130999999999993
 20
49.741799999999998
 30
0.0
 10
9.1808999999999994
 20
49.568600000000004
 30
0.0
 10
9.2184000000000008
 20
51.257599999999996
 30
0.0
 10
9.2184000000000008
 20
51.257599999999996
 30
0.0
 10
10.0593
 20
51.188400000000001
 30
0.0
 10
10.9002
 20
51.119100000000003
 30
0.0
 10
11.7409
 20
51.049900000000001
 30
0.0
 10
11.7409
 20
51.049900000000001
 30
0.0
 10
11.8474
 20
51.079599999999999
 30
0.0
 10
12.532400000000001
 20
51.781999999999996
 30
0.0
 10
12.7552
 20
51.9313
 30
0.0
 10
12.7552
 20
51.9313
 30
0.0
 10
13.0923
 20
51.9313
 30
0.0
 10
13.429
 20
51.9313
 30
0.0
 10
13.7659
 20
51.9313
 30
0.0
 10
13.7659
 20
51.9313
 30
0.0
 10
13.8696
 20
52.000799999999998
 30
0.0
 10
14.7514
 20
52.604700000000001
 30
0.0
 10
14.776300000000001
 20
52.604999999999997
 30
0.0
 10
14.776300000000001
 20
52.604999999999997
 30
0.0
 10
15.337899999999999
 20
52.591999999999999
 30
0.0
 10
15.8993
 20
52.579000000000001
 30
0.0
 10
16.461099999999998
 20
52.566000000000003
 30
0.0
 10
16.461099999999998
 20
52.566000000000003
 30
0.0
 10
16.796299999999999
 20
52.072600000000001
 30
0.0
 10
17.131499999999999
 20
51.579099999999997
 30
0.0
 10
17.466699999999999
 20
51.085599999999999
 30
0.0
 10
17.466699999999999
 20
51.085599999999999
 30
0.0
 10
17.123899999999999
 20
50.615200000000002
 30
0.0
 10
10.1098
 20
48.956699999999998
 30
0.0
 10
8.6812000000000005
 20
47.920999999999999
 30
0.0
 10
8.6812000000000005
 20
47.920999999999999
 30
0.0
 10
4.4878999999999998
 20
44.880800000000001
 30
0.0
 10
5.5719000000000003
 20
45.867899999999999
 30
0.0
 10
-0.3817
 20
45.867899999999999
 30
0.0
 10
-0.3817
 20
45.867899999999999
 30
0.0
 10
-1.3988
 20
45.867899999999999
 30
0.0
 10
-3.6745999999999999
 20
45.078099999999999
 30
0.0
 10
-5.0884
 20
45.021799999999999
 30
0.0
 10
-5.0884
 20
45.021799999999999
 30
0.0
 10
-6.6307
 20
44.960099999999997
 30
0.0
 10
-8.9710000000000001
 20
46.353299999999997
 30
0.0
 10
-8.9710000000000001
 20
44.183900000000001
 30
0.0
 10
-8.9710000000000001
 20
44.183900000000001
 30
0.0
 10
-8.9710000000000001
 20
44.127699999999997
 30
0.0
 10
-8.9710000000000001
 20
44.071800000000003
 30
0.0
 10
-8.9710000000000001
 20
44.015500000000003
 30
0.0
 10
-8.9710000000000001
 20
44.015500000000003
 30
0.0
 10
-8.9710000000000001
 20
43.2883
 30
0.0
 10
-8.2094000000000005
 20
42.915500000000002
 30
0.0
 10
-7.5871000000000004
 20
42.483400000000003
 30
0.0
 10
-7.5871000000000004
 20
42.483400000000003
 30
0.0
 10
-7.5871000000000004
 20
42.483400000000003
 30
0.0
 10
-9.3301999999999996
 20
42.715699999999998
 30
0.0
 10
-9.3301999999999996
 20
42.715699999999998
 30
0.0
 10
-9.3301999999999996
 20
42.715699999999998
 30
0.0
 10
-9.7246000000000006
 20
42.806199999999997
 30
0.0
 10
-10.178599999999999
 20
42.836399999999998
 30
0.0
 10
-10.6553
 20
42.836399999999998
 30
0.0
 10
-10.6553
 20
42.836399999999998
 30
0.0
 10
-11.1044
 20
43.229300000000002
 30
0.0
 10
-11.553900000000001
 20
43.622
 30
0.0
 10
-12.0032
 20
44.014899999999997
 30
0.0
 10
-12.0032
 20
44.014899999999997
 30
0.0
 10
-12.700200000000001
 20
43.680500000000002
 30
0.0
 10
-12.8292
 20
43.692399999999999
 30
0.0
 10
-12.9574
 20
43.482300000000002
 30
0.0
 10
-12.9574
 20
43.482300000000002
 30
0.0
 10
-14.2628
 20
46.820500000000003
 30
0.0
 10
-14.980499999999999
 20
50.4527
 30
0.0
 10
-14.980499999999999
 20
54.252600000000001
 30
0.0
 10
-14.980499999999999
 20
54.252600000000001
 30
0.0
 10
-14.980499999999999
 20
56.055500000000002
 30
0.0
 10
-14.819100000000001
 20
57.820799999999998
 30
0.0
 10
-14.509499999999999
 20
59.5349
 30
0.0
  0
SPLINE
  5
36
100
AcDbEntity
  8
RÚteg 1
 62
     7
100
AcDbSpline
210
0.0
220
0.0
230
1.0
 70
     1
 71
     3
 72
    20
 73
    16
 74
     0
 42
0.0000000001
 43
0.0000000001
 40
0.0
 40
0.0
 40
0.0
 40
0.0
 40
0.25
 40
0.25
 40
0.25
 40
0.25
 40
0.5
 40
0.5
 40
0.5
 40
0.5
 40
0.75
 40
0.75
 40
0.75
 40
0.75
 40
1.0
 40
1.0
 40
1.0
 40
1.0
 10
-11.409800000000001
 20
40.151000000000003
 30
0.0
 10
-10.655900000000001
 20
40.549199999999999
 30
0.0
 10
-10.366400000000001
 20
40.584499999999998
 30
0.0
 10
-8.4657999999999998
 20
40.141599999999997
 30
0.0
 10
-8.4657999999999998
 20
40.141599999999997
 30
0.0
 10
-8.5204000000000004
 20
40.066200000000002
 30
0.0
 10
-8.2021999999999995
 20
39.900799999999997
 30
0.0
 10
-7.7718999999999996
 20
39.719000000000001
 30
0.0
 10
-7.7718999999999996
 20
39.719000000000001
 30
0.0
 10
-8.4212000000000007
 20
39.076099999999997
 30
0.0
 10
-9.3638999999999992
 20
38.236699999999999
 30
0.0
 10
-9.8440999999999992
 20
37.590299999999999
 30
0.0
 10
-9.8440999999999992
 20
37.590299999999999
 30
0.0
 10
-10.407
 20
38.415100000000002
 30
0.0
 10
-10.9308
 20
39.269100000000002
 30
0.0
 10
-11.409800000000001
 20
40.151000000000003
 30
0.0
  0
SPLINE
  5
37
100
AcDbEntity
  8
RÚteg 1
 62
     7
100
AcDbSpline
210
0.0
220
0.0
230
1.0
 70
     1
 71
     3
 72
    64
 73
    60
 74
     0
 42
0.0000000001
 43
0.0000000001
 40
0.0
 40
0.0
 40
0.0
 40
0.0
 40
0.0666666666666667
 40
0.0666666666666667
 40
0.0666666666666667
 40
0.0666666666666667
 40
0.1333333333333333
 40
0.1333333333333333
 40
0.1333333333333333
 40
0.1333333333333333
 40
0.2
 40
0.2
 40
0.2
 40
0.2
 40
0.2666666666666667
 40
0.2666666666666667
 40
0.2666666666666667
 40
0.2666666666666667
 40
0.3333333333333333
 40
0.3333333333333333
 40
0.3333333333333333
 40
0.3333333333333333
 40
0.4
 40
0.4
 40
0.4
 40
0.4
 40
0.4666666666666666
 40
0.4666666666666666
 40
0.4666666666666666
 40
0.4666666666666666
 40
0.5333333333333333
 40
0.5333333333333333
 40
0.5333333333333333
 40
0.5333333333333333
 40
0.6
 40
0.6
 40
0.6
 40
0.6
 40
0.6666666666666666
 40
0.6666666666666666
 40
0.6666666666666666
 40
0.6666666666666666
 40
0.7333333333333333
 40
0.7333333333333333
 40
0.7333333333333333
 40
0.7333333333333333
 40
0.7999999999999999
 40
0.7999999999999999
 40
0.7999999999999999
 40
0.7999999999999999
 40
0.8666666666666666
 40
0.8666666666666666
 40
0.8666666666666666
 40
0.8666666666666666
 40
0.9333333333333332
 40
0.9333333333333332
 40
0.9333333333333332
 40
0.9333333333333332
 40
1.0
 40
1.0
 40
1.0
 40
1.0
 10
-5.0613000000000001
 20
32.150599999999997
 30
0.0
 10
-5.0613000000000001
 20
32.150599999999997
 30
0.0
 10
-5.0305999999999997
 20
32.159199999999998
 30
0.0
 10
-5.0305999999999997
 20
32.159199999999998
 30
0.0
 10
-5.0305999999999997
 20
32.159199999999998
 30
0.0
 10
-2.9165000000000001
 20
32.7483
 30
0.0
 10
-0.2624
 20
32.6526
 30
0.0
 10
2.1309999999999998
 20
32.913499999999999
 30
0.0
 10
2.1309999999999998
 20
32.913499999999999
 30
0.0
 10
5.0072999999999999
 20
33.226599999999998
 30
0.0
 10
10.873100000000001
 20
36.393599999999999
 30
0.0
 10
12.856299999999999
 20
37.851199999999999
 30
0.0
 10
12.856299999999999
 20
37.851199999999999
 30
0.0
 10
15.918200000000001
 20
40.101799999999997
 30
0.0
 10
19.832100000000001
 20
41.246899999999997
 30
0.0
 10
22.817699999999999
 20
43.552999999999997
 30
0.0
 10
22.817699999999999
 20
43.552999999999997
 30
0.0
 10
23.595500000000001
 20
44.154000000000003
 30
0.0
 10
24.2224
 20
44.9283
 30
0.0
 10
24.515799999999999
 20
45.897199999999998
 30
0.0
 10
24.515799999999999
 20
45.897199999999998
 30
0.0
 10
24.8095
 20
46.868299999999998
 30
0.0
 10
24.764299999999999
 20
48.696899999999999
 30
0.0
 10
24.983599999999999
 20
49.302999999999997
 30
0.0
 10
24.983599999999999
 20
49.302999999999997
 30
0.0
 10
25.621400000000001
 20
51.066899999999997
 30
0.0
 10
28.691199999999998
 20
50.402999999999999
 30
0.0
 10
28.755400000000002
 20
53.278500000000001
 30
0.0
 10
28.755400000000002
 20
53.278500000000001
 30
0.0
 10
29.285599999999999
 20
53.155200000000001
 30
0.0
 10
29.7437
 20
52.773400000000002
 30
0.0
 10
30.102699999999999
 20
52.773400000000002
 30
0.0
 10
30.102699999999999
 20
52.773400000000002
 30
0.0
 10
30.425599999999999
 20
52.773400000000002
 30
0.0
 10
30.858899999999998
 20
53.631300000000003
 30
0.0
 10
30.944900000000001
 20
53.952199999999998
 30
0.0
 10
30.944900000000001
 20
53.952199999999998
 30
0.0
 10
31.5063
 20
53.952199999999998
 30
0.0
 10
32.067700000000002
 20
53.952199999999998
 30
0.0
 10
32.628900000000002
 20
53.952199999999998
 30
0.0
 10
32.628900000000002
 20
53.952199999999998
 30
0.0
 10
36.5411
 20
53.952199999999998
 30
0.0
 10
37.914700000000003
 20
54.958100000000002
 30
0.0
 10
39.501899999999999
 20
57.353099999999998
 30
0.0
 10
39.501899999999999
 20
57.353099999999998
 30
0.0
 10
40.734099999999998
 20
59.212800000000001
 30
0.0
 10
42.361600000000003
 20
61.5154
 30
0.0
 10
42.396500000000003
 20
64.466200000000001
 30
0.0
 10
42.396500000000003
 20
64.466200000000001
 30
0.0
 10
43.567700000000002
 20
61.282600000000002
 30
0.0
 10
44.207799999999999
 20
57.842199999999998
 30
0.0
 10
44.207799999999999
 20
54.252600000000001
 30
0.0
 10
44.207799999999999
 20
54.252600000000001
 30
0.0
 10
44.207799999999999
 20
37.911000000000001
 30
0.0
 10
30.955200000000001
 20
24.6585
 30
0.0
 10
14.6137
 20
24.6585
 30
0.0
 10
14.6137
 20
24.6585
 30
0.0
 10
7.0602
 20
24.6585
 30
0.0
 10
0.168
 20
27.491199999999999
 30
0.0
 10
-5.0613000000000001
 20
32.150599999999997
 30
0.0
  0
SPLINE
  5
38
100
AcDbEntity
  8
RÚteg 1
 62
     7
100
AcDbSpline
210
0.0
220
0.0
230
1.0
 70
     1
 71
     3
 72
    76
 73
    72
 74
     0
 42
0.0000000001
 43
0.0000000001
 40
0.0
 40
0.0
 40
0.0
 40
0.0
 40
0.0555555555555556
 40
0.0555555555555556
 40
0.0555555555555556
 40
0.0555555555555556
 40
0.1111111111111111
 40
0.1111111111111111
 40
0.1111111111111111
 40
0.1111111111111111
 40
0.1666666666666667
 40
0.1666666666666667
 40
0.1666666666666667
 40
0.1666666666666667
 40
0.2222222222222222
 40
0.2222222222222222
 40
0.2222222222222222
 40
0.2222222222222222
 40
0.2777777777777778
 40
0.2777777777777778
 40
0.2777777777777778
 40
0.2777777777777778
 40
0.3333333333333334
 40
0.3333333333333334
 40
0.3333333333333334
 40
0.3333333333333334
 40
0.388888888888889
 40
0.388888888888889
 40
0.388888888888889
 40
0.388888888888889
 40
0.4444444444444445
 40
0.4444444444444445
 40
0.4444444444444445
 40
0.4444444444444445
 40
0.5000000000000001
 40
0.5000000000000001
 40
0.5000000000000001
 40
0.5000000000000001
 40
0.5555555555555557
 40
0.5555555555555557
 40
0.5555555555555557
 40
0.5555555555555557
 40
0.6111111111111113
 40
0.6111111111111113
 40
0.6111111111111113
 40
0.6111111111111113
 40
0.6666666666666669
 40
0.6666666666666669
 40
0.6666666666666669
 40
0.6666666666666669
 40
0.7222222222222224
 40
0.7222222222222224
 40
0.7222222222222224
 40
0.7222222222222224
 40
0.777777777777778
 40
0.777777777777778
 40
0.777777777777778
 40
0.777777777777778
 40
0.8333333333333336
 40
0.8333333333333336
 40
0.8333333333333336
 40
0.8333333333333336
 40
0.8888888888888892
 40
0.8888888888888892
 40
0.8888888888888892
 40
0.8888888888888892
 40
0.9444444444444448
 40
0.9444444444444448
 40
0.9444444444444448
 40
0.9444444444444448
 40
1.0
 40
1.0
 40
1.0
 40
1.0
 10
40.039200000000001
 20
63.937600000000003
 30
0.0
 10
39.760899999999999
 20
63.857399999999998
 30
0.0
 10
39.482599999999998
 20
63.7774
 30
0.0
 10
39.204099999999997
 20
63.697099999999999
 30
0.0
 10
39.204099999999997
 20
63.697099999999999
 30
0.0
 10
39.146000000000001
 20
63.673299999999998
 30
0.0
 10
39.075800000000001
 20
63.6539
 30
0.0
 10
38.994
 20
63.636800000000001
 30
0.0
 10
38.994
 20
63.636800000000001
 30
0.0
 10
38.993499999999997
 20
63.636400000000002
 30
0.0
 10
38.992699999999999
 20
63.636299999999999
 30
0.0
 10
38.991900000000001
 20
63.636099999999999
 30
0.0
 10
38.991900000000001
 20
63.636099999999999
 30
0.0
 10
38.991999999999997
 20
63.636099999999999
 30
0.0
 10
38.991999999999997
 20
63.636299999999999
 30
0.0
 10
38.991999999999997
 20
63.636299999999999
 30
0.0
 10
38.991999999999997
 20
63.636299999999999
 30
0.0
 10
38.716299999999997
 20
63.579000000000001
 30
0.0
 10
38.308399999999999
 20
63.546399999999998
 30
0.0
 10
37.782800000000002
 20
63.450899999999997
 30
0.0
 10
37.782800000000002
 20
63.450899999999997
 30
0.0
 10
36.627200000000002
 20
63.241599999999998
 30
0.0
 10
36.057000000000002
 20
63.091700000000003
 30
0.0
 10
35.024099999999997
 20
62.8416
 30
0.0
 10
35.024099999999997
 20
62.8416
 30
0.0
 10
34.172499999999999
 20
62.635399999999997
 30
0.0
 10
33.123100000000001
 20
62.580399999999997
 30
0.0
 10
32.191000000000003
 20
62.306100000000001
 30
0.0
 10
32.191000000000003
 20
62.306100000000001
 30
0.0
 10
31.716000000000001
 20
62.166400000000003
 30
0.0
 10
31.262
 20
61.977699999999999
 30
0.0
 10
30.8995
 20
61.918700000000001
 30
0.0
 10
30.8995
 20
61.918700000000001
 30
0.0
 10
30.8995
 20
61.918700000000001
 30
0.0
 10
30.8995
 20
61.918700000000001
 30
0.0
 10
30.8996
 20
61.918700000000001
 30
0.0
 10
30.8996
 20
61.918700000000001
 30
0.0
 10
30.2285
 20
61.7879
 30
0.0
 10
29.557400000000001
 20
61.657200000000003
 30
0.0
 10
28.886299999999999
 20
61.526299999999999
 30
0.0
 10
28.886299999999999
 20
61.526299999999999
 30
0.0
 10
28.954999999999998
 20
61.415799999999997
 30
0.0
 10
29.023599999999998
 20
61.305300000000003
 30
0.0
 10
29.092199999999998
 20
61.194499999999998
 30
0.0
 10
29.092199999999998
 20
61.194499999999998
 30
0.0
 10
28.642600000000002
 20
60.344799999999999
 30
0.0
 10
28.777100000000001
 20
60.414499999999997
 30
0.0
 10
27.723199999999999
 20
60.205599999999997
 30
0.0
 10
27.723199999999999
 20
60.205599999999997
 30
0.0
 10
26.731000000000002
 20
60.008699999999997
 30
0.0
 10
27.1629
 20
59.616700000000002
 30
0.0
 10
26.902799999999999
 20
58.4998
 30
0.0
 10
26.902799999999999
 20
58.4998
 30
0.0
 10
27.933199999999999
 20
58.414000000000001
 30
0.0
 10
28.035
 20
58.2331
 30
0.0
 10
28.7148
 20
57.785400000000003
 30
0.0
 10
28.7148
 20
57.785400000000003
 30
0.0
 10
29.5212
 20
57.253799999999998
 30
0.0
 10
29.938300000000002
 20
57.627499999999998
 30
0.0
 10
30.944900000000001
 20
57.657699999999998
 30
0.0
 10
30.944900000000001
 20
57.657699999999998
 30
0.0
 10
32.164700000000003
 20
57.694000000000003
 30
0.0
 10
34.439100000000003
 20
57.994399999999999
 30
0.0
 10
35.492199999999997
 20
57.4893
 30
0.0
 10
35.492199999999997
 20
57.4893
 30
0.0
 10
36.058300000000003
 20
57.868299999999998
 30
0.0
 10
37.770299999999999
 20
59.9527
 30
0.0
 10
38.399799999999999
 20
60.6447
 30
0.0
 10
38.399799999999999
 20
60.6447
 30
0.0
 10
39.903100000000002
 20
62.2971
 30
0.0
 10
40.029899999999998
 20
62.129399999999997
 30
0.0
 10
40.039200000000001
 20
63.937600000000003
 30
0.0
  0
ENDSEC
  0
SECTION
  2
OBJECTS
  0
DICTIONARY
  5
19
100
AcDbDictionary
280
     0
281
     1
  3
ACAD_GROUP
350
1A
  3
ACAD_MLINESTYLE
350
1B
  3
ACAD_LAYOUT
350
1E
  3
ACAD_PLOTSETTINGS
350
22
  3
ACAD_PLOTSTYLENAME
350
1F
  3
ACAD_WIPEOUT_VARS
350
23
  0
DICTIONARY
  5
1A
102
{ACAD_REACTORS
330
19
102
}
100
AcDbDictionary
280
     0
281
     1
  0
DICTIONARY
  5
1B
102
{ACAD_REACTORS
330
19
102
}
100
AcDbDictionary
280
     0
281
     1
  3
Standard
350
1C
  0
MLINESTYLE
  5
1C
102
{ACAD_REACTORS
330
1B
102
}
100
AcDbMlineStyle
  2
Standard
 70
     0
  3

 62
     0
 51
90.0
 52
90.0
 71
     2
 49
0.5
 62
   256
  6
BYLAYER
 49
-0.5
 62
   256
  6
BYLAYER
  0
ACDBDICTIONARYWDFLT
  5
1F
102
{ACAD_REACTORS
330
19
102
}
100
AcDbDictionary
281
     1
  3
Normal
350
1D
100
AcDbDictionaryWithDefault
340
1D
  0
ACDBPLACEHOLDER
  5
1D
102
{ACAD_REACTORS
330
1F
102
}
  0
LAYOUT
  5
20
102
{ACAD_REACTORS
330
1E
102
}
100
AcDbPlotSettings
  1

  2

  4

  6

 40
0.0
 41
0.0
 42
0.0
 43
0.0
 44
0.0
 45
0.0
 46
0.0
 47
0.0
 48
0.0
 49
0.0
140
0.0
141
0.0
142
1.0
143
1.0
 70
  1024
 72
     0
 73
     0
 74
     0
  7

 75
     0
147
1.0
148
0.0
149
0.0
100
AcDbLayout
  1
Model
 70
     0
 71
     0
 10
0.0
 20
0.0
 11
0.0
 21
0.0
 12
0.0
 22
0.0
 32
0.0
 14
0.0
 24
0.0
 34
0.0
 15
0.0
 25
0.0
 35
0.0
146
0.0
 13
0.0
 23
0.0
 33
0.0
 16
0.0
 26
0.0
 36
0.0
 17
0.0
 27
0.0
 37
0.0
 76
     0
330
A
331
0
345
0
346
0
  0
LAYOUT
  5
21
102
{ACAD_REACTORS
330
1E
102
}
100
AcDbPlotSettings
  1

  2

  4

  6

 40
0.0
 41
0.0
 42
0.0
 43
0.0
 44
0.0
 45
0.0
 46
0.0
 47
0.0
 48
0.0
 49
0.0
140
0.0
141
0.0
142
1.0
143
1.0
 70
     0
 72
     0
 73
     0
 74
     0
  7

 75
     0
147
1.0
148
0.0
149
0.0
100
AcDbLayout
  1
Layout1
 70
     0
 71
     0
 10
0.0
 20
0.0
 11
0.0
 21
0.0
 12
0.0
 22
0.0
 32
0.0
 14
0.0
 24
0.0
 34
0.0
 15
0.0
 25
0.0
 35
0.0
146
0.0
 13
0.0
 23
0.0
 33
0.0
 16
0.0
 26
0.0
 36
0.0
 17
0.0
 27
0.0
 37
0.0
 76
     0
330
B
331
0
345
0
346
0
  0
DICTIONARY
  5
1E
102
{ACAD_REACTORS
330
19
102
}
100
AcDbDictionary
280
     0
281
     1
  3
Layout1
350
21
  3
Model
350
20
  0
DICTIONARY
  5
22
102
{ACAD_REACTORS
330
19
102
}
100
AcDbDictionary
280
     0
281
     1
  0
WIPEOUTVARIABLES
  5
23
100
AcDbWipeoutVariables
 70
     1
  0
ENDSEC
  0
EOF
