  0
SECTION
  2
HEADER
  9
$ACADVER
  1
AC1015
  9
$ACADMAINTVER
 70
     6
  9
$DWGCODEPAGE
  3
DOS850
  9
$INSBASE
 10
0.0
 20
0.0
 30
0.0
  9
$EXTMIN
 10
-97.9627
 20
2.7782
 30
1.000000E+20
  9
$EXTMAX
 10
67.0881
 20
95.3127
 30
-1.000000E+20
  9
$LIMMIN
 10
0.0
 20
0.0
  9
$LIMMAX
 10
0.0
 20
0.0
  9
$ORTHOMODE
 70
     0
  9
$REGENMODE
 70
     1
  9
$FILLMODE
 70
     1
  9
$QTEXTMODE
 70
     0
  9
$MIRRTEXT
 70
     1
  9
$LTSCALE
 40
1.0
  9
$ATTMODE
 70
     1
  9
$TEXTSIZE
 40
0.2
  9
$TRACEWID
 40
0.05
  9
$TEXTSTYLE
  7
Standard
  9
$CLAYER
  8
0
  9
$CELTYPE
  6
Continuous
  9
$CECOLOR
 62
   256
  9
$CELTSCALE
 40
1.0
  9
$DISPSILH
 70
     0
  9
$DIMSCALE
 40
1.0
  9
$DIMASZ
 40
0.18
  9
$DIMEXO
 40
0.0625
  9
$DIMDLI
 40
0.38
  9
$DIMRND
 40
0.0
  9
$DIMDLE
 40
0.0
  9
$DIMEXE
 40
0.18
  9
$DIMTP
 40
0.0
  9
$DIMTM
 40
0.0
  9
$DIMTXT
 40
0.18
  9
$DIMCEN
 40
0.09
  9
$DIMTSZ
 40
0.0
  9
$DIMTOL
 70
     0
  9
$DIMLIM
 70
     0
  9
$DIMTIH
 70
     1
  9
$DIMTOH
 70
     1
  9
$DIMSE1
 70
     0
  9
$DIMSE2
 70
     0
  9
$DIMTAD
 70
     0
  9
$DIMZIN
 70
     0
  9
$DIMBLK
  1

  9
$DIMASO
 70
     1
  9
$DIMSHO
 70
     1
  9
$DIMPOST
  1

  9
$DIMAPOST
  1

  9
$DIMALT
 70
     0
  9
$DIMALTD
 70
     2
  9
$DIMALTF
 40
25.4
  9
$DIMLFAC
 40
1.0
  9
$DIMTOFL
 70
     0
  9
$DIMTVP
 40
0.0
  9
$DIMTIX
 70
     0
  9
$DIMSOXD
 70
     0
  9
$DIMSAH
 70
     0
  9
$DIMBLK1
  1

  9
$DIMBLK2
  1

  9
$DIMSTYLE
  2
Standard
  9
$DIMCLRD
 70
     0
  9
$DIMCLRE
 70
     0
  9
$DIMCLRT
 70
     0
  9
$DIMTFAC
 40
1.0
  9
$DIMGAP
 40
0.09
  9
$DIMJUST
 70
     0
  9
$DIMSD1
 70
     0
  9
$DIMSD2
 70
     0
  9
$DIMTOLJ
 70
     1
  9
$DIMTZIN
 70
     0
  9
$DIMALTZ
 70
     0
  9
$DIMALTTZ
 70
     0
  9
$DIMUPT
 70
     0
  9
$DIMDEC
 70
     4
  9
$DIMTDEC
 70
     4
  9
$DIMALTU
 70
     2
  9
$DIMALTTD
 70
     2
  9
$DIMTXSTY
  7
Standard
  9
$DIMAUNIT
 70
     0
  9
$DIMADEC
 70
     0
  9
$DIMALTRND
 40
0.0
  9
$DIMAZIN
 70
     0
  9
$DIMDSEP
 70
     0
  9
$DIMATFIT
 70
     3
  9
$DIMFRAC
 70
     0
  9
$DIMLDRBLK
  1

  9
$DIMLUNIT
 70
     2
  9
$DIMLWD
 70
     0
  9
$DIMLWE
 70
     0
  9
$DIMTMOVE
 70
     0
  9
$LUNITS
 70
     2
  9
$LUPREC
 70
     4
  9
$SKETCHINC
 40
0.1
  9
$FILLETRAD
 40
0.0
  9
$AUNITS
 70
     0
  9
$AUPREC
 70
     0
  9
$MENU
  1
acad
  9
$ELEVATION
 40
0.0
  9
$PELEVATION
 40
0.0
  9
$THICKNESS
 40
0.0
  9
$LIMCHECK
 70
     0
  9
$CHAMFERA
 40
0.0
  9
$CHAMFERB
 40
0.0
  9
$CHAMFERC
 40
0.0
  9
$CHAMFERD
 40
0.0
  9
$SKPOLY
 70
     0
  9
$TDCREATE
 40
0.000000000
  9
$TDUCREATE
 40
0.000000000
  9
$TDUPDATE
 40
0.000000000
  9
$TDUUPDATE
 40
0.000000000
  9
$TDINDWG
 40
0.0000000000
  9
$TDUSRTIMER
 40
0.0000000000
  9
$USRTIMER
 70
     1
  9
$ANGBASE
 50
0.0
  9
$ANGDIR
 70
     0
  9
$PDMODE
 70
     0
  9
$PDSIZE
 40
0.0
  9
$PLINEWID
 40
0.0
  9
$SPLFRAME
 70
     0
  9
$SPLINETYPE
 70
     6
  9
$SPLINESEGS
 70
     8
  9
$HANDSEED
  5
50
  9
$SURFTAB1
 70
     6
  9
$SURFTAB2
 70
     6
  9
$SURFTYPE
 70
     6
  9
$SURFU
 70
     6
  9
$SURFV
 70
     6
  9
$UCSBASE
  2

  9
$UCSNAME
  2

  9
$UCSORG
 10
0.0
 20
0.0
 30
0.0
  9
$UCSXDIR
 10
1.0
 20
0.0
 30
0.0
  9
$UCSYDIR
 10
0.0
 20
1.0
 30
0.0
  9
$UCSORTHOREF
  2

  9
$UCSORTHOVIEW
 70
     0
  9
$UCSORGTOP
 10
0.0
 20
0.0
 30
0.0
  9
$UCSORGBOTTOM
 10
0.0
 20
0.0
 30
0.0
  9
$UCSORGLEFT
 10
0.0
 20
0.0
 30
0.0
  9
$UCSORGRIGHT
 10
0.0
 20
0.0
 30
0.0
  9
$UCSORGFRONT
 10
0.0
 20
0.0
 30
0.0
  9
$UCSORGBACK
 10
0.0
 20
0.0
 30
0.0
  9
$PUCSBASE
  2

  9
$PUCSNAME
  2

  9
$PUCSORG
 10
0.0
 20
0.0
 30
0.0
  9
$PUCSXDIR
 10
1.0
 20
0.0
 30
0.0
  9
$PUCSYDIR
 10
0.0
 20
1.0
 30
0.0
  9
$PUCSORTHOREF
  2

  9
$PUCSORTHOVIEW
 70
     0
  9
$PUCSORGTOP
 10
0.0
 20
0.0
 30
0.0
  9
$PUCSORGBOTTOM
 10
0.0
 20
0.0
 30
0.0
  9
$PUCSORGLEFT
 10
0.0
 20
0.0
 30
0.0
  9
$PUCSORGRIGHT
 10
0.0
 20
0.0
 30
0.0
  9
$PUCSORGFRONT
 10
0.0
 20
0.0
 30
0.0
  9
$PUCSORGBACK
 10
0.0
 20
0.0
 30
0.0
  9
$USERI1
 70
     0
  9
$USERI2
 70
     0
  9
$USERI3
 70
     0
  9
$USERI4
 70
     0
  9
$USERI5
 70
     0
  9
$USERR1
 40
0.0
  9
$USERR2
 40
0.0
  9
$USERR3
 40
0.0
  9
$USERR4
 40
0.0
  9
$USERR5
 40
0.0
  9
$WORLDVIEW
 70
     1
  9
$SHADEDGE
 70
     3
  9
$SHADEDIF
 70
    70
  9
$TILEMODE
 70
     1
  9
$MAXACTVP
 70
    16
  9
$PINSBASE
 10
0.0
 20
0.0
 30
0.0
  9
$PLIMCHECK
 70
     0
  9
$PEXTMIN
 10
1.000000E+20
 20
1.000000E+20
 30
1.000000E+20
  9
$PEXTMAX
 10
-1.000000E+20
 20
-1.000000E+20
 30
-1.000000E+20
  9
$PLIMMIN
 10
0.0
 20
0.0
  9
$PLIMMAX
 10
12.0
 20
9.0
  9
$UNITMODE
 70
     0
  9
$VISRETAIN
 70
     0
  9
$PLINEGEN
 70
     1
  9
$PSLTSCALE
 70
     0
  9
$TREEDEPTH
 70
  3020
  9
$CMLSTYLE
  2
Standard
  9
$CMLJUST
 70
     0
  9
$CMLSCALE
 40
1.0
  9
$PROXYGRAPHICS
 70
     0
  9
$MEASUREMENT
 70
     0
  9
$CELWEIGHT
370
     0
  9
$ENDCAPS
280
     0
  9
$JOINSTYLE
280
     0
  9
$LWDISPLAY
290
     0
  9
$INSUNITS
 70
     4
  9
$HYPERLINKBASE
  1

  9
$XEDIT
290
     1
  9
$CEPSNTYPE
380
     0
  9
$PSTYLEMODE
290
     1
  9
$FINGERPRINTGUID
  2

  9
$VERSIONGUID
  2

  9
$EXTNAMES
290
     1
  9
$PSVPSCALE
 40
0.0
  0
ENDSEC
  0
SECTION
  2
CLASSES
  0
CLASS
  1
LWPOLYLINE
  2
AcDbPolyline
  3
AutoCAD 2000
 90
    32768
280
     0
281
     1
  0
CLASS
  1
IMAGE
  2
AcDbRasterImage
  3
ISM
 90
    32895
280
     0
281
     1
  0
CLASS
  1
OLE2FRAME
  2
AcDbOle2Frame
  3
AutoCAD 2000
 90
    32768
280
     0
281
     1
  0
CLASS
  1
HATCH
  2
AcDbHatch
  3
AutoCAD 2000
 90
    32768
280
     0
281
     1
  0
CLASS
  1
DICTIONARYVAR
  2
AcDbDictionaryVar
  3
AutoCAD 2000
 90
    32768
280
     0
281
     0
  0
CLASS
  1
RASTERVARIABLES
  2
AcDbRasterVariables
  3
ISM
 90
    32768
280
     0
281
     0
  0
CLASS
  1
IMAGEDEF
  2
AcDbRasterImageDef
  3
ISM
 90
    32768
280
     0
281
     0
  0
CLASS
  1
IMAGEDEF_REACTOR
  2
AcDbRasterImageDefReactor
  3
ISM
 90
    32769
280
     0
281
     0
  0
CLASS
  1
IDBUFFER
  2
AcDbIdBuffer
  3
AutoCAD 2000
 90
    32768
280
     0
281
     0
  0
CLASS
  1
SPATIAL_FILTER
  2
AcDbSpatialFilter
  3
AutoCAD 2000
 90
    32768
280
     0
281
     0
  0
CLASS
  1
XRECORD
  2
AcDbXrecord
  3
AutoCAD 2000
 90
    32768
280
     0
281
     0
  0
CLASS
  1
SORTENTSTABLE
  2
AcDbSortentsTable
  3
AutoCAD 2000
 90
    32768
280
     0
281
     0
  0
CLASS
  1
LAYER_INDEX
  2
AcDbLayerIndex
  3
AutoCAD 2000
 90
    32768
280
     0
281
     0
  0
CLASS
  1
SPATIAL_INDEX
  2
AcDbSpatialIndex
  3
AutoCAD 2000
 90
    32768
280
     0
281
     0
  0
CLASS
  1
OBJECT_PTR
  2
CAseDLPNTableRecord
  3
"ASE-LPNTableRecord"
 90
    32769
280
     0
281
     0
  0
CLASS
  1
LAYOUT
  2
AcDbLayout
  3
AutoCAD 2000
 90
        0
280
     0
281
     0
  0
CLASS
  1
PLOTSETTINGS
  2
AcDbPlotSettings
  3
AutoCAD 2000
 90
    32768
280
     0
281
     0
  0
CLASS
  1
ACDBDICTIONARYWDFLT
  2
AcDbDictionaryWithDefault
  3
AutoCAD 2000
 90
        0
280
     0
281
     0
  0
CLASS
  1
ACDBPLACEHOLDER
  2
AcDbPlaceHolder
  3
AutoCAD 2000
 90
        0
280
     0
281
     0
  0
CLASS
  1
VBA_PROJECT
  2
AcDbVbaProject
  3
acadvba
 90
    32768
280
     0
281
     0
  0
CLASS
  1
WIPEOUT
  2
AcDbWipeout
  3
WipeOut|AutoCAD Express Tool|expresstools@autodesk.com
 90
    32895
280
     0
281
     1
  0
CLASS
  1
WIPEOUTVARIABLES
  2
AcDbWipeoutVariables
  3
WipeOut|AutoCAD Express Tool|expresstools@autodesk.com
 90
        0
280
     0
281
     0
  0
CLASS
  1
RTEXT
  2
RText
  3
RText|AutoCAD Express Tool|expresstools@autodesk.com
 90
    32768
280
     0
281
     1
  0
CLASS
  1
ARCALIGNEDTEXT
  2
AcDbArcAlignedText
  3
ATEXT|AutoCAD Express Tool|expresstools@autodesk.com
 90
    32768
280
     0
281
     1
  0
ENDSEC
  0
SECTION
  2
TABLES
  0
TABLE
  2
VPORT
  5
7
100
AcDbSymbolTable
 70
     1
  0
VPORT
  5
15
100
AcDbSymbolTableRecord
100
AcDbViewportTableRecord
  2
*ACTIVE
 70
     0
 10
0.0
 20
0.0
 11
1.0
 21
1.0
 12
6.591288
 22
4.579184
 13
0.0
 23
0.0
 14
1.0
 24
1.0
 15
0.0
 25
0.0
 16
0.0
 26
0.0
 36
1.0
 17
0.0
 27
0.0
 37
0.0
 40
9.158369
 41
0.688564
 42
50.0
 43
0.0
 44
0.0
 50
0.0
 51
0.0
 71
     0
 72
   100
 73
     1
 74
     1
 75
     0
 76
     0
 77
     0
 78
     0
281
     0
 65
     0
110
0.0
120
0.0
130
0.0
111
1.0
121
0.0
131
0.0
112
0.0
122
1.0
132
0.0
345
0
346
0
 79
     0
146
0.0
  0
ENDTAB
  0
TABLE
  2
LTYPE
  5
4
100
AcDbSymbolTable
 70
     3
  0
LTYPE
  5
11
100
AcDbSymbolTableRecord
100
AcDbLinetypeTableRecord
  2
ByBlock
 70
    64
  3

 72
    65
 73
     0
 40
0.0
  0
LTYPE
  5
12
100
AcDbSymbolTableRecord
100
AcDbLinetypeTableRecord
  2
ByLayer
 70
    64
  3

 72
    65
 73
     0
 40
0.0
  0
LTYPE
  5
13
100
AcDbSymbolTableRecord
100
AcDbLinetypeTableRecord
  2
Continuous
 70
    64
  3
Solid line
 72
    65
 73
     0
 40
0.0
  0
ENDTAB
  0
TABLE
  2
LAYER
  5
2
100
AcDbSymbolTable
 70
     2
  0
LAYER
  5
14
100
AcDbSymbolTableRecord
100
AcDbLayerTableRecord
  2
0
 70
     0
 62
     7
  6
Continuous
290
     1
370
    -3
390
1D
  0
LAYER
  5
24
100
AcDbSymbolTableRecord
100
AcDbLayerTableRecord
  2
RÚteg 1
 70
     0
 62
     7
  6
Continuous
290
     1
370
    -3
390
1F
  0
ENDTAB
  0
TABLE
  2
STYLE
  5
3
100
AcDbSymbolTable
 70
     1
  0
STYLE
  5
17
100
AcDbSymbolTableRecord
100
AcDbTextStyleTableRecord
  2
Standard
 70
     0
 40
0.0
 41
1.0
 50
0.0
 71
     0
 42
0.0
  3
txt
  4

  0
ENDTAB
  0
TABLE
  2
VIEW
  5
5
100
AcDbSymbolTable
 70
     0
  0
ENDTAB
  0
TABLE
  2
UCS
  5
6
100
AcDbSymbolTable
 70
     0
  0
ENDTAB
  0
TABLE
  2
APPID
  5
8
100
AcDbSymbolTable
 70
     1
  0
APPID
  5
16
100
AcDbSymbolTableRecord
100
AcDbRegAppTableRecord
  2
ACAD
 70
     0
  0
ENDTAB
  0
TABLE
  2
DIMSTYLE
  5
9
100
AcDbSymbolTable
 70
     1
100
AcDbDimStyleTable
 71
     0
  0
DIMSTYLE
105
18
100
AcDbSymbolTableRecord
100
AcDbDimStyleTableRecord
  2
Standard
 70
     0
  3

  4

 40
1.0
 41
0.18
 42
0.0625
 43
0.38
 44
0.18
 45
0.0
 46
0.0
 47
0.0
 48
0.0
 71
     0
 72
     0
 73
     1
 74
     1
 75
     0
 76
     0
 77
     0
 78
     0
 79
     0
140
0.18
141
0.09
142
0.0
143
25.4
144
1.0
145
0.0
146
1.0
147
0.09
148
0.0
170
     0
171
     2
172
     0
173
     0
174
     0
175
     0
176
     0
177
     0
178
     0
179
     0
271
     4
272
     4
273
     2
274
     2
275
     0
276
     0
277
     2
278
    46
279
     0
280
     0
281
     0
282
     0
283
     1
284
     0
285
     0
286
     0
288
     0
340
17
341
0
342
0
343
0
344
0
371
    -2
372
    -2
  0
ENDTAB
  0
TABLE
  2
BLOCK_RECORD
  5
1
100
AcDbSymbolTable
 70
     0
  0
BLOCK_RECORD
  5
A
100
AcDbSymbolTableRecord
100
AcDbBlockTableRecord
  2
*MODEL_SPACE
340
20
  0
BLOCK_RECORD
  5
B
100
AcDbSymbolTableRecord
100
AcDbBlockTableRecord
  2
*PAPER_SPACE
340
21
  0
ENDTAB
  0
ENDSEC
  0
SECTION
  2
BLOCKS
  0
BLOCK
  5
D
100
AcDbEntity
  8
0
100
AcDbBlockBegin
  2
*MODEL_SPACE
 70
     0
 10
0.0
 20
0.0
 30
0.0
  3
*MODEL_SPACE
  1

  0
ENDBLK
  5
E
100
AcDbEntity
  8
0
100
AcDbBlockEnd
  0
BLOCK
  5
F
100
AcDbEntity
 67
     1
  8
0
100
AcDbBlockBegin
  2
*PAPER_SPACE
 70
     0
 10
0.0
 20
0.0
 30
0.0
  3
*PAPER_SPACE
  1

  0
ENDBLK
  5
10
100
AcDbEntity
 67
     1
  8
0
100
AcDbBlockEnd
  0
ENDSEC
  0
SECTION
  2
ENTITIES
  0
SPLINE
  5
25
100
AcDbEntity
  8
RÚteg 1
 62
     7
100
AcDbSpline
210
0.0
220
0.0
230
1.0
 70
     1
 71
     3
 72
    16
 73
    12
 74
     0
 42
0.0000000001
 43
0.0000000001
 40
0.0
 40
0.0
 40
0.0
 40
0.0
 40
0.3333333333333333
 40
0.3333333333333333
 40
0.3333333333333333
 40
0.3333333333333333
 40
0.6666666666666666
 40
0.6666666666666666
 40
0.6666666666666666
 40
0.6666666666666666
 40
1.0
 40
1.0
 40
1.0
 40
1.0
 10
-56.326900000000002
 20
60.195099999999996
 30
0.0
 10
-56.326900000000002
 20
60.195099999999996
 30
0.0
 10
-53.636499999999998
 20
76.562600000000003
 30
0.0
 10
-53.636499999999998
 20
76.562600000000003
 30
0.0
 10
-53.636499999999998
 20
76.562600000000003
 30
0.0
 10
-59.796399999999998
 20
76.133899999999997
 30
0.0
 10
-65.399600000000007
 20
73.6828
 30
0.0
 10
-69.786299999999997
 20
69.868600000000001
 30
0.0
 10
-69.786299999999997
 20
69.868600000000001
 30
0.0
 10
-69.786299999999997
 20
69.868600000000001
 30
0.0
 10
-56.326900000000002
 20
60.195099999999996
 30
0.0
 10
-56.326900000000002
 20
60.195099999999996
 30
0.0
  0
SPLINE
  5
26
100
AcDbEntity
  8
RÚteg 1
 62
     7
100
AcDbSpline
210
0.0
220
0.0
230
1.0
 70
     1
 71
     3
 72
    20
 73
    16
 74
     0
 42
0.0000000001
 43
0.0000000001
 40
0.0
 40
0.0
 40
0.0
 40
0.0
 40
0.25
 40
0.25
 40
0.25
 40
0.25
 40
0.5
 40
0.5
 40
0.5
 40
0.5
 40
0.75
 40
0.75
 40
0.75
 40
0.75
 40
1.0
 40
1.0
 40
1.0
 40
1.0
 10
-51.695500000000003
 20
90.008799999999994
 30
0.0
 10
-50.610599999999998
 20
90.008799999999994
 30
0.0
 10
-49.730499999999999
 20
89.128699999999995
 30
0.0
 10
-49.730499999999999
 20
88.043800000000005
 30
0.0
 10
-49.730499999999999
 20
88.043800000000005
 30
0.0
 10
-49.730499999999999
 20
86.958799999999997
 30
0.0
 10
-50.610599999999998
 20
86.078400000000002
 30
0.0
 10
-51.695500000000003
 20
86.078400000000002
 30
0.0
 10
-51.695500000000003
 20
86.078400000000002
 30
0.0
 10
-52.780299999999997
 20
86.078400000000002
 30
0.0
 10
-53.660400000000003
 20
86.958799999999997
 30
0.0
 10
-53.660400000000003
 20
88.043800000000005
 30
0.0
 10
-53.660400000000003
 20
88.043800000000005
 30
0.0
 10
-53.660400000000003
 20
89.128699999999995
 30
0.0
 10
-52.780299999999997
 20
90.008799999999994
 30
0.0
 10
-51.695500000000003
 20
90.008799999999994
 30
0.0
  0
SPLINE
  5
27
100
AcDbEntity
  8
RÚteg 1
 62
     7
100
AcDbSpline
210
0.0
220
0.0
230
1.0
 70
     1
 71
     3
 72
   420
 73
   416
 74
     0
 42
0.0000000001
 43
0.0000000001
 40
0.0
 40
0.0
 40
0.0
 40
0.0
 40
0.0096153846153846
 40
0.0096153846153846
 40
0.0096153846153846
 40
0.0096153846153846
 40
0.0192307692307692
 40
0.0192307692307692
 40
0.0192307692307692
 40
0.0192307692307692
 40
0.0288461538461538
 40
0.0288461538461538
 40
0.0288461538461538
 40
0.0288461538461538
 40
0.0384615384615385
 40
0.0384615384615385
 40
0.0384615384615385
 40
0.0384615384615385
 40
0.0480769230769231
 40
0.0480769230769231
 40
0.0480769230769231
 40
0.0480769230769231
 40
0.0576923076923077
 40
0.0576923076923077
 40
0.0576923076923077
 40
0.0576923076923077
 40
0.0673076923076923
 40
0.0673076923076923
 40
0.0673076923076923
 40
0.0673076923076923
 40
0.0769230769230769
 40
0.0769230769230769
 40
0.0769230769230769
 40
0.0769230769230769
 40
0.0865384615384615
 40
0.0865384615384615
 40
0.0865384615384615
 40
0.0865384615384615
 40
0.0961538461538461
 40
0.0961538461538461
 40
0.0961538461538461
 40
0.0961538461538461
 40
0.1057692307692308
 40
0.1057692307692308
 40
0.1057692307692308
 40
0.1057692307692308
 40
0.1153846153846154
 40
0.1153846153846154
 40
0.1153846153846154
 40
0.1153846153846154
 40
0.125
 40
0.125
 40
0.125
 40
0.125
 40
0.1346153846153846
 40
0.1346153846153846
 40
0.1346153846153846
 40
0.1346153846153846
 40
0.1442307692307692
 40
0.1442307692307692
 40
0.1442307692307692
 40
0.1442307692307692
 40
0.1538461538461538
 40
0.1538461538461538
 40
0.1538461538461538
 40
0.1538461538461538
 40
0.1634615384615384
 40
0.1634615384615384
 40
0.1634615384615384
 40
0.1634615384615384
 40
0.173076923076923
 40
0.173076923076923
 40
0.173076923076923
 40
0.173076923076923
 40
0.1826923076923076
 40
0.1826923076923076
 40
0.1826923076923076
 40
0.1826923076923076
 40
0.1923076923076922
 40
0.1923076923076922
 40
0.1923076923076922
 40
0.1923076923076922
 40
0.2019230769230768
 40
0.2019230769230768
 40
0.2019230769230768
 40
0.2019230769230768
 40
0.2115384615384615
 40
0.2115384615384615
 40
0.2115384615384615
 40
0.2115384615384615
 40
0.2211538461538461
 40
0.2211538461538461
 40
0.2211538461538461
 40
0.2211538461538461
 40
0.2307692307692307
 40
0.2307692307692307
 40
0.2307692307692307
 40
0.2307692307692307
 40
0.2403846153846153
 40
0.2403846153846153
 40
0.2403846153846153
 40
0.2403846153846153
 40
0.2499999999999999
 40
0.2499999999999999
 40
0.2499999999999999
 40
0.2499999999999999
 40
0.2596153846153845
 40
0.2596153846153845
 40
0.2596153846153845
 40
0.2596153846153845
 40
0.2692307692307692
 40
0.2692307692307692
 40
0.2692307692307692
 40
0.2692307692307692
 40
0.2788461538461538
 40
0.2788461538461538
 40
0.2788461538461538
 40
0.2788461538461538
 40
0.2884615384615384
 40
0.2884615384615384
 40
0.2884615384615384
 40
0.2884615384615384
 40
0.2980769230769231
 40
0.2980769230769231
 40
0.2980769230769231
 40
0.2980769230769231
 40
0.3076923076923077
 40
0.3076923076923077
 40
0.3076923076923077
 40
0.3076923076923077
 40
0.3173076923076924
 40
0.3173076923076924
 40
0.3173076923076924
 40
0.3173076923076924
 40
0.326923076923077
 40
0.326923076923077
 40
0.326923076923077
 40
0.326923076923077
 40
0.3365384615384616
 40
0.3365384615384616
 40
0.3365384615384616
 40
0.3365384615384616
 40
0.3461538461538463
 40
0.3461538461538463
 40
0.3461538461538463
 40
0.3461538461538463
 40
0.3557692307692309
 40
0.3557692307692309
 40
0.3557692307692309
 40
0.3557692307692309
 40
0.3653846153846155
 40
0.3653846153846155
 40
0.3653846153846155
 40
0.3653846153846155
 40
0.3750000000000002
 40
0.3750000000000002
 40
0.3750000000000002
 40
0.3750000000000002
 40
0.3846153846153848
 40
0.3846153846153848
 40
0.3846153846153848
 40
0.3846153846153848
 40
0.3942307692307694
 40
0.3942307692307694
 40
0.3942307692307694
 40
0.3942307692307694
 40
0.4038461538461541
 40
0.4038461538461541
 40
0.4038461538461541
 40
0.4038461538461541
 40
0.4134615384615387
 40
0.4134615384615387
 40
0.4134615384615387
 40
0.4134615384615387
 40
0.4230769230769234
 40
0.4230769230769234
 40
0.4230769230769234
 40
0.4230769230769234
 40
0.432692307692308
 40
0.432692307692308
 40
0.432692307692308
 40
0.432692307692308
 40
0.4423076923076926
 40
0.4423076923076926
 40
0.4423076923076926
 40
0.4423076923076926
 40
0.4519230769230773
 40
0.4519230769230773
 40
0.4519230769230773
 40
0.4519230769230773
 40
0.4615384615384619
 40
0.4615384615384619
 40
0.4615384615384619
 40
0.4615384615384619
 40
0.4711538461538465
 40
0.4711538461538465
 40
0.4711538461538465
 40
0.4711538461538465
 40
0.4807692307692312
 40
0.4807692307692312
 40
0.4807692307692312
 40
0.4807692307692312
 40
0.4903846153846158
 40
0.4903846153846158
 40
0.4903846153846158
 40
0.4903846153846158
 40
0.5000000000000004
 40
0.5000000000000004
 40
0.5000000000000004
 40
0.5000000000000004
 40
0.509615384615385
 40
0.509615384615385
 40
0.509615384615385
 40
0.509615384615385
 40
0.5192307692307696
 40
0.5192307692307696
 40
0.5192307692307696
 40
0.5192307692307696
 40
0.5288461538461542
 40
0.5288461538461542
 40
0.5288461538461542
 40
0.5288461538461542
 40
0.5384615384615388
 40
0.5384615384615388
 40
0.5384615384615388
 40
0.5384615384615388
 40
0.5480769230769234
 40
0.5480769230769234
 40
0.5480769230769234
 40
0.5480769230769234
 40
0.5576923076923079
 40
0.5576923076923079
 40
0.5576923076923079
 40
0.5576923076923079
 40
0.5673076923076925
 40
0.5673076923076925
 40
0.5673076923076925
 40
0.5673076923076925
 40
0.5769230769230771
 40
0.5769230769230771
 40
0.5769230769230771
 40
0.5769230769230771
 40
0.5865384615384617
 40
0.5865384615384617
 40
0.5865384615384617
 40
0.5865384615384617
 40
0.5961538461538463
 40
0.5961538461538463
 40
0.5961538461538463
 40
0.5961538461538463
 40
0.6057692307692308
 40
0.6057692307692308
 40
0.6057692307692308
 40
0.6057692307692308
 40
0.6153846153846154
 40
0.6153846153846154
 40
0.6153846153846154
 40
0.6153846153846154
 40
0.625
 40
0.625
 40
0.625
 40
0.625
 40
0.6346153846153846
 40
0.6346153846153846
 40
0.6346153846153846
 40
0.6346153846153846
 40
0.6442307692307692
 40
0.6442307692307692
 40
0.6442307692307692
 40
0.6442307692307692
 40
0.6538461538461537
 40
0.6538461538461537
 40
0.6538461538461537
 40
0.6538461538461537
 40
0.6634615384615383
 40
0.6634615384615383
 40
0.6634615384615383
 40
0.6634615384615383
 40
0.6730769230769229
 40
0.6730769230769229
 40
0.6730769230769229
 40
0.6730769230769229
 40
0.6826923076923075
 40
0.6826923076923075
 40
0.6826923076923075
 40
0.6826923076923075
 40
0.6923076923076921
 40
0.6923076923076921
 40
0.6923076923076921
 40
0.6923076923076921
 40
0.7019230769230767
 40
0.7019230769230767
 40
0.7019230769230767
 40
0.7019230769230767
 40
0.7115384615384612
 40
0.7115384615384612
 40
0.7115384615384612
 40
0.7115384615384612
 40
0.7211538461538458
 40
0.7211538461538458
 40
0.7211538461538458
 40
0.7211538461538458
 40
0.7307692307692304
 40
0.7307692307692304
 40
0.7307692307692304
 40
0.7307692307692304
 40
0.740384615384615
 40
0.740384615384615
 40
0.740384615384615
 40
0.740384615384615
 40
0.7499999999999996
 40
0.7499999999999996
 40
0.7499999999999996
 40
0.7499999999999996
 40
0.7596153846153841
 40
0.7596153846153841
 40
0.7596153846153841
 40
0.7596153846153841
 40
0.7692307692307687
 40
0.7692307692307687
 40
0.7692307692307687
 40
0.7692307692307687
 40
0.7788461538461533
 40
0.7788461538461533
 40
0.7788461538461533
 40
0.7788461538461533
 40
0.7884615384615379
 40
0.7884615384615379
 40
0.7884615384615379
 40
0.7884615384615379
 40
0.7980769230769225
 40
0.7980769230769225
 40
0.7980769230769225
 40
0.7980769230769225
 40
0.807692307692307
 40
0.807692307692307
 40
0.807692307692307
 40
0.807692307692307
 40
0.8173076923076916
 40
0.8173076923076916
 40
0.8173076923076916
 40
0.8173076923076916
 40
0.8269230769230762
 40
0.8269230769230762
 40
0.8269230769230762
 40
0.8269230769230762
 40
0.8365384615384608
 40
0.8365384615384608
 40
0.8365384615384608
 40
0.8365384615384608
 40
0.8461538461538454
 40
0.8461538461538454
 40
0.8461538461538454
 40
0.8461538461538454
 40
0.85576923076923
 40
0.85576923076923
 40
0.85576923076923
 40
0.85576923076923
 40
0.8653846153846145
 40
0.8653846153846145
 40
0.8653846153846145
 40
0.8653846153846145
 40
0.8749999999999991
 40
0.8749999999999991
 40
0.8749999999999991
 40
0.8749999999999991
 40
0.8846153846153837
 40
0.8846153846153837
 40
0.8846153846153837
 40
0.8846153846153837
 40
0.8942307692307683
 40
0.8942307692307683
 40
0.8942307692307683
 40
0.8942307692307683
 40
0.9038461538461529
 40
0.9038461538461529
 40
0.9038461538461529
 40
0.9038461538461529
 40
0.9134615384615374
 40
0.9134615384615374
 40
0.9134615384615374
 40
0.9134615384615374
 40
0.923076923076922
 40
0.923076923076922
 40
0.923076923076922
 40
0.923076923076922
 40
0.9326923076923066
 40
0.9326923076923066
 40
0.9326923076923066
 40
0.9326923076923066
 40
0.9423076923076912
 40
0.9423076923076912
 40
0.9423076923076912
 40
0.9423076923076912
 40
0.9519230769230758
 40
0.9519230769230758
 40
0.9519230769230758
 40
0.9519230769230758
 40
0.9615384615384603
 40
0.9615384615384603
 40
0.9615384615384603
 40
0.9615384615384603
 40
0.9711538461538449
 40
0.9711538461538449
 40
0.9711538461538449
 40
0.9711538461538449
 40
0.9807692307692295
 40
0.9807692307692295
 40
0.9807692307692295
 40
0.9807692307692295
 40
0.9903846153846141
 40
0.9903846153846141
 40
0.9903846153846141
 40
0.9903846153846141
 40
1.0
 40
1.0
 40
1.0
 40
1.0
 10
-53.0366
 20
80.213399999999993
 30
0.0
 10
-53.0366
 20
80.213399999999993
 30
0.0
 10
-52.222000000000001
 20
85.169399999999996
 30
0.0
 10
-52.222000000000001
 20
85.169399999999996
 30
0.0
 10
-52.222000000000001
 20
85.169399999999996
 30
0.0
 10
-52.222000000000001
 20
85.169399999999996
 30
0.0
 10
-56.271599999999999
 20
82.4803
 30
0.0
 10
-56.271599999999999
 20
82.4803
 30
0.0
 10
-56.271599999999999
 20
82.4803
 30
0.0
 10
-56.271599999999999
 20
82.4803
 30
0.0
 10
-54.510599999999997
 20
87.380799999999994
 30
0.0
 10
-54.510599999999997
 20
87.380799999999994
 30
0.0
 10
-54.510599999999997
 20
87.380799999999994
 30
0.0
 10
-54.510599999999997
 20
87.380799999999994
 30
0.0
 10
-59.099600000000002
 20
90.403300000000002
 30
0.0
 10
-59.099600000000002
 20
90.403300000000002
 30
0.0
 10
-59.099600000000002
 20
90.403300000000002
 30
0.0
 10
-59.099600000000002
 20
90.403300000000002
 30
0.0
 10
-53.435499999999998
 20
90.393000000000001
 30
0.0
 10
-53.435499999999998
 20
90.393000000000001
 30
0.0
 10
-53.435499999999998
 20
90.393000000000001
 30
0.0
 10
-53.435499999999998
 20
90.393000000000001
 30
0.0
 10
-51.695599999999999
 20
95.299999999999997
 30
0.0
 10
-51.695599999999999
 20
95.299999999999997
 30
0.0
 10
-51.695599999999999
 20
95.299999999999997
 30
0.0
 10
-51.695599999999999
 20
95.299999999999997
 30
0.0
 10
-49.955399999999997
 20
90.393000000000001
 30
0.0
 10
-49.955399999999997
 20
90.393000000000001
 30
0.0
 10
-49.955399999999997
 20
90.393000000000001
 30
0.0
 10
-49.955399999999997
 20
90.393000000000001
 30
0.0
 10
-44.2913
 20
90.403300000000002
 30
0.0
 10
-44.2913
 20
90.403300000000002
 30
0.0
 10
-44.2913
 20
90.403300000000002
 30
0.0
 10
-44.2913
 20
90.403300000000002
 30
0.0
 10
-48.880299999999998
 20
87.380799999999994
 30
0.0
 10
-48.880299999999998
 20
87.380799999999994
 30
0.0
 10
-48.880299999999998
 20
87.380799999999994
 30
0.0
 10
-48.880299999999998
 20
87.380799999999994
 30
0.0
 10
-47.119300000000003
 20
82.4803
 30
0.0
 10
-47.119300000000003
 20
82.4803
 30
0.0
 10
-47.119300000000003
 20
82.4803
 30
0.0
 10
-47.119300000000003
 20
82.4803
 30
0.0
 10
-51.171799999999998
 20
85.171300000000002
 30
0.0
 10
-51.171799999999998
 20
85.171300000000002
 30
0.0
 10
-51.171799999999998
 20
85.171300000000002
 30
0.0
 10
-51.171799999999998
 20
85.171300000000002
 30
0.0
 10
-50.360999999999997
 20
80.213700000000003
 30
0.0
 10
-50.360999999999997
 20
80.213700000000003
 30
0.0
 10
-50.360999999999997
 20
80.213700000000003
 30
0.0
 10
-42.755099999999999
 20
79.893100000000004
 30
0.0
 10
-35.8536
 20
76.849199999999996
 30
0.0
 10
-30.6053
 20
72.032200000000003
 30
0.0
 10
-30.6053
 20
72.032200000000003
 30
0.0
 10
-30.6053
 20
72.032200000000003
 30
0.0
 10
-26.5245
 20
74.960800000000006
 30
0.0
 10
-26.5245
 20
74.960800000000006
 30
0.0
 10
-26.5245
 20
74.960800000000006
 30
0.0
 10
-26.5245
 20
74.960800000000006
 30
0.0
 10
-31.2898
 20
75.922799999999995
 30
0.0
 10
-31.2898
 20
75.922799999999995
 30
0.0
 10
-31.2898
 20
75.922799999999995
 30
0.0
 10
-31.2898
 20
75.922799999999995
 30
0.0
 10
-26.579499999999999
 20
78.143299999999996
 30
0.0
 10
-26.579499999999999
 20
78.143299999999996
 30
0.0
 10
-26.579499999999999
 20
78.143299999999996
 30
0.0
 10
-26.579499999999999
 20
78.143299999999996
 30
0.0
 10
-27.686499999999999
 20
83.525999999999996
 30
0.0
 10
-27.686499999999999
 20
83.525999999999996
 30
0.0
 10
-27.686499999999999
 20
83.525999999999996
 30
0.0
 10
-27.686499999999999
 20
83.525999999999996
 30
0.0
 10
-23.688700000000001
 20
79.512600000000006
 30
0.0
 10
-23.688700000000001
 20
79.512600000000006
 30
0.0
 10
-23.688700000000001
 20
79.512600000000006
 30
0.0
 10
-23.688700000000001
 20
79.512600000000006
 30
0.0
 10
-18.989000000000001
 20
81.751900000000006
 30
0.0
 10
-18.989000000000001
 20
81.751900000000006
 30
0.0
 10
-18.989000000000001
 20
81.751900000000006
 30
0.0
 10
-18.989000000000001
 20
81.751900000000006
 30
0.0
 10
-21.228100000000001
 20
77.052400000000006
 30
0.0
 10
-21.228100000000001
 20
77.052400000000006
 30
0.0
 10
-21.228100000000001
 20
77.052400000000006
 30
0.0
 10
-21.228100000000001
 20
77.052400000000006
 30
0.0
 10
-17.2151
 20
73.054400000000001
 30
0.0
 10
-17.2151
 20
73.054400000000001
 30
0.0
 10
-17.2151
 20
73.054400000000001
 30
0.0
 10
-17.2151
 20
73.054400000000001
 30
0.0
 10
-22.5976
 20
74.161799999999999
 30
0.0
 10
-22.5976
 20
74.161799999999999
 30
0.0
 10
-22.5976
 20
74.161799999999999
 30
0.0
 10
-22.5976
 20
74.161799999999999
 30
0.0
 10
-24.818100000000001
 20
69.451099999999997
 30
0.0
 10
-24.818100000000001
 20
69.451099999999997
 30
0.0
 10
-24.818100000000001
 20
69.451099999999997
 30
0.0
 10
-24.818100000000001
 20
69.451099999999997
 30
0.0
 10
-25.780899999999999
 20
74.219099999999997
 30
0.0
 10
-25.780899999999999
 20
74.219099999999997
 30
0.0
 10
-25.780899999999999
 20
74.219099999999997
 30
0.0
 10
-25.780899999999999
 20
74.219099999999997
 30
0.0
 10
-28.713000000000001
 20
70.139899999999997
 30
0.0
 10
-28.713000000000001
 20
70.139899999999997
 30
0.0
 10
-28.713000000000001
 20
70.139899999999997
 30
0.0
 10
-23.893699999999999
 20
64.893000000000001
 30
0.0
 10
-20.849299999999999
 20
57.991500000000002
 30
0.0
 10
-20.5275
 20
50.386600000000001
 30
0.0
 10
-20.5275
 20
50.386600000000001
 30
0.0
 10
-20.5275
 20
50.386600000000001
 30
0.0
 10
-15.5715
 20
49.572000000000003
 30
0.0
 10
-15.5715
 20
49.572000000000003
 30
0.0
 10
-15.5715
 20
49.572000000000003
 30
0.0
 10
-15.5715
 20
49.572000000000003
 30
0.0
 10
-18.2606
 20
53.621600000000001
 30
0.0
 10
-18.2606
 20
53.621600000000001
 30
0.0
 10
-18.2606
 20
53.621600000000001
 30
0.0
 10
-18.2606
 20
53.621600000000001
 30
0.0
 10
-13.360099999999999
 20
51.860599999999998
 30
0.0
 10
-13.360099999999999
 20
51.860599999999998
 30
0.0
 10
-13.360099999999999
 20
51.860599999999998
 30
0.0
 10
-13.360099999999999
 20
51.860599999999998
 30
0.0
 10
-10.3376
 20
56.449599999999997
 30
0.0
 10
-10.3376
 20
56.449599999999997
 30
0.0
 10
-10.3376
 20
56.449599999999997
 30
0.0
 10
-10.3376
 20
56.449599999999997
 30
0.0
 10
-10.347899999999999
 20
50.785499999999999
 30
0.0
 10
-10.347899999999999
 20
50.785499999999999
 30
0.0
 10
-10.347899999999999
 20
50.785499999999999
 30
0.0
 10
-10.347899999999999
 20
50.785499999999999
 30
0.0
 10
-5.4409000000000001
 20
49.0456
 30
0.0
 10
-5.4409000000000001
 20
49.0456
 30
0.0
 10
-5.4409000000000001
 20
49.0456
 30
0.0
 10
-5.4409000000000001
 20
49.0456
 30
0.0
 10
-10.347899999999999
 20
47.305399999999999
 30
0.0
 10
-10.347899999999999
 20
47.305399999999999
 30
0.0
 10
-10.347899999999999
 20
47.305399999999999
 30
0.0
 10
-10.347899999999999
 20
47.305399999999999
 30
0.0
 10
-10.3376
 20
41.641300000000001
 30
0.0
 10
-10.3376
 20
41.641300000000001
 30
0.0
 10
-10.3376
 20
41.641300000000001
 30
0.0
 10
-10.3376
 20
41.641300000000001
 30
0.0
 10
-13.360099999999999
 20
46.2303
 30
0.0
 10
-13.360099999999999
 20
46.2303
 30
0.0
 10
-13.360099999999999
 20
46.2303
 30
0.0
 10
-13.360099999999999
 20
46.2303
 30
0.0
 10
-18.2606
 20
44.469299999999997
 30
0.0
 10
-18.2606
 20
44.469299999999997
 30
0.0
 10
-18.2606
 20
44.469299999999997
 30
0.0
 10
-18.2606
 20
44.469299999999997
 30
0.0
 10
-15.569599999999999
 20
48.521799999999999
 30
0.0
 10
-15.569599999999999
 20
48.521799999999999
 30
0.0
 10
-15.569599999999999
 20
48.521799999999999
 30
0.0
 10
-15.569599999999999
 20
48.521799999999999
 30
0.0
 10
-20.527200000000001
 20
47.710999999999999
 30
0.0
 10
-20.527200000000001
 20
47.710999999999999
 30
0.0
 10
-20.527200000000001
 20
47.710999999999999
 30
0.0
 10
-20.847799999999999
 20
40.1051
 30
0.0
 10
-23.8917
 20
33.203600000000002
 30
0.0
 10
-28.7087
 20
27.955300000000001
 30
0.0
 10
-28.7087
 20
27.955300000000001
 30
0.0
 10
-28.7087
 20
27.955300000000001
 30
0.0
 10
-25.780100000000001
 20
23.874500000000001
 30
0.0
 10
-25.780100000000001
 20
23.874500000000001
 30
0.0
 10
-25.780100000000001
 20
23.874500000000001
 30
0.0
 10
-25.780100000000001
 20
23.874500000000001
 30
0.0
 10
-24.818100000000001
 20
28.639800000000001
 30
0.0
 10
-24.818100000000001
 20
28.639800000000001
 30
0.0
 10
-24.818100000000001
 20
28.639800000000001
 30
0.0
 10
-24.818100000000001
 20
28.639800000000001
 30
0.0
 10
-22.5976
 20
23.929500000000001
 30
0.0
 10
-22.5976
 20
23.929500000000001
 30
0.0
 10
-22.5976
 20
23.929500000000001
 30
0.0
 10
-22.5976
 20
23.929500000000001
 30
0.0
 10
-17.2149
 20
25.0365
 30
0.0
 10
-17.2149
 20
25.0365
 30
0.0
 10
-17.2149
 20
25.0365
 30
0.0
 10
-17.2149
 20
25.0365
 30
0.0
 10
-21.228100000000001
 20
21.038699999999999
 30
0.0
 10
-21.228100000000001
 20
21.038699999999999
 30
0.0
 10
-21.228100000000001
 20
21.038699999999999
 30
0.0
 10
-21.228100000000001
 20
21.038699999999999
 30
0.0
 10
-18.989000000000001
 20
16.338999999999999
 30
0.0
 10
-18.989000000000001
 20
16.338999999999999
 30
0.0
 10
-18.989000000000001
 20
16.338999999999999
 30
0.0
 10
-18.989000000000001
 20
16.338999999999999
 30
0.0
 10
-23.688500000000001
 20
18.578099999999999
 30
0.0
 10
-23.688500000000001
 20
18.578099999999999
 30
0.0
 10
-23.688500000000001
 20
18.578099999999999
 30
0.0
 10
-23.688500000000001
 20
18.578099999999999
 30
0.0
 10
-27.686499999999999
 20
14.565099999999999
 30
0.0
 10
-27.686499999999999
 20
14.565099999999999
 30
0.0
 10
-27.686499999999999
 20
14.565099999999999
 30
0.0
 10
-27.686499999999999
 20
14.565099999999999
 30
0.0
 10
-26.5791
 20
19.947600000000001
 30
0.0
 10
-26.5791
 20
19.947600000000001
 30
0.0
 10
-26.5791
 20
19.947600000000001
 30
0.0
 10
-26.5791
 20
19.947600000000001
 30
0.0
 10
-31.2898
 20
22.168099999999999
 30
0.0
 10
-31.2898
 20
22.168099999999999
 30
0.0
 10
-31.2898
 20
22.168099999999999
 30
0.0
 10
-31.2898
 20
22.168099999999999
 30
0.0
 10
-26.521799999999999
 20
23.1309
 30
0.0
 10
-26.521799999999999
 20
23.1309
 30
0.0
 10
-26.521799999999999
 20
23.1309
 30
0.0
 10
-26.521799999999999
 20
23.1309
 30
0.0
 10
-30.600999999999999
 20
26.062999999999999
 30
0.0
 10
-30.600999999999999
 20
26.062999999999999
 30
0.0
 10
-30.600999999999999
 20
26.062999999999999
 30
0.0
 10
-35.8476
 20
21.2437
 30
0.0
 10
-42.749400000000001
 20
18.199300000000001
 30
0.0
 10
-50.354300000000002
 20
17.877500000000001
 30
0.0
 10
-50.354300000000002
 20
17.877500000000001
 30
0.0
 10
-50.354300000000002
 20
17.877500000000001
 30
0.0
 10
-51.168900000000001
 20
12.9215
 30
0.0
 10
-51.168900000000001
 20
12.9215
 30
0.0
 10
-51.168900000000001
 20
12.9215
 30
0.0
 10
-51.168900000000001
 20
12.9215
 30
0.0
 10
-47.119300000000003
 20
15.6106
 30
0.0
 10
-47.119300000000003
 20
15.6106
 30
0.0
 10
-47.119300000000003
 20
15.6106
 30
0.0
 10
-47.119300000000003
 20
15.6106
 30
0.0
 10
-48.880299999999998
 20
10.710100000000001
 30
0.0
 10
-48.880299999999998
 20
10.710100000000001
 30
0.0
 10
-48.880299999999998
 20
10.710100000000001
 30
0.0
 10
-48.880299999999998
 20
10.710100000000001
 30
0.0
 10
-44.2913
 20
7.6875999999999998
 30
0.0
 10
-44.2913
 20
7.6875999999999998
 30
0.0
 10
-44.2913
 20
7.6875999999999998
 30
0.0
 10
-44.2913
 20
7.6875999999999998
 30
0.0
 10
-49.955399999999997
 20
7.6978999999999997
 30
0.0
 10
-49.955399999999997
 20
7.6978999999999997
 30
0.0
 10
-49.955399999999997
 20
7.6978999999999997
 30
0.0
 10
-49.955399999999997
 20
7.6978999999999997
 30
0.0
 10
-51.695300000000003
 20
2.7909000000000002
 30
0.0
 10
-51.695300000000003
 20
2.7909000000000002
 30
0.0
 10
-51.695300000000003
 20
2.7909000000000002
 30
0.0
 10
-51.695300000000003
 20
2.7909000000000002
 30
0.0
 10
-53.435499999999998
 20
7.6978999999999997
 30
0.0
 10
-53.435499999999998
 20
7.6978999999999997
 30
0.0
 10
-53.435499999999998
 20
7.6978999999999997
 30
0.0
 10
-53.435499999999998
 20
7.6978999999999997
 30
0.0
 10
-59.099600000000002
 20
7.6875999999999998
 30
0.0
 10
-59.099600000000002
 20
7.6875999999999998
 30
0.0
 10
-59.099600000000002
 20
7.6875999999999998
 30
0.0
 10
-59.099600000000002
 20
7.6875999999999998
 30
0.0
 10
-54.510599999999997
 20
10.710100000000001
 30
0.0
 10
-54.510599999999997
 20
10.710100000000001
 30
0.0
 10
-54.510599999999997
 20
10.710100000000001
 30
0.0
 10
-54.510599999999997
 20
10.710100000000001
 30
0.0
 10
-56.271599999999999
 20
15.6106
 30
0.0
 10
-56.271599999999999
 20
15.6106
 30
0.0
 10
-56.271599999999999
 20
15.6106
 30
0.0
 10
-56.271599999999999
 20
15.6106
 30
0.0
 10
-52.219700000000003
 20
12.919600000000001
 30
0.0
 10
-52.219700000000003
 20
12.919600000000001
 30
0.0
 10
-52.219700000000003
 20
12.919600000000001
 30
0.0
 10
-52.219700000000003
 20
12.919600000000001
 30
0.0
 10
-53.030900000000003
 20
17.877199999999998
 30
0.0
 10
-53.030900000000003
 20
17.877199999999998
 30
0.0
 10
-53.030900000000003
 20
17.877199999999998
 30
0.0
 10
-60.636600000000001
 20
18.197800000000001
 30
0.0
 10
-67.537499999999994
 20
21.241700000000002
 30
0.0
 10
-72.785700000000006
 20
26.058700000000002
 30
0.0
 10
-72.785700000000006
 20
26.058700000000002
 30
0.0
 10
-72.785700000000006
 20
26.058700000000002
 30
0.0
 10
-76.866900000000001
 20
23.130099999999999
 30
0.0
 10
-76.866900000000001
 20
23.130099999999999
 30
0.0
 10
-76.866900000000001
 20
23.130099999999999
 30
0.0
 10
-76.866900000000001
 20
23.130099999999999
 30
0.0
 10
-72.101100000000002
 20
22.168099999999999
 30
0.0
 10
-72.101100000000002
 20
22.168099999999999
 30
0.0
 10
-72.101100000000002
 20
22.168099999999999
 30
0.0
 10
-72.101100000000002
 20
22.168099999999999
 30
0.0
 10
-76.811400000000006
 20
19.947600000000001
 30
0.0
 10
-76.811400000000006
 20
19.947600000000001
 30
0.0
 10
-76.811400000000006
 20
19.947600000000001
 30
0.0
 10
-76.811400000000006
 20
19.947600000000001
 30
0.0
 10
-75.704400000000007
 20
14.5649
 30
0.0
 10
-75.704400000000007
 20
14.5649
 30
0.0
 10
-75.704400000000007
 20
14.5649
 30
0.0
 10
-75.704400000000007
 20
14.5649
 30
0.0
 10
-79.702200000000005
 20
18.578099999999999
 30
0.0
 10
-79.702200000000005
 20
18.578099999999999
 30
0.0
 10
-79.702200000000005
 20
18.578099999999999
 30
0.0
 10
-79.702200000000005
 20
18.578099999999999
 30
0.0
 10
-84.401899999999998
 20
16.338999999999999
 30
0.0
 10
-84.401899999999998
 20
16.338999999999999
 30
0.0
 10
-84.401899999999998
 20
16.338999999999999
 30
0.0
 10
-84.401899999999998
 20
16.338999999999999
 30
0.0
 10
-82.162599999999998
 20
21.038499999999999
 30
0.0
 10
-82.162599999999998
 20
21.038499999999999
 30
0.0
 10
-82.162599999999998
 20
21.038499999999999
 30
0.0
 10
-82.162599999999998
 20
21.038499999999999
 30
0.0
 10
-86.175799999999995
 20
25.0365
 30
0.0
 10
-86.175799999999995
 20
25.0365
 30
0.0
 10
-86.175799999999995
 20
25.0365
 30
0.0
 10
-86.175799999999995
 20
25.0365
 30
0.0
 10
-80.793300000000002
 20
23.929099999999998
 30
0.0
 10
-80.793300000000002
 20
23.929099999999998
 30
0.0
 10
-80.793300000000002
 20
23.929099999999998
 30
0.0
 10
-80.793300000000002
 20
23.929099999999998
 30
0.0
 10
-78.572800000000001
 20
28.639800000000001
 30
0.0
 10
-78.572800000000001
 20
28.639800000000001
 30
0.0
 10
-78.572800000000001
 20
28.639800000000001
 30
0.0
 10
-78.572800000000001
 20
28.639800000000001
 30
0.0
 10
-77.609999999999999
 20
23.8718
 30
0.0
 10
-77.609999999999999
 20
23.8718
 30
0.0
 10
-77.609999999999999
 20
23.8718
 30
0.0
 10
-77.609999999999999
 20
23.8718
 30
0.0
 10
-74.677899999999994
 20
27.951000000000001
 30
0.0
 10
-74.677899999999994
 20
27.951000000000001
 30
0.0
 10
-74.677899999999994
 20
27.951000000000001
 30
0.0
 10
-79.497200000000007
 20
33.197600000000001
 30
0.0
 10
-82.541600000000003
 20
40.099400000000003
 30
0.0
 10
-82.863399999999999
 20
47.704300000000003
 30
0.0
 10
-82.863399999999999
 20
47.704300000000003
 30
0.0
 10
-82.863399999999999
 20
47.704300000000003
 30
0.0
 10
-87.819400000000002
 20
48.518900000000002
 30
0.0
 10
-87.819400000000002
 20
48.518900000000002
 30
0.0
 10
-87.819400000000002
 20
48.518900000000002
 30
0.0
 10
-87.819400000000002
 20
48.518900000000002
 30
0.0
 10
-85.130300000000005
 20
44.469299999999997
 30
0.0
 10
-85.130300000000005
 20
44.469299999999997
 30
0.0
 10
-85.130300000000005
 20
44.469299999999997
 30
0.0
 10
-85.130300000000005
 20
44.469299999999997
 30
0.0
 10
-90.030799999999999
 20
46.2303
 30
0.0
 10
-90.030799999999999
 20
46.2303
 30
0.0
 10
-90.030799999999999
 20
46.2303
 30
0.0
 10
-90.030799999999999
 20
46.2303
 30
0.0
 10
-93.053299999999993
 20
41.641300000000001
 30
0.0
 10
-93.053299999999993
 20
41.641300000000001
 30
0.0
 10
-93.053299999999993
 20
41.641300000000001
 30
0.0
 10
-93.053299999999993
 20
41.641300000000001
 30
0.0
 10
-93.043000000000006
 20
47.305399999999999
 30
0.0
 10
-93.043000000000006
 20
47.305399999999999
 30
0.0
 10
-93.043000000000006
 20
47.305399999999999
 30
0.0
 10
-93.043000000000006
 20
47.305399999999999
 30
0.0
 10
-97.950000000000003
 20
49.045299999999997
 30
0.0
 10
-97.950000000000003
 20
49.045299999999997
 30
0.0
 10
-97.950000000000003
 20
49.045299999999997
 30
0.0
 10
-97.950000000000003
 20
49.045299999999997
 30
0.0
 10
-93.043000000000006
 20
50.785499999999999
 30
0.0
 10
-93.043000000000006
 20
50.785499999999999
 30
0.0
 10
-93.043000000000006
 20
50.785499999999999
 30
0.0
 10
-93.043000000000006
 20
50.785499999999999
 30
0.0
 10
-93.053299999999993
 20
56.449599999999997
 30
0.0
 10
-93.053299999999993
 20
56.449599999999997
 30
0.0
 10
-93.053299999999993
 20
56.449599999999997
 30
0.0
 10
-93.053299999999993
 20
56.449599999999997
 30
0.0
 10
-90.030799999999999
 20
51.860599999999998
 30
0.0
 10
-90.030799999999999
 20
51.860599999999998
 30
0.0
 10
-90.030799999999999
 20
51.860599999999998
 30
0.0
 10
-90.030799999999999
 20
51.860599999999998
 30
0.0
 10
-85.130300000000005
 20
53.621600000000001
 30
0.0
 10
-85.130300000000005
 20
53.621600000000001
 30
0.0
 10
-85.130300000000005
 20
53.621600000000001
 30
0.0
 10
-85.130300000000005
 20
53.621600000000001
 30
0.0
 10
-87.821299999999994
 20
49.569699999999997
 30
0.0
 10
-87.821299999999994
 20
49.569699999999997
 30
0.0
 10
-87.821299999999994
 20
49.569699999999997
 30
0.0
 10
-87.821299999999994
 20
49.569699999999997
 30
0.0
 10
-82.863699999999994
 20
50.380899999999997
 30
0.0
 10
-82.863699999999994
 20
50.380899999999997
 30
0.0
 10
-82.863699999999994
 20
50.380899999999997
 30
0.0
 10
-82.543099999999995
 20
57.985999999999997
 30
0.0
 10
-79.499200000000002
 20
64.887900000000002
 30
0.0
 10
-74.682199999999995
 20
70.135599999999997
 30
0.0
 10
-74.682199999999995
 20
70.135599999999997
 30
0.0
 10
-74.682199999999995
 20
70.135599999999997
 30
0.0
 10
-77.610799999999998
 20
74.216399999999993
 30
0.0
 10
-77.610799999999998
 20
74.216399999999993
 30
0.0
 10
-77.610799999999998
 20
74.216399999999993
 30
0.0
 10
-77.610799999999998
 20
74.216399999999993
 30
0.0
 10
-78.572800000000001
 20
69.451099999999997
 30
0.0
 10
-78.572800000000001
 20
69.451099999999997
 30
0.0
 10
-78.572800000000001
 20
69.451099999999997
 30
0.0
 10
-78.572800000000001
 20
69.451099999999997
 30
0.0
 10
-80.793300000000002
 20
74.1614
 30
0.0
 10
-80.793300000000002
 20
74.1614
 30
0.0
 10
-80.793300000000002
 20
74.1614
 30
0.0
 10
-80.793300000000002
 20
74.1614
 30
0.0
 10
-86.176000000000002
 20
73.054400000000001
 30
0.0
 10
-86.176000000000002
 20
73.054400000000001
 30
0.0
 10
-86.176000000000002
 20
73.054400000000001
 30
0.0
 10
-86.176000000000002
 20
73.054400000000001
 30
0.0
 10
-82.162599999999998
 20
77.052199999999999
 30
0.0
 10
-82.162599999999998
 20
77.052199999999999
 30
0.0
 10
-82.162599999999998
 20
77.052199999999999
 30
0.0
 10
-82.162599999999998
 20
77.052199999999999
 30
0.0
 10
-84.401899999999998
 20
81.751900000000006
 30
0.0
 10
-84.401899999999998
 20
81.751900000000006
 30
0.0
 10
-84.401899999999998
 20
81.751900000000006
 30
0.0
 10
-84.401899999999998
 20
81.751900000000006
 30
0.0
 10
-79.702399999999997
 20
79.512600000000006
 30
0.0
 10
-79.702399999999997
 20
79.512600000000006
 30
0.0
 10
-79.702399999999997
 20
79.512600000000006
 30
0.0
 10
-79.702399999999997
 20
79.512600000000006
 30
0.0
 10
-75.704400000000007
 20
83.525800000000004
 30
0.0
 10
-75.704400000000007
 20
83.525800000000004
 30
0.0
 10
-75.704400000000007
 20
83.525800000000004
 30
0.0
 10
-75.704400000000007
 20
83.525800000000004
 30
0.0
 10
-76.811800000000005
 20
78.143299999999996
 30
0.0
 10
-76.811800000000005
 20
78.143299999999996
 30
0.0
 10
-76.811800000000005
 20
78.143299999999996
 30
0.0
 10
-76.811800000000005
 20
78.143299999999996
 30
0.0
 10
-72.101100000000002
 20
75.922799999999995
 30
0.0
 10
-72.101100000000002
 20
75.922799999999995
 30
0.0
 10
-72.101100000000002
 20
75.922799999999995
 30
0.0
 10
-72.101100000000002
 20
75.922799999999995
 30
0.0
 10
-76.869100000000003
 20
74.959999999999994
 30
0.0
 10
-76.869100000000003
 20
74.959999999999994
 30
0.0
 10
-76.869100000000003
 20
74.959999999999994
 30
0.0
 10
-76.869100000000003
 20
74.959999999999994
 30
0.0
 10
-72.789900000000003
 20
72.027900000000002
 30
0.0
 10
-72.789900000000003
 20
72.027900000000002
 30
0.0
 10
-72.789900000000003
 20
72.027900000000002
 30
0.0
 10
-67.543000000000006
 20
76.846400000000003
 30
0.0
 10
-60.641500000000001
 20
79.8917
 30
0.0
 10
-53.0366
 20
80.213399999999993
 30
0.0
  0
SPLINE
  5
28
100
AcDbEntity
  8
RÚteg 1
 62
     7
100
AcDbSpline
210
0.0
220
0.0
230
1.0
 70
     1
 71
     3
 72
    16
 73
    12
 74
     0
 42
0.0000000001
 43
0.0000000001
 40
0.0
 40
0.0
 40
0.0
 40
0.0
 40
0.3333333333333333
 40
0.3333333333333333
 40
0.3333333333333333
 40
0.3333333333333333
 40
0.6666666666666666
 40
0.6666666666666666
 40
0.6666666666666666
 40
0.6666666666666666
 40
1.0
 40
1.0
 40
1.0
 40
1.0
 10
-49.763199999999998
 20
76.562700000000007
 30
0.0
 10
-49.763199999999998
 20
76.562700000000007
 30
0.0
 10
-47.086799999999997
 20
60.204300000000003
 30
0.0
 10
-47.086799999999997
 20
60.204300000000003
 30
0.0
 10
-47.086799999999997
 20
60.204300000000003
 30
0.0
 10
-47.086799999999997
 20
60.204300000000003
 30
0.0
 10
-33.611600000000003
 20
69.874600000000001
 30
0.0
 10
-33.611600000000003
 20
69.874600000000001
 30
0.0
 10
-33.611600000000003
 20
69.874600000000001
 30
0.0
 10
-37.999600000000001
 20
73.687299999999993
 30
0.0
 10
-43.6036
 20
76.136099999999999
 30
0.0
 10
-49.763199999999998
 20
76.562700000000007
 30
0.0
  0
SPLINE
  5
29
100
AcDbEntity
  8
RÚteg 1
 62
     7
100
AcDbSpline
210
0.0
220
0.0
230
1.0
 70
     1
 71
     3
 72
    16
 73
    12
 74
     0
 42
0.0000000001
 43
0.0000000001
 40
0.0
 40
0.0
 40
0.0
 40
0.0
 40
0.3333333333333333
 40
0.3333333333333333
 40
0.3333333333333333
 40
0.3333333333333333
 40
0.6666666666666666
 40
0.6666666666666666
 40
0.6666666666666666
 40
0.6666666666666666
 40
1.0
 40
1.0
 40
1.0
 40
1.0
 10
-30.872299999999999
 20
67.136300000000006
 30
0.0
 10
-30.872299999999999
 20
67.136300000000006
 30
0.0
 10
-40.5458
 20
53.676900000000003
 30
0.0
 10
-40.5458
 20
53.676900000000003
 30
0.0
 10
-40.5458
 20
53.676900000000003
 30
0.0
 10
-40.5458
 20
53.676900000000003
 30
0.0
 10
-24.1783
 20
50.986499999999999
 30
0.0
 10
-24.1783
 20
50.986499999999999
 30
0.0
 10
-24.1783
 20
50.986499999999999
 30
0.0
 10
-24.606999999999999
 20
57.1464
 30
0.0
 10
-27.057600000000001
 20
62.749600000000001
 30
0.0
 10
-30.872299999999999
 20
67.136300000000006
 30
0.0
  0
SPLINE
  5
2A
100
AcDbEntity
  8
RÚteg 1
 62
     7
100
AcDbSpline
210
0.0
220
0.0
230
1.0
 70
     1
 71
     3
 72
    16
 73
    12
 74
     0
 42
0.0000000001
 43
0.0000000001
 40
0.0
 40
0.0
 40
0.0
 40
0.0
 40
0.3333333333333333
 40
0.3333333333333333
 40
0.3333333333333333
 40
0.3333333333333333
 40
0.6666666666666666
 40
0.6666666666666666
 40
0.6666666666666666
 40
0.6666666666666666
 40
1.0
 40
1.0
 40
1.0
 40
1.0
 10
-24.1782
 20
47.113199999999999
 30
0.0
 10
-24.1782
 20
47.113199999999999
 30
0.0
 10
-40.5366
 20
44.436799999999998
 30
0.0
 10
-40.5366
 20
44.436799999999998
 30
0.0
 10
-40.5366
 20
44.436799999999998
 30
0.0
 10
-40.5366
 20
44.436799999999998
 30
0.0
 10
-30.866299999999999
 20
30.961600000000001
 30
0.0
 10
-30.866299999999999
 20
30.961600000000001
 30
0.0
 10
-30.866299999999999
 20
30.961600000000001
 30
0.0
 10
-27.053599999999999
 20
35.349600000000002
 30
0.0
 10
-24.604800000000001
 20
40.953600000000002
 30
0.0
 10
-24.1782
 20
47.113199999999999
 30
0.0
  0
SPLINE
  5
2B
100
AcDbEntity
  8
RÚteg 1
 62
     7
100
AcDbSpline
210
0.0
220
0.0
230
1.0
 70
     1
 71
     3
 72
    16
 73
    12
 74
     0
 42
0.0000000001
 43
0.0000000001
 40
0.0
 40
0.0
 40
0.0
 40
0.0
 40
0.3333333333333333
 40
0.3333333333333333
 40
0.3333333333333333
 40
0.3333333333333333
 40
0.6666666666666666
 40
0.6666666666666666
 40
0.6666666666666666
 40
0.6666666666666666
 40
1.0
 40
1.0
 40
1.0
 40
1.0
 10
-33.604599999999998
 20
28.222300000000001
 30
0.0
 10
-33.604599999999998
 20
28.222300000000001
 30
0.0
 10
-47.063800000000001
 20
37.895800000000001
 30
0.0
 10
-47.063800000000001
 20
37.895800000000001
 30
0.0
 10
-47.063800000000001
 20
37.895800000000001
 30
0.0
 10
-47.063800000000001
 20
37.895800000000001
 30
0.0
 10
-49.754100000000001
 20
21.528300000000002
 30
0.0
 10
-49.754100000000001
 20
21.528300000000002
 30
0.0
 10
-49.754100000000001
 20
21.528300000000002
 30
0.0
 10
-43.594799999999999
 20
21.957000000000001
 30
0.0
 10
-37.991300000000003
 20
24.407599999999999
 30
0.0
 10
-33.604599999999998
 20
28.222300000000001
 30
0.0
  0
SPLINE
  5
2C
100
AcDbEntity
  8
RÚteg 1
 62
     7
100
AcDbSpline
210
0.0
220
0.0
230
1.0
 70
     1
 71
     3
 72
    16
 73
    12
 74
     0
 42
0.0000000001
 43
0.0000000001
 40
0.0
 40
0.0
 40
0.0
 40
0.0
 40
0.3333333333333333
 40
0.3333333333333333
 40
0.3333333333333333
 40
0.3333333333333333
 40
0.6666666666666666
 40
0.6666666666666666
 40
0.6666666666666666
 40
0.6666666666666666
 40
1.0
 40
1.0
 40
1.0
 40
1.0
 10
-53.6282
 20
21.528199999999998
 30
0.0
 10
-53.6282
 20
21.528199999999998
 30
0.0
 10
-56.304099999999998
 20
37.886600000000001
 30
0.0
 10
-56.304099999999998
 20
37.886600000000001
 30
0.0
 10
-56.304099999999998
 20
37.886600000000001
 30
0.0
 10
-56.304099999999998
 20
37.886600000000001
 30
0.0
 10
-69.779799999999994
 20
28.216699999999999
 30
0.0
 10
-69.779799999999994
 20
28.216699999999999
 30
0.0
 10
-69.779799999999994
 20
28.216699999999999
 30
0.0
 10
-65.391300000000001
 20
24.403600000000001
 30
0.0
 10
-59.7879
 20
21.954799999999999
 30
0.0
 10
-53.6282
 20
21.528199999999998
 30
0.0
  0
SPLINE
  5
2D
100
AcDbEntity
  8
RÚteg 1
 62
     7
100
AcDbSpline
210
0.0
220
0.0
230
1.0
 70
     1
 71
     3
 72
    16
 73
    12
 74
     0
 42
0.0000000001
 43
0.0000000001
 40
0.0
 40
0.0
 40
0.0
 40
0.0
 40
0.3333333333333333
 40
0.3333333333333333
 40
0.3333333333333333
 40
0.3333333333333333
 40
0.6666666666666666
 40
0.6666666666666666
 40
0.6666666666666666
 40
0.6666666666666666
 40
1.0
 40
1.0
 40
1.0
 40
1.0
 10
-72.518600000000006
 20
30.954599999999999
 30
0.0
 10
-72.518600000000006
 20
30.954599999999999
 30
0.0
 10
-62.845100000000002
 20
44.413800000000002
 30
0.0
 10
-62.845100000000002
 20
44.413800000000002
 30
0.0
 10
-62.845100000000002
 20
44.413800000000002
 30
0.0
 10
-62.845100000000002
 20
44.413800000000002
 30
0.0
 10
-79.212599999999995
 20
47.104100000000003
 30
0.0
 10
-79.212599999999995
 20
47.104100000000003
 30
0.0
 10
-79.212599999999995
 20
47.104100000000003
 30
0.0
 10
-78.783900000000003
 20
40.944800000000001
 30
0.0
 10
-76.333299999999994
 20
35.341299999999997
 30
0.0
 10
-72.518600000000006
 20
30.954599999999999
 30
0.0
  0
SPLINE
  5
2E
100
AcDbEntity
  8
RÚteg 1
 62
     7
100
AcDbSpline
210
0.0
220
0.0
230
1.0
 70
     1
 71
     3
 72
    16
 73
    12
 74
     0
 42
0.0000000001
 43
0.0000000001
 40
0.0
 40
0.0
 40
0.0
 40
0.0
 40
0.3333333333333333
 40
0.3333333333333333
 40
0.3333333333333333
 40
0.3333333333333333
 40
0.6666666666666666
 40
0.6666666666666666
 40
0.6666666666666666
 40
0.6666666666666666
 40
1.0
 40
1.0
 40
1.0
 40
1.0
 10
-79.212699999999998
 20
50.978200000000001
 30
0.0
 10
-79.212699999999998
 20
50.978200000000001
 30
0.0
 10
-62.854300000000002
 20
53.6541
 30
0.0
 10
-62.854300000000002
 20
53.6541
 30
0.0
 10
-62.854300000000002
 20
53.6541
 30
0.0
 10
-62.854300000000002
 20
53.6541
 30
0.0
 10
-72.524600000000007
 20
67.129300000000001
 30
0.0
 10
-72.524600000000007
 20
67.129300000000001
 30
0.0
 10
-72.524600000000007
 20
67.129300000000001
 30
0.0
 10
-76.337299999999999
 20
62.741900000000001
 30
0.0
 10
-78.786100000000005
 20
57.137799999999999
 30
0.0
 10
-79.212699999999998
 20
50.978200000000001
 30
0.0
  0
SPLINE
  5
2F
100
AcDbEntity
  8
RÚteg 1
 62
     7
100
AcDbSpline
210
0.0
220
0.0
230
1.0
 70
     1
 71
     3
 72
    44
 73
    40
 74
     0
 42
0.0000000001
 43
0.0000000001
 40
0.0
 40
0.0
 40
0.0
 40
0.0
 40
0.1
 40
0.1
 40
0.1
 40
0.1
 40
0.2
 40
0.2
 40
0.2
 40
0.2
 40
0.3
 40
0.3
 40
0.3
 40
0.3
 40
0.4
 40
0.4
 40
0.4
 40
0.4
 40
0.5
 40
0.5
 40
0.5
 40
0.5
 40
0.6
 40
0.6
 40
0.6
 40
0.6
 40
0.7
 40
0.7
 40
0.7
 40
0.7
 40
0.7999999999999999
 40
0.7999999999999999
 40
0.7999999999999999
 40
0.7999999999999999
 40
0.8999999999999999
 40
0.8999999999999999
 40
0.8999999999999999
 40
0.8999999999999999
 40
1.0
 40
1.0
 40
1.0
 40
1.0
 10
-51.695599999999999
 20
55.274900000000002
 30
0.0
 10
-51.695599999999999
 20
55.274900000000002
 30
0.0
 10
-50.155999999999999
 20
50.506700000000002
 30
0.0
 10
-50.155999999999999
 20
50.506700000000002
 30
0.0
 10
-50.155999999999999
 20
50.506700000000002
 30
0.0
 10
-50.155999999999999
 20
50.506700000000002
 30
0.0
 10
-45.145000000000003
 20
50.516100000000002
 30
0.0
 10
-45.145000000000003
 20
50.516100000000002
 30
0.0
 10
-45.145000000000003
 20
50.516100000000002
 30
0.0
 10
-45.145000000000003
 20
50.516100000000002
 30
0.0
 10
-49.204999999999998
 20
47.578499999999998
 30
0.0
 10
-49.204999999999998
 20
47.578499999999998
 30
0.0
 10
-49.204999999999998
 20
47.578499999999998
 30
0.0
 10
-49.204999999999998
 20
47.578499999999998
 30
0.0
 10
-47.647199999999998
 20
42.816000000000003
 30
0.0
 10
-47.647199999999998
 20
42.816000000000003
 30
0.0
 10
-47.647199999999998
 20
42.816000000000003
 30
0.0
 10
-47.647199999999998
 20
42.816000000000003
 30
0.0
 10
-51.695599999999999
 20
45.769199999999998
 30
0.0
 10
-51.695599999999999
 20
45.769199999999998
 30
0.0
 10
-51.695599999999999
 20
45.769199999999998
 30
0.0
 10
-51.695599999999999
 20
45.769199999999998
 30
0.0
 10
-55.743699999999997
 20
42.816000000000003
 30
0.0
 10
-55.743699999999997
 20
42.816000000000003
 30
0.0
 10
-55.743699999999997
 20
42.816000000000003
 30
0.0
 10
-55.743699999999997
 20
42.816000000000003
 30
0.0
 10
-54.185899999999997
 20
47.578499999999998
 30
0.0
 10
-54.185899999999997
 20
47.578499999999998
 30
0.0
 10
-54.185899999999997
 20
47.578499999999998
 30
0.0
 10
-54.185899999999997
 20
47.578499999999998
 30
0.0
 10
-58.245899999999999
 20
50.516100000000002
 30
0.0
 10
-58.245899999999999
 20
50.516100000000002
 30
0.0
 10
-58.245899999999999
 20
50.516100000000002
 30
0.0
 10
-58.245899999999999
 20
50.516100000000002
 30
0.0
 10
-53.234900000000003
 20
50.506700000000002
 30
0.0
 10
-53.234900000000003
 20
50.506700000000002
 30
0.0
 10
-53.234900000000003
 20
50.506700000000002
 30
0.0
 10
-53.234900000000003
 20
50.506700000000002
 30
0.0
 10
-51.695599999999999
 20
55.274900000000002
 30
0.0
 10
-51.695599999999999
 20
55.274900000000002
 30
0.0
  0
SPLINE
  5
30
100
AcDbEntity
  8
RÚteg 1
 62
     7
100
AcDbSpline
210
0.0
220
0.0
230
1.0
 70
     1
 71
     3
 72
    24
 73
    20
 74
     0
 42
0.0000000001
 43
0.0000000001
 40
0.0
 40
0.0
 40
0.0
 40
0.0
 40
0.2
 40
0.2
 40
0.2
 40
0.2
 40
0.4
 40
0.4
 40
0.4
 40
0.4
 40
0.6000000000000001
 40
0.6000000000000001
 40
0.6000000000000001
 40
0.6000000000000001
 40
0.8
 40
0.8
 40
0.8
 40
0.8
 40
1.0
 40
1.0
 40
1.0
 40
1.0
 10
34.1586
 20
40.265599999999999
 30
0.0
 10
34.1586
 20
40.265599999999999
 30
0.0
 10
36.003300000000003
 20
29.673999999999999
 30
0.0
 10
36.003300000000003
 20
29.673999999999999
 30
0.0
 10
36.003300000000003
 20
29.673999999999999
 30
0.0
 10
36.003300000000003
 20
29.673999999999999
 30
0.0
 10
40.162399999999998
 20
24.5413
 30
0.0
 10
40.162399999999998
 20
24.5413
 30
0.0
 10
40.162399999999998
 20
24.5413
 30
0.0
 10
40.162399999999998
 20
24.5413
 30
0.0
 10
40.510100000000001
 20
31.138500000000001
 30
0.0
 10
40.510100000000001
 20
31.138500000000001
 30
0.0
 10
40.510100000000001
 20
31.138500000000001
 30
0.0
 10
40.510100000000001
 20
31.138500000000001
 30
0.0
 10
35.777299999999997
 20
40.791400000000003
 30
0.0
 10
35.777299999999997
 20
40.791400000000003
 30
0.0
 10
35.777299999999997
 20
40.791400000000003
 30
0.0
 10
35.273299999999999
 20
40.543700000000001
 30
0.0
 10
34.729900000000001
 20
40.3645
 30
0.0
 10
34.1586
 20
40.265599999999999
 30
0.0
  0
SPLINE
  5
31
100
AcDbEntity
  8
RÚteg 1
 62
     7
100
AcDbSpline
210
0.0
220
0.0
230
1.0
 70
     1
 71
     3
 72
    36
 73
    32
 74
     0
 42
0.0000000001
 43
0.0000000001
 40
0.0
 40
0.0
 40
0.0
 40
0.0
 40
0.125
 40
0.125
 40
0.125
 40
0.125
 40
0.25
 40
0.25
 40
0.25
 40
0.25
 40
0.375
 40
0.375
 40
0.375
 40
0.375
 40
0.5
 40
0.5
 40
0.5
 40
0.5
 40
0.625
 40
0.625
 40
0.625
 40
0.625
 40
0.75
 40
0.75
 40
0.75
 40
0.75
 40
0.875
 40
0.875
 40
0.875
 40
0.875
 40
1.0
 40
1.0
 40
1.0
 40
1.0
 10
33.1248
 20
90.299999999999997
 30
0.0
 10
36.869700000000002
 20
90.299999999999997
 30
0.0
 10
39.906599999999997
 20
87.263000000000005
 30
0.0
 10
39.906599999999997
 20
83.518299999999996
 30
0.0
 10
39.906599999999997
 20
83.518299999999996
 30
0.0
 10
39.906599999999997
 20
82.087299999999999
 30
0.0
 10
39.462699999999998
 20
80.760000000000005
 30
0.0
 10
38.7059
 20
79.665800000000004
 30
0.0
 10
38.7059
 20
79.665800000000004
 30
0.0
 10
54.784199999999998
 20
77.002899999999997
 30
0.0
 10
67.049999999999997
 20
63.032600000000002
 30
0.0
 10
67.049999999999997
 20
46.200800000000001
 30
0.0
 10
67.049999999999997
 20
46.200800000000001
 30
0.0
 10
67.049999999999997
 20
27.467600000000001
 30
0.0
 10
51.857999999999997
 20
12.2758
 30
0.0
 10
33.1248
 20
12.2758
 30
0.0
 10
33.1248
 20
12.2758
 30
0.0
 10
14.3918
 20
12.2758
 30
0.0
 10
-0.8001
 20
27.467600000000001
 30
0.0
 10
-0.8001
 20
46.200800000000001
 30
0.0
 10
-0.8001
 20
46.200800000000001
 30
0.0
 10
-0.8001
 20
63.032600000000002
 30
0.0
 10
11.4656
 20
77.002899999999997
 30
0.0
 10
27.543700000000001
 20
79.665800000000004
 30
0.0
 10
27.543700000000001
 20
79.665800000000004
 30
0.0
 10
26.786799999999999
 20
80.760000000000005
 30
0.0
 10
26.343
 20
82.087299999999999
 30
0.0
 10
26.343
 20
83.518299999999996
 30
0.0
 10
26.343
 20
83.518299999999996
 30
0.0
 10
26.343
 20
87.263000000000005
 30
0.0
 10
29.379999999999999
 20
90.299999999999997
 30
0.0
 10
33.1248
 20
90.299999999999997
 30
0.0
  0
SPLINE
  5
32
100
AcDbEntity
  8
RÚteg 1
 62
     7
100
AcDbSpline
210
0.0
220
0.0
230
1.0
 70
     1
 71
     3
 72
    28
 73
    24
 74
     0
 42
0.0000000001
 43
0.0000000001
 40
0.0
 40
0.0
 40
0.0
 40
0.0
 40
0.1666666666666667
 40
0.1666666666666667
 40
0.1666666666666667
 40
0.1666666666666667
 40
0.3333333333333333
 40
0.3333333333333333
 40
0.3333333333333333
 40
0.3333333333333333
 40
0.5
 40
0.5
 40
0.5
 40
0.5
 40
0.6666666666666666
 40
0.6666666666666666
 40
0.6666666666666666
 40
0.6666666666666666
 40
0.8333333333333333
 40
0.8333333333333333
 40
0.8333333333333333
 40
0.8333333333333333
 40
1.0
 40
1.0
 40
1.0
 40
1.0
 10
33.124699999999997
 20
87.758799999999994
 30
0.0
 10
35.466500000000003
 20
87.758799999999994
 30
0.0
 10
37.365499999999997
 20
85.859899999999996
 30
0.0
 10
37.365499999999997
 20
83.518299999999996
 30
0.0
 10
37.365499999999997
 20
83.518299999999996
 30
0.0
 10
37.365499999999997
 20
82.077799999999996
 30
0.0
 10
36.646599999999999
 20
80.805000000000007
 30
0.0
 10
35.548499999999997
 20
80.038600000000002
 30
0.0
 10
35.548499999999997
 20
80.038600000000002
 30
0.0
 10
34.747900000000001
 20
80.095699999999994
 30
0.0
 10
33.939999999999998
 20
80.125799999999998
 30
0.0
 10
33.1248
 20
80.125799999999998
 30
0.0
 10
33.1248
 20
80.125799999999998
 30
0.0
 10
32.309800000000003
 20
80.125799999999998
 30
0.0
 10
31.5016
 20
80.095699999999994
 30
0.0
 10
30.7011
 20
80.038600000000002
 30
0.0
 10
30.7011
 20
80.038600000000002
 30
0.0
 10
29.602900000000002
 20
80.805000000000007
 30
0.0
 10
28.8842
 20
82.077799999999996
 30
0.0
 10
28.8842
 20
83.518299999999996
 30
0.0
 10
28.8842
 20
83.518299999999996
 30
0.0
 10
28.8842
 20
85.859899999999996
 30
0.0
 10
30.783100000000001
 20
87.758799999999994
 30
0.0
 10
33.124699999999997
 20
87.758799999999994
 30
0.0
  0
SPLINE
  5
33
100
AcDbEntity
  8
RÚteg 1
 62
     7
100
AcDbSpline
210
0.0
220
0.0
230
1.0
 70
     1
 71
     3
 72
    28
 73
    24
 74
     0
 42
0.0000000001
 43
0.0000000001
 40
0.0
 40
0.0
 40
0.0
 40
0.0
 40
0.1666666666666667
 40
0.1666666666666667
 40
0.1666666666666667
 40
0.1666666666666667
 40
0.3333333333333333
 40
0.3333333333333333
 40
0.3333333333333333
 40
0.3333333333333333
 40
0.5
 40
0.5
 40
0.5
 40
0.5
 40
0.6666666666666666
 40
0.6666666666666666
 40
0.6666666666666666
 40
0.6666666666666666
 40
0.8333333333333333
 40
0.8333333333333333
 40
0.8333333333333333
 40
0.8333333333333333
 40
1.0
 40
1.0
 40
1.0
 40
1.0
 10
33.124699999999997
 20
76.386300000000006
 30
0.0
 10
35.401499999999999
 20
76.386300000000006
 30
0.0
 10
37.6188
 20
76.132400000000004
 30
0.0
 10
39.751399999999997
 20
75.654499999999999
 30
0.0
 10
39.751399999999997
 20
75.654499999999999
 30
0.0
 10
39.751399999999997
 20
75.654499999999999
 30
0.0
 10
39.939399999999999
 20
72.089600000000004
 30
0.0
 10
39.939399999999999
 20
72.089600000000004
 30
0.0
 10
39.939399999999999
 20
72.089600000000004
 30
0.0
 10
39.939399999999999
 20
72.089600000000004
 30
0.0
 10
33.1248
 20
69.328699999999998
 30
0.0
 10
33.1248
 20
69.328699999999998
 30
0.0
 10
33.1248
 20
69.328699999999998
 30
0.0
 10
33.1248
 20
69.328699999999998
 30
0.0
 10
26.310300000000002
 20
72.089600000000004
 30
0.0
 10
26.310300000000002
 20
72.089600000000004
 30
0.0
 10
26.310300000000002
 20
72.089600000000004
 30
0.0
 10
26.310300000000002
 20
72.089600000000004
 30
0.0
 10
26.498200000000001
 20
75.654499999999999
 30
0.0
 10
26.498200000000001
 20
75.654499999999999
 30
0.0
 10
26.498200000000001
 20
75.654499999999999
 30
0.0
 10
28.630700000000001
 20
76.132800000000003
 30
0.0
 10
30.848099999999999
 20
76.386300000000006
 30
0.0
 10
33.124699999999997
 20
76.386300000000006
 30
0.0
  0
SPLINE
  5
34
100
AcDbEntity
  8
RÚteg 1
 62
     7
100
AcDbSpline
210
0.0
220
0.0
230
1.0
 70
     1
 71
     3
 72
    16
 73
    12
 74
     0
 42
0.0000000001
 43
0.0000000001
 40
0.0
 40
0.0
 40
0.0
 40
0.0
 40
0.3333333333333333
 40
0.3333333333333333
 40
0.3333333333333333
 40
0.3333333333333333
 40
0.6666666666666666
 40
0.6666666666666666
 40
0.6666666666666666
 40
0.6666666666666666
 40
1.0
 40
1.0
 40
1.0
 40
1.0
 10
40.065199999999997
 20
75.582999999999998
 30
0.0
 10
41.692
 20
75.199799999999996
 30
0.0
 10
43.267899999999997
 20
74.685699999999997
 30
0.0
 10
44.781399999999998
 20
74.051299999999998
 30
0.0
 10
44.781399999999998
 20
74.051299999999998
 30
0.0
 10
44.781399999999998
 20
74.051299999999998
 30
0.0
 10
41.778700000000001
 20
72.834599999999995
 30
0.0
 10
41.778700000000001
 20
72.834599999999995
 30
0.0
 10
41.778700000000001
 20
72.834599999999995
 30
0.0
 10
41.778700000000001
 20
72.834599999999995
 30
0.0
 10
40.065199999999997
 20
75.582999999999998
 30
0.0
 10
40.065199999999997
 20
75.582999999999998
 30
0.0
  0
SPLINE
  5
35
100
AcDbEntity
  8
RÚteg 1
 62
     7
100
AcDbSpline
210
0.0
220
0.0
230
1.0
 70
     1
 71
     3
 72
    24
 73
    20
 74
     0
 42
0.0000000001
 43
0.0000000001
 40
0.0
 40
0.0
 40
0.0
 40
0.0
 40
0.2
 40
0.2
 40
0.2
 40
0.2
 40
0.4
 40
0.4
 40
0.4
 40
0.4
 40
0.6000000000000001
 40
0.6000000000000001
 40
0.6000000000000001
 40
0.6000000000000001
 40
0.8
 40
0.8
 40
0.8
 40
0.8
 40
1.0
 40
1.0
 40
1.0
 40
1.0
 10
45.076599999999999
 20
73.924800000000005
 30
0.0
 10
49.208599999999997
 20
72.140699999999995
 30
0.0
 10
52.862299999999998
 20
69.459599999999995
 30
0.0
 10
55.7943
 20
66.127700000000004
 30
0.0
 10
55.7943
 20
66.127700000000004
 30
0.0
 10
55.7943
 20
66.127700000000004
 30
0.0
 10
53.8551
 20
63.139600000000002
 30
0.0
 10
53.8551
 20
63.139600000000002
 30
0.0
 10
53.8551
 20
63.139600000000002
 30
0.0
 10
53.8551
 20
63.139600000000002
 30
0.0
 10
46.719099999999997
 20
64.9114
 30
0.0
 10
46.719099999999997
 20
64.9114
 30
0.0
 10
46.719099999999997
 20
64.9114
 30
0.0
 10
46.719099999999997
 20
64.9114
 30
0.0
 10
42.828699999999998
 20
71.150800000000004
 30
0.0
 10
42.828699999999998
 20
71.150800000000004
 30
0.0
 10
42.828699999999998
 20
71.150800000000004
 30
0.0
 10
42.828699999999998
 20
71.150800000000004
 30
0.0
 10
45.076599999999999
 20
73.924800000000005
 30
0.0
 10
45.076599999999999
 20
73.924800000000005
 30
0.0
  0
SPLINE
  5
36
100
AcDbEntity
  8
RÚteg 1
 62
     7
100
AcDbSpline
210
0.0
220
0.0
230
1.0
 70
     1
 71
     3
 72
    16
 73
    12
 74
     0
 42
0.0000000001
 43
0.0000000001
 40
0.0
 40
0.0
 40
0.0
 40
0.0
 40
0.3333333333333333
 40
0.3333333333333333
 40
0.3333333333333333
 40
0.3333333333333333
 40
0.6666666666666666
 40
0.6666666666666666
 40
0.6666666666666666
 40
0.6666666666666666
 40
1.0
 40
1.0
 40
1.0
 40
1.0
 10
56.009399999999999
 20
65.881600000000006
 30
0.0
 10
57.084299999999999
 20
64.633099999999999
 30
0.0
 10
58.059199999999997
 20
63.295699999999997
 30
0.0
 10
58.920699999999997
 20
61.881900000000002
 30
0.0
 10
58.920699999999997
 20
61.881900000000002
 30
0.0
 10
58.920699999999997
 20
61.881900000000002
 30
0.0
 10
55.781100000000002
 20
62.6614
 30
0.0
 10
55.781100000000002
 20
62.6614
 30
0.0
 10
55.781100000000002
 20
62.6614
 30
0.0
 10
55.781100000000002
 20
62.6614
 30
0.0
 10
56.009399999999999
 20
65.881600000000006
 30
0.0
 10
56.009399999999999
 20
65.881600000000006
 30
0.0
  0
SPLINE
  5
37
100
AcDbEntity
  8
RÚteg 1
 62
     7
100
AcDbSpline
210
0.0
220
0.0
230
1.0
 70
     1
 71
     3
 72
    24
 73
    20
 74
     0
 42
0.0000000001
 43
0.0000000001
 40
0.0
 40
0.0
 40
0.0
 40
0.0
 40
0.2
 40
0.2
 40
0.2
 40
0.2
 40
0.4
 40
0.4
 40
0.4
 40
0.4
 40
0.6000000000000001
 40
0.6000000000000001
 40
0.6000000000000001
 40
0.6000000000000001
 40
0.8
 40
0.8
 40
0.8
 40
0.8
 40
1.0
 40
1.0
 40
1.0
 40
1.0
 10
59.086100000000002
 20
61.603900000000003
 30
0.0
 10
61.318600000000004
 20
57.850499999999997
 30
0.0
 10
62.7592
 20
53.571800000000003
 30
0.0
 10
63.18
 20
48.9983
 30
0.0
 10
63.18
 20
48.9983
 30
0.0
 10
63.18
 20
48.9983
 30
0.0
 10
59.852400000000003
 20
47.719700000000003
 30
0.0
 10
59.852400000000003
 20
47.719700000000003
 30
0.0
 10
59.852400000000003
 20
47.719700000000003
 30
0.0
 10
59.852400000000003
 20
47.719700000000003
 30
0.0
 10
55.120600000000003
 20
53.3476
 30
0.0
 10
55.120600000000003
 20
53.3476
 30
0.0
 10
55.120600000000003
 20
53.3476
 30
0.0
 10
55.120600000000003
 20
53.3476
 30
0.0
 10
55.640500000000003
 20
60.681899999999999
 30
0.0
 10
55.640500000000003
 20
60.681899999999999
 30
0.0
 10
55.640500000000003
 20
60.681899999999999
 30
0.0
 10
55.640500000000003
 20
60.681899999999999
 30
0.0
 10
59.086100000000002
 20
61.603900000000003
 30
0.0
 10
59.086100000000002
 20
61.603900000000003
 30
0.0
  0
SPLINE
  5
38
100
AcDbEntity
  8
RÚteg 1
 62
     7
100
AcDbSpline
210
0.0
220
0.0
230
1.0
 70
     1
 71
     3
 72
    20
 73
    16
 74
     0
 42
0.0000000001
 43
0.0000000001
 40
0.0
 40
0.0
 40
0.0
 40
0.0
 40
0.25
 40
0.25
 40
0.25
 40
0.25
 40
0.5
 40
0.5
 40
0.5
 40
0.5
 40
0.75
 40
0.75
 40
0.75
 40
0.75
 40
1.0
 40
1.0
 40
1.0
 40
1.0
 10
63.209000000000003
 20
48.673999999999999
 30
0.0
 10
63.275500000000001
 20
47.858199999999997
 30
0.0
 10
63.310499999999998
 20
47.0336
 30
0.0
 10
63.310499999999998
 20
46.200800000000001
 30
0.0
 10
63.310499999999998
 20
46.200800000000001
 30
0.0
 10
63.310499999999998
 20
45.367800000000003
 30
0.0
 10
63.275300000000001
 20
44.543199999999999
 30
0.0
 10
63.209000000000003
 20
43.727499999999999
 30
0.0
 10
63.209000000000003
 20
43.727499999999999
 30
0.0
 10
63.209000000000003
 20
43.727499999999999
 30
0.0
 10
61.129399999999997
 20
46.200800000000001
 30
0.0
 10
61.129399999999997
 20
46.200800000000001
 30
0.0
 10
61.129399999999997
 20
46.200800000000001
 30
0.0
 10
61.129399999999997
 20
46.200800000000001
 30
0.0
 10
63.209000000000003
 20
48.673999999999999
 30
0.0
 10
63.209000000000003
 20
48.673999999999999
 30
0.0
  0
SPLINE
  5
39
100
AcDbEntity
  8
RÚteg 1
 62
     7
100
AcDbSpline
210
0.0
220
0.0
230
1.0
 70
     1
 71
     3
 72
    24
 73
    20
 74
     0
 42
0.0000000001
 43
0.0000000001
 40
0.0
 40
0.0
 40
0.0
 40
0.0
 40
0.2
 40
0.2
 40
0.2
 40
0.2
 40
0.4
 40
0.4
 40
0.4
 40
0.4
 40
0.6000000000000001
 40
0.6000000000000001
 40
0.6000000000000001
 40
0.6000000000000001
 40
0.8
 40
0.8
 40
0.8
 40
0.8
 40
1.0
 40
1.0
 40
1.0
 40
1.0
 10
63.18
 20
43.402999999999999
 30
0.0
 10
62.759599999999999
 20
38.8292
 30
0.0
 10
61.318199999999997
 20
34.551499999999997
 30
0.0
 10
59.086100000000002
 20
30.797499999999999
 30
0.0
 10
59.086100000000002
 20
30.797499999999999
 30
0.0
 10
59.086100000000002
 20
30.797499999999999
 30
0.0
 10
55.640500000000003
 20
31.7195
 30
0.0
 10
55.640500000000003
 20
31.7195
 30
0.0
 10
55.640500000000003
 20
31.7195
 30
0.0
 10
55.640500000000003
 20
31.7195
 30
0.0
 10
55.120600000000003
 20
39.054000000000002
 30
0.0
 10
55.120600000000003
 20
39.054000000000002
 30
0.0
 10
55.120600000000003
 20
39.054000000000002
 30
0.0
 10
55.120600000000003
 20
39.054000000000002
 30
0.0
 10
59.852400000000003
 20
44.681800000000003
 30
0.0
 10
59.852400000000003
 20
44.681800000000003
 30
0.0
 10
59.852400000000003
 20
44.681800000000003
 30
0.0
 10
59.852400000000003
 20
44.681800000000003
 30
0.0
 10
63.18
 20
43.402999999999999
 30
0.0
 10
63.18
 20
43.402999999999999
 30
0.0
  0
SPLINE
  5
3A
100
AcDbEntity
  8
RÚteg 1
 62
     7
100
AcDbSpline
210
0.0
220
0.0
230
1.0
 70
     1
 71
     3
 72
    16
 73
    12
 74
     0
 42
0.0000000001
 43
0.0000000001
 40
0.0
 40
0.0
 40
0.0
 40
0.0
 40
0.3333333333333333
 40
0.3333333333333333
 40
0.3333333333333333
 40
0.3333333333333333
 40
0.6666666666666666
 40
0.6666666666666666
 40
0.6666666666666666
 40
0.6666666666666666
 40
1.0
 40
1.0
 40
1.0
 40
1.0
 10
58.920699999999997
 20
30.519500000000001
 30
0.0
 10
58.059199999999997
 20
29.105499999999999
 30
0.0
 10
57.084299999999999
 20
27.7685
 30
0.0
 10
56.009399999999999
 20
26.5198
 30
0.0
 10
56.009399999999999
 20
26.5198
 30
0.0
 10
56.009399999999999
 20
26.5198
 30
0.0
 10
55.781100000000002
 20
29.739999999999998
 30
0.0
 10
55.781100000000002
 20
29.739999999999998
 30
0.0
 10
55.781100000000002
 20
29.739999999999998
 30
0.0
 10
55.781100000000002
 20
29.739999999999998
 30
0.0
 10
58.920699999999997
 20
30.519500000000001
 30
0.0
 10
58.920699999999997
 20
30.519500000000001
 30
0.0
  0
SPLINE
  5
3B
100
AcDbEntity
  8
RÚteg 1
 62
     7
100
AcDbSpline
210
0.0
220
0.0
230
1.0
 70
     1
 71
     3
 72
    24
 73
    20
 74
     0
 42
0.0000000001
 43
0.0000000001
 40
0.0
 40
0.0
 40
0.0
 40
0.0
 40
0.2
 40
0.2
 40
0.2
 40
0.2
 40
0.4
 40
0.4
 40
0.4
 40
0.4
 40
0.6000000000000001
 40
0.6000000000000001
 40
0.6000000000000001
 40
0.6000000000000001
 40
0.8
 40
0.8
 40
0.8
 40
0.8
 40
1.0
 40
1.0
 40
1.0
 40
1.0
 10
55.7941
 20
26.273800000000001
 30
0.0
 10
52.862699999999997
 20
22.941400000000002
 30
0.0
 10
49.208100000000002
 20
20.261299999999999
 30
0.0
 10
45.076599999999999
 20
18.476800000000001
 30
0.0
 10
45.076599999999999
 20
18.476800000000001
 30
0.0
 10
45.076599999999999
 20
18.476800000000001
 30
0.0
 10
42.828699999999998
 20
21.250599999999999
 30
0.0
 10
42.828699999999998
 20
21.250599999999999
 30
0.0
 10
42.828699999999998
 20
21.250599999999999
 30
0.0
 10
42.828699999999998
 20
21.250599999999999
 30
0.0
 10
46.719099999999997
 20
27.489899999999999
 30
0.0
 10
46.719099999999997
 20
27.489899999999999
 30
0.0
 10
46.719099999999997
 20
27.489899999999999
 30
0.0
 10
46.719099999999997
 20
27.489899999999999
 30
0.0
 10
53.8551
 20
29.261600000000001
 30
0.0
 10
53.8551
 20
29.261600000000001
 30
0.0
 10
53.8551
 20
29.261600000000001
 30
0.0
 10
53.8551
 20
29.261600000000001
 30
0.0
 10
55.7941
 20
26.273800000000001
 30
0.0
 10
55.7941
 20
26.273800000000001
 30
0.0
  0
SPLINE
  5
3C
100
AcDbEntity
  8
RÚteg 1
 62
     7
100
AcDbSpline
210
0.0
220
0.0
230
1.0
 70
     1
 71
     3
 72
    16
 73
    12
 74
     0
 42
0.0000000001
 43
0.0000000001
 40
0.0
 40
0.0
 40
0.0
 40
0.0
 40
0.3333333333333333
 40
0.3333333333333333
 40
0.3333333333333333
 40
0.3333333333333333
 40
0.6666666666666666
 40
0.6666666666666666
 40
0.6666666666666666
 40
0.6666666666666666
 40
1.0
 40
1.0
 40
1.0
 40
1.0
 10
44.781300000000002
 20
18.350200000000001
 30
0.0
 10
43.268099999999997
 20
17.715699999999998
 30
0.0
 10
41.691899999999997
 20
17.201899999999998
 30
0.0
 10
40.065199999999997
 20
16.8188
 30
0.0
 10
40.065199999999997
 20
16.8188
 30
0.0
 10
40.065199999999997
 20
16.8188
 30
0.0
 10
41.778700000000001
 20
19.566800000000001
 30
0.0
 10
41.778700000000001
 20
19.566800000000001
 30
0.0
 10
41.778700000000001
 20
19.566800000000001
 30
0.0
 10
41.778700000000001
 20
19.566800000000001
 30
0.0
 10
44.781300000000002
 20
18.350200000000001
 30
0.0
 10
44.781300000000002
 20
18.350200000000001
 30
0.0
  0
SPLINE
  5
3D
100
AcDbEntity
  8
RÚteg 1
 62
     7
100
AcDbSpline
210
0.0
220
0.0
230
1.0
 70
     1
 71
     3
 72
    28
 73
    24
 74
     0
 42
0.0000000001
 43
0.0000000001
 40
0.0
 40
0.0
 40
0.0
 40
0.0
 40
0.1666666666666667
 40
0.1666666666666667
 40
0.1666666666666667
 40
0.1666666666666667
 40
0.3333333333333333
 40
0.3333333333333333
 40
0.3333333333333333
 40
0.3333333333333333
 40
0.5
 40
0.5
 40
0.5
 40
0.5
 40
0.6666666666666666
 40
0.6666666666666666
 40
0.6666666666666666
 40
0.6666666666666666
 40
0.8333333333333333
 40
0.8333333333333333
 40
0.8333333333333333
 40
0.8333333333333333
 40
1.0
 40
1.0
 40
1.0
 40
1.0
 10
39.751399999999997
 20
16.747
 30
0.0
 10
37.618899999999996
 20
16.268699999999999
 30
0.0
 10
35.401499999999999
 20
16.0151
 30
0.0
 10
33.124699999999997
 20
16.0151
 30
0.0
 10
33.124699999999997
 20
16.0151
 30
0.0
 10
30.848099999999999
 20
16.0151
 30
0.0
 10
28.6309
 20
16.268799999999999
 30
0.0
 10
26.498200000000001
 20
16.747
 30
0.0
 10
26.498200000000001
 20
16.747
 30
0.0
 10
26.498200000000001
 20
16.747
 30
0.0
 10
26.310300000000002
 20
20.311900000000001
 30
0.0
 10
26.310300000000002
 20
20.311900000000001
 30
0.0
 10
26.310300000000002
 20
20.311900000000001
 30
0.0
 10
26.310300000000002
 20
20.311900000000001
 30
0.0
 10
33.1248
 20
23.072900000000001
 30
0.0
 10
33.1248
 20
23.072900000000001
 30
0.0
 10
33.1248
 20
23.072900000000001
 30
0.0
 10
33.1248
 20
23.072900000000001
 30
0.0
 10
39.939399999999999
 20
20.311900000000001
 30
0.0
 10
39.939399999999999
 20
20.311900000000001
 30
0.0
 10
39.939399999999999
 20
20.311900000000001
 30
0.0
 10
39.939399999999999
 20
20.311900000000001
 30
0.0
 10
39.751399999999997
 20
16.747
 30
0.0
 10
39.751399999999997
 20
16.747
 30
0.0
  0
SPLINE
  5
3E
100
AcDbEntity
  8
RÚteg 1
 62
     7
100
AcDbSpline
210
0.0
220
0.0
230
1.0
 70
     1
 71
     3
 72
    16
 73
    12
 74
     0
 42
0.0000000001
 43
0.0000000001
 40
0.0
 40
0.0
 40
0.0
 40
0.0
 40
0.3333333333333333
 40
0.3333333333333333
 40
0.3333333333333333
 40
0.3333333333333333
 40
0.6666666666666666
 40
0.6666666666666666
 40
0.6666666666666666
 40
0.6666666666666666
 40
1.0
 40
1.0
 40
1.0
 40
1.0
 10
26.1844
 20
16.8188
 30
0.0
 10
24.5578
 20
17.201799999999999
 30
0.0
 10
22.9816
 20
17.715699999999998
 30
0.0
 10
21.468299999999999
 20
18.350200000000001
 30
0.0
 10
21.468299999999999
 20
18.350200000000001
 30
0.0
 10
21.468299999999999
 20
18.350200000000001
 30
0.0
 10
24.471
 20
19.566800000000001
 30
0.0
 10
24.471
 20
19.566800000000001
 30
0.0
 10
24.471
 20
19.566800000000001
 30
0.0
 10
24.471
 20
19.566800000000001
 30
0.0
 10
26.1844
 20
16.8188
 30
0.0
 10
26.1844
 20
16.8188
 30
0.0
  0
SPLINE
  5
3F
100
AcDbEntity
  8
RÚteg 1
 62
     7
100
AcDbSpline
210
0.0
220
0.0
230
1.0
 70
     1
 71
     3
 72
    24
 73
    20
 74
     0
 42
0.0000000001
 43
0.0000000001
 40
0.0
 40
0.0
 40
0.0
 40
0.0
 40
0.2
 40
0.2
 40
0.2
 40
0.2
 40
0.4
 40
0.4
 40
0.4
 40
0.4
 40
0.6000000000000001
 40
0.6000000000000001
 40
0.6000000000000001
 40
0.6000000000000001
 40
0.8
 40
0.8
 40
0.8
 40
0.8
 40
1.0
 40
1.0
 40
1.0
 40
1.0
 10
21.173100000000002
 20
18.476800000000001
 30
0.0
 10
17.0412
 20
20.260899999999999
 30
0.0
 10
13.3871
 20
22.941400000000002
 30
0.0
 10
10.455500000000001
 20
26.273800000000001
 30
0.0
 10
10.455500000000001
 20
26.273800000000001
 30
0.0
 10
10.455500000000001
 20
26.273800000000001
 30
0.0
 10
12.3947
 20
29.261600000000001
 30
0.0
 10
12.3947
 20
29.261600000000001
 30
0.0
 10
12.3947
 20
29.261600000000001
 30
0.0
 10
12.3947
 20
29.261600000000001
 30
0.0
 10
19.5307
 20
27.489899999999999
 30
0.0
 10
19.5307
 20
27.489899999999999
 30
0.0
 10
19.5307
 20
27.489899999999999
 30
0.0
 10
19.5307
 20
27.489899999999999
 30
0.0
 10
23.4209
 20
21.250800000000002
 30
0.0
 10
23.4209
 20
21.250800000000002
 30
0.0
 10
23.4209
 20
21.250800000000002
 30
0.0
 10
23.4209
 20
21.250800000000002
 30
0.0
 10
21.173100000000002
 20
18.476800000000001
 30
0.0
 10
21.173100000000002
 20
18.476800000000001
 30
0.0
  0
SPLINE
  5
40
100
AcDbEntity
  8
RÚteg 1
 62
     7
100
AcDbSpline
210
0.0
220
0.0
230
1.0
 70
     1
 71
     3
 72
    16
 73
    12
 74
     0
 42
0.0000000001
 43
0.0000000001
 40
0.0
 40
0.0
 40
0.0
 40
0.0
 40
0.3333333333333333
 40
0.3333333333333333
 40
0.3333333333333333
 40
0.3333333333333333
 40
0.6666666666666666
 40
0.6666666666666666
 40
0.6666666666666666
 40
0.6666666666666666
 40
1.0
 40
1.0
 40
1.0
 40
1.0
 10
10.2402
 20
26.5197
 30
0.0
 10
9.1653000000000002
 20
27.7684
 30
0.0
 10
8.1905999999999999
 20
29.105499999999999
 30
0.0
 10
7.3289
 20
30.519500000000001
 30
0.0
 10
7.3289
 20
30.519500000000001
 30
0.0
 10
7.3289
 20
30.519500000000001
 30
0.0
 10
10.4686
 20
29.739999999999998
 30
0.0
 10
10.4686
 20
29.739999999999998
 30
0.0
 10
10.4686
 20
29.739999999999998
 30
0.0
 10
10.4686
 20
29.739999999999998
 30
0.0
 10
10.2402
 20
26.5197
 30
0.0
 10
10.2402
 20
26.5197
 30
0.0
  0
SPLINE
  5
41
100
AcDbEntity
  8
RÚteg 1
 62
     7
100
AcDbSpline
210
0.0
220
0.0
230
1.0
 70
     1
 71
     3
 72
    24
 73
    20
 74
     0
 42
0.0000000001
 43
0.0000000001
 40
0.0
 40
0.0
 40
0.0
 40
0.0
 40
0.2
 40
0.2
 40
0.2
 40
0.2
 40
0.4
 40
0.4
 40
0.4
 40
0.4
 40
0.6000000000000001
 40
0.6000000000000001
 40
0.6000000000000001
 40
0.6000000000000001
 40
0.8
 40
0.8
 40
0.8
 40
0.8
 40
1.0
 40
1.0
 40
1.0
 40
1.0
 10
7.1637000000000004
 20
30.797499999999999
 30
0.0
 10
4.9310999999999998
 20
34.550899999999999
 30
0.0
 10
3.4904999999999999
 20
38.829500000000003
 30
0.0
 10
3.0693999999999999
 20
43.402999999999999
 30
0.0
 10
3.0693999999999999
 20
43.402999999999999
 30
0.0
 10
3.0693999999999999
 20
43.402999999999999
 30
0.0
 10
6.3973000000000004
 20
44.681699999999999
 30
0.0
 10
6.3973000000000004
 20
44.681699999999999
 30
0.0
 10
6.3973000000000004
 20
44.681699999999999
 30
0.0
 10
6.3973000000000004
 20
44.681699999999999
 30
0.0
 10
11.129
 20
39.054000000000002
 30
0.0
 10
11.129
 20
39.054000000000002
 30
0.0
 10
11.129
 20
39.054000000000002
 30
0.0
 10
11.129
 20
39.054000000000002
 30
0.0
 10
10.6091
 20
31.7195
 30
0.0
 10
10.6091
 20
31.7195
 30
0.0
 10
10.6091
 20
31.7195
 30
0.0
 10
10.6091
 20
31.7195
 30
0.0
 10
7.1637000000000004
 20
30.797499999999999
 30
0.0
 10
7.1637000000000004
 20
30.797499999999999
 30
0.0
  0
SPLINE
  5
42
100
AcDbEntity
  8
RÚteg 1
 62
     7
100
AcDbSpline
210
0.0
220
0.0
230
1.0
 70
     1
 71
     3
 72
    20
 73
    16
 74
     0
 42
0.0000000001
 43
0.0000000001
 40
0.0
 40
0.0
 40
0.0
 40
0.0
 40
0.25
 40
0.25
 40
0.25
 40
0.25
 40
0.5
 40
0.5
 40
0.5
 40
0.5
 40
0.75
 40
0.75
 40
0.75
 40
0.75
 40
1.0
 40
1.0
 40
1.0
 40
1.0
 10
3.0406
 20
43.7273
 30
0.0
 10
2.9742000000000002
 20
44.542900000000003
 30
0.0
 10
2.9390999999999998
 20
45.367800000000003
 30
0.0
 10
2.9390999999999998
 20
46.200800000000001
 30
0.0
 10
2.9390999999999998
 20
46.200800000000001
 30
0.0
 10
2.9390999999999998
 20
47.033799999999999
 30
0.0
 10
2.9744999999999999
 20
47.858199999999997
 30
0.0
 10
3.0406
 20
48.674199999999999
 30
0.0
 10
3.0406
 20
48.674199999999999
 30
0.0
 10
3.0406
 20
48.674199999999999
 30
0.0
 10
5.1201999999999996
 20
46.200800000000001
 30
0.0
 10
5.1201999999999996
 20
46.200800000000001
 30
0.0
 10
5.1201999999999996
 20
46.200800000000001
 30
0.0
 10
5.1201999999999996
 20
46.200800000000001
 30
0.0
 10
3.0406
 20
43.7273
 30
0.0
 10
3.0406
 20
43.7273
 30
0.0
  0
SPLINE
  5
43
100
AcDbEntity
  8
RÚteg 1
 62
     7
100
AcDbSpline
210
0.0
220
0.0
230
1.0
 70
     1
 71
     3
 72
    24
 73
    20
 74
     0
 42
0.0000000001
 43
0.0000000001
 40
0.0
 40
0.0
 40
0.0
 40
0.0
 40
0.2
 40
0.2
 40
0.2
 40
0.2
 40
0.4
 40
0.4
 40
0.4
 40
0.4
 40
0.6000000000000001
 40
0.6000000000000001
 40
0.6000000000000001
 40
0.6000000000000001
 40
0.8
 40
0.8
 40
0.8
 40
0.8
 40
1.0
 40
1.0
 40
1.0
 40
1.0
 10
3.0693999999999999
 20
48.9983
 30
0.0
 10
3.4901
 20
53.572000000000003
 30
0.0
 10
4.9316000000000004
 20
57.850099999999998
 30
0.0
 10
7.1635
 20
61.603900000000003
 30
0.0
 10
7.1635
 20
61.603900000000003
 30
0.0
 10
7.1635
 20
61.603900000000003
 30
0.0
 10
10.6091
 20
60.681899999999999
 30
0.0
 10
10.6091
 20
60.681899999999999
 30
0.0
 10
10.6091
 20
60.681899999999999
 30
0.0
 10
10.6091
 20
60.681899999999999
 30
0.0
 10
11.129
 20
53.3476
 30
0.0
 10
11.129
 20
53.3476
 30
0.0
 10
11.129
 20
53.3476
 30
0.0
 10
11.129
 20
53.3476
 30
0.0
 10
6.3973000000000004
 20
47.719700000000003
 30
0.0
 10
6.3973000000000004
 20
47.719700000000003
 30
0.0
 10
6.3973000000000004
 20
47.719700000000003
 30
0.0
 10
6.3973000000000004
 20
47.719700000000003
 30
0.0
 10
3.0693999999999999
 20
48.9983
 30
0.0
 10
3.0693999999999999
 20
48.9983
 30
0.0
  0
SPLINE
  5
44
100
AcDbEntity
  8
RÚteg 1
 62
     7
100
AcDbSpline
210
0.0
220
0.0
230
1.0
 70
     1
 71
     3
 72
    16
 73
    12
 74
     0
 42
0.0000000001
 43
0.0000000001
 40
0.0
 40
0.0
 40
0.0
 40
0.0
 40
0.3333333333333333
 40
0.3333333333333333
 40
0.3333333333333333
 40
0.3333333333333333
 40
0.6666666666666666
 40
0.6666666666666666
 40
0.6666666666666666
 40
0.6666666666666666
 40
1.0
 40
1.0
 40
1.0
 40
1.0
 10
7.3287000000000004
 20
61.881700000000002
 30
0.0
 10
8.1903000000000006
 20
63.295900000000003
 30
0.0
 10
9.1653000000000002
 20
64.632900000000006
 30
0.0
 10
10.2402
 20
65.881699999999995
 30
0.0
 10
10.2402
 20
65.881699999999995
 30
0.0
 10
10.2402
 20
65.881699999999995
 30
0.0
 10
10.4686
 20
62.6614
 30
0.0
 10
10.4686
 20
62.6614
 30
0.0
 10
10.4686
 20
62.6614
 30
0.0
 10
10.4686
 20
62.6614
 30
0.0
 10
7.3287000000000004
 20
61.881700000000002
 30
0.0
 10
7.3287000000000004
 20
61.881700000000002
 30
0.0
  0
SPLINE
  5
45
100
AcDbEntity
  8
RÚteg 1
 62
     7
100
AcDbSpline
210
0.0
220
0.0
230
1.0
 70
     1
 71
     3
 72
    24
 73
    20
 74
     0
 42
0.0000000001
 43
0.0000000001
 40
0.0
 40
0.0
 40
0.0
 40
0.0
 40
0.2
 40
0.2
 40
0.2
 40
0.2
 40
0.4
 40
0.4
 40
0.4
 40
0.4
 40
0.6000000000000001
 40
0.6000000000000001
 40
0.6000000000000001
 40
0.6000000000000001
 40
0.8
 40
0.8
 40
0.8
 40
0.8
 40
1.0
 40
1.0
 40
1.0
 40
1.0
 10
10.455500000000001
 20
66.127799999999993
 30
0.0
 10
13.387
 20
69.4602
 30
0.0
 10
17.0412
 20
72.1404
 30
0.0
 10
21.172899999999998
 20
73.924800000000005
 30
0.0
 10
21.172899999999998
 20
73.924800000000005
 30
0.0
 10
21.172899999999998
 20
73.924800000000005
 30
0.0
 10
23.4209
 20
71.150700000000001
 30
0.0
 10
23.4209
 20
71.150700000000001
 30
0.0
 10
23.4209
 20
71.150700000000001
 30
0.0
 10
23.4209
 20
71.150700000000001
 30
0.0
 10
19.5307
 20
64.9114
 30
0.0
 10
19.5307
 20
64.9114
 30
0.0
 10
19.5307
 20
64.9114
 30
0.0
 10
19.5307
 20
64.9114
 30
0.0
 10
12.3947
 20
63.139499999999998
 30
0.0
 10
12.3947
 20
63.139499999999998
 30
0.0
 10
12.3947
 20
63.139499999999998
 30
0.0
 10
12.3947
 20
63.139499999999998
 30
0.0
 10
10.455500000000001
 20
66.127799999999993
 30
0.0
 10
10.455500000000001
 20
66.127799999999993
 30
0.0
  0
SPLINE
  5
46
100
AcDbEntity
  8
RÚteg 1
 62
     7
100
AcDbSpline
210
0.0
220
0.0
230
1.0
 70
     1
 71
     3
 72
    16
 73
    12
 74
     0
 42
0.0000000001
 43
0.0000000001
 40
0.0
 40
0.0
 40
0.0
 40
0.0
 40
0.3333333333333333
 40
0.3333333333333333
 40
0.3333333333333333
 40
0.3333333333333333
 40
0.6666666666666666
 40
0.6666666666666666
 40
0.6666666666666666
 40
0.6666666666666666
 40
1.0
 40
1.0
 40
1.0
 40
1.0
 10
21.4681
 20
74.051299999999998
 30
0.0
 10
22.981400000000001
 20
74.6858
 30
0.0
 10
24.5578
 20
75.199700000000007
 30
0.0
 10
26.1844
 20
75.582999999999998
 30
0.0
 10
26.1844
 20
75.582999999999998
 30
0.0
 10
26.1844
 20
75.582999999999998
 30
0.0
 10
24.471
 20
72.834500000000006
 30
0.0
 10
24.471
 20
72.834500000000006
 30
0.0
 10
24.471
 20
72.834500000000006
 30
0.0
 10
24.471
 20
72.834500000000006
 30
0.0
 10
21.4681
 20
74.051299999999998
 30
0.0
 10
21.4681
 20
74.051299999999998
 30
0.0
  0
SPLINE
  5
47
100
AcDbEntity
  8
RÚteg 1
 62
     7
100
AcDbSpline
210
0.0
220
0.0
230
1.0
 70
     1
 71
     3
 72
    24
 73
    20
 74
     0
 42
0.0000000001
 43
0.0000000001
 40
0.0
 40
0.0
 40
0.0
 40
0.0
 40
0.2
 40
0.2
 40
0.2
 40
0.2
 40
0.4
 40
0.4
 40
0.4
 40
0.4
 40
0.6000000000000001
 40
0.6000000000000001
 40
0.6000000000000001
 40
0.6000000000000001
 40
0.8
 40
0.8
 40
0.8
 40
0.8
 40
1.0
 40
1.0
 40
1.0
 40
1.0
 10
30.472300000000001
 20
40.791400000000003
 30
0.0
 10
30.472300000000001
 20
40.791400000000003
 30
0.0
 10
25.7393
 20
31.138500000000001
 30
0.0
 10
25.7393
 20
31.138500000000001
 30
0.0
 10
25.7393
 20
31.138500000000001
 30
0.0
 10
25.7393
 20
31.138500000000001
 30
0.0
 10
26.087199999999999
 20
24.5413
 30
0.0
 10
26.087199999999999
 20
24.5413
 30
0.0
 10
26.087199999999999
 20
24.5413
 30
0.0
 10
26.087199999999999
 20
24.5413
 30
0.0
 10
30.246500000000001
 20
29.673999999999999
 30
0.0
 10
30.246500000000001
 20
29.673999999999999
 30
0.0
 10
30.246500000000001
 20
29.673999999999999
 30
0.0
 10
30.246500000000001
 20
29.673999999999999
 30
0.0
 10
32.091200000000001
 20
40.265599999999999
 30
0.0
 10
32.091200000000001
 20
40.265599999999999
 30
0.0
 10
32.091200000000001
 20
40.265599999999999
 30
0.0
 10
31.5199
 20
40.364600000000003
 30
0.0
 10
30.976500000000001
 20
40.543700000000001
 30
0.0
 10
30.472300000000001
 20
40.791400000000003
 30
0.0
  0
SPLINE
  5
48
100
AcDbEntity
  8
RÚteg 1
 62
     7
100
AcDbSpline
210
0.0
220
0.0
230
1.0
 70
     1
 71
     3
 72
    24
 73
    20
 74
     0
 42
0.0000000001
 43
0.0000000001
 40
0.0
 40
0.0
 40
0.0
 40
0.0
 40
0.2
 40
0.2
 40
0.2
 40
0.2
 40
0.4
 40
0.4
 40
0.4
 40
0.4
 40
0.6000000000000001
 40
0.6000000000000001
 40
0.6000000000000001
 40
0.6000000000000001
 40
0.8
 40
0.8
 40
0.8
 40
0.8
 40
1.0
 40
1.0
 40
1.0
 40
1.0
 10
28.800899999999999
 20
42.007599999999996
 30
0.0
 10
28.800899999999999
 20
42.007599999999996
 30
0.0
 10
21.082100000000001
 20
34.522300000000001
 30
0.0
 10
21.082100000000001
 20
34.522300000000001
 30
0.0
 10
21.082100000000001
 20
34.522300000000001
 30
0.0
 10
21.082100000000001
 20
34.522300000000001
 30
0.0
 10
14.700200000000001
 20
32.814399999999999
 30
0.0
 10
14.700200000000001
 20
32.814399999999999
 30
0.0
 10
14.700200000000001
 20
32.814399999999999
 30
0.0
 10
14.700200000000001
 20
32.814399999999999
 30
0.0
 10
18.296600000000002
 20
38.356200000000001
 30
0.0
 10
18.296600000000002
 20
38.356200000000001
 30
0.0
 10
18.296600000000002
 20
38.356200000000001
 30
0.0
 10
18.296600000000002
 20
38.356200000000001
 30
0.0
 10
27.799499999999998
 20
43.383600000000001
 30
0.0
 10
27.799499999999998
 20
43.383600000000001
 30
0.0
 10
27.799499999999998
 20
43.383600000000001
 30
0.0
 10
28.067900000000002
 20
42.877899999999997
 30
0.0
 10
28.405799999999999
 20
42.414900000000003
 30
0.0
 10
28.800899999999999
 20
42.007599999999996
 30
0.0
  0
SPLINE
  5
49
100
AcDbEntity
  8
RÚteg 1
 62
     7
100
AcDbSpline
210
0.0
220
0.0
230
1.0
 70
     1
 71
     3
 72
    24
 73
    20
 74
     0
 42
0.0000000001
 43
0.0000000001
 40
0.0
 40
0.0
 40
0.0
 40
0.0
 40
0.2
 40
0.2
 40
0.2
 40
0.2
 40
0.4
 40
0.4
 40
0.4
 40
0.4
 40
0.6000000000000001
 40
0.6000000000000001
 40
0.6000000000000001
 40
0.6000000000000001
 40
0.8
 40
0.8
 40
0.8
 40
0.8
 40
1.0
 40
1.0
 40
1.0
 40
1.0
 10
35.777299999999997
 20
51.609999999999999
 30
0.0
 10
35.777299999999997
 20
51.609999999999999
 30
0.0
 10
40.510100000000001
 20
61.262900000000002
 30
0.0
 10
40.510100000000001
 20
61.262900000000002
 30
0.0
 10
40.510100000000001
 20
61.262900000000002
 30
0.0
 10
40.510100000000001
 20
61.262900000000002
 30
0.0
 10
40.162399999999998
 20
67.860100000000003
 30
0.0
 10
40.162399999999998
 20
67.860100000000003
 30
0.0
 10
40.162399999999998
 20
67.860100000000003
 30
0.0
 10
40.162399999999998
 20
67.860100000000003
 30
0.0
 10
36.003300000000003
 20
62.7273
 30
0.0
 10
36.003300000000003
 20
62.7273
 30
0.0
 10
36.003300000000003
 20
62.7273
 30
0.0
 10
36.003300000000003
 20
62.7273
 30
0.0
 10
34.1586
 20
52.135899999999999
 30
0.0
 10
34.1586
 20
52.135899999999999
 30
0.0
 10
34.1586
 20
52.135899999999999
 30
0.0
 10
34.729700000000001
 20
52.036799999999999
 30
0.0
 10
35.273299999999999
 20
51.857700000000001
 30
0.0
 10
35.777299999999997
 20
51.609999999999999
 30
0.0
  0
SPLINE
  5
4A
100
AcDbEntity
  8
RÚteg 1
 62
     7
100
AcDbSpline
210
0.0
220
0.0
230
1.0
 70
     1
 71
     3
 72
    28
 73
    24
 74
     0
 42
0.0000000001
 43
0.0000000001
 40
0.0
 40
0.0
 40
0.0
 40
0.0
 40
0.1666666666666667
 40
0.1666666666666667
 40
0.1666666666666667
 40
0.1666666666666667
 40
0.3333333333333333
 40
0.3333333333333333
 40
0.3333333333333333
 40
0.3333333333333333
 40
0.5
 40
0.5
 40
0.5
 40
0.5
 40
0.6666666666666666
 40
0.6666666666666666
 40
0.6666666666666666
 40
0.6666666666666666
 40
0.8333333333333333
 40
0.8333333333333333
 40
0.8333333333333333
 40
0.8333333333333333
 40
1.0
 40
1.0
 40
1.0
 40
1.0
 10
27.161100000000001
 20
45.349800000000002
 30
0.0
 10
27.161100000000001
 20
45.349800000000002
 30
0.0
 10
16.517600000000002
 20
43.831299999999999
 30
0.0
 10
16.517600000000002
 20
43.831299999999999
 30
0.0
 10
16.517600000000002
 20
43.831299999999999
 30
0.0
 10
16.517600000000002
 20
43.831299999999999
 30
0.0
 10
10.3506
 20
46.200800000000001
 30
0.0
 10
10.3506
 20
46.200800000000001
 30
0.0
 10
10.3506
 20
46.200800000000001
 30
0.0
 10
10.3506
 20
46.200800000000001
 30
0.0
 10
16.517600000000002
 20
48.5702
 30
0.0
 10
16.517600000000002
 20
48.5702
 30
0.0
 10
16.517600000000002
 20
48.5702
 30
0.0
 10
16.517600000000002
 20
48.5702
 30
0.0
 10
27.161100000000001
 20
47.051499999999997
 30
0.0
 10
27.161100000000001
 20
47.051499999999997
 30
0.0
 10
27.161100000000001
 20
47.051499999999997
 30
0.0
 10
27.1218
 20
46.773600000000002
 30
0.0
 10
27.100899999999999
 20
46.489699999999999
 30
0.0
 10
27.100899999999999
 20
46.200800000000001
 30
0.0
 10
27.100899999999999
 20
46.200800000000001
 30
0.0
 10
27.100899999999999
 20
45.911700000000003
 30
0.0
 10
27.1218
 20
45.627899999999997
 30
0.0
 10
27.161100000000001
 20
45.349800000000002
 30
0.0
  0
SPLINE
  5
4B
100
AcDbEntity
  8
RÚteg 1
 62
     7
100
AcDbSpline
210
0.0
220
0.0
230
1.0
 70
     1
 71
     3
 72
    28
 73
    24
 74
     0
 42
0.0000000001
 43
0.0000000001
 40
0.0
 40
0.0
 40
0.0
 40
0.0
 40
0.1666666666666667
 40
0.1666666666666667
 40
0.1666666666666667
 40
0.1666666666666667
 40
0.3333333333333333
 40
0.3333333333333333
 40
0.3333333333333333
 40
0.3333333333333333
 40
0.5
 40
0.5
 40
0.5
 40
0.5
 40
0.6666666666666666
 40
0.6666666666666666
 40
0.6666666666666666
 40
0.6666666666666666
 40
0.8333333333333333
 40
0.8333333333333333
 40
0.8333333333333333
 40
0.8333333333333333
 40
1.0
 40
1.0
 40
1.0
 40
1.0
 10
39.088700000000003
 20
47.051499999999997
 30
0.0
 10
39.088700000000003
 20
47.051499999999997
 30
0.0
 10
49.731999999999999
 20
48.5702
 30
0.0
 10
49.731999999999999
 20
48.5702
 30
0.0
 10
49.731999999999999
 20
48.5702
 30
0.0
 10
49.731999999999999
 20
48.5702
 30
0.0
 10
55.899099999999997
 20
46.200800000000001
 30
0.0
 10
55.899099999999997
 20
46.200800000000001
 30
0.0
 10
55.899099999999997
 20
46.200800000000001
 30
0.0
 10
55.899099999999997
 20
46.200800000000001
 30
0.0
 10
49.731999999999999
 20
43.831299999999999
 30
0.0
 10
49.731999999999999
 20
43.831299999999999
 30
0.0
 10
49.731999999999999
 20
43.831299999999999
 30
0.0
 10
49.731999999999999
 20
43.831299999999999
 30
0.0
 10
39.088700000000003
 20
45.349800000000002
 30
0.0
 10
39.088700000000003
 20
45.349800000000002
 30
0.0
 10
39.088700000000003
 20
45.349800000000002
 30
0.0
 10
39.128
 20
45.627899999999997
 30
0.0
 10
39.148899999999998
 20
45.911700000000003
 30
0.0
 10
39.148899999999998
 20
46.200800000000001
 30
0.0
 10
39.148899999999998
 20
46.200800000000001
 30
0.0
 10
39.148899999999998
 20
46.489699999999999
 30
0.0
 10
39.128
 20
46.773600000000002
 30
0.0
 10
39.088700000000003
 20
47.051499999999997
 30
0.0
  0
SPLINE
  5
4C
100
AcDbEntity
  8
RÚteg 1
 62
     7
100
AcDbSpline
210
0.0
220
0.0
230
1.0
 70
     1
 71
     3
 72
    24
 73
    20
 74
     0
 42
0.0000000001
 43
0.0000000001
 40
0.0
 40
0.0
 40
0.0
 40
0.0
 40
0.2
 40
0.2
 40
0.2
 40
0.2
 40
0.4
 40
0.4
 40
0.4
 40
0.4
 40
0.6000000000000001
 40
0.6000000000000001
 40
0.6000000000000001
 40
0.6000000000000001
 40
0.8
 40
0.8
 40
0.8
 40
0.8
 40
1.0
 40
1.0
 40
1.0
 40
1.0
 10
27.799499999999998
 20
49.017899999999997
 30
0.0
 10
27.799499999999998
 20
49.017899999999997
 30
0.0
 10
18.296600000000002
 20
54.045299999999997
 30
0.0
 10
18.296600000000002
 20
54.045299999999997
 30
0.0
 10
18.296600000000002
 20
54.045299999999997
 30
0.0
 10
18.296600000000002
 20
54.045299999999997
 30
0.0
 10
14.700200000000001
 20
59.587000000000003
 30
0.0
 10
14.700200000000001
 20
59.587000000000003
 30
0.0
 10
14.700200000000001
 20
59.587000000000003
 30
0.0
 10
14.700200000000001
 20
59.587000000000003
 30
0.0
 10
21.082100000000001
 20
57.879199999999997
 30
0.0
 10
21.082100000000001
 20
57.879199999999997
 30
0.0
 10
21.082100000000001
 20
57.879199999999997
 30
0.0
 10
21.082100000000001
 20
57.879199999999997
 30
0.0
 10
28.800899999999999
 20
50.393799999999999
 30
0.0
 10
28.800899999999999
 20
50.393799999999999
 30
0.0
 10
28.800899999999999
 20
50.393799999999999
 30
0.0
 10
28.405899999999999
 20
49.986499999999999
 30
0.0
 10
28.067699999999999
 20
49.523699999999998
 30
0.0
 10
27.799499999999998
 20
49.017899999999997
 30
0.0
  0
SPLINE
  5
4D
100
AcDbEntity
  8
RÚteg 1
 62
     7
100
AcDbSpline
210
0.0
220
0.0
230
1.0
 70
     1
 71
     3
 72
    24
 73
    20
 74
     0
 42
0.0000000001
 43
0.0000000001
 40
0.0
 40
0.0
 40
0.0
 40
0.0
 40
0.2
 40
0.2
 40
0.2
 40
0.2
 40
0.4
 40
0.4
 40
0.4
 40
0.4
 40
0.6000000000000001
 40
0.6000000000000001
 40
0.6000000000000001
 40
0.6000000000000001
 40
0.8
 40
0.8
 40
0.8
 40
0.8
 40
1.0
 40
1.0
 40
1.0
 40
1.0
 10
38.450099999999999
 20
49.017899999999997
 30
0.0
 10
38.450099999999999
 20
49.017899999999997
 30
0.0
 10
47.953000000000003
 20
54.045299999999997
 30
0.0
 10
47.953000000000003
 20
54.045299999999997
 30
0.0
 10
47.953000000000003
 20
54.045299999999997
 30
0.0
 10
47.953000000000003
 20
54.045299999999997
 30
0.0
 10
51.549599999999998
 20
59.587000000000003
 30
0.0
 10
51.549599999999998
 20
59.587000000000003
 30
0.0
 10
51.549599999999998
 20
59.587000000000003
 30
0.0
 10
51.549599999999998
 20
59.587000000000003
 30
0.0
 10
45.167700000000004
 20
57.879199999999997
 30
0.0
 10
45.167700000000004
 20
57.879199999999997
 30
0.0
 10
45.167700000000004
 20
57.879199999999997
 30
0.0
 10
45.167700000000004
 20
57.879199999999997
 30
0.0
 10
37.448700000000002
 20
50.393799999999999
 30
0.0
 10
37.448700000000002
 20
50.393799999999999
 30
0.0
 10
37.448700000000002
 20
50.393799999999999
 30
0.0
 10
37.843899999999998
 20
49.986499999999999
 30
0.0
 10
38.181899999999999
 20
49.523600000000002
 30
0.0
 10
38.450099999999999
 20
49.017899999999997
 30
0.0
  0
SPLINE
  5
4E
100
AcDbEntity
  8
RÚteg 1
 62
     7
100
AcDbSpline
210
0.0
220
0.0
230
1.0
 70
     1
 71
     3
 72
    24
 73
    20
 74
     0
 42
0.0000000001
 43
0.0000000001
 40
0.0
 40
0.0
 40
0.0
 40
0.0
 40
0.2
 40
0.2
 40
0.2
 40
0.2
 40
0.4
 40
0.4
 40
0.4
 40
0.4
 40
0.6000000000000001
 40
0.6000000000000001
 40
0.6000000000000001
 40
0.6000000000000001
 40
0.8
 40
0.8
 40
0.8
 40
0.8
 40
1.0
 40
1.0
 40
1.0
 40
1.0
 10
30.472300000000001
 20
51.609999999999999
 30
0.0
 10
30.472300000000001
 20
51.609999999999999
 30
0.0
 10
25.7393
 20
61.262900000000002
 30
0.0
 10
25.7393
 20
61.262900000000002
 30
0.0
 10
25.7393
 20
61.262900000000002
 30
0.0
 10
25.7393
 20
61.262900000000002
 30
0.0
 10
26.087199999999999
 20
67.860100000000003
 30
0.0
 10
26.087199999999999
 20
67.860100000000003
 30
0.0
 10
26.087199999999999
 20
67.860100000000003
 30
0.0
 10
26.087199999999999
 20
67.860100000000003
 30
0.0
 10
30.246500000000001
 20
62.7273
 30
0.0
 10
30.246500000000001
 20
62.7273
 30
0.0
 10
30.246500000000001
 20
62.7273
 30
0.0
 10
30.246500000000001
 20
62.7273
 30
0.0
 10
32.091200000000001
 20
52.135899999999999
 30
0.0
 10
32.091200000000001
 20
52.135899999999999
 30
0.0
 10
32.091200000000001
 20
52.135899999999999
 30
0.0
 10
31.5199
 20
52.036799999999999
 30
0.0
 10
30.976500000000001
 20
51.857700000000001
 30
0.0
 10
30.472300000000001
 20
51.609999999999999
 30
0.0
  0
SPLINE
  5
4F
100
AcDbEntity
  8
RÚteg 1
 62
     7
100
AcDbSpline
210
0.0
220
0.0
230
1.0
 70
     1
 71
     3
 72
    24
 73
    20
 74
     0
 42
0.0000000001
 43
0.0000000001
 40
0.0
 40
0.0
 40
0.0
 40
0.0
 40
0.2
 40
0.2
 40
0.2
 40
0.2
 40
0.4
 40
0.4
 40
0.4
 40
0.4
 40
0.6000000000000001
 40
0.6000000000000001
 40
0.6000000000000001
 40
0.6000000000000001
 40
0.8
 40
0.8
 40
0.8
 40
0.8
 40
1.0
 40
1.0
 40
1.0
 40
1.0
 10
37.448700000000002
 20
42.007599999999996
 30
0.0
 10
37.448700000000002
 20
42.007599999999996
 30
0.0
 10
45.167700000000004
 20
34.522300000000001
 30
0.0
 10
45.167700000000004
 20
34.522300000000001
 30
0.0
 10
45.167700000000004
 20
34.522300000000001
 30
0.0
 10
45.167700000000004
 20
34.522300000000001
 30
0.0
 10
51.549599999999998
 20
32.814399999999999
 30
0.0
 10
51.549599999999998
 20
32.814399999999999
 30
0.0
 10
51.549599999999998
 20
32.814399999999999
 30
0.0
 10
51.549599999999998
 20
32.814399999999999
 30
0.0
 10
47.953000000000003
 20
38.356200000000001
 30
0.0
 10
47.953000000000003
 20
38.356200000000001
 30
0.0
 10
47.953000000000003
 20
38.356200000000001
 30
0.0
 10
47.953000000000003
 20
38.356200000000001
 30
0.0
 10
38.450099999999999
 20
43.383600000000001
 30
0.0
 10
38.450099999999999
 20
43.383600000000001
 30
0.0
 10
38.450099999999999
 20
43.383600000000001
 30
0.0
 10
38.181899999999999
 20
42.877699999999997
 30
0.0
 10
37.843899999999998
 20
42.414900000000003
 30
0.0
 10
37.448700000000002
 20
42.007599999999996
 30
0.0
  0
ENDSEC
  0
SECTION
  2
OBJECTS
  0
DICTIONARY
  5
19
100
AcDbDictionary
280
     0
281
     1
  3
ACAD_GROUP
350
1A
  3
ACAD_MLINESTYLE
350
1B
  3
ACAD_LAYOUT
350
1E
  3
ACAD_PLOTSETTINGS
350
22
  3
ACAD_PLOTSTYLENAME
350
1F
  3
ACAD_WIPEOUT_VARS
350
23
  0
DICTIONARY
  5
1A
102
{ACAD_REACTORS
330
19
102
}
100
AcDbDictionary
280
     0
281
     1
  0
DICTIONARY
  5
1B
102
{ACAD_REACTORS
330
19
102
}
100
AcDbDictionary
280
     0
281
     1
  3
Standard
350
1C
  0
MLINESTYLE
  5
1C
102
{ACAD_REACTORS
330
1B
102
}
100
AcDbMlineStyle
  2
Standard
 70
     0
  3

 62
     0
 51
90.0
 52
90.0
 71
     2
 49
0.5
 62
   256
  6
BYLAYER
 49
-0.5
 62
   256
  6
BYLAYER
  0
ACDBDICTIONARYWDFLT
  5
1F
102
{ACAD_REACTORS
330
19
102
}
100
AcDbDictionary
281
     1
  3
Normal
350
1D
100
AcDbDictionaryWithDefault
340
1D
  0
ACDBPLACEHOLDER
  5
1D
102
{ACAD_REACTORS
330
1F
102
}
  0
LAYOUT
  5
20
102
{ACAD_REACTORS
330
1E
102
}
100
AcDbPlotSettings
  1

  2

  4

  6

 40
0.0
 41
0.0
 42
0.0
 43
0.0
 44
0.0
 45
0.0
 46
0.0
 47
0.0
 48
0.0
 49
0.0
140
0.0
141
0.0
142
1.0
143
1.0
 70
  1024
 72
     0
 73
     0
 74
     0
  7

 75
     0
147
1.0
148
0.0
149
0.0
100
AcDbLayout
  1
Model
 70
     0
 71
     0
 10
0.0
 20
0.0
 11
0.0
 21
0.0
 12
0.0
 22
0.0
 32
0.0
 14
0.0
 24
0.0
 34
0.0
 15
0.0
 25
0.0
 35
0.0
146
0.0
 13
0.0
 23
0.0
 33
0.0
 16
0.0
 26
0.0
 36
0.0
 17
0.0
 27
0.0
 37
0.0
 76
     0
330
A
331
0
345
0
346
0
  0
LAYOUT
  5
21
102
{ACAD_REACTORS
330
1E
102
}
100
AcDbPlotSettings
  1

  2

  4

  6

 40
0.0
 41
0.0
 42
0.0
 43
0.0
 44
0.0
 45
0.0
 46
0.0
 47
0.0
 48
0.0
 49
0.0
140
0.0
141
0.0
142
1.0
143
1.0
 70
     0
 72
     0
 73
     0
 74
     0
  7

 75
     0
147
1.0
148
0.0
149
0.0
100
AcDbLayout
  1
Layout1
 70
     0
 71
     0
 10
0.0
 20
0.0
 11
0.0
 21
0.0
 12
0.0
 22
0.0
 32
0.0
 14
0.0
 24
0.0
 34
0.0
 15
0.0
 25
0.0
 35
0.0
146
0.0
 13
0.0
 23
0.0
 33
0.0
 16
0.0
 26
0.0
 36
0.0
 17
0.0
 27
0.0
 37
0.0
 76
     0
330
B
331
0
345
0
346
0
  0
DICTIONARY
  5
1E
102
{ACAD_REACTORS
330
19
102
}
100
AcDbDictionary
280
     0
281
     1
  3
Layout1
350
21
  3
Model
350
20
  0
DICTIONARY
  5
22
102
{ACAD_REACTORS
330
19
102
}
100
AcDbDictionary
280
     0
281
     1
  0
WIPEOUTVARIABLES
  5
23
100
AcDbWipeoutVariables
 70
     1
  0
ENDSEC
  0
EOF
