  0
SECTION
  2
HEADER
  9
$ACADVER
  1
AC1015
  9
$ACADMAINTVER
 70
     6
  9
$DWGCODEPAGE
  3
DOS850
  9
$INSBASE
 10
0.0
 20
0.0
 30
0.0
  9
$EXTMIN
 10
-92.9881
 20
33.0863
 30
1.000000E+20
  9
$EXTMAX
 10
47.0881
 20
110.3381
 30
-1.000000E+20
  9
$LIMMIN
 10
0.0
 20
0.0
  9
$LIMMAX
 10
0.0
 20
0.0
  9
$ORTHOMODE
 70
     0
  9
$REGENMODE
 70
     1
  9
$FILLMODE
 70
     1
  9
$QTEXTMODE
 70
     0
  9
$MIRRTEXT
 70
     1
  9
$LTSCALE
 40
1.0
  9
$ATTMODE
 70
     1
  9
$TEXTSIZE
 40
0.2
  9
$TRACEWID
 40
0.05
  9
$TEXTSTYLE
  7
Standard
  9
$CLAYER
  8
0
  9
$CELTYPE
  6
Continuous
  9
$CECOLOR
 62
   256
  9
$CELTSCALE
 40
1.0
  9
$DISPSILH
 70
     0
  9
$DIMSCALE
 40
1.0
  9
$DIMASZ
 40
0.18
  9
$DIMEXO
 40
0.0625
  9
$DIMDLI
 40
0.38
  9
$DIMRND
 40
0.0
  9
$DIMDLE
 40
0.0
  9
$DIMEXE
 40
0.18
  9
$DIMTP
 40
0.0
  9
$DIMTM
 40
0.0
  9
$DIMTXT
 40
0.18
  9
$DIMCEN
 40
0.09
  9
$DIMTSZ
 40
0.0
  9
$DIMTOL
 70
     0
  9
$DIMLIM
 70
     0
  9
$DIMTIH
 70
     1
  9
$DIMTOH
 70
     1
  9
$DIMSE1
 70
     0
  9
$DIMSE2
 70
     0
  9
$DIMTAD
 70
     0
  9
$DIMZIN
 70
     0
  9
$DIMBLK
  1

  9
$DIMASO
 70
     1
  9
$DIMSHO
 70
     1
  9
$DIMPOST
  1

  9
$DIMAPOST
  1

  9
$DIMALT
 70
     0
  9
$DIMALTD
 70
     2
  9
$DIMALTF
 40
25.4
  9
$DIMLFAC
 40
1.0
  9
$DIMTOFL
 70
     0
  9
$DIMTVP
 40
0.0
  9
$DIMTIX
 70
     0
  9
$DIMSOXD
 70
     0
  9
$DIMSAH
 70
     0
  9
$DIMBLK1
  1

  9
$DIMBLK2
  1

  9
$DIMSTYLE
  2
Standard
  9
$DIMCLRD
 70
     0
  9
$DIMCLRE
 70
     0
  9
$DIMCLRT
 70
     0
  9
$DIMTFAC
 40
1.0
  9
$DIMGAP
 40
0.09
  9
$DIMJUST
 70
     0
  9
$DIMSD1
 70
     0
  9
$DIMSD2
 70
     0
  9
$DIMTOLJ
 70
     1
  9
$DIMTZIN
 70
     0
  9
$DIMALTZ
 70
     0
  9
$DIMALTTZ
 70
     0
  9
$DIMUPT
 70
     0
  9
$DIMDEC
 70
     4
  9
$DIMTDEC
 70
     4
  9
$DIMALTU
 70
     2
  9
$DIMALTTD
 70
     2
  9
$DIMTXSTY
  7
Standard
  9
$DIMAUNIT
 70
     0
  9
$DIMADEC
 70
     0
  9
$DIMALTRND
 40
0.0
  9
$DIMAZIN
 70
     0
  9
$DIMDSEP
 70
     0
  9
$DIMATFIT
 70
     3
  9
$DIMFRAC
 70
     0
  9
$DIMLDRBLK
  1

  9
$DIMLUNIT
 70
     2
  9
$DIMLWD
 70
     0
  9
$DIMLWE
 70
     0
  9
$DIMTMOVE
 70
     0
  9
$LUNITS
 70
     2
  9
$LUPREC
 70
     4
  9
$SKETCHINC
 40
0.1
  9
$FILLETRAD
 40
0.0
  9
$AUNITS
 70
     0
  9
$AUPREC
 70
     0
  9
$MENU
  1
acad
  9
$ELEVATION
 40
0.0
  9
$PELEVATION
 40
0.0
  9
$THICKNESS
 40
0.0
  9
$LIMCHECK
 70
     0
  9
$CHAMFERA
 40
0.0
  9
$CHAMFERB
 40
0.0
  9
$CHAMFERC
 40
0.0
  9
$CHAMFERD
 40
0.0
  9
$SKPOLY
 70
     0
  9
$TDCREATE
 40
0.000000000
  9
$TDUCREATE
 40
0.000000000
  9
$TDUPDATE
 40
0.000000000
  9
$TDUUPDATE
 40
0.000000000
  9
$TDINDWG
 40
0.0000000000
  9
$TDUSRTIMER
 40
0.0000000000
  9
$USRTIMER
 70
     1
  9
$ANGBASE
 50
0.0
  9
$ANGDIR
 70
     0
  9
$PDMODE
 70
     0
  9
$PDSIZE
 40
0.0
  9
$PLINEWID
 40
0.0
  9
$SPLFRAME
 70
     0
  9
$SPLINETYPE
 70
     6
  9
$SPLINESEGS
 70
     8
  9
$HANDSEED
  5
5F
  9
$SURFTAB1
 70
     6
  9
$SURFTAB2
 70
     6
  9
$SURFTYPE
 70
     6
  9
$SURFU
 70
     6
  9
$SURFV
 70
     6
  9
$UCSBASE
  2

  9
$UCSNAME
  2

  9
$UCSORG
 10
0.0
 20
0.0
 30
0.0
  9
$UCSXDIR
 10
1.0
 20
0.0
 30
0.0
  9
$UCSYDIR
 10
0.0
 20
1.0
 30
0.0
  9
$UCSORTHOREF
  2

  9
$UCSORTHOVIEW
 70
     0
  9
$UCSORGTOP
 10
0.0
 20
0.0
 30
0.0
  9
$UCSORGBOTTOM
 10
0.0
 20
0.0
 30
0.0
  9
$UCSORGLEFT
 10
0.0
 20
0.0
 30
0.0
  9
$UCSORGRIGHT
 10
0.0
 20
0.0
 30
0.0
  9
$UCSORGFRONT
 10
0.0
 20
0.0
 30
0.0
  9
$UCSORGBACK
 10
0.0
 20
0.0
 30
0.0
  9
$PUCSBASE
  2

  9
$PUCSNAME
  2

  9
$PUCSORG
 10
0.0
 20
0.0
 30
0.0
  9
$PUCSXDIR
 10
1.0
 20
0.0
 30
0.0
  9
$PUCSYDIR
 10
0.0
 20
1.0
 30
0.0
  9
$PUCSORTHOREF
  2

  9
$PUCSORTHOVIEW
 70
     0
  9
$PUCSORGTOP
 10
0.0
 20
0.0
 30
0.0
  9
$PUCSORGBOTTOM
 10
0.0
 20
0.0
 30
0.0
  9
$PUCSORGLEFT
 10
0.0
 20
0.0
 30
0.0
  9
$PUCSORGRIGHT
 10
0.0
 20
0.0
 30
0.0
  9
$PUCSORGFRONT
 10
0.0
 20
0.0
 30
0.0
  9
$PUCSORGBACK
 10
0.0
 20
0.0
 30
0.0
  9
$USERI1
 70
     0
  9
$USERI2
 70
     0
  9
$USERI3
 70
     0
  9
$USERI4
 70
     0
  9
$USERI5
 70
     0
  9
$USERR1
 40
0.0
  9
$USERR2
 40
0.0
  9
$USERR3
 40
0.0
  9
$USERR4
 40
0.0
  9
$USERR5
 40
0.0
  9
$WORLDVIEW
 70
     1
  9
$SHADEDGE
 70
     3
  9
$SHADEDIF
 70
    70
  9
$TILEMODE
 70
     1
  9
$MAXACTVP
 70
    16
  9
$PINSBASE
 10
0.0
 20
0.0
 30
0.0
  9
$PLIMCHECK
 70
     0
  9
$PEXTMIN
 10
1.000000E+20
 20
1.000000E+20
 30
1.000000E+20
  9
$PEXTMAX
 10
-1.000000E+20
 20
-1.000000E+20
 30
-1.000000E+20
  9
$PLIMMIN
 10
0.0
 20
0.0
  9
$PLIMMAX
 10
12.0
 20
9.0
  9
$UNITMODE
 70
     0
  9
$VISRETAIN
 70
     0
  9
$PLINEGEN
 70
     1
  9
$PSLTSCALE
 70
     0
  9
$TREEDEPTH
 70
  3020
  9
$CMLSTYLE
  2
Standard
  9
$CMLJUST
 70
     0
  9
$CMLSCALE
 40
1.0
  9
$PROXYGRAPHICS
 70
     0
  9
$MEASUREMENT
 70
     0
  9
$CELWEIGHT
370
     0
  9
$ENDCAPS
280
     0
  9
$JOINSTYLE
280
     0
  9
$LWDISPLAY
290
     0
  9
$INSUNITS
 70
     4
  9
$HYPERLINKBASE
  1

  9
$XEDIT
290
     1
  9
$CEPSNTYPE
380
     0
  9
$PSTYLEMODE
290
     1
  9
$FINGERPRINTGUID
  2

  9
$VERSIONGUID
  2

  9
$EXTNAMES
290
     1
  9
$PSVPSCALE
 40
0.0
  0
ENDSEC
  0
SECTION
  2
CLASSES
  0
CLASS
  1
LWPOLYLINE
  2
AcDbPolyline
  3
AutoCAD 2000
 90
    32768
280
     0
281
     1
  0
CLASS
  1
IMAGE
  2
AcDbRasterImage
  3
ISM
 90
    32895
280
     0
281
     1
  0
CLASS
  1
OLE2FRAME
  2
AcDbOle2Frame
  3
AutoCAD 2000
 90
    32768
280
     0
281
     1
  0
CLASS
  1
HATCH
  2
AcDbHatch
  3
AutoCAD 2000
 90
    32768
280
     0
281
     1
  0
CLASS
  1
DICTIONARYVAR
  2
AcDbDictionaryVar
  3
AutoCAD 2000
 90
    32768
280
     0
281
     0
  0
CLASS
  1
RASTERVARIABLES
  2
AcDbRasterVariables
  3
ISM
 90
    32768
280
     0
281
     0
  0
CLASS
  1
IMAGEDEF
  2
AcDbRasterImageDef
  3
ISM
 90
    32768
280
     0
281
     0
  0
CLASS
  1
IMAGEDEF_REACTOR
  2
AcDbRasterImageDefReactor
  3
ISM
 90
    32769
280
     0
281
     0
  0
CLASS
  1
IDBUFFER
  2
AcDbIdBuffer
  3
AutoCAD 2000
 90
    32768
280
     0
281
     0
  0
CLASS
  1
SPATIAL_FILTER
  2
AcDbSpatialFilter
  3
AutoCAD 2000
 90
    32768
280
     0
281
     0
  0
CLASS
  1
XRECORD
  2
AcDbXrecord
  3
AutoCAD 2000
 90
    32768
280
     0
281
     0
  0
CLASS
  1
SORTENTSTABLE
  2
AcDbSortentsTable
  3
AutoCAD 2000
 90
    32768
280
     0
281
     0
  0
CLASS
  1
LAYER_INDEX
  2
AcDbLayerIndex
  3
AutoCAD 2000
 90
    32768
280
     0
281
     0
  0
CLASS
  1
SPATIAL_INDEX
  2
AcDbSpatialIndex
  3
AutoCAD 2000
 90
    32768
280
     0
281
     0
  0
CLASS
  1
OBJECT_PTR
  2
CAseDLPNTableRecord
  3
"ASE-LPNTableRecord"
 90
    32769
280
     0
281
     0
  0
CLASS
  1
LAYOUT
  2
AcDbLayout
  3
AutoCAD 2000
 90
        0
280
     0
281
     0
  0
CLASS
  1
PLOTSETTINGS
  2
AcDbPlotSettings
  3
AutoCAD 2000
 90
    32768
280
     0
281
     0
  0
CLASS
  1
ACDBDICTIONARYWDFLT
  2
AcDbDictionaryWithDefault
  3
AutoCAD 2000
 90
        0
280
     0
281
     0
  0
CLASS
  1
ACDBPLACEHOLDER
  2
AcDbPlaceHolder
  3
AutoCAD 2000
 90
        0
280
     0
281
     0
  0
CLASS
  1
VBA_PROJECT
  2
AcDbVbaProject
  3
acadvba
 90
    32768
280
     0
281
     0
  0
CLASS
  1
WIPEOUT
  2
AcDbWipeout
  3
WipeOut|AutoCAD Express Tool|expresstools@autodesk.com
 90
    32895
280
     0
281
     1
  0
CLASS
  1
WIPEOUTVARIABLES
  2
AcDbWipeoutVariables
  3
WipeOut|AutoCAD Express Tool|expresstools@autodesk.com
 90
        0
280
     0
281
     0
  0
CLASS
  1
RTEXT
  2
RText
  3
RText|AutoCAD Express Tool|expresstools@autodesk.com
 90
    32768
280
     0
281
     1
  0
CLASS
  1
ARCALIGNEDTEXT
  2
AcDbArcAlignedText
  3
ATEXT|AutoCAD Express Tool|expresstools@autodesk.com
 90
    32768
280
     0
281
     1
  0
ENDSEC
  0
SECTION
  2
TABLES
  0
TABLE
  2
VPORT
  5
7
100
AcDbSymbolTable
 70
     1
  0
VPORT
  5
15
100
AcDbSymbolTableRecord
100
AcDbViewportTableRecord
  2
*ACTIVE
 70
     0
 10
0.0
 20
0.0
 11
1.0
 21
1.0
 12
6.591288
 22
4.579184
 13
0.0
 23
0.0
 14
1.0
 24
1.0
 15
0.0
 25
0.0
 16
0.0
 26
0.0
 36
1.0
 17
0.0
 27
0.0
 37
0.0
 40
9.158369
 41
0.688564
 42
50.0
 43
0.0
 44
0.0
 50
0.0
 51
0.0
 71
     0
 72
   100
 73
     1
 74
     1
 75
     0
 76
     0
 77
     0
 78
     0
281
     0
 65
     0
110
0.0
120
0.0
130
0.0
111
1.0
121
0.0
131
0.0
112
0.0
122
1.0
132
0.0
345
0
346
0
 79
     0
146
0.0
  0
ENDTAB
  0
TABLE
  2
LTYPE
  5
4
100
AcDbSymbolTable
 70
     3
  0
LTYPE
  5
11
100
AcDbSymbolTableRecord
100
AcDbLinetypeTableRecord
  2
ByBlock
 70
    64
  3

 72
    65
 73
     0
 40
0.0
  0
LTYPE
  5
12
100
AcDbSymbolTableRecord
100
AcDbLinetypeTableRecord
  2
ByLayer
 70
    64
  3

 72
    65
 73
     0
 40
0.0
  0
LTYPE
  5
13
100
AcDbSymbolTableRecord
100
AcDbLinetypeTableRecord
  2
Continuous
 70
    64
  3
Solid line
 72
    65
 73
     0
 40
0.0
  0
ENDTAB
  0
TABLE
  2
LAYER
  5
2
100
AcDbSymbolTable
 70
     2
  0
LAYER
  5
14
100
AcDbSymbolTableRecord
100
AcDbLayerTableRecord
  2
0
 70
     0
 62
     7
  6
Continuous
290
     1
370
    -3
390
1D
  0
LAYER
  5
24
100
AcDbSymbolTableRecord
100
AcDbLayerTableRecord
  2
RÚteg 1
 70
     0
 62
     7
  6
Continuous
290
     1
370
    -3
390
1F
  0
ENDTAB
  0
TABLE
  2
STYLE
  5
3
100
AcDbSymbolTable
 70
     1
  0
STYLE
  5
17
100
AcDbSymbolTableRecord
100
AcDbTextStyleTableRecord
  2
Standard
 70
     0
 40
0.0
 41
1.0
 50
0.0
 71
     0
 42
0.0
  3
txt
  4

  0
ENDTAB
  0
TABLE
  2
VIEW
  5
5
100
AcDbSymbolTable
 70
     0
  0
ENDTAB
  0
TABLE
  2
UCS
  5
6
100
AcDbSymbolTable
 70
     0
  0
ENDTAB
  0
TABLE
  2
APPID
  5
8
100
AcDbSymbolTable
 70
     1
  0
APPID
  5
16
100
AcDbSymbolTableRecord
100
AcDbRegAppTableRecord
  2
ACAD
 70
     0
  0
ENDTAB
  0
TABLE
  2
DIMSTYLE
  5
9
100
AcDbSymbolTable
 70
     1
100
AcDbDimStyleTable
 71
     0
  0
DIMSTYLE
105
18
100
AcDbSymbolTableRecord
100
AcDbDimStyleTableRecord
  2
Standard
 70
     0
  3

  4

 40
1.0
 41
0.18
 42
0.0625
 43
0.38
 44
0.18
 45
0.0
 46
0.0
 47
0.0
 48
0.0
 71
     0
 72
     0
 73
     1
 74
     1
 75
     0
 76
     0
 77
     0
 78
     0
 79
     0
140
0.18
141
0.09
142
0.0
143
25.4
144
1.0
145
0.0
146
1.0
147
0.09
148
0.0
170
     0
171
     2
172
     0
173
     0
174
     0
175
     0
176
     0
177
     0
178
     0
179
     0
271
     4
272
     4
273
     2
274
     2
275
     0
276
     0
277
     2
278
    46
279
     0
280
     0
281
     0
282
     0
283
     1
284
     0
285
     0
286
     0
288
     0
340
17
341
0
342
0
343
0
344
0
371
    -2
372
    -2
  0
ENDTAB
  0
TABLE
  2
BLOCK_RECORD
  5
1
100
AcDbSymbolTable
 70
     0
  0
BLOCK_RECORD
  5
A
100
AcDbSymbolTableRecord
100
AcDbBlockTableRecord
  2
*MODEL_SPACE
340
20
  0
BLOCK_RECORD
  5
B
100
AcDbSymbolTableRecord
100
AcDbBlockTableRecord
  2
*PAPER_SPACE
340
21
  0
ENDTAB
  0
ENDSEC
  0
SECTION
  2
BLOCKS
  0
BLOCK
  5
D
100
AcDbEntity
  8
0
100
AcDbBlockBegin
  2
*MODEL_SPACE
 70
     0
 10
0.0
 20
0.0
 30
0.0
  3
*MODEL_SPACE
  1

  0
ENDBLK
  5
E
100
AcDbEntity
  8
0
100
AcDbBlockEnd
  0
BLOCK
  5
F
100
AcDbEntity
 67
     1
  8
0
100
AcDbBlockBegin
  2
*PAPER_SPACE
 70
     0
 10
0.0
 20
0.0
 30
0.0
  3
*PAPER_SPACE
  1

  0
ENDBLK
  5
10
100
AcDbEntity
 67
     1
  8
0
100
AcDbBlockEnd
  0
ENDSEC
  0
SECTION
  2
ENTITIES
  0
SPLINE
  5
25
100
AcDbEntity
  8
RÚteg 1
 62
     7
100
AcDbSpline
210
0.0
220
0.0
230
1.0
 70
     1
 71
     3
 72
    28
 73
    24
 74
     0
 42
0.0000000001
 43
0.0000000001
 40
0.0
 40
0.0
 40
0.0
 40
0.0
 40
0.1666666666666667
 40
0.1666666666666667
 40
0.1666666666666667
 40
0.1666666666666667
 40
0.3333333333333333
 40
0.3333333333333333
 40
0.3333333333333333
 40
0.3333333333333333
 40
0.5
 40
0.5
 40
0.5
 40
0.5
 40
0.6666666666666666
 40
0.6666666666666666
 40
0.6666666666666666
 40
0.6666666666666666
 40
0.8333333333333333
 40
0.8333333333333333
 40
0.8333333333333333
 40
0.8333333333333333
 40
1.0
 40
1.0
 40
1.0
 40
1.0
 10
13.1249
 20
101.07769999999999
 30
0.0
 10
14.0649
 20
101.07769999999999
 30
0.0
 10
14.9961
 20
101.0381
 30
0.0
 10
15.9171
 20
100.9628
 30
0.0
 10
15.9171
 20
100.9628
 30
0.0
 10
16.9556
 20
101.73569999999999
 30
0.0
 10
17.628799999999998
 20
102.9727
 30
0.0
 10
17.628799999999998
 20
104.36669999999999
 30
0.0
 10
17.628799999999998
 20
104.36669999999999
 30
0.0
 10
17.628799999999998
 20
106.7084
 30
0.0
 10
15.729900000000001
 20
108.6074
 30
0.0
 10
13.388199999999999
 20
108.6074
 30
0.0
 10
13.388199999999999
 20
108.6074
 30
0.0
 10
11.046799999999999
 20
108.6074
 30
0.0
 10
9.1475000000000009
 20
106.7084
 30
0.0
 10
9.1475000000000009
 20
104.36669999999999
 30
0.0
 10
9.1475000000000009
 20
104.36669999999999
 30
0.0
 10
9.1475000000000009
 20
102.9936
 30
0.0
 10
9.8008000000000006
 20
101.773
 30
0.0
 10
10.8134
 20
100.9979
 30
0.0
 10
10.8134
 20
100.9979
 30
0.0
 10
11.577
 20
101.0498
 30
0.0
 10
12.3477
 20
101.07769999999999
 30
0.0
 10
13.1249
 20
101.07769999999999
 30
0.0
  0
SPLINE
  5
26
100
AcDbEntity
  8
RÚteg 1
 62
     7
100
AcDbSpline
210
0.0
220
0.0
230
1.0
 70
     1
 71
     3
 72
    36
 73
    32
 74
     0
 42
0.0000000001
 43
0.0000000001
 40
0.0
 40
0.0
 40
0.0
 40
0.0
 40
0.125
 40
0.125
 40
0.125
 40
0.125
 40
0.25
 40
0.25
 40
0.25
 40
0.25
 40
0.375
 40
0.375
 40
0.375
 40
0.375
 40
0.5
 40
0.5
 40
0.5
 40
0.5
 40
0.625
 40
0.625
 40
0.625
 40
0.625
 40
0.75
 40
0.75
 40
0.75
 40
0.75
 40
0.875
 40
0.875
 40
0.875
 40
0.875
 40
1.0
 40
1.0
 40
1.0
 40
1.0
 10
18.066199999999998
 20
100.7184
 30
0.0
 10
34.457599999999999
 20
98.3249
 30
0.0
 10
47.049999999999997
 20
84.207499999999996
 30
0.0
 10
47.049999999999997
 20
67.152900000000002
 30
0.0
 10
47.049999999999997
 20
67.152900000000002
 30
0.0
 10
47.049999999999997
 20
48.419800000000002
 30
0.0
 10
31.8581
 20
33.227699999999999
 30
0.0
 10
13.1249
 20
33.227699999999999
 30
0.0
 10
13.1249
 20
33.227699999999999
 30
0.0
 10
-5.6081000000000003
 20
33.227699999999999
 30
0.0
 10
-20.800000000000001
 20
48.419800000000002
 30
0.0
 10
-20.800000000000001
 20
67.152900000000002
 30
0.0
 10
-20.800000000000001
 20
67.152900000000002
 30
0.0
 10
-20.800000000000001
 20
84.371799999999993
 30
0.0
 10
-7.9640000000000004
 20
98.597700000000003
 30
0.0
 10
8.6588999999999992
 20
100.785
 30
0.0
 10
8.6588999999999992
 20
100.785
 30
0.0
 10
7.9038000000000004
 20
101.78060000000001
 30
0.0
 10
7.4550999999999998
 20
103.02119999999999
 30
0.0
 10
7.4550999999999998
 20
104.36669999999999
 30
0.0
 10
7.4550999999999998
 20
104.36669999999999
 30
0.0
 10
7.4550999999999998
 20
107.6431
 30
0.0
 10
10.1121
 20
110.3
 30
0.0
 10
13.388199999999999
 20
110.3
 30
0.0
 10
13.388199999999999
 20
110.3
 30
0.0
 10
16.6646
 20
110.3
 30
0.0
 10
19.3215
 20
107.6431
 30
0.0
 10
19.3215
 20
104.36669999999999
 30
0.0
 10
19.3215
 20
104.36669999999999
 30
0.0
 10
19.3215
 20
102.99079999999999
 30
0.0
 10
18.852699999999999
 20
101.72499999999999
 30
0.0
 10
18.066199999999998
 20
100.7184
 30
0.0
  0
SPLINE
  5
27
100
AcDbEntity
  8
RÚteg 1
 62
     7
100
AcDbSpline
210
0.0
220
0.0
230
1.0
 70
     1
 71
     3
 72
    92
 73
    88
 74
     0
 42
0.0000000001
 43
0.0000000001
 40
0.0
 40
0.0
 40
0.0
 40
0.0
 40
0.0454545454545455
 40
0.0454545454545455
 40
0.0454545454545455
 40
0.0454545454545455
 40
0.0909090909090909
 40
0.0909090909090909
 40
0.0909090909090909
 40
0.0909090909090909
 40
0.1363636363636364
 40
0.1363636363636364
 40
0.1363636363636364
 40
0.1363636363636364
 40
0.1818181818181818
 40
0.1818181818181818
 40
0.1818181818181818
 40
0.1818181818181818
 40
0.2272727272727273
 40
0.2272727272727273
 40
0.2272727272727273
 40
0.2272727272727273
 40
0.2727272727272728
 40
0.2727272727272728
 40
0.2727272727272728
 40
0.2727272727272728
 40
0.3181818181818182
 40
0.3181818181818182
 40
0.3181818181818182
 40
0.3181818181818182
 40
0.3636363636363637
 40
0.3636363636363637
 40
0.3636363636363637
 40
0.3636363636363637
 40
0.4090909090909092
 40
0.4090909090909092
 40
0.4090909090909092
 40
0.4090909090909092
 40
0.4545454545454546
 40
0.4545454545454546
 40
0.4545454545454546
 40
0.4545454545454546
 40
0.5000000000000001
 40
0.5000000000000001
 40
0.5000000000000001
 40
0.5000000000000001
 40
0.5454545454545455
 40
0.5454545454545455
 40
0.5454545454545455
 40
0.5454545454545455
 40
0.5909090909090909
 40
0.5909090909090909
 40
0.5909090909090909
 40
0.5909090909090909
 40
0.6363636363636364
 40
0.6363636363636364
 40
0.6363636363636364
 40
0.6363636363636364
 40
0.6818181818181818
 40
0.6818181818181818
 40
0.6818181818181818
 40
0.6818181818181818
 40
0.7272727272727272
 40
0.7272727272727272
 40
0.7272727272727272
 40
0.7272727272727272
 40
0.7727272727272726
 40
0.7727272727272726
 40
0.7727272727272726
 40
0.7727272727272726
 40
0.818181818181818
 40
0.818181818181818
 40
0.818181818181818
 40
0.818181818181818
 40
0.8636363636363634
 40
0.8636363636363634
 40
0.8636363636363634
 40
0.8636363636363634
 40
0.9090909090909088
 40
0.9090909090909088
 40
0.9090909090909088
 40
0.9090909090909088
 40
0.9545454545454543
 40
0.9545454545454543
 40
0.9545454545454543
 40
0.9545454545454543
 40
1.0
 40
1.0
 40
1.0
 40
1.0
 10
4.5724
 20
91.614599999999996
 30
0.0
 10
4.5724
 20
90.902500000000003
 30
0.0
 10
5.1013000000000002
 20
90.059899999999999
 30
0.0
 10
5.7751999999999999
 20
89.376900000000006
 30
0.0
 10
5.7751999999999999
 20
89.376900000000006
 30
0.0
 10
5.7751999999999999
 20
89.376900000000006
 30
0.0
 10
5.7751999999999999
 20
89.376900000000006
 30
0.0
 10
5.7751999999999999
 20
89.376900000000006
 30
0.0
 10
5.7751999999999999
 20
89.376900000000006
 30
0.0
 10
5.7751999999999999
 20
89.376900000000006
 30
0.0
 10
7.3437999999999999
 20
87.501000000000005
 30
0.0
 10
7.3437999999999999
 20
87.501000000000005
 30
0.0
 10
7.3437999999999999
 20
87.501000000000005
 30
0.0
 10
5.9733999999999998
 20
87.696100000000001
 30
0.0
 10
4.3136000000000001
 20
88.212999999999994
 30
0.0
 10
3.2364000000000002
 20
88.212999999999994
 30
0.0
 10
3.2364000000000002
 20
88.212999999999994
 30
0.0
 10
3.2364000000000002
 20
88.212999999999994
 30
0.0
 10
2.8717999999999999
 20
88.212999999999994
 30
0.0
 10
2.8717999999999999
 20
88.212999999999994
 30
0.0
 10
2.8717999999999999
 20
88.212999999999994
 30
0.0
 10
1.8386
 20
88.212999999999994
 30
0.0
 10
1.5355000000000001
 20
86.731300000000005
 30
0.0
 10
1.5355000000000001
 20
85.662000000000006
 30
0.0
 10
1.5355000000000001
 20
85.662000000000006
 30
0.0
 10
1.5355000000000001
 20
83.928899999999999
 30
0.0
 10
6.1863000000000001
 20
83.864800000000002
 30
0.0
 10
7.6092000000000004
 20
83.1113
 30
0.0
 10
7.6092000000000004
 20
83.1113
 30
0.0
 10
7.6092000000000004
 20
82.0749
 30
0.0
 10
8.5767000000000007
 20
77.956699999999998
 30
0.0
 10
8.8995999999999995
 20
76.991299999999995
 30
0.0
 10
8.8995999999999995
 20
76.991299999999995
 30
0.0
 10
9.4039000000000001
 20
75.484499999999997
 30
0.0
 10
10.3931
 20
72.9071
 30
0.0
 10
12.2257
 20
72.9071
 30
0.0
 10
12.2257
 20
72.9071
 30
0.0
 10
12.8362
 20
72.9071
 30
0.0
 10
13.0756
 20
73.928399999999996
 30
0.0
 10
13.0756
 20
74.6083
 30
0.0
 10
13.0756
 20
74.6083
 30
0.0
 10
13.0756
 20
74.6083
 30
0.0
 10
13.0756
 20
75.944299999999998
 30
0.0
 10
13.0756
 20
75.944299999999998
 30
0.0
 10
13.0756
 20
75.944299999999998
 30
0.0
 10
13.0756
 20
78.937600000000003
 30
0.0
 10
11.3751
 20
81.953599999999994
 30
0.0
 10
11.3751
 20
83.840100000000007
 30
0.0
 10
11.3751
 20
83.840100000000007
 30
0.0
 10
11.3751
 20
84.183099999999996
 30
0.0
 10
15.505100000000001
 20
87.721699999999998
 30
0.0
 10
15.505100000000001
 20
88.820599999999999
 30
0.0
 10
15.505100000000001
 20
88.820599999999999
 30
0.0
 10
15.505100000000001
 20
88.820599999999999
 30
0.0
 10
15.505100000000001
 20
89.063299999999998
 30
0.0
 10
15.505100000000001
 20
89.063299999999998
 30
0.0
 10
15.505100000000001
 20
89.063299999999998
 30
0.0
 10
15.505100000000001
 20
89.846500000000006
 30
0.0
 10
14.136200000000001
 20
91.007400000000004
 30
0.0
 10
13.3188
 20
91.007400000000004
 30
0.0
 10
13.3188
 20
91.007400000000004
 30
0.0
 10
12.164099999999999
 20
91.007400000000004
 30
0.0
 10
10.6998
 20
88.992500000000007
 30
0.0
 10
9.7042000000000002
 20
88.021000000000001
 30
0.0
 10
9.7042000000000002
 20
88.021000000000001
 30
0.0
 10
9.7042000000000002
 20
88.021000000000001
 30
0.0
 10
10.068
 20
90.514799999999994
 30
0.0
 10
10.068
 20
90.514799999999994
 30
0.0
 10
10.068
 20
90.514799999999994
 30
0.0
 10
10.068
 20
90.514799999999994
 30
0.0
 10
10.068
 20
90.514799999999994
 30
0.0
 10
10.068
 20
90.514799999999994
 30
0.0
 10
10.068
 20
90.514799999999994
 30
0.0
 10
10.1272
 20
90.733800000000002
 30
0.0
 10
10.160299999999999
 20
90.942700000000002
 30
0.0
 10
10.160299999999999
 20
91.128900000000002
 30
0.0
 10
10.160299999999999
 20
91.128900000000002
 30
0.0
 10
10.160299999999999
 20
92.9392
 30
0.0
 10
7.7819000000000003
 20
95.501400000000004
 30
0.0
 10
6.5164
 20
95.501400000000004
 30
0.0
 10
6.5164
 20
95.501400000000004
 30
0.0
 10
6.5164
 20
95.501400000000004
 30
0.0
 10
6.3948
 20
95.501400000000004
 30
0.0
 10
6.3948
 20
95.501400000000004
 30
0.0
 10
6.3948
 20
95.501400000000004
 30
0.0
 10
5.6534000000000004
 20
95.501400000000004
 30
0.0
 10
4.5724
 20
92.506200000000007
 30
0.0
 10
4.5724
 20
91.614599999999996
 30
0.0
  0
SPLINE
  5
28
100
AcDbEntity
  8
RÚteg 1
 62
     7
100
AcDbSpline
210
0.0
220
0.0
230
1.0
 70
     1
 71
     3
 72
    92
 73
    88
 74
     0
 42
0.0000000001
 43
0.0000000001
 40
0.0
 40
0.0
 40
0.0
 40
0.0
 40
0.0454545454545455
 40
0.0454545454545455
 40
0.0454545454545455
 40
0.0454545454545455
 40
0.0909090909090909
 40
0.0909090909090909
 40
0.0909090909090909
 40
0.0909090909090909
 40
0.1363636363636364
 40
0.1363636363636364
 40
0.1363636363636364
 40
0.1363636363636364
 40
0.1818181818181818
 40
0.1818181818181818
 40
0.1818181818181818
 40
0.1818181818181818
 40
0.2272727272727273
 40
0.2272727272727273
 40
0.2272727272727273
 40
0.2272727272727273
 40
0.2727272727272728
 40
0.2727272727272728
 40
0.2727272727272728
 40
0.2727272727272728
 40
0.3181818181818182
 40
0.3181818181818182
 40
0.3181818181818182
 40
0.3181818181818182
 40
0.3636363636363637
 40
0.3636363636363637
 40
0.3636363636363637
 40
0.3636363636363637
 40
0.4090909090909092
 40
0.4090909090909092
 40
0.4090909090909092
 40
0.4090909090909092
 40
0.4545454545454546
 40
0.4545454545454546
 40
0.4545454545454546
 40
0.4545454545454546
 40
0.5000000000000001
 40
0.5000000000000001
 40
0.5000000000000001
 40
0.5000000000000001
 40
0.5454545454545455
 40
0.5454545454545455
 40
0.5454545454545455
 40
0.5454545454545455
 40
0.5909090909090909
 40
0.5909090909090909
 40
0.5909090909090909
 40
0.5909090909090909
 40
0.6363636363636364
 40
0.6363636363636364
 40
0.6363636363636364
 40
0.6363636363636364
 40
0.6818181818181818
 40
0.6818181818181818
 40
0.6818181818181818
 40
0.6818181818181818
 40
0.7272727272727272
 40
0.7272727272727272
 40
0.7272727272727272
 40
0.7272727272727272
 40
0.7727272727272726
 40
0.7727272727272726
 40
0.7727272727272726
 40
0.7727272727272726
 40
0.818181818181818
 40
0.818181818181818
 40
0.818181818181818
 40
0.818181818181818
 40
0.8636363636363634
 40
0.8636363636363634
 40
0.8636363636363634
 40
0.8636363636363634
 40
0.9090909090909088
 40
0.9090909090909088
 40
0.9090909090909088
 40
0.9090909090909088
 40
0.9545454545454543
 40
0.9545454545454543
 40
0.9545454545454543
 40
0.9545454545454543
 40
1.0
 40
1.0
 40
1.0
 40
1.0
 10
-9.2104999999999997
 20
71.856200000000001
 30
0.0
 10
-9.2104999999999997
 20
71.856200000000001
 30
0.0
 10
-7.0488
 20
72.021000000000001
 30
0.0
 10
-7.0488
 20
72.021000000000001
 30
0.0
 10
-7.0488
 20
72.021000000000001
 30
0.0
 10
-8.4018999999999995
 20
70.976299999999995
 30
0.0
 10
-10.4903
 20
69.047799999999995
 30
0.0
 10
-10.4903
 20
68.170199999999994
 30
0.0
 10
-10.4903
 20
68.170199999999994
 30
0.0
 10
-10.4903
 20
67.434600000000003
 30
0.0
 10
-9.3010999999999999
 20
66.469399999999993
 30
0.0
 10
-8.5465999999999998
 20
66.469399999999993
 30
0.0
 10
-8.5465999999999998
 20
66.469399999999993
 30
0.0
 10
-6.5308000000000002
 20
66.469399999999993
 30
0.0
 10
-4.5686999999999998
 20
69.384799999999998
 30
0.0
 10
-2.8376000000000001
 20
69.384799999999998
 30
0.0
 10
-2.8376000000000001
 20
69.384799999999998
 30
0.0
 10
-2.8376000000000001
 20
69.384799999999998
 30
0.0
 10
-2.3517000000000001
 20
69.384799999999998
 30
0.0
 10
-2.3517000000000001
 20
69.384799999999998
 30
0.0
 10
-2.3517000000000001
 20
69.384799999999998
 30
0.0
 10
-0.3796
 20
69.384799999999998
 30
0.0
 10
2.319
 20
67.9268
 30
0.0
 10
4.9368999999999996
 20
67.9268
 30
0.0
 10
4.9368999999999996
 20
67.9268
 30
0.0
 10
4.9368999999999996
 20
67.9268
 30
0.0
 10
6.0304000000000002
 20
67.9268
 30
0.0
 10
6.0304000000000002
 20
67.9268
 30
0.0
 10
6.0304000000000002
 20
67.9268
 30
0.0
 10
6.8124000000000002
 20
67.9268
 30
0.0
 10
7.7309999999999999
 20
68.339100000000002
 30
0.0
 10
7.7309999999999999
 20
69.142099999999999
 30
0.0
 10
7.7309999999999999
 20
69.142099999999999
 30
0.0
 10
7.7309999999999999
 20
69.142099999999999
 30
0.0
 10
7.7309999999999999
 20
69.263300000000001
 30
0.0
 10
7.7309999999999999
 20
69.263300000000001
 30
0.0
 10
7.7309999999999999
 20
69.263300000000001
 30
0.0
 10
7.7309999999999999
 20
71.311999999999998
 30
0.0
 10
0.3328
 20
73.321799999999996
 30
0.0
 10
-1.9871000000000001
 20
73.514799999999994
 30
0.0
 10
-1.9871000000000001
 20
73.514799999999994
 30
0.0
 10
-2.0369999999999999
 20
74.115600000000001
 30
0.0
 10
-2.8593000000000002
 20
76.433999999999997
 30
0.0
 10
-3.0962999999999998
 20
77.143900000000002
 30
0.0
 10
-3.0962999999999998
 20
77.143900000000002
 30
0.0
 10
-3.4051999999999998
 20
78.072100000000006
 30
0.0
 10
-3.8752
 20
80.074700000000007
 30
0.0
 10
-5.0237999999999996
 20
80.074700000000007
 30
0.0
 10
-5.0237999999999996
 20
80.074700000000007
 30
0.0
 10
-5.0237999999999996
 20
80.074700000000007
 30
0.0
 10
-5.3883000000000001
 20
80.074700000000007
 30
0.0
 10
-5.3883000000000001
 20
80.074700000000007
 30
0.0
 10
-5.3883000000000001
 20
80.074700000000007
 30
0.0
 10
-6.2230999999999996
 20
80.074700000000007
 30
0.0
 10
-7.4535
 20
79.454099999999997
 30
0.0
 10
-7.4535
 20
78.738100000000003
 30
0.0
 10
-7.4535
 20
78.738100000000003
 30
0.0
 10
-7.4535
 20
77.098500000000001
 30
0.0
 10
-6.6994999999999996
 20
75.443700000000007
 30
0.0
 10
-6.3239000000000001
 20
73.976399999999998
 30
0.0
 10
-6.3239000000000001
 20
73.976399999999998
 30
0.0
 10
-6.3239000000000001
 20
73.976399999999998
 30
0.0
 10
-8.1249000000000002
 20
75.460899999999995
 30
0.0
 10
-8.1249000000000002
 20
75.460899999999995
 30
0.0
 10
-8.1249000000000002
 20
75.460899999999995
 30
0.0
 10
-8.9646000000000008
 20
76.342100000000002
 30
0.0
 10
-9.9446999999999992
 20
77.159199999999998
 30
0.0
 10
-10.4903
 20
77.159199999999998
 30
0.0
 10
-10.4903
 20
77.159199999999998
 30
0.0
 10
-11.740399999999999
 20
77.159199999999998
 30
0.0
 10
-13.8316
 20
75.850800000000007
 30
0.0
 10
-15.106199999999999
 20
75.822699999999998
 30
0.0
 10
-15.106199999999999
 20
75.822699999999998
 30
0.0
 10
-14.876799999999999
 20
74.963399999999993
 30
0.0
 10
-12.4488
 20
71.570899999999995
 30
0.0
 10
-11.2189
 20
71.570899999999995
 30
0.0
 10
-11.2189
 20
71.570899999999995
 30
0.0
 10
-11.2189
 20
71.570899999999995
 30
0.0
 10
-10.6119
 20
71.570899999999995
 30
0.0
 10
-10.6119
 20
71.570899999999995
 30
0.0
 10
-10.6119
 20
71.570899999999995
 30
0.0
 10
-10.315799999999999
 20
71.570899999999995
 30
0.0
 10
-9.7879000000000005
 20
71.683099999999996
 30
0.0
 10
-9.2104999999999997
 20
71.856200000000001
 30
0.0
 10
-9.2104999999999997
 20
71.856200000000001
 30
0.0
 10
-9.2104999999999997
 20
71.856200000000001
 30
0.0
 10
-9.2104999999999997
 20
71.856200000000001
 30
0.0
 10
-9.2104999999999997
 20
71.856200000000001
 30
0.0
  0
SPLINE
  5
29
100
AcDbEntity
  8
RÚteg 1
 62
     7
100
AcDbSpline
210
0.0
220
0.0
230
1.0
 70
     1
 71
     3
 72
    96
 73
    92
 74
     0
 42
0.0000000001
 43
0.0000000001
 40
0.0
 40
0.0
 40
0.0
 40
0.0
 40
0.0434782608695652
 40
0.0434782608695652
 40
0.0434782608695652
 40
0.0434782608695652
 40
0.0869565217391304
 40
0.0869565217391304
 40
0.0869565217391304
 40
0.0869565217391304
 40
0.1304347826086957
 40
0.1304347826086957
 40
0.1304347826086957
 40
0.1304347826086957
 40
0.1739130434782609
 40
0.1739130434782609
 40
0.1739130434782609
 40
0.1739130434782609
 40
0.2173913043478261
 40
0.2173913043478261
 40
0.2173913043478261
 40
0.2173913043478261
 40
0.2608695652173913
 40
0.2608695652173913
 40
0.2608695652173913
 40
0.2608695652173913
 40
0.3043478260869565
 40
0.3043478260869565
 40
0.3043478260869565
 40
0.3043478260869565
 40
0.3478260869565217
 40
0.3478260869565217
 40
0.3478260869565217
 40
0.3478260869565217
 40
0.3913043478260869
 40
0.3913043478260869
 40
0.3913043478260869
 40
0.3913043478260869
 40
0.4347826086956521
 40
0.4347826086956521
 40
0.4347826086956521
 40
0.4347826086956521
 40
0.4782608695652173
 40
0.4782608695652173
 40
0.4782608695652173
 40
0.4782608695652173
 40
0.5217391304347825
 40
0.5217391304347825
 40
0.5217391304347825
 40
0.5217391304347825
 40
0.5652173913043477
 40
0.5652173913043477
 40
0.5652173913043477
 40
0.5652173913043477
 40
0.6086956521739129
 40
0.6086956521739129
 40
0.6086956521739129
 40
0.6086956521739129
 40
0.6521739130434781
 40
0.6521739130434781
 40
0.6521739130434781
 40
0.6521739130434781
 40
0.6956521739130432
 40
0.6956521739130432
 40
0.6956521739130432
 40
0.6956521739130432
 40
0.7391304347826084
 40
0.7391304347826084
 40
0.7391304347826084
 40
0.7391304347826084
 40
0.7826086956521736
 40
0.7826086956521736
 40
0.7826086956521736
 40
0.7826086956521736
 40
0.8260869565217388
 40
0.8260869565217388
 40
0.8260869565217388
 40
0.8260869565217388
 40
0.869565217391304
 40
0.869565217391304
 40
0.869565217391304
 40
0.869565217391304
 40
0.9130434782608692
 40
0.9130434782608692
 40
0.9130434782608692
 40
0.9130434782608692
 40
0.9565217391304344
 40
0.9565217391304344
 40
0.9565217391304344
 40
0.9565217391304344
 40
1.0
 40
1.0
 40
1.0
 40
1.0
 10
-1.8281000000000001
 20
49.742800000000003
 30
0.0
 10
-1.8281000000000001
 20
49.742800000000003
 30
0.0
 10
-1.0129999999999999
 20
51.612000000000002
 30
0.0
 10
-1.0129999999999999
 20
51.612000000000002
 30
0.0
 10
-1.0129999999999999
 20
51.612000000000002
 30
0.0
 10
-0.9265
 20
51.258899999999997
 30
0.0
 10
-0.8451
 20
50.846800000000002
 30
0.0
 10
-0.7239
 20
50.3613
 30
0.0
 10
-0.7239
 20
50.3613
 30
0.0
 10
-0.4308
 20
49.189700000000002
 30
0.0
 10
-0.1214
 20
47.0334
 30
0.0
 10
1.1711
 20
47.0334
 30
0.0
 10
1.1711
 20
47.0334
 30
0.0
 10
2.2846000000000002
 20
47.0334
 30
0.0
 10
3.7225000000000001
 20
47.4681
 30
0.0
 10
3.7225000000000001
 20
48.6126
 30
0.0
 10
3.7225000000000001
 20
48.6126
 30
0.0
 10
3.7225000000000001
 20
50.277200000000001
 30
0.0
 10
2.5072999999999999
 20
52.730499999999999
 30
0.0
 10
2.5072999999999999
 20
54.079099999999997
 30
0.0
 10
2.5072999999999999
 20
54.079099999999997
 30
0.0
 10
2.5072999999999999
 20
54.432899999999997
 30
0.0
 10
9.4314999999999998
 20
59.686700000000002
 30
0.0
 10
9.4314999999999998
 20
62.217399999999998
 30
0.0
 10
9.4314999999999998
 20
62.217399999999998
 30
0.0
 10
9.4314999999999998
 20
62.217399999999998
 30
0.0
 10
9.4314999999999998
 20
62.4604
 30
0.0
 10
9.4314999999999998
 20
62.4604
 30
0.0
 10
9.4314999999999998
 20
62.4604
 30
0.0
 10
9.4314999999999998
 20
62.957000000000001
 30
0.0
 10
8.6240000000000006
 20
63.189399999999999
 30
0.0
 10
8.0952000000000002
 20
63.189399999999999
 30
0.0
 10
8.0952000000000002
 20
63.189399999999999
 30
0.0
 10
4.8928000000000003
 20
63.189399999999999
 30
0.0
 10
1.0605
 20
57.479999999999997
 30
0.0
 10
-0.5295
 20
57.479999999999997
 30
0.0
 10
-0.5295
 20
57.479999999999997
 30
0.0
 10
-0.5295
 20
57.479999999999997
 30
0.0
 10
-1.5011000000000001
 20
57.479999999999997
 30
0.0
 10
-1.5011000000000001
 20
57.479999999999997
 30
0.0
 10
-1.5011000000000001
 20
57.479999999999997
 30
0.0
 10
-2.8046000000000002
 20
57.479999999999997
 30
0.0
 10
-4.1616999999999997
 20
58.209299999999999
 30
0.0
 10
-5.6311
 20
58.209299999999999
 30
0.0
 10
-5.6311
 20
58.209299999999999
 30
0.0
 10
-5.6311
 20
58.209299999999999
 30
0.0
 10
-5.7529000000000003
 20
58.209299999999999
 30
0.0
 10
-5.7529000000000003
 20
58.209299999999999
 30
0.0
 10
-5.7529000000000003
 20
58.209299999999999
 30
0.0
 10
-7.1749999999999998
 20
58.209299999999999
 30
0.0
 10
-7.7115
 20
55.601300000000002
 30
0.0
 10
-6.9458000000000002
 20
54.830199999999998
 30
0.0
 10
-6.9458000000000002
 20
54.830199999999998
 30
0.0
 10
-6.2950999999999997
 20
54.175800000000002
 30
0.0
 10
-4.0587
 20
53.846200000000003
 30
0.0
 10
-2.9091
 20
53.5214
 30
0.0
 10
-2.9091
 20
53.5214
 30
0.0
 10
-2.6966000000000001
 20
53.461199999999998
 30
0.0
 10
-2.5106000000000002
 20
53.397500000000001
 30
0.0
 10
-2.3464
 20
53.329700000000003
 30
0.0
 10
-2.3464
 20
53.329700000000003
 30
0.0
 10
-2.3464
 20
53.329700000000003
 30
0.0
 10
-5.2164999999999999
 20
52.522300000000001
 30
0.0
 10
-5.2164999999999999
 20
52.522300000000001
 30
0.0
 10
-5.2164999999999999
 20
52.522300000000001
 30
0.0
 10
-5.742
 20
52.375599999999999
 30
0.0
 10
-6.2214999999999998
 20
52.204700000000003
 30
0.0
 10
-6.5254000000000003
 20
52.057600000000001
 30
0.0
 10
-6.5254000000000003
 20
52.057600000000001
 30
0.0
 10
-7.5590000000000002
 20
51.556800000000003
 30
0.0
 10
-7.6961000000000004
 20
50.557699999999997
 30
0.0
 10
-7.6961000000000004
 20
49.098399999999998
 30
0.0
 10
-7.6961000000000004
 20
49.098399999999998
 30
0.0
 10
-7.6961000000000004
 20
49.098399999999998
 30
0.0
 10
-7.6961000000000004
 20
47.154699999999998
 30
0.0
 10
-7.6961000000000004
 20
47.154699999999998
 30
0.0
 10
-7.6961000000000004
 20
47.154699999999998
 30
0.0
 10
-7.6961000000000004
 20
46.874899999999997
 30
0.0
 10
-7.6119000000000003
 20
46.790700000000001
 30
0.0
 10
-7.3316999999999997
 20
46.790700000000001
 30
0.0
 10
-7.3316999999999997
 20
46.790700000000001
 30
0.0
 10
-7.3316999999999997
 20
46.790700000000001
 30
0.0
 10
-6.9676999999999998
 20
46.790700000000001
 30
0.0
 10
-6.9676999999999998
 20
46.790700000000001
 30
0.0
 10
-6.9676999999999998
 20
46.790700000000001
 30
0.0
 10
-4.0580999999999996
 20
46.790700000000001
 30
0.0
 10
-2.3807
 20
47.5548
 30
0.0
 10
-1.8281000000000001
 20
49.743000000000002
 30
0.0
 10
-1.8281000000000001
 20
49.743000000000002
 30
0.0
 10
-1.8281000000000001
 20
49.743000000000002
 30
0.0
 10
-1.8281000000000001
 20
49.742800000000003
 30
0.0
 10
-1.8281000000000001
 20
49.742800000000003
 30
0.0
  0
SPLINE
  5
2A
100
AcDbEntity
  8
RÚteg 1
 62
     7
100
AcDbSpline
210
0.0
220
0.0
230
1.0
 70
     1
 71
     3
 72
    96
 73
    92
 74
     0
 42
0.0000000001
 43
0.0000000001
 40
0.0
 40
0.0
 40
0.0
 40
0.0
 40
0.0434782608695652
 40
0.0434782608695652
 40
0.0434782608695652
 40
0.0434782608695652
 40
0.0869565217391304
 40
0.0869565217391304
 40
0.0869565217391304
 40
0.0869565217391304
 40
0.1304347826086957
 40
0.1304347826086957
 40
0.1304347826086957
 40
0.1304347826086957
 40
0.1739130434782609
 40
0.1739130434782609
 40
0.1739130434782609
 40
0.1739130434782609
 40
0.2173913043478261
 40
0.2173913043478261
 40
0.2173913043478261
 40
0.2173913043478261
 40
0.2608695652173913
 40
0.2608695652173913
 40
0.2608695652173913
 40
0.2608695652173913
 40
0.3043478260869565
 40
0.3043478260869565
 40
0.3043478260869565
 40
0.3043478260869565
 40
0.3478260869565217
 40
0.3478260869565217
 40
0.3478260869565217
 40
0.3478260869565217
 40
0.3913043478260869
 40
0.3913043478260869
 40
0.3913043478260869
 40
0.3913043478260869
 40
0.4347826086956521
 40
0.4347826086956521
 40
0.4347826086956521
 40
0.4347826086956521
 40
0.4782608695652173
 40
0.4782608695652173
 40
0.4782608695652173
 40
0.4782608695652173
 40
0.5217391304347825
 40
0.5217391304347825
 40
0.5217391304347825
 40
0.5217391304347825
 40
0.5652173913043477
 40
0.5652173913043477
 40
0.5652173913043477
 40
0.5652173913043477
 40
0.6086956521739129
 40
0.6086956521739129
 40
0.6086956521739129
 40
0.6086956521739129
 40
0.6521739130434781
 40
0.6521739130434781
 40
0.6521739130434781
 40
0.6521739130434781
 40
0.6956521739130432
 40
0.6956521739130432
 40
0.6956521739130432
 40
0.6956521739130432
 40
0.7391304347826084
 40
0.7391304347826084
 40
0.7391304347826084
 40
0.7391304347826084
 40
0.7826086956521736
 40
0.7826086956521736
 40
0.7826086956521736
 40
0.7826086956521736
 40
0.8260869565217388
 40
0.8260869565217388
 40
0.8260869565217388
 40
0.8260869565217388
 40
0.869565217391304
 40
0.869565217391304
 40
0.869565217391304
 40
0.869565217391304
 40
0.9130434782608692
 40
0.9130434782608692
 40
0.9130434782608692
 40
0.9130434782608692
 40
0.9565217391304344
 40
0.9565217391304344
 40
0.9565217391304344
 40
0.9565217391304344
 40
1.0
 40
1.0
 40
1.0
 40
1.0
 10
16.648
 20
43.967599999999997
 30
0.0
 10
16.648
 20
43.967599999999997
 30
0.0
 10
17.131900000000002
 20
46.467300000000002
 30
0.0
 10
17.131900000000002
 20
46.467300000000002
 30
0.0
 10
17.131900000000002
 20
46.467300000000002
 30
0.0
 10
15.8315
 20
45.381300000000003
 30
0.0
 10
14.218500000000001
 20
43.389099999999999
 30
0.0
 10
13.0756
 20
43.389099999999999
 30
0.0
 10
13.0756
 20
43.389099999999999
 30
0.0
 10
12.2629
 20
43.389099999999999
 30
0.0
 10
11.3751
 20
44.762
 30
0.0
 10
11.3751
 20
45.454000000000001
 30
0.0
 10
11.3751
 20
45.454000000000001
 30
0.0
 10
11.3751
 20
47.190100000000001
 30
0.0
 10
15.3842
 20
49.938899999999997
 30
0.0
 10
15.3842
 20
50.4345
 30
0.0
 10
15.3842
 20
50.4345
 30
0.0
 10
15.3842
 20
51.036299999999997
 30
0.0
 10
14.7874
 20
53.177500000000002
 30
0.0
 10
14.6065
 20
53.908900000000003
 30
0.0
 10
14.6065
 20
53.908900000000003
 30
0.0
 10
14.442299999999999
 20
54.571800000000003
 30
0.0
 10
14.3025
 20
54.9679
 30
0.0
 10
14.095000000000001
 20
55.5837
 30
0.0
 10
14.095000000000001
 20
55.5837
 30
0.0
 10
13.9056
 20
56.1462
 30
0.0
 10
13.3188
 20
56.842500000000001
 30
0.0
 10
13.3188
 20
56.994300000000003
 30
0.0
 10
13.3188
 20
56.994300000000003
 30
0.0
 10
13.3188
 20
56.994300000000003
 30
0.0
 10
13.3188
 20
58.088000000000001
 30
0.0
 10
13.3188
 20
58.088000000000001
 30
0.0
 10
13.3188
 20
58.088000000000001
 30
0.0
 10
13.3188
 20
59.1267
 30
0.0
 10
13.992800000000001
 20
61.731699999999996
 30
0.0
 10
14.776199999999999
 20
61.731699999999996
 30
0.0
 10
14.776199999999999
 20
61.731699999999996
 30
0.0
 10
16.7743
 20
61.731699999999996
 30
0.0
 10
18.3613
 20
55.927399999999999
 30
0.0
 10
18.7758
 20
53.826300000000003
 30
0.0
 10
18.7758
 20
53.826300000000003
 30
0.0
 10
19.2776
 20
51.283700000000003
 30
0.0
 10
19.479700000000001
 20
51.480899999999998
 30
0.0
 10
21.6557
 20
50.7545
 30
0.0
 10
21.6557
 20
50.7545
 30
0.0
 10
22.9054
 20
50.337000000000003
 30
0.0
 10
24.9803
 20
49.638199999999998
 30
0.0
 10
24.9803
 20
48.1265
 30
0.0
 10
24.9803
 20
48.1265
 30
0.0
 10
24.9803
 20
48.1265
 30
0.0
 10
24.9803
 20
47.762300000000003
 30
0.0
 10
24.9803
 20
47.762300000000003
 30
0.0
 10
24.9803
 20
47.762300000000003
 30
0.0
 10
24.9803
 20
43.931100000000001
 30
0.0
 10
21.373200000000001
 20
46.703099999999999
 30
0.0
 10
19.139399999999998
 20
47.106900000000003
 30
0.0
 10
19.139399999999998
 20
47.106900000000003
 30
0.0
 10
19.139399999999998
 20
47.106900000000003
 30
0.0
 10
21.026800000000001
 20
44.676000000000002
 30
0.0
 10
21.026800000000001
 20
44.676000000000002
 30
0.0
 10
21.026800000000001
 20
44.676000000000002
 30
0.0
 10
21.026800000000001
 20
44.676000000000002
 30
0.0
 10
21.026599999999998
 20
44.676000000000002
 30
0.0
 10
21.026599999999998
 20
44.676000000000002
 30
0.0
 10
21.026599999999998
 20
44.676000000000002
 30
0.0
 10
21.557500000000001
 20
44.075600000000001
 30
0.0
 10
21.943100000000001
 20
43.408499999999997
 30
0.0
 10
21.943100000000001
 20
42.902700000000003
 30
0.0
 10
21.943100000000001
 20
42.902700000000003
 30
0.0
 10
21.943100000000001
 20
42.902700000000003
 30
0.0
 10
21.943100000000001
 20
42.538699999999999
 30
0.0
 10
21.943100000000001
 20
42.538699999999999
 30
0.0
 10
21.943100000000001
 20
42.538699999999999
 30
0.0
 10
21.943100000000001
 20
41.437800000000003
 30
0.0
 10
21.2103
 20
39.137799999999999
 30
0.0
 10
20.121400000000001
 20
39.137799999999999
 30
0.0
 10
20.121400000000001
 20
39.137799999999999
 30
0.0
 10
20.121400000000001
 20
39.137799999999999
 30
0.0
 10
19.8781
 20
39.137799999999999
 30
0.0
 10
19.8781
 20
39.137799999999999
 30
0.0
 10
19.8781
 20
39.137799999999999
 30
0.0
 10
18.783999999999999
 20
39.137799999999999
 30
0.0
 10
16.477
 20
41.096299999999999
 30
0.0
 10
16.477
 20
42.538699999999999
 30
0.0
 10
16.477
 20
42.538699999999999
 30
0.0
 10
16.477
 20
42.538699999999999
 30
0.0
 10
16.477
 20
42.902700000000003
 30
0.0
 10
16.477
 20
42.902700000000003
 30
0.0
 10
16.477
 20
42.902700000000003
 30
0.0
 10
16.477
 20
43.198599999999999
 30
0.0
 10
16.537600000000001
 20
43.575400000000002
 30
0.0
 10
16.648
 20
43.967599999999997
 30
0.0
  0
SPLINE
  5
2B
100
AcDbEntity
  8
RÚteg 1
 62
     7
100
AcDbSpline
210
0.0
220
0.0
230
1.0
 70
     1
 71
     3
 72
    92
 73
    88
 74
     0
 42
0.0000000001
 43
0.0000000001
 40
0.0
 40
0.0
 40
0.0
 40
0.0
 40
0.0454545454545455
 40
0.0454545454545455
 40
0.0454545454545455
 40
0.0454545454545455
 40
0.0909090909090909
 40
0.0909090909090909
 40
0.0909090909090909
 40
0.0909090909090909
 40
0.1363636363636364
 40
0.1363636363636364
 40
0.1363636363636364
 40
0.1363636363636364
 40
0.1818181818181818
 40
0.1818181818181818
 40
0.1818181818181818
 40
0.1818181818181818
 40
0.2272727272727273
 40
0.2272727272727273
 40
0.2272727272727273
 40
0.2272727272727273
 40
0.2727272727272728
 40
0.2727272727272728
 40
0.2727272727272728
 40
0.2727272727272728
 40
0.3181818181818182
 40
0.3181818181818182
 40
0.3181818181818182
 40
0.3181818181818182
 40
0.3636363636363637
 40
0.3636363636363637
 40
0.3636363636363637
 40
0.3636363636363637
 40
0.4090909090909092
 40
0.4090909090909092
 40
0.4090909090909092
 40
0.4090909090909092
 40
0.4545454545454546
 40
0.4545454545454546
 40
0.4545454545454546
 40
0.4545454545454546
 40
0.5000000000000001
 40
0.5000000000000001
 40
0.5000000000000001
 40
0.5000000000000001
 40
0.5454545454545455
 40
0.5454545454545455
 40
0.5454545454545455
 40
0.5454545454545455
 40
0.5909090909090909
 40
0.5909090909090909
 40
0.5909090909090909
 40
0.5909090909090909
 40
0.6363636363636364
 40
0.6363636363636364
 40
0.6363636363636364
 40
0.6363636363636364
 40
0.6818181818181818
 40
0.6818181818181818
 40
0.6818181818181818
 40
0.6818181818181818
 40
0.7272727272727272
 40
0.7272727272727272
 40
0.7272727272727272
 40
0.7272727272727272
 40
0.7727272727272726
 40
0.7727272727272726
 40
0.7727272727272726
 40
0.7727272727272726
 40
0.818181818181818
 40
0.818181818181818
 40
0.818181818181818
 40
0.818181818181818
 40
0.8636363636363634
 40
0.8636363636363634
 40
0.8636363636363634
 40
0.8636363636363634
 40
0.9090909090909088
 40
0.9090909090909088
 40
0.9090909090909088
 40
0.9090909090909088
 40
0.9545454545454543
 40
0.9545454545454543
 40
0.9545454545454543
 40
0.9545454545454543
 40
1.0
 40
1.0
 40
1.0
 40
1.0
 10
36.128300000000003
 20
62.533999999999999
 30
0.0
 10
36.128300000000003
 20
62.533999999999999
 30
0.0
 10
34.024900000000002
 20
62.411900000000003
 30
0.0
 10
34.024900000000002
 20
62.411900000000003
 30
0.0
 10
34.024900000000002
 20
62.411900000000003
 30
0.0
 10
35.308199999999999
 20
63.552199999999999
 30
0.0
 10
37.006599999999999
 20
65.245000000000005
 30
0.0
 10
37.006599999999999
 20
65.861900000000006
 30
0.0
 10
37.006599999999999
 20
65.861900000000006
 30
0.0
 10
37.006599999999999
 20
65.861900000000006
 30
0.0
 10
37.006599999999999
 20
65.9833
 30
0.0
 10
37.006599999999999
 20
65.9833
 30
0.0
 10
37.006599999999999
 20
65.9833
 30
0.0
 10
37.006599999999999
 20
66.860299999999995
 30
0.0
 10
36.012599999999999
 20
68.291300000000007
 30
0.0
 10
35.184100000000001
 20
68.291300000000007
 30
0.0
 10
35.184100000000001
 20
68.291300000000007
 30
0.0
 10
35.184100000000001
 20
68.291300000000007
 30
0.0
 10
34.941200000000002
 20
68.291300000000007
 30
0.0
 10
34.941200000000002
 20
68.291300000000007
 30
0.0
 10
34.941200000000002
 20
68.291300000000007
 30
0.0
 10
33.583500000000001
 20
68.291300000000007
 30
0.0
 10
31.0136
 20
64.9876
 30
0.0
 10
29.960899999999999
 20
64.282499999999999
 30
0.0
 10
29.960899999999999
 20
64.282499999999999
 30
0.0
 10
28.803899999999999
 20
64.837699999999998
 30
0.0
 10
23.546199999999999
 20
66.469399999999993
 30
0.0
 10
21.943100000000001
 20
66.469399999999993
 30
0.0
 10
21.943100000000001
 20
66.469399999999993
 30
0.0
 10
21.943100000000001
 20
66.469399999999993
 30
0.0
 10
21.3367
 20
66.469399999999993
 30
0.0
 10
21.3367
 20
66.469399999999993
 30
0.0
 10
21.3367
 20
66.469399999999993
 30
0.0
 10
20.589200000000002
 20
66.469399999999993
 30
0.0
 10
18.9069
 20
65.753
 30
0.0
 10
18.9069
 20
65.133300000000006
 30
0.0
 10
18.9069
 20
65.133300000000006
 30
0.0
 10
18.9069
 20
62.9589
 30
0.0
 10
27.165299999999998
 20
61.252099999999999
 30
0.0
 10
28.9893
 20
60.030799999999999
 30
0.0
 10
28.9893
 20
60.030799999999999
 30
0.0
 10
28.9893
 20
58.825499999999998
 30
0.0
 10
30.587900000000001
 20
54.443300000000001
 30
0.0
 10
31.418399999999998
 20
54.443300000000001
 30
0.0
 10
31.418399999999998
 20
54.443300000000001
 30
0.0
 10
31.418399999999998
 20
54.443300000000001
 30
0.0
 10
31.5397
 20
54.443300000000001
 30
0.0
 10
31.5397
 20
54.443300000000001
 30
0.0
 10
31.5397
 20
54.443300000000001
 30
0.0
 10
33.459899999999998
 20
54.443300000000001
 30
0.0
 10
34.139200000000002
 20
55.200400000000002
 30
0.0
 10
33.818800000000003
 20
57.0867
 30
0.0
 10
33.818800000000003
 20
57.0867
 30
0.0
 10
33.744399999999999
 20
57.525100000000002
 30
0.0
 10
33.4345
 20
58.923999999999999
 30
0.0
 10
33.1554
 20
60.018700000000003
 30
0.0
 10
33.1554
 20
60.018700000000003
 30
0.0
 10
33.1554
 20
60.018700000000003
 30
0.0
 10
35.040999999999997
 20
58.5505
 30
0.0
 10
35.040999999999997
 20
58.5505
 30
0.0
 10
35.040999999999997
 20
58.5505
 30
0.0
 10
35.040999999999997
 20
58.5505
 30
0.0
 10
35.0413
 20
58.5505
 30
0.0
 10
35.0413
 20
58.5505
 30
0.0
 10
35.0413
 20
58.5505
 30
0.0
 10
35.601199999999999
 20
57.873600000000003
 30
0.0
 10
36.180599999999998
 20
57.358499999999999
 30
0.0
 10
36.641800000000003
 20
57.358499999999999
 30
0.0
 10
36.641800000000003
 20
57.358499999999999
 30
0.0
 10
36.641800000000003
 20
57.358499999999999
 30
0.0
 10
37.006599999999999
 20
57.358499999999999
 30
0.0
 10
37.006599999999999
 20
57.358499999999999
 30
0.0
 10
37.006599999999999
 20
57.358499999999999
 30
0.0
 10
37.817999999999998
 20
57.358499999999999
 30
0.0
 10
41.136800000000001
 20
58.314300000000003
 30
0.0
 10
41.136800000000001
 20
59.059699999999999
 30
0.0
 10
41.136800000000001
 20
59.059699999999999
 30
0.0
 10
41.136800000000001
 20
59.059699999999999
 30
0.0
 10
41.136800000000001
 20
59.545400000000001
 30
0.0
 10
41.136800000000001
 20
59.545400000000001
 30
0.0
 10
41.136800000000001
 20
59.545400000000001
 30
0.0
 10
41.136800000000001
 20
60.882199999999997
 30
0.0
 10
39.103700000000003
 20
62.825000000000003
 30
0.0
 10
37.492400000000004
 20
62.825000000000003
 30
0.0
 10
37.492400000000004
 20
62.825000000000003
 30
0.0
 10
37.237400000000001
 20
62.825000000000003
 30
0.0
 10
36.721600000000002
 20
62.704599999999999
 30
0.0
 10
36.128300000000003
 20
62.533999999999999
 30
0.0
  0
SPLINE
  5
2C
100
AcDbEntity
  8
RÚteg 1
 62
     7
100
AcDbSpline
210
0.0
220
0.0
230
1.0
 70
     1
 71
     3
 72
    96
 73
    92
 74
     0
 42
0.0000000001
 43
0.0000000001
 40
0.0
 40
0.0
 40
0.0
 40
0.0
 40
0.0434782608695652
 40
0.0434782608695652
 40
0.0434782608695652
 40
0.0434782608695652
 40
0.0869565217391304
 40
0.0869565217391304
 40
0.0869565217391304
 40
0.0869565217391304
 40
0.1304347826086957
 40
0.1304347826086957
 40
0.1304347826086957
 40
0.1304347826086957
 40
0.1739130434782609
 40
0.1739130434782609
 40
0.1739130434782609
 40
0.1739130434782609
 40
0.2173913043478261
 40
0.2173913043478261
 40
0.2173913043478261
 40
0.2173913043478261
 40
0.2608695652173913
 40
0.2608695652173913
 40
0.2608695652173913
 40
0.2608695652173913
 40
0.3043478260869565
 40
0.3043478260869565
 40
0.3043478260869565
 40
0.3043478260869565
 40
0.3478260869565217
 40
0.3478260869565217
 40
0.3478260869565217
 40
0.3478260869565217
 40
0.3913043478260869
 40
0.3913043478260869
 40
0.3913043478260869
 40
0.3913043478260869
 40
0.4347826086956521
 40
0.4347826086956521
 40
0.4347826086956521
 40
0.4347826086956521
 40
0.4782608695652173
 40
0.4782608695652173
 40
0.4782608695652173
 40
0.4782608695652173
 40
0.5217391304347825
 40
0.5217391304347825
 40
0.5217391304347825
 40
0.5217391304347825
 40
0.5652173913043477
 40
0.5652173913043477
 40
0.5652173913043477
 40
0.5652173913043477
 40
0.6086956521739129
 40
0.6086956521739129
 40
0.6086956521739129
 40
0.6086956521739129
 40
0.6521739130434781
 40
0.6521739130434781
 40
0.6521739130434781
 40
0.6521739130434781
 40
0.6956521739130432
 40
0.6956521739130432
 40
0.6956521739130432
 40
0.6956521739130432
 40
0.7391304347826084
 40
0.7391304347826084
 40
0.7391304347826084
 40
0.7391304347826084
 40
0.7826086956521736
 40
0.7826086956521736
 40
0.7826086956521736
 40
0.7826086956521736
 40
0.8260869565217388
 40
0.8260869565217388
 40
0.8260869565217388
 40
0.8260869565217388
 40
0.869565217391304
 40
0.869565217391304
 40
0.869565217391304
 40
0.869565217391304
 40
0.9130434782608692
 40
0.9130434782608692
 40
0.9130434782608692
 40
0.9130434782608692
 40
0.9565217391304344
 40
0.9565217391304344
 40
0.9565217391304344
 40
0.9565217391304344
 40
1.0
 40
1.0
 40
1.0
 40
1.0
 10
28.6569
 20
85.081199999999995
 30
0.0
 10
28.6569
 20
85.081199999999995
 30
0.0
 10
27.6556
 20
82.729799999999997
 30
0.0
 10
27.6556
 20
82.729799999999997
 30
0.0
 10
27.6556
 20
82.729799999999997
 30
0.0
 10
27.119700000000002
 20
84.532300000000006
 30
0.0
 10
27.3856
 20
87.241799999999998
 30
0.0
 10
25.3446
 20
87.241799999999998
 30
0.0
 10
25.3446
 20
87.241799999999998
 30
0.0
 10
25.3446
 20
87.241799999999998
 30
0.0
 10
25.101900000000001
 20
87.241799999999998
 30
0.0
 10
25.101900000000001
 20
87.241799999999998
 30
0.0
 10
25.101900000000001
 20
87.241799999999998
 30
0.0
 10
24.241800000000001
 20
87.241799999999998
 30
0.0
 10
23.279599999999999
 20
86.753399999999999
 30
0.0
 10
23.279599999999999
 20
85.905500000000004
 30
0.0
 10
23.279599999999999
 20
85.905500000000004
 30
0.0
 10
23.279599999999999
 20
85.905500000000004
 30
0.0
 10
23.279599999999999
 20
84.690700000000007
 30
0.0
 10
23.279599999999999
 20
84.690700000000007
 30
0.0
 10
23.279599999999999
 20
84.690700000000007
 30
0.0
 10
23.279599999999999
 20
83.203100000000006
 30
0.0
 10
23.978000000000002
 20
81.572299999999998
 30
0.0
 10
24.008400000000002
 20
80.195499999999996
 30
0.0
 10
24.008400000000002
 20
80.195499999999996
 30
0.0
 10
23.283200000000001
 20
79.112700000000004
 30
0.0
 10
21.0931
 20
77.371700000000004
 30
0.0
 10
20.030999999999999
 20
76.398700000000005
 30
0.0
 10
20.030999999999999
 20
76.398700000000005
 30
0.0
 10
19.010100000000001
 20
75.463099999999997
 30
0.0
 10
18.920000000000002
 20
75.832700000000003
 30
0.0
 10
18.175799999999999
 20
74.367099999999994
 30
0.0
 10
18.175799999999999
 20
74.367099999999994
 30
0.0
 10
17.842600000000001
 20
73.710400000000007
 30
0.0
 10
17.084499999999998
 20
72.355000000000004
 30
0.0
 10
17.084499999999998
 20
71.450100000000006
 30
0.0
 10
17.084499999999998
 20
71.450100000000006
 30
0.0
 10
17.084499999999998
 20
71.165199999999999
 30
0.0
 10
17.286000000000001
 20
70.964200000000005
 30
0.0
 10
17.570399999999999
 20
70.964200000000005
 30
0.0
 10
17.570399999999999
 20
70.964200000000005
 30
0.0
 10
17.570399999999999
 20
70.964200000000005
 30
0.0
 10
18.4208
 20
70.964200000000005
 30
0.0
 10
18.4208
 20
70.964200000000005
 30
0.0
 10
18.4208
 20
70.964200000000005
 30
0.0
 10
21.533000000000001
 20
70.964200000000005
 30
0.0
 10
26.671199999999999
 20
77.401799999999994
 30
0.0
 10
27.045400000000001
 20
77.401799999999994
 30
0.0
 10
27.045400000000001
 20
77.401799999999994
 30
0.0
 10
28.104600000000001
 20
77.401799999999994
 30
0.0
 10
30.9543
 20
75.701599999999999
 30
0.0
 10
32.268999999999998
 20
75.701599999999999
 30
0.0
 10
32.268999999999998
 20
75.701599999999999
 30
0.0
 10
32.268999999999998
 20
75.701599999999999
 30
0.0
 10
32.754600000000003
 20
75.701599999999999
 30
0.0
 10
32.754600000000003
 20
75.701599999999999
 30
0.0
 10
32.754600000000003
 20
75.701599999999999
 30
0.0
 10
33.5077
 20
75.701599999999999
 30
0.0
 10
33.848399999999998
 20
77.290099999999995
 30
0.0
 10
33.848399999999998
 20
78.131100000000004
 30
0.0
 10
33.848399999999998
 20
78.131100000000004
 30
0.0
 10
33.848399999999998
 20
79.650999999999996
 30
0.0
 10
30.916799999999999
 20
80.273799999999994
 30
0.0
 10
29.2041
 20
81.032600000000002
 30
0.0
 10
29.2041
 20
81.032600000000002
 30
0.0
 10
29.2041
 20
81.032600000000002
 30
0.0
 10
32.133499999999998
 20
81.722499999999997
 30
0.0
 10
32.133499999999998
 20
81.722499999999997
 30
0.0
 10
32.133499999999998
 20
81.722499999999997
 30
0.0
 10
32.133499999999998
 20
81.722499999999997
 30
0.0
 10
32.133299999999998
 20
81.722899999999996
 30
0.0
 10
32.133299999999998
 20
81.722899999999996
 30
0.0
 10
32.133299999999998
 20
81.722899999999996
 30
0.0
 10
33.555700000000002
 20
82.0578
 30
0.0
 10
34.3339
 20
82.918300000000002
 30
0.0
 10
34.3339
 20
84.933099999999996
 30
0.0
 10
34.3339
 20
84.933099999999996
 30
0.0
 10
34.3339
 20
84.933099999999996
 30
0.0
 10
34.3339
 20
86.026899999999998
 30
0.0
 10
34.3339
 20
86.026899999999998
 30
0.0
 10
34.3339
 20
86.026899999999998
 30
0.0
 10
34.3339
 20
86.790199999999999
 30
0.0
 10
34.010800000000003
 20
87.484399999999994
 30
0.0
 10
33.240499999999997
 20
87.484399999999994
 30
0.0
 10
33.240499999999997
 20
87.484399999999994
 30
0.0
 10
33.240499999999997
 20
87.484399999999994
 30
0.0
 10
32.876800000000003
 20
87.484399999999994
 30
0.0
 10
32.876800000000003
 20
87.484399999999994
 30
0.0
 10
32.876800000000003
 20
87.484399999999994
 30
0.0
 10
30.596299999999999
 20
87.484399999999994
 30
0.0
 10
29.2087
 20
86.738399999999999
 30
0.0
 10
28.6569
 20
85.081199999999995
 30
0.0
  0
SPLINE
  5
2D
100
AcDbEntity
  8
RÚteg 1
 62
     7
100
AcDbSpline
210
0.0
220
0.0
230
1.0
 70
     1
 71
     3
 72
    84
 73
    80
 74
     0
 42
0.0000000001
 43
0.0000000001
 40
0.0
 40
0.0
 40
0.0
 40
0.0
 40
0.05
 40
0.05
 40
0.05
 40
0.05
 40
0.1
 40
0.1
 40
0.1
 40
0.1
 40
0.15
 40
0.15
 40
0.15
 40
0.15
 40
0.2
 40
0.2
 40
0.2
 40
0.2
 40
0.25
 40
0.25
 40
0.25
 40
0.25
 40
0.3
 40
0.3
 40
0.3
 40
0.3
 40
0.35
 40
0.35
 40
0.35
 40
0.35
 40
0.4
 40
0.4
 40
0.4
 40
0.4
 40
0.45
 40
0.45
 40
0.45
 40
0.45
 40
0.4999999999999999
 40
0.4999999999999999
 40
0.4999999999999999
 40
0.4999999999999999
 40
0.5499999999999999
 40
0.5499999999999999
 40
0.5499999999999999
 40
0.5499999999999999
 40
0.6
 40
0.6
 40
0.6
 40
0.6
 40
0.65
 40
0.65
 40
0.65
 40
0.65
 40
0.7000000000000001
 40
0.7000000000000001
 40
0.7000000000000001
 40
0.7000000000000001
 40
0.7500000000000001
 40
0.7500000000000001
 40
0.7500000000000001
 40
0.7500000000000001
 40
0.8000000000000002
 40
0.8000000000000002
 40
0.8000000000000002
 40
0.8000000000000002
 40
0.8500000000000002
 40
0.8500000000000002
 40
0.8500000000000002
 40
0.8500000000000002
 40
0.9000000000000002
 40
0.9000000000000002
 40
0.9000000000000002
 40
0.9000000000000002
 40
0.9500000000000003
 40
0.9500000000000003
 40
0.9500000000000003
 40
0.9500000000000003
 40
1.0
 40
1.0
 40
1.0
 40
1.0
 10
1.9504999999999999
 20
81.738399999999999
 30
0.0
 10
1.9504999999999999
 20
81.738399999999999
 30
0.0
 10
1.8812
 20
81.750600000000006
 30
0.0
 10
1.8812
 20
81.750600000000006
 30
0.0
 10
1.8812
 20
81.750600000000006
 30
0.0
 10
1.8812
 20
81.750600000000006
 30
0.0
 10
1.8199000000000001
 20
81.784999999999997
 30
0.0
 10
1.8199000000000001
 20
81.784999999999997
 30
0.0
 10
1.8199000000000001
 20
81.784999999999997
 30
0.0
 10
1.7403999999999999
 20
84.991799999999998
 30
0.0
 10
-0.0938
 20
85.673699999999997
 30
0.0
 10
-2.0886
 20
87.007000000000005
 30
0.0
 10
-2.0886
 20
87.007000000000005
 30
0.0
 10
-2.8652000000000002
 20
87.525899999999993
 30
0.0
 10
-7.3853
 20
90.311000000000007
 30
0.0
 10
-8.1384000000000007
 20
90.311000000000007
 30
0.0
 10
-8.1384000000000007
 20
90.311000000000007
 30
0.0
 10
-8.1384000000000007
 20
90.311000000000007
 30
0.0
 10
-8.3809000000000005
 20
90.311000000000007
 30
0.0
 10
-8.3809000000000005
 20
90.311000000000007
 30
0.0
 10
-8.3809000000000005
 20
90.311000000000007
 30
0.0
 10
-8.5794999999999995
 20
90.311000000000007
 30
0.0
 10
-8.7451000000000008
 20
90.238100000000003
 30
0.0
 10
-8.7451000000000008
 20
90.068100000000001
 30
0.0
 10
-8.7451000000000008
 20
90.068100000000001
 30
0.0
 10
-8.7451000000000008
 20
88.9983
 30
0.0
 10
-6.2400000000000002
 20
84.718100000000007
 30
0.0
 10
-5.6669999999999998
 20
83.670900000000003
 30
0.0
 10
-5.6669999999999998
 20
83.670900000000003
 30
0.0
 10
-4.4393000000000002
 20
81.431200000000004
 30
0.0
 10
-3.9344999999999999
 20
79.766099999999994
 30
0.0
 10
-1.0039
 20
79.528800000000004
 30
0.0
 10
-1.0039
 20
79.528800000000004
 30
0.0
 10
-1.0039
 20
79.528800000000004
 30
0.0
 10
-1.0924
 20
79.378399999999999
 30
0.0
 10
-1.0924
 20
79.378399999999999
 30
0.0
 10
-1.0924
 20
79.378399999999999
 30
0.0
 10
-1.8227
 20
79.378399999999999
 30
0.0
 10
-2.3071000000000002
 20
78.8626
 30
0.0
 10
-2.3071000000000002
 20
78.163499999999999
 30
0.0
 10
-2.3071000000000002
 20
78.163499999999999
 30
0.0
 10
-2.3071000000000002
 20
78.163499999999999
 30
0.0
 10
-2.3071000000000002
 20
77.069999999999993
 30
0.0
 10
-2.3071000000000002
 20
77.069999999999993
 30
0.0
 10
-2.3071000000000002
 20
77.069999999999993
 30
0.0
 10
-2.3071000000000002
 20
75.580799999999996
 30
0.0
 10
1.673
 20
75.079700000000003
 30
0.0
 10
3.1185999999999998
 20
74.356700000000004
 30
0.0
 10
3.1185999999999998
 20
74.356700000000004
 30
0.0
 10
4.6901000000000002
 20
73.570599999999999
 30
0.0
 10
6.6227999999999998
 20
71.2393
 30
0.0
 10
8.2607999999999997
 20
71.2393
 30
0.0
 10
8.2607999999999997
 20
71.2393
 30
0.0
 10
8.2607999999999997
 20
71.2393
 30
0.0
 10
8.7470999999999997
 20
71.2393
 30
0.0
 10
8.7470999999999997
 20
71.2393
 30
0.0
 10
8.7470999999999997
 20
71.2393
 30
0.0
 10
9.3140000000000001
 20
71.2393
 30
0.0
 10
9.5975000000000001
 20
71.522800000000004
 30
0.0
 10
9.5975000000000001
 20
72.089600000000004
 30
0.0
 10
9.5975000000000001
 20
72.089600000000004
 30
0.0
 10
9.5975000000000001
 20
72.089600000000004
 30
0.0
 10
9.5975000000000001
 20
72.332499999999996
 30
0.0
 10
9.5975000000000001
 20
72.332499999999996
 30
0.0
 10
9.5975000000000001
 20
72.332499999999996
 30
0.0
 10
9.5975000000000001
 20
73.690700000000007
 30
0.0
 10
7.4638
 20
76.354699999999994
 30
0.0
 10
6.9080000000000004
 20
77.7821
 30
0.0
 10
6.9080000000000004
 20
77.7821
 30
0.0
 10
6.4916999999999998
 20
78.849699999999999
 30
0.0
 10
6.0910000000000002
 20
79.563400000000001
 30
0.0
 10
6.0791000000000004
 20
81.083399999999997
 30
0.0
 10
6.0791000000000004
 20
81.083399999999997
 30
0.0
 10
6.0688000000000004
 20
82.333200000000005
 30
0.0
 10
5.6210000000000004
 20
83.507900000000006
 30
0.0
 10
4.3738999999999999
 20
83.507900000000006
 30
0.0
 10
4.3738999999999999
 20
83.507900000000006
 30
0.0
 10
3.0600999999999998
 20
83.507900000000006
 30
0.0
 10
2.0352999999999999
 20
83.0107
 30
0.0
 10
1.9504999999999999
 20
81.738399999999999
 30
0.0
  0
SPLINE
  5
2E
100
AcDbEntity
  8
RÚteg 1
 62
     7
100
AcDbSpline
210
0.0
220
0.0
230
1.0
 70
     1
 71
     3
 72
    84
 73
    80
 74
     0
 42
0.0000000001
 43
0.0000000001
 40
0.0
 40
0.0
 40
0.0
 40
0.0
 40
0.05
 40
0.05
 40
0.05
 40
0.05
 40
0.1
 40
0.1
 40
0.1
 40
0.1
 40
0.15
 40
0.15
 40
0.15
 40
0.15
 40
0.2
 40
0.2
 40
0.2
 40
0.2
 40
0.25
 40
0.25
 40
0.25
 40
0.25
 40
0.3
 40
0.3
 40
0.3
 40
0.3
 40
0.35
 40
0.35
 40
0.35
 40
0.35
 40
0.4
 40
0.4
 40
0.4
 40
0.4
 40
0.45
 40
0.45
 40
0.45
 40
0.45
 40
0.4999999999999999
 40
0.4999999999999999
 40
0.4999999999999999
 40
0.4999999999999999
 40
0.5499999999999999
 40
0.5499999999999999
 40
0.5499999999999999
 40
0.5499999999999999
 40
0.6
 40
0.6
 40
0.6
 40
0.6
 40
0.65
 40
0.65
 40
0.65
 40
0.65
 40
0.7000000000000001
 40
0.7000000000000001
 40
0.7000000000000001
 40
0.7000000000000001
 40
0.7500000000000001
 40
0.7500000000000001
 40
0.7500000000000001
 40
0.7500000000000001
 40
0.8000000000000002
 40
0.8000000000000002
 40
0.8000000000000002
 40
0.8000000000000002
 40
0.8500000000000002
 40
0.8500000000000002
 40
0.8500000000000002
 40
0.8500000000000002
 40
0.9000000000000002
 40
0.9000000000000002
 40
0.9000000000000002
 40
0.9000000000000002
 40
0.9500000000000003
 40
0.9500000000000003
 40
0.9500000000000003
 40
0.9500000000000003
 40
1.0
 40
1.0
 40
1.0
 40
1.0
 10
6.4504999999999999
 20
49.988
 30
0.0
 10
6.4577
 20
50.085099999999997
 30
0.0
 10
6.4668000000000001
 20
50.186799999999998
 30
0.0
 10
6.4797000000000002
 20
50.291200000000003
 30
0.0
 10
6.4797000000000002
 20
50.291200000000003
 30
0.0
 10
6.2195
 20
50.166899999999998
 30
0.0
 10
5.9372999999999996
 20
50.070099999999996
 30
0.0
 10
5.5445000000000002
 20
50.070099999999996
 30
0.0
 10
5.5445000000000002
 20
50.070099999999996
 30
0.0
 10
5.5445000000000002
 20
50.070099999999996
 30
0.0
 10
5.4227999999999996
 20
50.070099999999996
 30
0.0
 10
5.4227999999999996
 20
50.070099999999996
 30
0.0
 10
5.4227999999999996
 20
50.070099999999996
 30
0.0
 10
4.7195999999999998
 20
50.070099999999996
 30
0.0
 10
3.3580999999999999
 20
51.527000000000001
 30
0.0
 10
3.3580999999999999
 20
52.256999999999998
 30
0.0
 10
3.3580999999999999
 20
52.256999999999998
 30
0.0
 10
3.3580999999999999
 20
53.419499999999999
 30
0.0
 10
6.8928000000000003
 20
54.971600000000002
 30
0.0
 10
7.8311000000000002
 20
56.4086
 30
0.0
 10
7.8311000000000002
 20
56.4086
 30
0.0
 10
8.6560000000000006
 20
57.672400000000003
 30
0.0
 10
9.3536999999999999
 20
61.610500000000002
 30
0.0
 10
11.3751
 20
61.610500000000002
 30
0.0
 10
11.3751
 20
61.610500000000002
 30
0.0
 10
11.3751
 20
61.610500000000002
 30
0.0
 10
11.496499999999999
 20
61.610500000000002
 30
0.0
 10
11.496499999999999
 20
61.610500000000002
 30
0.0
 10
11.496499999999999
 20
61.610500000000002
 30
0.0
 10
12.1767
 20
61.610500000000002
 30
0.0
 10
12.7317
 20
59.351500000000001
 30
0.0
 10
12.646100000000001
 20
58.442799999999998
 30
0.0
 10
12.646100000000001
 20
58.442799999999998
 30
0.0
 10
12.646100000000001
 20
58.442799999999998
 30
0.0
 10
12.1897
 20
55.542400000000001
 30
0.0
 10
12.1897
 20
55.542400000000001
 30
0.0
 10
12.1897
 20
55.542400000000001
 30
0.0
 10
12.1897
 20
55.542400000000001
 30
0.0
 10
12.2257
 20
54.929000000000002
 30
0.0
 10
12.2257
 20
54.929000000000002
 30
0.0
 10
12.2257
 20
54.929000000000002
 30
0.0
 10
12.2257
 20
52.828800000000001
 30
0.0
 10
13.440200000000001
 20
51.963900000000002
 30
0.0
 10
13.440200000000001
 20
50.070099999999996
 30
0.0
 10
13.440200000000001
 20
50.070099999999996
 30
0.0
 10
13.440200000000001
 20
49.095700000000001
 30
0.0
 10
12.530799999999999
 20
48.369
 30
0.0
 10
11.617699999999999
 20
48.369
 30
0.0
 10
11.617699999999999
 20
48.369
 30
0.0
 10
11.087899999999999
 20
48.369
 30
0.0
 10
10.5961
 20
48.660299999999999
 30
0.0
 10
10.173400000000001
 20
49.0869
 30
0.0
 10
10.173400000000001
 20
49.0869
 30
0.0
 10
10.173400000000001
 20
49.0869
 30
0.0
 10
9.8042999999999996
 20
48.741999999999997
 30
0.0
 10
9.8042999999999996
 20
48.741999999999997
 30
0.0
 10
9.8042999999999996
 20
48.741999999999997
 30
0.0
 10
10.213100000000001
 20
47.813800000000001
 30
0.0
 10
10.524800000000001
 20
46.835099999999997
 30
0.0
 10
10.524800000000001
 20
46.425600000000003
 30
0.0
 10
10.524800000000001
 20
46.425600000000003
 30
0.0
 10
10.524800000000001
 20
45.058300000000003
 30
0.0
 10
5.3630000000000004
 20
37.072200000000002
 30
0.0
 10
4.9368999999999996
 20
37.072200000000002
 30
0.0
 10
4.9368999999999996
 20
37.072200000000002
 30
0.0
 10
4.9368999999999996
 20
37.072200000000002
 30
0.0
 10
4.3296999999999999
 20
37.072200000000002
 30
0.0
 10
4.3296999999999999
 20
37.072200000000002
 30
0.0
 10
4.3296999999999999
 20
37.072200000000002
 30
0.0
 10
3.7818000000000001
 20
37.072200000000002
 30
0.0
 10
3.8437999999999999
 20
39.148400000000002
 30
0.0
 10
3.8437999999999999
 20
39.744799999999998
 30
0.0
 10
3.8437999999999999
 20
39.744799999999998
 30
0.0
 10
3.8437999999999999
 20
41.761699999999998
 30
0.0
 10
3.9512999999999998
 20
44.390599999999999
 30
0.0
 10
4.1948999999999996
 20
46.196399999999997
 30
0.0
 10
4.1948999999999996
 20
46.196399999999997
 30
0.0
 10
4.6326000000000001
 20
49.439
 30
0.0
 10
5.8209999999999997
 20
49.439399999999999
 30
0.0
 10
6.4504999999999999
 20
49.988
 30
0.0
  0
SPLINE
  5
2F
100
AcDbEntity
  8
RÚteg 1
 62
     7
100
AcDbSpline
210
0.0
220
0.0
230
1.0
 70
     1
 71
     3
 72
    80
 73
    76
 74
     0
 42
0.0000000001
 43
0.0000000001
 40
0.0
 40
0.0
 40
0.0
 40
0.0
 40
0.0526315789473684
 40
0.0526315789473684
 40
0.0526315789473684
 40
0.0526315789473684
 40
0.1052631578947368
 40
0.1052631578947368
 40
0.1052631578947368
 40
0.1052631578947368
 40
0.1578947368421053
 40
0.1578947368421053
 40
0.1578947368421053
 40
0.1578947368421053
 40
0.2105263157894737
 40
0.2105263157894737
 40
0.2105263157894737
 40
0.2105263157894737
 40
0.2631578947368421
 40
0.2631578947368421
 40
0.2631578947368421
 40
0.2631578947368421
 40
0.3157894736842105
 40
0.3157894736842105
 40
0.3157894736842105
 40
0.3157894736842105
 40
0.3684210526315789
 40
0.3684210526315789
 40
0.3684210526315789
 40
0.3684210526315789
 40
0.4210526315789474
 40
0.4210526315789474
 40
0.4210526315789474
 40
0.4210526315789474
 40
0.4736842105263158
 40
0.4736842105263158
 40
0.4736842105263158
 40
0.4736842105263158
 40
0.5263157894736842
 40
0.5263157894736842
 40
0.5263157894736842
 40
0.5263157894736842
 40
0.5789473684210527
 40
0.5789473684210527
 40
0.5789473684210527
 40
0.5789473684210527
 40
0.631578947368421
 40
0.631578947368421
 40
0.631578947368421
 40
0.631578947368421
 40
0.6842105263157894
 40
0.6842105263157894
 40
0.6842105263157894
 40
0.6842105263157894
 40
0.7368421052631577
 40
0.7368421052631577
 40
0.7368421052631577
 40
0.7368421052631577
 40
0.7894736842105261
 40
0.7894736842105261
 40
0.7894736842105261
 40
0.7894736842105261
 40
0.8421052631578945
 40
0.8421052631578945
 40
0.8421052631578945
 40
0.8421052631578945
 40
0.8947368421052628
 40
0.8947368421052628
 40
0.8947368421052628
 40
0.8947368421052628
 40
0.9473684210526312
 40
0.9473684210526312
 40
0.9473684210526312
 40
0.9473684210526312
 40
1.0
 40
1.0
 40
1.0
 40
1.0
 10
24.704999999999998
 20
53.1374
 30
0.0
 10
24.704999999999998
 20
53.1374
 30
0.0
 10
24.538499999999999
 20
53.247999999999998
 30
0.0
 10
24.538499999999999
 20
53.247999999999998
 30
0.0
 10
24.538499999999999
 20
53.247999999999998
 30
0.0
 10
24.582799999999999
 20
52.158499999999997
 30
0.0
 10
24.391100000000002
 20
51.1633
 30
0.0
 10
23.157900000000001
 20
51.1633
 30
0.0
 10
23.157900000000001
 20
51.1633
 30
0.0
 10
23.157900000000001
 20
51.1633
 30
0.0
 10
22.550999999999998
 20
51.1633
 30
0.0
 10
22.550999999999998
 20
51.1633
 30
0.0
 10
22.550999999999998
 20
51.1633
 30
0.0
 10
20.166499999999999
 20
51.1633
 30
0.0
 10
20.786000000000001
 20
54.815100000000001
 30
0.0
 10
20.051300000000001
 20
56.681399999999996
 30
0.0
 10
20.051300000000001
 20
56.681399999999996
 30
0.0
 10
19.3413
 20
58.484699999999997
 30
0.0
 10
17.206299999999999
 20
59.082000000000001
 30
0.0
 10
17.206299999999999
 20
61.853400000000001
 30
0.0
 10
17.206299999999999
 20
61.853400000000001
 30
0.0
 10
17.206299999999999
 20
61.853400000000001
 30
0.0
 10
17.206299999999999
 20
62.095799999999997
 30
0.0
 10
17.206299999999999
 20
62.095799999999997
 30
0.0
 10
17.206299999999999
 20
62.095799999999997
 30
0.0
 10
17.206299999999999
 20
63.603499999999997
 30
0.0
 10
19.482800000000001
 20
62.660600000000002
 30
0.0
 10
20.122399999999999
 20
62.339799999999997
 30
0.0
 10
20.122399999999999
 20
62.339799999999997
 30
0.0
 10
21.460899999999999
 20
61.6676
 30
0.0
 10
21.666599999999999
 20
61.2211
 30
0.0
 10
22.718800000000002
 20
60.441600000000001
 30
0.0
 10
22.718800000000002
 20
60.441600000000001
 30
0.0
 10
24.398700000000002
 20
59.196800000000003
 30
0.0
 10
28.9893
 20
59.399900000000002
 30
0.0
 10
28.9893
 20
57.723300000000002
 30
0.0
 10
28.9893
 20
57.723300000000002
 30
0.0
 10
28.9893
 20
57.723300000000002
 30
0.0
 10
28.9893
 20
56.872799999999998
 30
0.0
 10
28.9893
 20
56.872799999999998
 30
0.0
 10
28.9893
 20
56.872799999999998
 30
0.0
 10
28.9893
 20
55.8947
 30
0.0
 10
28.124500000000001
 20
55.167099999999998
 30
0.0
 10
27.0639
 20
55.063600000000001
 30
0.0
 10
27.0639
 20
55.063600000000001
 30
0.0
 10
27.0639
 20
55.063600000000001
 30
0.0
 10
27.069900000000001
 20
54.9236
 30
0.0
 10
27.069900000000001
 20
54.9236
 30
0.0
 10
27.069900000000001
 20
54.9236
 30
0.0
 10
27.773499999999999
 20
54.654299999999999
 30
0.0
 10
29.204699999999999
 20
54.412999999999997
 30
0.0
 10
30.124099999999999
 20
53.878100000000003
 30
0.0
 10
30.124099999999999
 20
53.878100000000003
 30
0.0
 10
30.832599999999999
 20
53.465400000000002
 30
0.0
 10
31.6782
 20
52.113399999999999
 30
0.0
 10
32.067100000000003
 20
51.3262
 30
0.0
 10
32.067100000000003
 20
51.3262
 30
0.0
 10
32.621299999999998
 20
50.204000000000001
 30
0.0
 10
34.941200000000002
 20
46.225099999999998
 30
0.0
 10
34.941200000000002
 20
45.089700000000001
 30
0.0
 10
34.941200000000002
 20
45.089700000000001
 30
0.0
 10
34.941200000000002
 20
44.806699999999999
 30
0.0
 10
34.616999999999997
 20
44.482700000000001
 30
0.0
 10
34.3339
 20
44.482700000000001
 30
0.0
 10
34.3339
 20
44.482700000000001
 30
0.0
 10
34.3339
 20
44.482700000000001
 30
0.0
 10
34.212400000000002
 20
44.482700000000001
 30
0.0
 10
34.212400000000002
 20
44.482700000000001
 30
0.0
 10
34.212400000000002
 20
44.482700000000001
 30
0.0
 10
33.5413
 20
44.482700000000001
 30
0.0
 10
28.5107
 20
47.639200000000002
 30
0.0
 10
27.700900000000001
 20
48.174999999999997
 30
0.0
 10
27.700900000000001
 20
48.174999999999997
 30
0.0
 10
25.7376
 20
49.474899999999998
 30
0.0
 10
24.947299999999998
 20
50.706899999999997
 30
0.0
 10
24.704999999999998
 20
53.1374
 30
0.0
  0
SPLINE
  5
30
100
AcDbEntity
  8
RÚteg 1
 62
     7
100
AcDbSpline
210
0.0
220
0.0
230
1.0
 70
     1
 71
     3
 72
   100
 73
    96
 74
     0
 42
0.0000000001
 43
0.0000000001
 40
0.0
 40
0.0
 40
0.0
 40
0.0
 40
0.0416666666666667
 40
0.0416666666666667
 40
0.0416666666666667
 40
0.0416666666666667
 40
0.0833333333333333
 40
0.0833333333333333
 40
0.0833333333333333
 40
0.0833333333333333
 40
0.125
 40
0.125
 40
0.125
 40
0.125
 40
0.1666666666666667
 40
0.1666666666666667
 40
0.1666666666666667
 40
0.1666666666666667
 40
0.2083333333333333
 40
0.2083333333333333
 40
0.2083333333333333
 40
0.2083333333333333
 40
0.25
 40
0.25
 40
0.25
 40
0.25
 40
0.2916666666666666
 40
0.2916666666666666
 40
0.2916666666666666
 40
0.2916666666666666
 40
0.3333333333333333
 40
0.3333333333333333
 40
0.3333333333333333
 40
0.3333333333333333
 40
0.375
 40
0.375
 40
0.375
 40
0.375
 40
0.4166666666666667
 40
0.4166666666666667
 40
0.4166666666666667
 40
0.4166666666666667
 40
0.4583333333333334
 40
0.4583333333333334
 40
0.4583333333333334
 40
0.4583333333333334
 40
0.5
 40
0.5
 40
0.5
 40
0.5
 40
0.5416666666666666
 40
0.5416666666666666
 40
0.5416666666666666
 40
0.5416666666666666
 40
0.5833333333333333
 40
0.5833333333333333
 40
0.5833333333333333
 40
0.5833333333333333
 40
0.6249999999999999
 40
0.6249999999999999
 40
0.6249999999999999
 40
0.6249999999999999
 40
0.6666666666666665
 40
0.6666666666666665
 40
0.6666666666666665
 40
0.6666666666666665
 40
0.7083333333333332
 40
0.7083333333333332
 40
0.7083333333333332
 40
0.7083333333333332
 40
0.7499999999999998
 40
0.7499999999999998
 40
0.7499999999999998
 40
0.7499999999999998
 40
0.7916666666666664
 40
0.7916666666666664
 40
0.7916666666666664
 40
0.7916666666666664
 40
0.833333333333333
 40
0.833333333333333
 40
0.833333333333333
 40
0.833333333333333
 40
0.8749999999999997
 40
0.8749999999999997
 40
0.8749999999999997
 40
0.8749999999999997
 40
0.9166666666666663
 40
0.9166666666666663
 40
0.9166666666666663
 40
0.9166666666666663
 40
0.9583333333333329
 40
0.9583333333333329
 40
0.9583333333333329
 40
0.9583333333333329
 40
1.0
 40
1.0
 40
1.0
 40
1.0
 10
31.238800000000001
 20
73.454400000000007
 30
0.0
 10
31.037600000000001
 20
73.460599999999999
 30
0.0
 10
30.812100000000001
 20
73.455399999999997
 30
0.0
 10
30.576699999999999
 20
73.442800000000005
 30
0.0
 10
30.576699999999999
 20
73.442800000000005
 30
0.0
 10
30.6464
 20
73.604100000000003
 30
0.0
 10
30.689
 20
73.750799999999998
 30
0.0
 10
30.689
 20
73.879199999999997
 30
0.0
 10
30.689
 20
73.879199999999997
 30
0.0
 10
30.689
 20
73.879199999999997
 30
0.0
 10
30.689
 20
74.243600000000001
 30
0.0
 10
30.689
 20
74.243600000000001
 30
0.0
 10
30.689
 20
74.243600000000001
 30
0.0
 10
30.689
 20
74.986900000000006
 30
0.0
 10
29.4894
 20
76.186999999999998
 30
0.0
 10
28.746099999999998
 20
76.186999999999998
 30
0.0
 10
28.746099999999998
 20
76.186999999999998
 30
0.0
 10
28.746099999999998
 20
76.186999999999998
 30
0.0
 10
28.381499999999999
 20
76.186999999999998
 30
0.0
 10
28.381499999999999
 20
76.186999999999998
 30
0.0
 10
28.381499999999999
 20
76.186999999999998
 30
0.0
 10
27.533799999999999
 20
76.186999999999998
 30
0.0
 10
25.5947
 20
72.770099999999999
 30
0.0
 10
24.325900000000001
 20
71.982699999999994
 30
0.0
 10
24.325900000000001
 20
71.982699999999994
 30
0.0
 10
23.503299999999999
 20
71.472200000000001
 30
0.0
 10
23.480599999999999
 20
71.858199999999997
 30
0.0
 10
22.621500000000001
 20
71.621899999999997
 30
0.0
 10
22.621500000000001
 20
71.621899999999997
 30
0.0
 10
22.035499999999999
 20
71.460599999999999
 30
0.0
 10
21.671099999999999
 20
71.253900000000002
 30
0.0
 10
21.172799999999999
 20
71.005399999999995
 30
0.0
 10
21.172799999999999
 20
71.005399999999995
 30
0.0
 10
20.4937
 20
70.667400000000001
 30
0.0
 10
19.028199999999998
 20
69.768799999999999
 30
0.0
 10
19.028199999999998
 20
68.898399999999995
 30
0.0
 10
19.028199999999998
 20
68.898399999999995
 30
0.0
 10
19.028199999999998
 20
67.756900000000002
 30
0.0
 10
21.323
 20
67.319699999999997
 30
0.0
 10
22.550999999999998
 20
67.319699999999997
 30
0.0
 10
22.550999999999998
 20
67.319699999999997
 30
0.0
 10
23.287400000000002
 20
67.319699999999997
 30
0.0
 10
23.898900000000001
 20
67.805499999999995
 30
0.0
 10
24.130199999999999
 20
67.805499999999995
 30
0.0
 10
24.130199999999999
 20
67.805499999999995
 30
0.0
 10
24.130199999999999
 20
67.805499999999995
 30
0.0
 10
24.7376
 20
67.805499999999995
 30
0.0
 10
24.7376
 20
67.805499999999995
 30
0.0
 10
24.7376
 20
67.805499999999995
 30
0.0
 10
25.895
 20
67.805499999999995
 30
0.0
 10
27.945
 20
66.8977
 30
0.0
 10
29.011299999999999
 20
66.613200000000006
 30
0.0
 10
29.011299999999999
 20
66.613200000000006
 30
0.0
 10
30.481999999999999
 20
66.220100000000002
 30
0.0
 10
32.3902
 20
66.006699999999995
 30
0.0
 10
32.3902
 20
67.9268
 30
0.0
 10
32.3902
 20
67.9268
 30
0.0
 10
32.3902
 20
67.9268
 30
0.0
 10
32.3902
 20
68.048299999999998
 30
0.0
 10
32.3902
 20
68.048299999999998
 30
0.0
 10
32.3902
 20
68.048299999999998
 30
0.0
 10
32.3902
 20
68.831400000000002
 30
0.0
 10
32.049999999999997
 20
69.199600000000004
 30
0.0
 10
31.741099999999999
 20
69.634500000000003
 30
0.0
 10
31.741099999999999
 20
69.634500000000003
 30
0.0
 10
31.741099999999999
 20
69.634500000000003
 30
0.0
 10
31.831099999999999
 20
69.705799999999996
 30
0.0
 10
31.831099999999999
 20
69.705799999999996
 30
0.0
 10
31.831099999999999
 20
69.705799999999996
 30
0.0
 10
32.448
 20
69.534899999999993
 30
0.0
 10
32.935699999999997
 20
69.263300000000001
 30
0.0
 10
33.726199999999999
 20
69.263300000000001
 30
0.0
 10
33.726199999999999
 20
69.263300000000001
 30
0.0
 10
33.726199999999999
 20
69.263300000000001
 30
0.0
 10
34.212400000000002
 20
69.263300000000001
 30
0.0
 10
34.212400000000002
 20
69.263300000000001
 30
0.0
 10
34.212400000000002
 20
69.263300000000001
 30
0.0
 10
36.627200000000002
 20
69.263300000000001
 30
0.0
 10
42.485399999999998
 20
72.860900000000001
 30
0.0
 10
43.6875
 20
74.243600000000001
 30
0.0
 10
43.6875
 20
74.243600000000001
 30
0.0
 10
43.6875
 20
74.243600000000001
 30
0.0
 10
43.6875
 20
74.729500000000002
 30
0.0
 10
43.6875
 20
74.729500000000002
 30
0.0
 10
43.6875
 20
74.729500000000002
 30
0.0
 10
42.085000000000001
 20
75.802400000000006
 30
0.0
 10
37.771999999999998
 20
75.447699999999998
 30
0.0
 10
35.304099999999998
 20
75.459999999999994
 30
0.0
 10
35.304099999999998
 20
75.459999999999994
 30
0.0
 10
33.557600000000001
 20
75.468199999999996
 30
0.0
 10
32.829000000000001
 20
75.110299999999995
 30
0.0
 10
31.9346
 20
74.213399999999993
 30
0.0
 10
31.9346
 20
74.213399999999993
 30
0.0
 10
31.7745
 20
74.052899999999994
 30
0.0
 10
31.514500000000002
 20
73.778000000000006
 30
0.0
 10
31.238800000000001
 20
73.454400000000007
 30
0.0
  0
SPLINE
  5
31
100
AcDbEntity
  8
RÚteg 1
 62
     7
100
AcDbSpline
210
0.0
220
0.0
230
1.0
 70
     1
 71
     3
 72
    68
 73
    64
 74
     0
 42
0.0000000001
 43
0.0000000001
 40
0.0
 40
0.0
 40
0.0
 40
0.0
 40
0.0625
 40
0.0625
 40
0.0625
 40
0.0625
 40
0.125
 40
0.125
 40
0.125
 40
0.125
 40
0.1875
 40
0.1875
 40
0.1875
 40
0.1875
 40
0.25
 40
0.25
 40
0.25
 40
0.25
 40
0.3125
 40
0.3125
 40
0.3125
 40
0.3125
 40
0.375
 40
0.375
 40
0.375
 40
0.375
 40
0.4375
 40
0.4375
 40
0.4375
 40
0.4375
 40
0.5
 40
0.5
 40
0.5
 40
0.5
 40
0.5625
 40
0.5625
 40
0.5625
 40
0.5625
 40
0.625
 40
0.625
 40
0.625
 40
0.625
 40
0.6875
 40
0.6875
 40
0.6875
 40
0.6875
 40
0.75
 40
0.75
 40
0.75
 40
0.75
 40
0.8125
 40
0.8125
 40
0.8125
 40
0.8125
 40
0.875
 40
0.875
 40
0.875
 40
0.875
 40
0.9375
 40
0.9375
 40
0.9375
 40
0.9375
 40
1.0
 40
1.0
 40
1.0
 40
1.0
 10
-17.0502
 20
60.395899999999997
 30
0.0
 10
-17.0502
 20
60.395899999999997
 30
0.0
 10
-17.0502
 20
59.423900000000003
 30
0.0
 10
-17.0502
 20
59.423900000000003
 30
0.0
 10
-17.0502
 20
59.423900000000003
 30
0.0
 10
-17.0502
 20
59.423900000000003
 30
0.0
 10
-9.7655999999999992
 20
58.875599999999999
 30
0.0
 10
-9.7655999999999992
 20
58.875599999999999
 30
0.0
 10
-9.7655999999999992
 20
58.875599999999999
 30
0.0
 10
-9.7655999999999992
 20
58.875599999999999
 30
0.0
 10
-7.9390000000000001
 20
58.9377
 30
0.0
 10
-7.9390000000000001
 20
58.9377
 30
0.0
 10
-7.9390000000000001
 20
58.9377
 30
0.0
 10
-5.4772999999999996
 20
58.9377
 30
0.0
 10
-4.6383000000000001
 20
61.056399999999996
 30
0.0
 10
-3.9308000000000001
 20
61.246000000000002
 30
0.0
 10
-3.9308000000000001
 20
61.246000000000002
 30
0.0
 10
-4.0313999999999997
 20
60.813499999999998
 30
0.0
 10
-4.2952000000000004
 20
60.515900000000002
 30
0.0
 10
-4.2952000000000004
 20
60.030799999999999
 30
0.0
 10
-4.2952000000000004
 20
60.030799999999999
 30
0.0
 10
-4.2952000000000004
 20
59.551499999999997
 30
0.0
 10
-2.9517000000000002
 20
58.209299999999999
 30
0.0
 10
-2.2301000000000002
 20
58.209299999999999
 30
0.0
 10
-2.2301000000000002
 20
58.209299999999999
 30
0.0
 10
-2.2301000000000002
 20
58.209299999999999
 30
0.0
 10
-2.1084999999999998
 20
58.209299999999999
 30
0.0
 10
-2.1084999999999998
 20
58.209299999999999
 30
0.0
 10
-2.1084999999999998
 20
58.209299999999999
 30
0.0
 10
-1.2242
 20
58.209299999999999
 30
0.0
 10
1.4482999999999999
 20
61.429000000000002
 30
0.0
 10
2.7012999999999998
 20
62.267299999999999
 30
0.0
 10
2.7012999999999998
 20
62.267299999999999
 30
0.0
 10
4.1631999999999998
 20
63.246000000000002
 30
0.0
 10
7.7309999999999999
 20
63.6327
 30
0.0
 10
7.7309999999999999
 20
65.9833
 30
0.0
 10
7.7309999999999999
 20
65.9833
 30
0.0
 10
7.7309999999999999
 20
66.815799999999996
 30
0.0
 10
6.2000999999999999
 20
67.076700000000002
 30
0.0
 10
5.3013000000000003
 20
67.076700000000002
 30
0.0
 10
5.3013000000000003
 20
67.076700000000002
 30
0.0
 10
5.3013000000000003
 20
67.076700000000002
 30
0.0
 10
4.9368999999999996
 20
67.076700000000002
 30
0.0
 10
4.9368999999999996
 20
67.076700000000002
 30
0.0
 10
4.9368999999999996
 20
67.076700000000002
 30
0.0
 10
4.9368999999999996
 20
67.076700000000002
 30
0.0
 10
1.5401
 20
66.563900000000004
 30
0.0
 10
1.5401
 20
66.563900000000004
 30
0.0
 10
1.5401
 20
66.563900000000004
 30
0.0
 10
-0.6068
 20
66.221900000000005
 30
0.0
 10
-5.6311
 20
70.717699999999994
 30
0.0
 10
-5.6311
 20
66.104900000000001
 30
0.0
 10
-5.6311
 20
66.104900000000001
 30
0.0
 10
-5.6311
 20
65.111099999999993
 30
0.0
 10
-4.6691000000000003
 20
64.978999999999999
 30
0.0
 10
-4.4166999999999996
 20
64.282499999999999
 30
0.0
 10
-4.4166999999999996
 20
64.282499999999999
 30
0.0
 10
-5.2070999999999996
 20
64.662300000000002
 30
0.0
 10
-6.9176000000000002
 20
65.254900000000006
 30
0.0
 10
-8.0611999999999995
 20
65.254900000000006
 30
0.0
 10
-8.0611999999999995
 20
65.254900000000006
 30
0.0
 10
-10.047499999999999
 20
65.254900000000006
 30
0.0
 10
-15.329800000000001
 20
61.305700000000002
 30
0.0
 10
-17.0502
 20
60.395899999999997
 30
0.0
  0
SPLINE
  5
32
100
AcDbEntity
  8
RÚteg 1
 62
     7
100
AcDbSpline
210
0.0
220
0.0
230
1.0
 70
     1
 71
     3
 72
    32
 73
    28
 74
     0
 42
0.0000000001
 43
0.0000000001
 40
0.0
 40
0.0
 40
0.0
 40
0.0
 40
0.1428571428571429
 40
0.1428571428571429
 40
0.1428571428571429
 40
0.1428571428571429
 40
0.2857142857142857
 40
0.2857142857142857
 40
0.2857142857142857
 40
0.2857142857142857
 40
0.4285714285714286
 40
0.4285714285714286
 40
0.4285714285714286
 40
0.4285714285714286
 40
0.5714285714285714
 40
0.5714285714285714
 40
0.5714285714285714
 40
0.5714285714285714
 40
0.7142857142857142
 40
0.7142857142857142
 40
0.7142857142857142
 40
0.7142857142857142
 40
0.857142857142857
 40
0.857142857142857
 40
0.857142857142857
 40
0.857142857142857
 40
1.0
 40
1.0
 40
1.0
 40
1.0
 10
8.5812000000000008
 20
67.9268
 30
0.0
 10
8.5812000000000008
 20
66.858900000000006
 30
0.0
 10
9.3840000000000003
 20
64.769599999999997
 30
0.0
 10
9.8413000000000004
 20
64.084900000000005
 30
0.0
 10
9.8413000000000004
 20
64.084900000000005
 30
0.0
 10
10.375400000000001
 20
63.286000000000001
 30
0.0
 10
12.2903
 20
62.582000000000001
 30
0.0
 10
13.5616
 20
62.582000000000001
 30
0.0
 10
13.5616
 20
62.582000000000001
 30
0.0
 10
15.456099999999999
 20
62.582000000000001
 30
0.0
 10
17.813600000000001
 20
64.661799999999999
 30
0.0
 10
17.813600000000001
 20
66.469399999999993
 30
0.0
 10
17.813600000000001
 20
66.469399999999993
 30
0.0
 10
17.813600000000001
 20
66.469399999999993
 30
0.0
 10
17.813600000000001
 20
66.954999999999998
 30
0.0
 10
17.813600000000001
 20
66.954999999999998
 30
0.0
 10
17.813600000000001
 20
66.954999999999998
 30
0.0
 10
17.813600000000001
 20
69.631
 30
0.0
 10
15.784700000000001
 20
71.935500000000005
 30
0.0
 10
13.1975
 20
71.935500000000005
 30
0.0
 10
13.1975
 20
71.935500000000005
 30
0.0
 10
13.1975
 20
71.935500000000005
 30
0.0
 10
12.468400000000001
 20
71.935500000000005
 30
0.0
 10
12.468400000000001
 20
71.935500000000005
 30
0.0
 10
12.468400000000001
 20
71.935500000000005
 30
0.0
 10
11.217499999999999
 20
71.935500000000005
 30
0.0
 10
8.5812000000000008
 20
69.223200000000006
 30
0.0
 10
8.5812000000000008
 20
67.9268
 30
0.0
  0
SPLINE
  5
33
100
AcDbEntity
  8
RÚteg 1
 62
     7
100
AcDbSpline
210
0.0
220
0.0
230
1.0
 70
     1
 71
     3
 72
    76
 73
    72
 74
     0
 42
0.0000000001
 43
0.0000000001
 40
0.0
 40
0.0
 40
0.0
 40
0.0
 40
0.0555555555555556
 40
0.0555555555555556
 40
0.0555555555555556
 40
0.0555555555555556
 40
0.1111111111111111
 40
0.1111111111111111
 40
0.1111111111111111
 40
0.1111111111111111
 40
0.1666666666666667
 40
0.1666666666666667
 40
0.1666666666666667
 40
0.1666666666666667
 40
0.2222222222222222
 40
0.2222222222222222
 40
0.2222222222222222
 40
0.2222222222222222
 40
0.2777777777777778
 40
0.2777777777777778
 40
0.2777777777777778
 40
0.2777777777777778
 40
0.3333333333333334
 40
0.3333333333333334
 40
0.3333333333333334
 40
0.3333333333333334
 40
0.388888888888889
 40
0.388888888888889
 40
0.388888888888889
 40
0.388888888888889
 40
0.4444444444444445
 40
0.4444444444444445
 40
0.4444444444444445
 40
0.4444444444444445
 40
0.5000000000000001
 40
0.5000000000000001
 40
0.5000000000000001
 40
0.5000000000000001
 40
0.5555555555555557
 40
0.5555555555555557
 40
0.5555555555555557
 40
0.5555555555555557
 40
0.6111111111111113
 40
0.6111111111111113
 40
0.6111111111111113
 40
0.6111111111111113
 40
0.6666666666666669
 40
0.6666666666666669
 40
0.6666666666666669
 40
0.6666666666666669
 40
0.7222222222222224
 40
0.7222222222222224
 40
0.7222222222222224
 40
0.7222222222222224
 40
0.777777777777778
 40
0.777777777777778
 40
0.777777777777778
 40
0.777777777777778
 40
0.8333333333333336
 40
0.8333333333333336
 40
0.8333333333333336
 40
0.8333333333333336
 40
0.8888888888888892
 40
0.8888888888888892
 40
0.8888888888888892
 40
0.8888888888888892
 40
0.9444444444444448
 40
0.9444444444444448
 40
0.9444444444444448
 40
0.9444444444444448
 40
1.0
 40
1.0
 40
1.0
 40
1.0
 10
16.355699999999999
 20
87.969800000000006
 30
0.0
 10
16.355699999999999
 20
86.593699999999998
 30
0.0
 10
16.853000000000002
 20
85.926400000000001
 30
0.0
 10
17.084499999999998
 20
84.933099999999996
 30
0.0
 10
17.084499999999998
 20
84.933099999999996
 30
0.0
 10
16.3992
 20
85.1815
 30
0.0
 10
16.365400000000001
 20
86.026899999999998
 30
0.0
 10
15.2624
 20
86.026899999999998
 30
0.0
 10
15.2624
 20
86.026899999999998
 30
0.0
 10
14.2887
 20
86.026899999999998
 30
0.0
 10
13.3188
 20
85.534199999999998
 30
0.0
 10
13.3188
 20
84.569100000000006
 30
0.0
 10
13.3188
 20
84.569100000000006
 30
0.0
 10
13.3188
 20
84.569100000000006
 30
0.0
 10
13.3188
 20
84.082800000000006
 30
0.0
 10
13.3188
 20
84.082800000000006
 30
0.0
 10
13.3188
 20
84.082800000000006
 30
0.0
 10
13.3188
 20
82.601500000000001
 30
0.0
 10
14.619199999999999
 20
80.542000000000002
 30
0.0
 10
14.474500000000001
 20
79.093699999999998
 30
0.0
 10
14.474500000000001
 20
79.093699999999998
 30
0.0
 10
14.474500000000001
 20
79.093699999999998
 30
0.0
 10
14.047499999999999
 20
75.944299999999998
 30
0.0
 10
14.047499999999999
 20
75.944299999999998
 30
0.0
 10
14.047499999999999
 20
75.944299999999998
 30
0.0
 10
14.047499999999999
 20
75.944299999999998
 30
0.0
 10
14.047499999999999
 20
74.729500000000002
 30
0.0
 10
14.047499999999999
 20
74.729500000000002
 30
0.0
 10
14.047499999999999
 20
74.729500000000002
 30
0.0
 10
14.047499999999999
 20
74.0381
 30
0.0
 10
14.475899999999999
 20
72.9071
 30
0.0
 10
15.1412
 20
72.9071
 30
0.0
 10
15.1412
 20
72.9071
 30
0.0
 10
17.124199999999998
 20
72.9071
 30
0.0
 10
18.017900000000001
 20
76.605999999999995
 30
0.0
 10
18.833500000000001
 20
77.718000000000004
 30
0.0
 10
18.833500000000001
 20
77.718000000000004
 30
0.0
 10
19.462399999999999
 20
78.576099999999997
 30
0.0
 10
20.098500000000001
 20
79.228399999999993
 30
0.0
 10
20.938400000000001
 20
79.864500000000007
 30
0.0
 10
20.938400000000001
 20
79.864500000000007
 30
0.0
 10
21.562200000000001
 20
80.337500000000006
 30
0.0
 10
22.914999999999999
 20
81.190299999999993
 30
0.0
 10
22.914999999999999
 20
82.139399999999995
 30
0.0
 10
22.914999999999999
 20
82.139399999999995
 30
0.0
 10
22.914999999999999
 20
82.989599999999996
 30
0.0
 10
22.052499999999998
 20
84.569100000000006
 30
0.0
 10
21.214400000000001
 20
84.569100000000006
 30
0.0
 10
21.214400000000001
 20
84.569100000000006
 30
0.0
 10
20.7742
 20
84.569100000000006
 30
0.0
 10
20.536300000000001
 20
84.467299999999994
 30
0.0
 10
20.242699999999999
 20
84.325900000000004
 30
0.0
 10
20.242699999999999
 20
84.325900000000004
 30
0.0
 10
20.712800000000001
 20
85.624899999999997
 30
0.0
 10
22.793800000000001
 20
84.373099999999994
 30
0.0
 10
22.793800000000001
 20
90.399699999999996
 30
0.0
 10
22.793800000000001
 20
90.399699999999996
 30
0.0
 10
22.793800000000001
 20
90.399699999999996
 30
0.0
 10
22.793800000000001
 20
96.2303
 30
0.0
 10
22.793800000000001
 20
96.2303
 30
0.0
 10
22.793800000000001
 20
96.2303
 30
0.0
 10
22.793800000000001
 20
96.639600000000002
 30
0.0
 10
22.5794
 20
97.080600000000004
 30
0.0
 10
22.186399999999999
 20
97.080600000000004
 30
0.0
 10
22.186399999999999
 20
97.080600000000004
 30
0.0
 10
22.186399999999999
 20
97.080600000000004
 30
0.0
 10
21.943100000000001
 20
97.080600000000004
 30
0.0
 10
21.943100000000001
 20
97.080600000000004
 30
0.0
 10
21.943100000000001
 20
97.080600000000004
 30
0.0
 10
20.994900000000001
 20
97.080600000000004
 30
0.0
 10
16.355699999999999
 20
89.633399999999995
 30
0.0
 10
16.355699999999999
 20
87.969800000000006
 30
0.0
  0
SPLINE
  5
34
100
AcDbEntity
  8
RÚteg 1
 62
     7
100
AcDbSpline
210
0.0
220
0.0
230
1.0
 70
     1
 71
     3
 72
    28
 73
    24
 74
     0
 42
0.0000000001
 43
0.0000000001
 40
0.0
 40
0.0
 40
0.0
 40
0.0
 40
0.1666666666666667
 40
0.1666666666666667
 40
0.1666666666666667
 40
0.1666666666666667
 40
0.3333333333333333
 40
0.3333333333333333
 40
0.3333333333333333
 40
0.3333333333333333
 40
0.5
 40
0.5
 40
0.5
 40
0.5
 40
0.6666666666666666
 40
0.6666666666666666
 40
0.6666666666666666
 40
0.6666666666666666
 40
0.8333333333333333
 40
0.8333333333333333
 40
0.8333333333333333
 40
0.8333333333333333
 40
1.0
 40
1.0
 40
1.0
 40
1.0
 10
-59.024999999999999
 20
100.9744
 30
0.0
 10
-58.210099999999997
 20
100.9744
 30
0.0
 10
-57.401800000000001
 20
100.9442
 30
0.0
 10
-56.601399999999998
 20
100.8873
 30
0.0
 10
-56.601399999999998
 20
100.8873
 30
0.0
 10
-55.503300000000003
 20
101.65389999999999
 30
0.0
 10
-54.784399999999998
 20
102.9265
 30
0.0
 10
-54.784399999999998
 20
104.3669
 30
0.0
 10
-54.784399999999998
 20
104.3669
 30
0.0
 10
-54.784399999999998
 20
106.7086
 30
0.0
 10
-56.683100000000003
 20
108.6075
 30
0.0
 10
-59.024999999999999
 20
108.6075
 30
0.0
 10
-59.024999999999999
 20
108.6075
 30
0.0
 10
-61.366900000000001
 20
108.6075
 30
0.0
 10
-63.265599999999999
 20
106.7086
 30
0.0
 10
-63.265599999999999
 20
104.3669
 30
0.0
 10
-63.265599999999999
 20
104.3669
 30
0.0
 10
-63.265599999999999
 20
102.9265
 30
0.0
 10
-62.546700000000001
 20
101.65389999999999
 30
0.0
 10
-61.448599999999999
 20
100.8873
 30
0.0
 10
-61.448599999999999
 20
100.8873
 30
0.0
 10
-60.648200000000003
 20
100.9442
 30
0.0
 10
-59.8399
 20
100.9744
 30
0.0
 10
-59.024999999999999
 20
100.9744
 30
0.0
  0
SPLINE
  5
35
100
AcDbEntity
  8
RÚteg 1
 62
     7
100
AcDbSpline
210
0.0
220
0.0
230
1.0
 70
     1
 71
     3
 72
    24
 73
    20
 74
     0
 42
0.0000000001
 43
0.0000000001
 40
0.0
 40
0.0
 40
0.0
 40
0.0
 40
0.2
 40
0.2
 40
0.2
 40
0.2
 40
0.4
 40
0.4
 40
0.4
 40
0.4
 40
0.6000000000000001
 40
0.6000000000000001
 40
0.6000000000000001
 40
0.6000000000000001
 40
0.8
 40
0.8
 40
0.8
 40
0.8
 40
1.0
 40
1.0
 40
1.0
 40
1.0
 10
-57.835000000000001
 20
37.566299999999998
 30
0.0
 10
-57.835000000000001
 20
37.566299999999998
 30
0.0
 10
-57.808399999999999
 20
37.566299999999998
 30
0.0
 10
-57.808399999999999
 20
37.566299999999998
 30
0.0
 10
-57.808399999999999
 20
37.566299999999998
 30
0.0
 10
-57.808399999999999
 20
37.566299999999998
 30
0.0
 10
-57.808399999999999
 20
37.079599999999999
 30
0.0
 10
-57.808399999999999
 20
37.079599999999999
 30
0.0
 10
-57.808399999999999
 20
37.079599999999999
 30
0.0
 10
-57.157400000000003
 20
37.105499999999999
 30
0.0
 10
-56.510199999999998
 20
37.150599999999997
 30
0.0
 10
-55.870100000000001
 20
37.217700000000001
 30
0.0
 10
-55.870100000000001
 20
37.217700000000001
 30
0.0
 10
-55.870100000000001
 20
37.217700000000001
 30
0.0
 10
-57.835000000000001
 20
38.936
 30
0.0
 10
-57.835000000000001
 20
38.936
 30
0.0
 10
-57.835000000000001
 20
38.936
 30
0.0
 10
-57.835000000000001
 20
38.936
 30
0.0
 10
-57.835000000000001
 20
37.566299999999998
 30
0.0
 10
-57.835000000000001
 20
37.566299999999998
 30
0.0
  0
SPLINE
  5
36
100
AcDbEntity
  8
RÚteg 1
 62
     7
100
AcDbSpline
210
0.0
220
0.0
230
1.0
 70
     1
 71
     3
 72
    36
 73
    32
 74
     0
 42
0.0000000001
 43
0.0000000001
 40
0.0
 40
0.0
 40
0.0
 40
0.0
 40
0.125
 40
0.125
 40
0.125
 40
0.125
 40
0.25
 40
0.25
 40
0.25
 40
0.25
 40
0.375
 40
0.375
 40
0.375
 40
0.375
 40
0.5
 40
0.5
 40
0.5
 40
0.5
 40
0.625
 40
0.625
 40
0.625
 40
0.625
 40
0.75
 40
0.75
 40
0.75
 40
0.75
 40
0.875
 40
0.875
 40
0.875
 40
0.875
 40
1.0
 40
1.0
 40
1.0
 40
1.0
 10
-54.394199999999998
 20
100.6583
 30
0.0
 10
-37.851599999999998
 20
98.399100000000004
 30
0.0
 10
-25.100000000000001
 20
84.211100000000002
 30
0.0
 10
-25.100000000000001
 20
67.049400000000006
 30
0.0
 10
-25.100000000000001
 20
67.049400000000006
 30
0.0
 10
-25.100000000000001
 20
48.316099999999999
 30
0.0
 10
-40.291899999999998
 20
33.124400000000001
 30
0.0
 10
-59.024999999999999
 20
33.124400000000001
 30
0.0
 10
-59.024999999999999
 20
33.124400000000001
 30
0.0
 10
-77.758099999999999
 20
33.124400000000001
 30
0.0
 10
-92.950000000000003
 20
48.316099999999999
 30
0.0
 10
-92.950000000000003
 20
67.049400000000006
 30
0.0
 10
-92.950000000000003
 20
67.049400000000006
 30
0.0
 10
-92.950000000000003
 20
84.211100000000002
 30
0.0
 10
-80.198400000000007
 20
98.399100000000004
 30
0.0
 10
-63.655799999999999
 20
100.6583
 30
0.0
 10
-63.655799999999999
 20
100.6583
 30
0.0
 10
-64.470399999999998
 20
101.6742
 30
0.0
 10
-64.958100000000002
 20
102.9633
 30
0.0
 10
-64.958100000000002
 20
104.3669
 30
0.0
 10
-64.958100000000002
 20
104.3669
 30
0.0
 10
-64.958100000000002
 20
107.643
 30
0.0
 10
-62.301099999999998
 20
110.3
 30
0.0
 10
-59.024999999999999
 20
110.3
 30
0.0
 10
-59.024999999999999
 20
110.3
 30
0.0
 10
-55.748899999999999
 20
110.3
 30
0.0
 10
-53.091900000000003
 20
107.643
 30
0.0
 10
-53.091900000000003
 20
104.3669
 30
0.0
 10
-53.091900000000003
 20
104.3669
 30
0.0
 10
-53.091900000000003
 20
102.9633
 30
0.0
 10
-53.579599999999999
 20
101.6742
 30
0.0
 10
-54.394199999999998
 20
100.6583
 30
0.0
  0
SPLINE
  5
37
100
AcDbEntity
  8
RÚteg 1
 62
     7
100
AcDbSpline
210
0.0
220
0.0
230
1.0
 70
     1
 71
     3
 72
   172
 73
   168
 74
     0
 42
0.0000000001
 43
0.0000000001
 40
0.0
 40
0.0
 40
0.0
 40
0.0
 40
0.0238095238095238
 40
0.0238095238095238
 40
0.0238095238095238
 40
0.0238095238095238
 40
0.0476190476190476
 40
0.0476190476190476
 40
0.0476190476190476
 40
0.0476190476190476
 40
0.0714285714285714
 40
0.0714285714285714
 40
0.0714285714285714
 40
0.0714285714285714
 40
0.0952380952380952
 40
0.0952380952380952
 40
0.0952380952380952
 40
0.0952380952380952
 40
0.119047619047619
 40
0.119047619047619
 40
0.119047619047619
 40
0.119047619047619
 40
0.1428571428571429
 40
0.1428571428571429
 40
0.1428571428571429
 40
0.1428571428571429
 40
0.1666666666666667
 40
0.1666666666666667
 40
0.1666666666666667
 40
0.1666666666666667
 40
0.1904761904761905
 40
0.1904761904761905
 40
0.1904761904761905
 40
0.1904761904761905
 40
0.2142857142857143
 40
0.2142857142857143
 40
0.2142857142857143
 40
0.2142857142857143
 40
0.2380952380952381
 40
0.2380952380952381
 40
0.2380952380952381
 40
0.2380952380952381
 40
0.2619047619047619
 40
0.2619047619047619
 40
0.2619047619047619
 40
0.2619047619047619
 40
0.2857142857142857
 40
0.2857142857142857
 40
0.2857142857142857
 40
0.2857142857142857
 40
0.3095238095238095
 40
0.3095238095238095
 40
0.3095238095238095
 40
0.3095238095238095
 40
0.3333333333333334
 40
0.3333333333333334
 40
0.3333333333333334
 40
0.3333333333333334
 40
0.3571428571428572
 40
0.3571428571428572
 40
0.3571428571428572
 40
0.3571428571428572
 40
0.380952380952381
 40
0.380952380952381
 40
0.380952380952381
 40
0.380952380952381
 40
0.4047619047619049
 40
0.4047619047619049
 40
0.4047619047619049
 40
0.4047619047619049
 40
0.4285714285714287
 40
0.4285714285714287
 40
0.4285714285714287
 40
0.4285714285714287
 40
0.4523809523809526
 40
0.4523809523809526
 40
0.4523809523809526
 40
0.4523809523809526
 40
0.4761904761904764
 40
0.4761904761904764
 40
0.4761904761904764
 40
0.4761904761904764
 40
0.5000000000000002
 40
0.5000000000000002
 40
0.5000000000000002
 40
0.5000000000000002
 40
0.5238095238095241
 40
0.5238095238095241
 40
0.5238095238095241
 40
0.5238095238095241
 40
0.5476190476190479
 40
0.5476190476190479
 40
0.5476190476190479
 40
0.5476190476190479
 40
0.5714285714285717
 40
0.5714285714285717
 40
0.5714285714285717
 40
0.5714285714285717
 40
0.5952380952380956
 40
0.5952380952380956
 40
0.5952380952380956
 40
0.5952380952380956
 40
0.6190476190476194
 40
0.6190476190476194
 40
0.6190476190476194
 40
0.6190476190476194
 40
0.6428571428571432
 40
0.6428571428571432
 40
0.6428571428571432
 40
0.6428571428571432
 40
0.6666666666666671
 40
0.6666666666666671
 40
0.6666666666666671
 40
0.6666666666666671
 40
0.6904761904761909
 40
0.6904761904761909
 40
0.6904761904761909
 40
0.6904761904761909
 40
0.7142857142857148
 40
0.7142857142857148
 40
0.7142857142857148
 40
0.7142857142857148
 40
0.7380952380952386
 40
0.7380952380952386
 40
0.7380952380952386
 40
0.7380952380952386
 40
0.7619047619047624
 40
0.7619047619047624
 40
0.7619047619047624
 40
0.7619047619047624
 40
0.7857142857142863
 40
0.7857142857142863
 40
0.7857142857142863
 40
0.7857142857142863
 40
0.8095238095238101
 40
0.8095238095238101
 40
0.8095238095238101
 40
0.8095238095238101
 40
0.8333333333333339
 40
0.8333333333333339
 40
0.8333333333333339
 40
0.8333333333333339
 40
0.8571428571428578
 40
0.8571428571428578
 40
0.8571428571428578
 40
0.8571428571428578
 40
0.8809523809523816
 40
0.8809523809523816
 40
0.8809523809523816
 40
0.8809523809523816
 40
0.9047619047619054
 40
0.9047619047619054
 40
0.9047619047619054
 40
0.9047619047619054
 40
0.9285714285714293
 40
0.9285714285714293
 40
0.9285714285714293
 40
0.9285714285714293
 40
0.9523809523809531
 40
0.9523809523809531
 40
0.9523809523809531
 40
0.9523809523809531
 40
0.9761904761904769
 40
0.9761904761904769
 40
0.9761904761904769
 40
0.9761904761904769
 40
1.0
 40
1.0
 40
1.0
 40
1.0
 10
-56.756799999999998
 20
83.741900000000001
 30
0.0
 10
-55.398000000000003
 20
83.558899999999994
 30
0.0
 10
-54.090400000000002
 20
83.215000000000003
 30
0.0
 10
-52.854399999999998
 20
82.727699999999999
 30
0.0
 10
-52.854399999999998
 20
82.727699999999999
 30
0.0
 10
-52.854399999999998
 20
82.727699999999999
 30
0.0
 10
-52.9437
 20
84.065399999999997
 30
0.0
 10
-52.9437
 20
84.065399999999997
 30
0.0
 10
-52.9437
 20
84.065399999999997
 30
0.0
 10
-52.9437
 20
84.065399999999997
 30
0.0
 10
-51.4071
 20
84.168300000000002
 30
0.0
 10
-51.4071
 20
84.168300000000002
 30
0.0
 10
-51.4071
 20
84.168300000000002
 30
0.0
 10
-51.4071
 20
84.168300000000002
 30
0.0
 10
-51.2624
 20
82.001400000000004
 30
0.0
 10
-51.2624
 20
82.001400000000004
 30
0.0
 10
-51.2624
 20
82.001400000000004
 30
0.0
 10
-50.911700000000003
 20
81.819000000000003
 30
0.0
 10
-50.568399999999997
 20
81.624899999999997
 30
0.0
 10
-50.232900000000001
 20
81.419200000000004
 30
0.0
 10
-50.232900000000001
 20
81.419200000000004
 30
0.0
 10
-50.232900000000001
 20
81.419200000000004
 30
0.0
 10
-50.411299999999997
 20
84.0822
 30
0.0
 10
-50.411299999999997
 20
84.0822
 30
0.0
 10
-50.411299999999997
 20
84.0822
 30
0.0
 10
-50.411299999999997
 20
84.0822
 30
0.0
 10
-49.259
 20
84.158799999999999
 30
0.0
 10
-49.259
 20
84.158799999999999
 30
0.0
 10
-49.259
 20
84.158799999999999
 30
0.0
 10
-49.259
 20
84.158799999999999
 30
0.0
 10
-49.020499999999998
 20
80.600899999999996
 30
0.0
 10
-49.020499999999998
 20
80.600899999999996
 30
0.0
 10
-49.020499999999998
 20
80.600899999999996
 30
0.0
 10
-48.603200000000001
 20
80.292400000000001
 30
0.0
 10
-48.201300000000003
 20
79.965000000000003
 30
0.0
 10
-47.814900000000002
 20
79.620000000000005
 30
0.0
 10
-47.814900000000002
 20
79.620000000000005
 30
0.0
 10
-47.814900000000002
 20
79.620000000000005
 30
0.0
 10
-47.597299999999997
 20
79.838099999999997
 30
0.0
 10
-47.597299999999997
 20
79.838099999999997
 30
0.0
 10
-47.597299999999997
 20
79.838099999999997
 30
0.0
 10
-47.597299999999997
 20
79.838099999999997
 30
0.0
 10
-47.887300000000003
 20
84.175299999999993
 30
0.0
 10
-47.887300000000003
 20
84.175299999999993
 30
0.0
 10
-47.887300000000003
 20
84.175299999999993
 30
0.0
 10
-47.887300000000003
 20
84.175299999999993
 30
0.0
 10
-47.023400000000002
 20
84.2333
 30
0.0
 10
-47.023400000000002
 20
84.2333
 30
0.0
 10
-47.023400000000002
 20
84.2333
 30
0.0
 10
-47.023400000000002
 20
84.2333
 30
0.0
 10
-46.783099999999997
 20
80.651399999999995
 30
0.0
 10
-46.783099999999997
 20
80.651399999999995
 30
0.0
 10
-46.783099999999997
 20
80.651399999999995
 30
0.0
 10
-46.783099999999997
 20
80.651399999999995
 30
0.0
 10
-45.930399999999999
 20
81.504199999999997
 30
0.0
 10
-45.930399999999999
 20
81.504199999999997
 30
0.0
 10
-45.930399999999999
 20
81.504199999999997
 30
0.0
 10
-45.930399999999999
 20
81.504199999999997
 30
0.0
 10
-44.841099999999997
 20
80.415199999999999
 30
0.0
 10
-44.841099999999997
 20
80.415199999999999
 30
0.0
 10
-44.841099999999997
 20
80.415199999999999
 30
0.0
 10
-44.841099999999997
 20
80.415199999999999
 30
0.0
 10
-45.625700000000002
 20
79.631100000000004
 30
0.0
 10
-45.625700000000002
 20
79.631100000000004
 30
0.0
 10
-45.625700000000002
 20
79.631100000000004
 30
0.0
 10
-45.625700000000002
 20
79.631100000000004
 30
0.0
 10
-42.1907
 20
79.4011
 30
0.0
 10
-42.1907
 20
79.4011
 30
0.0
 10
-42.1907
 20
79.4011
 30
0.0
 10
-42.1907
 20
79.4011
 30
0.0
 10
-42.248199999999997
 20
78.535899999999998
 30
0.0
 10
-42.248199999999997
 20
78.535899999999998
 30
0.0
 10
-42.248199999999997
 20
78.535899999999998
 30
0.0
 10
-42.248199999999997
 20
78.535899999999998
 30
0.0
 10
-46.439399999999999
 20
78.817300000000003
 30
0.0
 10
-46.439399999999999
 20
78.817300000000003
 30
0.0
 10
-46.439399999999999
 20
78.817300000000003
 30
0.0
 10
-46.439399999999999
 20
78.817300000000003
 30
0.0
 10
-46.713099999999997
 20
78.543199999999999
 30
0.0
 10
-46.713099999999997
 20
78.543199999999999
 30
0.0
 10
-46.713099999999997
 20
78.543199999999999
 30
0.0
 10
-46.382100000000001
 20
78.188900000000004
 30
0.0
 10
-46.065800000000003
 20
77.820599999999999
 30
0.0
 10
-45.766100000000002
 20
77.438999999999993
 30
0.0
 10
-45.766100000000002
 20
77.438999999999993
 30
0.0
 10
-45.766100000000002
 20
77.438999999999993
 30
0.0
 10
-42.307299999999998
 20
77.207099999999997
 30
0.0
 10
-42.307299999999998
 20
77.207099999999997
 30
0.0
 10
-42.307299999999998
 20
77.207099999999997
 30
0.0
 10
-42.307299999999998
 20
77.207099999999997
 30
0.0
 10
-42.3842
 20
76.054900000000004
 30
0.0
 10
-42.3842
 20
76.054900000000004
 30
0.0
 10
-42.3842
 20
76.054900000000004
 30
0.0
 10
-42.3842
 20
76.054900000000004
 30
0.0
 10
-44.896599999999999
 20
76.222899999999996
 30
0.0
 10
-44.896599999999999
 20
76.222899999999996
 30
0.0
 10
-44.896599999999999
 20
76.222899999999996
 30
0.0
 10
-44.631700000000002
 20
75.815899999999999
 30
0.0
 10
-44.3842
 20
75.396699999999996
 30
0.0
 10
-44.154699999999998
 20
74.966399999999993
 30
0.0
 10
-44.154699999999998
 20
74.966399999999993
 30
0.0
 10
-44.154699999999998
 20
74.966399999999993
 30
0.0
 10
-42.0655
 20
74.826400000000007
 30
0.0
 10
-42.0655
 20
74.826400000000007
 30
0.0
 10
-42.0655
 20
74.826400000000007
 30
0.0
 10
-42.0655
 20
74.826400000000007
 30
0.0
 10
-42.168399999999998
 20
73.289400000000001
 30
0.0
 10
-42.168399999999998
 20
73.289400000000001
 30
0.0
 10
-42.168399999999998
 20
73.289400000000001
 30
0.0
 10
-42.168399999999998
 20
73.289400000000001
 30
0.0
 10
-43.408900000000003
 20
73.372299999999996
 30
0.0
 10
-43.408900000000003
 20
73.372299999999996
 30
0.0
 10
-43.408900000000003
 20
73.372299999999996
 30
0.0
 10
-42.863100000000003
 20
72.027299999999997
 30
0.0
 10
-42.487000000000002
 20
70.595600000000005
 30
0.0
 10
-42.305199999999999
 20
69.103899999999996
 30
0.0
 10
-42.305199999999999
 20
69.103899999999996
 30
0.0
 10
-42.305199999999999
 20
69.103899999999996
 30
0.0
 10
-33.913600000000002
 20
78.699799999999996
 30
0.0
 10
-33.913600000000002
 20
78.699799999999996
 30
0.0
 10
-33.913600000000002
 20
78.699799999999996
 30
0.0
 10
-33.913600000000002
 20
78.699799999999996
 30
0.0
 10
-32.121899999999997
 20
77.133499999999998
 30
0.0
 10
-32.121899999999997
 20
77.133499999999998
 30
0.0
 10
-32.121899999999997
 20
77.133499999999998
 30
0.0
 10
-32.121899999999997
 20
77.133499999999998
 30
0.0
 10
-39.899700000000003
 20
68.239099999999993
 30
0.0
 10
-39.899700000000003
 20
68.239099999999993
 30
0.0
 10
-39.899700000000003
 20
68.239099999999993
 30
0.0
 10
-39.899700000000003
 20
68.239099999999993
 30
0.0
 10
-37.871899999999997
 20
68.239099999999993
 30
0.0
 10
-37.871899999999997
 20
68.239099999999993
 30
0.0
 10
-37.871899999999997
 20
68.239099999999993
 30
0.0
 10
-37.871899999999997
 20
68.239099999999993
 30
0.0
 10
-31.128399999999999
 20
75.950900000000004
 30
0.0
 10
-31.128399999999999
 20
75.950900000000004
 30
0.0
 10
-31.128399999999999
 20
75.950900000000004
 30
0.0
 10
-31.128399999999999
 20
75.950900000000004
 30
0.0
 10
-30.113800000000001
 20
75.063699999999997
 30
0.0
 10
-30.113800000000001
 20
75.063699999999997
 30
0.0
 10
-30.113800000000001
 20
75.063699999999997
 30
0.0
 10
-32.946399999999997
 20
85.300399999999996
 30
0.0
 10
-41.069899999999997
 20
93.340500000000006
 30
0.0
 10
-51.355400000000003
 20
96.054199999999994
 30
0.0
 10
-51.355400000000003
 20
96.054199999999994
 30
0.0
 10
-51.355400000000003
 20
96.054199999999994
 30
0.0
 10
-50.386499999999998
 20
94.946299999999994
 30
0.0
 10
-50.386499999999998
 20
94.946299999999994
 30
0.0
 10
-50.386499999999998
 20
94.946299999999994
 30
0.0
 10
-50.386499999999998
 20
94.946299999999994
 30
0.0
 10
-57.835000000000001
 20
88.432699999999997
 30
0.0
 10
-57.835000000000001
 20
88.432699999999997
 30
0.0
 10
-57.835000000000001
 20
88.432699999999997
 30
0.0
 10
-57.835000000000001
 20
88.432699999999997
 30
0.0
 10
-57.835000000000001
 20
85.961399999999998
 30
0.0
 10
-57.835000000000001
 20
85.961399999999998
 30
0.0
 10
-57.835000000000001
 20
85.961399999999998
 30
0.0
 10
-57.835000000000001
 20
85.961399999999998
 30
0.0
 10
-48.697000000000003
 20
93.952200000000005
 30
0.0
 10
-48.697000000000003
 20
93.952200000000005
 30
0.0
 10
-48.697000000000003
 20
93.952200000000005
 30
0.0
 10
-48.697000000000003
 20
93.952200000000005
 30
0.0
 10
-47.129600000000003
 20
92.160700000000006
 30
0.0
 10
-47.129600000000003
 20
92.160700000000006
 30
0.0
 10
-47.129600000000003
 20
92.160700000000006
 30
0.0
 10
-47.129600000000003
 20
92.160700000000006
 30
0.0
 10
-56.756799999999998
 20
83.741900000000001
 30
0.0
 10
-56.756799999999998
 20
83.741900000000001
 30
0.0
  0
SPLINE
  5
38
100
AcDbEntity
  8
RÚteg 1
 62
     7
100
AcDbSpline
210
0.0
220
0.0
230
1.0
 70
     1
 71
     3
 72
   172
 73
   168
 74
     0
 42
0.0000000001
 43
0.0000000001
 40
0.0
 40
0.0
 40
0.0
 40
0.0
 40
0.0238095238095238
 40
0.0238095238095238
 40
0.0238095238095238
 40
0.0238095238095238
 40
0.0476190476190476
 40
0.0476190476190476
 40
0.0476190476190476
 40
0.0476190476190476
 40
0.0714285714285714
 40
0.0714285714285714
 40
0.0714285714285714
 40
0.0714285714285714
 40
0.0952380952380952
 40
0.0952380952380952
 40
0.0952380952380952
 40
0.0952380952380952
 40
0.119047619047619
 40
0.119047619047619
 40
0.119047619047619
 40
0.119047619047619
 40
0.1428571428571429
 40
0.1428571428571429
 40
0.1428571428571429
 40
0.1428571428571429
 40
0.1666666666666667
 40
0.1666666666666667
 40
0.1666666666666667
 40
0.1666666666666667
 40
0.1904761904761905
 40
0.1904761904761905
 40
0.1904761904761905
 40
0.1904761904761905
 40
0.2142857142857143
 40
0.2142857142857143
 40
0.2142857142857143
 40
0.2142857142857143
 40
0.2380952380952381
 40
0.2380952380952381
 40
0.2380952380952381
 40
0.2380952380952381
 40
0.2619047619047619
 40
0.2619047619047619
 40
0.2619047619047619
 40
0.2619047619047619
 40
0.2857142857142857
 40
0.2857142857142857
 40
0.2857142857142857
 40
0.2857142857142857
 40
0.3095238095238095
 40
0.3095238095238095
 40
0.3095238095238095
 40
0.3095238095238095
 40
0.3333333333333334
 40
0.3333333333333334
 40
0.3333333333333334
 40
0.3333333333333334
 40
0.3571428571428572
 40
0.3571428571428572
 40
0.3571428571428572
 40
0.3571428571428572
 40
0.380952380952381
 40
0.380952380952381
 40
0.380952380952381
 40
0.380952380952381
 40
0.4047619047619049
 40
0.4047619047619049
 40
0.4047619047619049
 40
0.4047619047619049
 40
0.4285714285714287
 40
0.4285714285714287
 40
0.4285714285714287
 40
0.4285714285714287
 40
0.4523809523809526
 40
0.4523809523809526
 40
0.4523809523809526
 40
0.4523809523809526
 40
0.4761904761904764
 40
0.4761904761904764
 40
0.4761904761904764
 40
0.4761904761904764
 40
0.5000000000000002
 40
0.5000000000000002
 40
0.5000000000000002
 40
0.5000000000000002
 40
0.5238095238095241
 40
0.5238095238095241
 40
0.5238095238095241
 40
0.5238095238095241
 40
0.5476190476190479
 40
0.5476190476190479
 40
0.5476190476190479
 40
0.5476190476190479
 40
0.5714285714285717
 40
0.5714285714285717
 40
0.5714285714285717
 40
0.5714285714285717
 40
0.5952380952380956
 40
0.5952380952380956
 40
0.5952380952380956
 40
0.5952380952380956
 40
0.6190476190476194
 40
0.6190476190476194
 40
0.6190476190476194
 40
0.6190476190476194
 40
0.6428571428571432
 40
0.6428571428571432
 40
0.6428571428571432
 40
0.6428571428571432
 40
0.6666666666666671
 40
0.6666666666666671
 40
0.6666666666666671
 40
0.6666666666666671
 40
0.6904761904761909
 40
0.6904761904761909
 40
0.6904761904761909
 40
0.6904761904761909
 40
0.7142857142857148
 40
0.7142857142857148
 40
0.7142857142857148
 40
0.7142857142857148
 40
0.7380952380952386
 40
0.7380952380952386
 40
0.7380952380952386
 40
0.7380952380952386
 40
0.7619047619047624
 40
0.7619047619047624
 40
0.7619047619047624
 40
0.7619047619047624
 40
0.7857142857142863
 40
0.7857142857142863
 40
0.7857142857142863
 40
0.7857142857142863
 40
0.8095238095238101
 40
0.8095238095238101
 40
0.8095238095238101
 40
0.8095238095238101
 40
0.8333333333333339
 40
0.8333333333333339
 40
0.8333333333333339
 40
0.8333333333333339
 40
0.8571428571428578
 40
0.8571428571428578
 40
0.8571428571428578
 40
0.8571428571428578
 40
0.8809523809523816
 40
0.8809523809523816
 40
0.8809523809523816
 40
0.8809523809523816
 40
0.9047619047619054
 40
0.9047619047619054
 40
0.9047619047619054
 40
0.9047619047619054
 40
0.9285714285714293
 40
0.9285714285714293
 40
0.9285714285714293
 40
0.9285714285714293
 40
0.9523809523809531
 40
0.9523809523809531
 40
0.9523809523809531
 40
0.9523809523809531
 40
0.9761904761904769
 40
0.9761904761904769
 40
0.9761904761904769
 40
0.9761904761904769
 40
1.0
 40
1.0
 40
1.0
 40
1.0
 10
-42.332700000000003
 20
64.781899999999993
 30
0.0
 10
-42.509300000000003
 20
63.471699999999998
 30
0.0
 10
-42.836100000000002
 20
62.210000000000001
 30
0.0
 10
-43.2956
 20
61.013500000000001
 30
0.0
 10
-43.2956
 20
61.013500000000001
 30
0.0
 10
-43.2956
 20
61.013500000000001
 30
0.0
 10
-42.280299999999997
 20
61.081600000000002
 30
0.0
 10
-42.280299999999997
 20
61.081600000000002
 30
0.0
 10
-42.280299999999997
 20
61.081600000000002
 30
0.0
 10
-42.280299999999997
 20
61.081600000000002
 30
0.0
 10
-42.177500000000002
 20
59.545200000000001
 30
0.0
 10
-42.177500000000002
 20
59.545200000000001
 30
0.0
 10
-42.177500000000002
 20
59.545200000000001
 30
0.0
 10
-42.177500000000002
 20
59.545200000000001
 30
0.0
 10
-44.002800000000001
 20
59.422800000000002
 30
0.0
 10
-44.002800000000001
 20
59.422800000000002
 30
0.0
 10
-44.002800000000001
 20
59.422800000000002
 30
0.0
 10
-44.180999999999997
 20
59.072499999999998
 30
0.0
 10
-44.371499999999997
 20
58.729599999999998
 30
0.0
 10
-44.572699999999998
 20
58.393999999999998
 30
0.0
 10
-44.572699999999998
 20
58.393999999999998
 30
0.0
 10
-44.572699999999998
 20
58.393999999999998
 30
0.0
 10
-42.2637
 20
58.548499999999997
 30
0.0
 10
-42.2637
 20
58.548499999999997
 30
0.0
 10
-42.2637
 20
58.548499999999997
 30
0.0
 10
-42.2637
 20
58.548499999999997
 30
0.0
 10
-42.186399999999999
 20
57.3962
 30
0.0
 10
-42.186399999999999
 20
57.3962
 30
0.0
 10
-42.186399999999999
 20
57.3962
 30
0.0
 10
-42.186399999999999
 20
57.3962
 30
0.0
 10
-45.373199999999997
 20
57.182699999999997
 30
0.0
 10
-45.373199999999997
 20
57.182699999999997
 30
0.0
 10
-45.373199999999997
 20
57.182699999999997
 30
0.0
 10
-45.732900000000001
 20
56.685899999999997
 30
0.0
 10
-46.118400000000001
 20
56.209299999999999
 30
0.0
 10
-46.528799999999997
 20
55.755099999999999
 30
0.0
 10
-46.528799999999997
 20
55.755099999999999
 30
0.0
 10
-46.528799999999997
 20
55.755099999999999
 30
0.0
 10
-46.508200000000002
 20
55.734400000000001
 30
0.0
 10
-46.508200000000002
 20
55.734400000000001
 30
0.0
 10
-46.508200000000002
 20
55.734400000000001
 30
0.0
 10
-46.508200000000002
 20
55.734400000000001
 30
0.0
 10
-42.169899999999998
 20
56.024700000000003
 30
0.0
 10
-42.169899999999998
 20
56.024700000000003
 30
0.0
 10
-42.169899999999998
 20
56.024700000000003
 30
0.0
 10
-42.169899999999998
 20
56.024700000000003
 30
0.0
 10
-42.112299999999998
 20
55.160699999999999
 30
0.0
 10
-42.112299999999998
 20
55.160699999999999
 30
0.0
 10
-42.112299999999998
 20
55.160699999999999
 30
0.0
 10
-42.112299999999998
 20
55.160699999999999
 30
0.0
 10
-45.694099999999999
 20
54.9208
 30
0.0
 10
-45.694099999999999
 20
54.9208
 30
0.0
 10
-45.694099999999999
 20
54.9208
 30
0.0
 10
-45.694099999999999
 20
54.9208
 30
0.0
 10
-44.841099999999997
 20
54.067500000000003
 30
0.0
 10
-44.841099999999997
 20
54.067500000000003
 30
0.0
 10
-44.841099999999997
 20
54.067500000000003
 30
0.0
 10
-44.841099999999997
 20
54.067500000000003
 30
0.0
 10
-45.930399999999999
 20
52.978700000000003
 30
0.0
 10
-45.930399999999999
 20
52.978700000000003
 30
0.0
 10
-45.930399999999999
 20
52.978700000000003
 30
0.0
 10
-45.930399999999999
 20
52.978700000000003
 30
0.0
 10
-46.714599999999997
 20
53.763100000000001
 30
0.0
 10
-46.714599999999997
 20
53.763100000000001
 30
0.0
 10
-46.714599999999997
 20
53.763100000000001
 30
0.0
 10
-46.714599999999997
 20
53.763100000000001
 30
0.0
 10
-46.944800000000001
 20
50.3277
 30
0.0
 10
-46.944800000000001
 20
50.3277
 30
0.0
 10
-46.944800000000001
 20
50.3277
 30
0.0
 10
-46.944800000000001
 20
50.3277
 30
0.0
 10
-47.8095
 20
50.3855
 30
0.0
 10
-47.8095
 20
50.3855
 30
0.0
 10
-47.8095
 20
50.3855
 30
0.0
 10
-47.8095
 20
50.3855
 30
0.0
 10
-47.528599999999997
 20
54.577100000000002
 30
0.0
 10
-47.528599999999997
 20
54.577100000000002
 30
0.0
 10
-47.528599999999997
 20
54.577100000000002
 30
0.0
 10
-47.528599999999997
 20
54.577100000000002
 30
0.0
 10
-47.613399999999999
 20
54.661499999999997
 30
0.0
 10
-47.613399999999999
 20
54.661499999999997
 30
0.0
 10
-47.613399999999999
 20
54.661499999999997
 30
0.0
 10
-48.033000000000001
 20
54.2746
 30
0.0
 10
-48.471899999999998
 20
53.9084
 30
0.0
 10
-48.929299999999998
 20
53.565300000000001
 30
0.0
 10
-48.929299999999998
 20
53.565300000000001
 30
0.0
 10
-48.929299999999998
 20
53.565300000000001
 30
0.0
 10
-49.138199999999998
 20
50.444299999999998
 30
0.0
 10
-49.138199999999998
 20
50.444299999999998
 30
0.0
 10
-49.138199999999998
 20
50.444299999999998
 30
0.0
 10
-49.138199999999998
 20
50.444299999999998
 30
0.0
 10
-50.290799999999997
 20
50.521599999999999
 30
0.0
 10
-50.290799999999997
 20
50.521599999999999
 30
0.0
 10
-50.290799999999997
 20
50.521599999999999
 30
0.0
 10
-50.290799999999997
 20
50.521599999999999
 30
0.0
 10
-50.142299999999999
 20
52.736600000000003
 30
0.0
 10
-50.142299999999999
 20
52.736600000000003
 30
0.0
 10
-50.142299999999999
 20
52.736600000000003
 30
0.0
 10
-50.549399999999999
 20
52.482900000000001
 30
0.0
 10
-50.9679
 20
52.246299999999998
 30
0.0
 10
-51.396900000000002
 20
52.027799999999999
 30
0.0
 10
-51.396900000000002
 20
52.027799999999999
 30
0.0
 10
-51.396900000000002
 20
52.027799999999999
 30
0.0
 10
-51.519100000000002
 20
50.203299999999999
 30
0.0
 10
-51.519100000000002
 20
50.203299999999999
 30
0.0
 10
-51.519100000000002
 20
50.203299999999999
 30
0.0
 10
-51.519100000000002
 20
50.203299999999999
 30
0.0
 10
-53.055799999999998
 20
50.305900000000001
 30
0.0
 10
-53.055799999999998
 20
50.305900000000001
 30
0.0
 10
-53.055799999999998
 20
50.305900000000001
 30
0.0
 10
-53.055799999999998
 20
50.305900000000001
 30
0.0
 10
-52.988199999999999
 20
51.320500000000003
 30
0.0
 10
-52.988199999999999
 20
51.320500000000003
 30
0.0
 10
-52.988199999999999
 20
51.320500000000003
 30
0.0
 10
-54.249400000000001
 20
50.835700000000003
 30
0.0
 10
-55.584200000000003
 20
50.4985
 30
0.0
 10
-56.970599999999997
 20
50.329700000000003
 30
0.0
 10
-56.970599999999997
 20
50.329700000000003
 30
0.0
 10
-56.970599999999997
 20
50.329700000000003
 30
0.0
 10
-47.374400000000001
 20
41.9377
 30
0.0
 10
-47.374400000000001
 20
41.9377
 30
0.0
 10
-47.374400000000001
 20
41.9377
 30
0.0
 10
-47.374400000000001
 20
41.9377
 30
0.0
 10
-48.940800000000003
 20
40.146099999999997
 30
0.0
 10
-48.940800000000003
 20
40.146099999999997
 30
0.0
 10
-48.940800000000003
 20
40.146099999999997
 30
0.0
 10
-48.940800000000003
 20
40.146099999999997
 30
0.0
 10
-57.835000000000001
 20
47.923900000000003
 30
0.0
 10
-57.835000000000001
 20
47.923900000000003
 30
0.0
 10
-57.835000000000001
 20
47.923900000000003
 30
0.0
 10
-57.835000000000001
 20
47.923900000000003
 30
0.0
 10
-57.835000000000001
 20
45.896099999999997
 30
0.0
 10
-57.835000000000001
 20
45.896099999999997
 30
0.0
 10
-57.835000000000001
 20
45.896099999999997
 30
0.0
 10
-57.835000000000001
 20
45.896099999999997
 30
0.0
 10
-50.122999999999998
 20
39.152500000000003
 30
0.0
 10
-50.122999999999998
 20
39.152500000000003
 30
0.0
 10
-50.122999999999998
 20
39.152500000000003
 30
0.0
 10
-50.122999999999998
 20
39.152500000000003
 30
0.0
 10
-51.010300000000001
 20
38.138100000000001
 30
0.0
 10
-51.010300000000001
 20
38.138100000000001
 30
0.0
 10
-51.010300000000001
 20
38.138100000000001
 30
0.0
 10
-40.774299999999997
 20
40.9709
 30
0.0
 10
-32.734200000000001
 20
49.093899999999998
 30
0.0
 10
-30.020499999999998
 20
59.378900000000002
 30
0.0
 10
-30.020499999999998
 20
59.378900000000002
 30
0.0
 10
-30.020499999999998
 20
59.378900000000002
 30
0.0
 10
-31.128399999999999
 20
58.410400000000003
 30
0.0
 10
-31.128399999999999
 20
58.410400000000003
 30
0.0
 10
-31.128399999999999
 20
58.410400000000003
 30
0.0
 10
-31.128399999999999
 20
58.410400000000003
 30
0.0
 10
-37.641599999999997
 20
65.859200000000001
 30
0.0
 10
-37.641599999999997
 20
65.859200000000001
 30
0.0
 10
-37.641599999999997
 20
65.859200000000001
 30
0.0
 10
-37.641599999999997
 20
65.859200000000001
 30
0.0
 10
-40.112699999999997
 20
65.859200000000001
 30
0.0
 10
-40.112699999999997
 20
65.859200000000001
 30
0.0
 10
-40.112699999999997
 20
65.859200000000001
 30
0.0
 10
-40.112699999999997
 20
65.859200000000001
 30
0.0
 10
-32.121899999999997
 20
56.721299999999999
 30
0.0
 10
-32.121899999999997
 20
56.721299999999999
 30
0.0
 10
-32.121899999999997
 20
56.721299999999999
 30
0.0
 10
-32.121899999999997
 20
56.721299999999999
 30
0.0
 10
-33.913600000000002
 20
55.153599999999997
 30
0.0
 10
-33.913600000000002
 20
55.153599999999997
 30
0.0
 10
-33.913600000000002
 20
55.153599999999997
 30
0.0
 10
-33.913600000000002
 20
55.153599999999997
 30
0.0
 10
-42.332700000000003
 20
64.781899999999993
 30
0.0
 10
-42.332700000000003
 20
64.781899999999993
 30
0.0
  0
SPLINE
  5
39
100
AcDbEntity
  8
RÚteg 1
 62
     7
100
AcDbSpline
210
0.0
220
0.0
230
1.0
 70
     1
 71
     3
 72
   172
 73
   168
 74
     0
 42
0.0000000001
 43
0.0000000001
 40
0.0
 40
0.0
 40
0.0
 40
0.0
 40
0.0238095238095238
 40
0.0238095238095238
 40
0.0238095238095238
 40
0.0238095238095238
 40
0.0476190476190476
 40
0.0476190476190476
 40
0.0476190476190476
 40
0.0476190476190476
 40
0.0714285714285714
 40
0.0714285714285714
 40
0.0714285714285714
 40
0.0714285714285714
 40
0.0952380952380952
 40
0.0952380952380952
 40
0.0952380952380952
 40
0.0952380952380952
 40
0.119047619047619
 40
0.119047619047619
 40
0.119047619047619
 40
0.119047619047619
 40
0.1428571428571429
 40
0.1428571428571429
 40
0.1428571428571429
 40
0.1428571428571429
 40
0.1666666666666667
 40
0.1666666666666667
 40
0.1666666666666667
 40
0.1666666666666667
 40
0.1904761904761905
 40
0.1904761904761905
 40
0.1904761904761905
 40
0.1904761904761905
 40
0.2142857142857143
 40
0.2142857142857143
 40
0.2142857142857143
 40
0.2142857142857143
 40
0.2380952380952381
 40
0.2380952380952381
 40
0.2380952380952381
 40
0.2380952380952381
 40
0.2619047619047619
 40
0.2619047619047619
 40
0.2619047619047619
 40
0.2619047619047619
 40
0.2857142857142857
 40
0.2857142857142857
 40
0.2857142857142857
 40
0.2857142857142857
 40
0.3095238095238095
 40
0.3095238095238095
 40
0.3095238095238095
 40
0.3095238095238095
 40
0.3333333333333334
 40
0.3333333333333334
 40
0.3333333333333334
 40
0.3333333333333334
 40
0.3571428571428572
 40
0.3571428571428572
 40
0.3571428571428572
 40
0.3571428571428572
 40
0.380952380952381
 40
0.380952380952381
 40
0.380952380952381
 40
0.380952380952381
 40
0.4047619047619049
 40
0.4047619047619049
 40
0.4047619047619049
 40
0.4047619047619049
 40
0.4285714285714287
 40
0.4285714285714287
 40
0.4285714285714287
 40
0.4285714285714287
 40
0.4523809523809526
 40
0.4523809523809526
 40
0.4523809523809526
 40
0.4523809523809526
 40
0.4761904761904764
 40
0.4761904761904764
 40
0.4761904761904764
 40
0.4761904761904764
 40
0.5000000000000002
 40
0.5000000000000002
 40
0.5000000000000002
 40
0.5000000000000002
 40
0.5238095238095241
 40
0.5238095238095241
 40
0.5238095238095241
 40
0.5238095238095241
 40
0.5476190476190479
 40
0.5476190476190479
 40
0.5476190476190479
 40
0.5476190476190479
 40
0.5714285714285717
 40
0.5714285714285717
 40
0.5714285714285717
 40
0.5714285714285717
 40
0.5952380952380956
 40
0.5952380952380956
 40
0.5952380952380956
 40
0.5952380952380956
 40
0.6190476190476194
 40
0.6190476190476194
 40
0.6190476190476194
 40
0.6190476190476194
 40
0.6428571428571432
 40
0.6428571428571432
 40
0.6428571428571432
 40
0.6428571428571432
 40
0.6666666666666671
 40
0.6666666666666671
 40
0.6666666666666671
 40
0.6666666666666671
 40
0.6904761904761909
 40
0.6904761904761909
 40
0.6904761904761909
 40
0.6904761904761909
 40
0.7142857142857148
 40
0.7142857142857148
 40
0.7142857142857148
 40
0.7142857142857148
 40
0.7380952380952386
 40
0.7380952380952386
 40
0.7380952380952386
 40
0.7380952380952386
 40
0.7619047619047624
 40
0.7619047619047624
 40
0.7619047619047624
 40
0.7619047619047624
 40
0.7857142857142863
 40
0.7857142857142863
 40
0.7857142857142863
 40
0.7857142857142863
 40
0.8095238095238101
 40
0.8095238095238101
 40
0.8095238095238101
 40
0.8095238095238101
 40
0.8333333333333339
 40
0.8333333333333339
 40
0.8333333333333339
 40
0.8333333333333339
 40
0.8571428571428578
 40
0.8571428571428578
 40
0.8571428571428578
 40
0.8571428571428578
 40
0.8809523809523816
 40
0.8809523809523816
 40
0.8809523809523816
 40
0.8809523809523816
 40
0.9047619047619054
 40
0.9047619047619054
 40
0.9047619047619054
 40
0.9047619047619054
 40
0.9285714285714293
 40
0.9285714285714293
 40
0.9285714285714293
 40
0.9285714285714293
 40
0.9523809523809531
 40
0.9523809523809531
 40
0.9523809523809531
 40
0.9523809523809531
 40
0.9761904761904769
 40
0.9761904761904769
 40
0.9761904761904769
 40
0.9761904761904769
 40
1.0
 40
1.0
 40
1.0
 40
1.0
 10
-61.2928
 20
50.356999999999999
 30
0.0
 10
-62.701700000000002
 20
50.546900000000001
 30
0.0
 10
-64.055899999999994
 20
50.910699999999999
 30
0.0
 10
-65.331800000000001
 20
51.426499999999997
 30
0.0
 10
-65.331800000000001
 20
51.426499999999997
 30
0.0
 10
-65.331800000000001
 20
51.426499999999997
 30
0.0
 10
-65.264200000000002
 20
50.4176
 30
0.0
 10
-65.264200000000002
 20
50.4176
 30
0.0
 10
-65.264200000000002
 20
50.4176
 30
0.0
 10
-65.264200000000002
 20
50.4176
 30
0.0
 10
-66.800600000000003
 20
50.315199999999997
 30
0.0
 10
-66.800600000000003
 20
50.315199999999997
 30
0.0
 10
-66.800600000000003
 20
50.315199999999997
 30
0.0
 10
-66.800600000000003
 20
50.315199999999997
 30
0.0
 10
-66.9251
 20
52.169800000000002
 30
0.0
 10
-66.9251
 20
52.169800000000002
 30
0.0
 10
-66.9251
 20
52.169800000000002
 30
0.0
 10
-67.2761
 20
52.356400000000001
 30
0.0
 10
-67.619600000000005
 20
52.555700000000002
 30
0.0
 10
-67.955299999999994
 20
52.766100000000002
 30
0.0
 10
-67.955299999999994
 20
52.766100000000002
 30
0.0
 10
-67.955299999999994
 20
52.766100000000002
 30
0.0
 10
-67.796800000000005
 20
50.401000000000003
 30
0.0
 10
-67.796800000000005
 20
50.401000000000003
 30
0.0
 10
-67.796800000000005
 20
50.401000000000003
 30
0.0
 10
-67.796800000000005
 20
50.401000000000003
 30
0.0
 10
-68.948999999999998
 20
50.324100000000001
 30
0.0
 10
-68.948999999999998
 20
50.324100000000001
 30
0.0
 10
-68.948999999999998
 20
50.324100000000001
 30
0.0
 10
-68.948999999999998
 20
50.324100000000001
 30
0.0
 10
-69.168899999999994
 20
53.602200000000003
 30
0.0
 10
-69.168899999999994
 20
53.602200000000003
 30
0.0
 10
-69.168899999999994
 20
53.602200000000003
 30
0.0
 10
-69.638499999999993
 20
53.957099999999997
 30
0.0
 10
-70.089200000000005
 20
54.336300000000001
 30
0.0
 10
-70.518699999999995
 20
54.7376
 30
0.0
 10
-70.518699999999995
 20
54.7376
 30
0.0
 10
-70.518699999999995
 20
54.7376
 30
0.0
 10
-70.610699999999994
 20
54.645400000000002
 30
0.0
 10
-70.610699999999994
 20
54.645400000000002
 30
0.0
 10
-70.610699999999994
 20
54.645400000000002
 30
0.0
 10
-70.610699999999994
 20
54.645400000000002
 30
0.0
 10
-70.320599999999999
 20
50.306399999999996
 30
0.0
 10
-70.320599999999999
 20
50.306399999999996
 30
0.0
 10
-70.320599999999999
 20
50.306399999999996
 30
0.0
 10
-70.320599999999999
 20
50.306399999999996
 30
0.0
 10
-71.184899999999999
 20
50.249499999999998
 30
0.0
 10
-71.184899999999999
 20
50.249499999999998
 30
0.0
 10
-71.184899999999999
 20
50.249499999999998
 30
0.0
 10
-71.184899999999999
 20
50.249499999999998
 30
0.0
 10
-71.424899999999994
 20
53.831299999999999
 30
0.0
 10
-71.424899999999994
 20
53.831299999999999
 30
0.0
 10
-71.424899999999994
 20
53.831299999999999
 30
0.0
 10
-71.424899999999994
 20
53.831299999999999
 30
0.0
 10
-72.278099999999995
 20
52.978700000000003
 30
0.0
 10
-72.278099999999995
 20
52.978700000000003
 30
0.0
 10
-72.278099999999995
 20
52.978700000000003
 30
0.0
 10
-72.278099999999995
 20
52.978700000000003
 30
0.0
 10
-73.3673
 20
54.067500000000003
 30
0.0
 10
-73.3673
 20
54.067500000000003
 30
0.0
 10
-73.3673
 20
54.067500000000003
 30
0.0
 10
-73.3673
 20
54.067500000000003
 30
0.0
 10
-72.582700000000003
 20
54.851900000000001
 30
0.0
 10
-72.582700000000003
 20
54.851900000000001
 30
0.0
 10
-72.582700000000003
 20
54.851900000000001
 30
0.0
 10
-72.582700000000003
 20
54.851900000000001
 30
0.0
 10
-76.017399999999995
 20
55.081899999999997
 30
0.0
 10
-76.017399999999995
 20
55.081899999999997
 30
0.0
 10
-76.017399999999995
 20
55.081899999999997
 30
0.0
 10
-76.017399999999995
 20
55.081899999999997
 30
0.0
 10
-75.960099999999997
 20
55.9465
 30
0.0
 10
-75.960099999999997
 20
55.9465
 30
0.0
 10
-75.960099999999997
 20
55.9465
 30
0.0
 10
-75.960099999999997
 20
55.9465
 30
0.0
 10
-71.768699999999995
 20
55.6661
 30
0.0
 10
-71.768699999999995
 20
55.6661
 30
0.0
 10
-71.768699999999995
 20
55.6661
 30
0.0
 10
-71.768699999999995
 20
55.6661
 30
0.0
 10
-71.595699999999994
 20
55.839199999999998
 30
0.0
 10
-71.595699999999994
 20
55.839199999999998
 30
0.0
 10
-71.595699999999994
 20
55.839199999999998
 30
0.0
 10
-71.942599999999999
 20
56.228200000000001
 30
0.0
 10
-72.272400000000005
 20
56.633099999999999
 30
0.0
 10
-72.582400000000007
 20
57.053400000000003
 30
0.0
 10
-72.582400000000007
 20
57.053400000000003
 30
0.0
 10
-72.582400000000007
 20
57.053400000000003
 30
0.0
 10
-75.901200000000003
 20
57.275799999999997
 30
0.0
 10
-75.901200000000003
 20
57.275799999999997
 30
0.0
 10
-75.901200000000003
 20
57.275799999999997
 30
0.0
 10
-75.901200000000003
 20
57.275799999999997
 30
0.0
 10
-75.824299999999994
 20
58.428100000000001
 30
0.0
 10
-75.824299999999994
 20
58.428100000000001
 30
0.0
 10
-75.824299999999994
 20
58.428100000000001
 30
0.0
 10
-75.824299999999994
 20
58.428100000000001
 30
0.0
 10
-73.399900000000002
 20
58.266500000000001
 30
0.0
 10
-73.399900000000002
 20
58.266500000000001
 30
0.0
 10
-73.399900000000002
 20
58.266500000000001
 30
0.0
 10
-73.649100000000004
 20
58.672699999999999
 30
0.0
 10
-73.880399999999995
 20
59.091000000000001
 30
0.0
 10
-74.095200000000006
 20
59.519300000000001
 30
0.0
 10
-74.095200000000006
 20
59.519300000000001
 30
0.0
 10
-74.095200000000006
 20
59.519300000000001
 30
0.0
 10
-76.142499999999998
 20
59.656500000000001
 30
0.0
 10
-76.142499999999998
 20
59.656500000000001
 30
0.0
 10
-76.142499999999998
 20
59.656500000000001
 30
0.0
 10
-76.142499999999998
 20
59.656500000000001
 30
0.0
 10
-76.039699999999996
 20
61.192999999999998
 30
0.0
 10
-76.039699999999996
 20
61.192999999999998
 30
0.0
 10
-76.039699999999996
 20
61.192999999999998
 30
0.0
 10
-76.039699999999996
 20
61.192999999999998
 30
0.0
 10
-74.791399999999996
 20
61.109499999999997
 30
0.0
 10
-74.791399999999996
 20
61.109499999999997
 30
0.0
 10
-74.791399999999996
 20
61.109499999999997
 30
0.0
 10
-75.256100000000004
 20
62.342300000000002
 30
0.0
 10
-75.580200000000005
 20
63.644399999999997
 30
0.0
 10
-75.744799999999998
 20
64.994900000000001
 30
0.0
 10
-75.744799999999998
 20
64.994900000000001
 30
0.0
 10
-75.744799999999998
 20
64.994900000000001
 30
0.0
 10
-84.136399999999995
 20
55.398699999999998
 30
0.0
 10
-84.136399999999995
 20
55.398699999999998
 30
0.0
 10
-84.136399999999995
 20
55.398699999999998
 30
0.0
 10
-84.136399999999995
 20
55.398699999999998
 30
0.0
 10
-85.928100000000001
 20
56.965200000000003
 30
0.0
 10
-85.928100000000001
 20
56.965200000000003
 30
0.0
 10
-85.928100000000001
 20
56.965200000000003
 30
0.0
 10
-85.928100000000001
 20
56.965200000000003
 30
0.0
 10
-78.150300000000001
 20
65.859200000000001
 30
0.0
 10
-78.150300000000001
 20
65.859200000000001
 30
0.0
 10
-78.150300000000001
 20
65.859200000000001
 30
0.0
 10
-78.150300000000001
 20
65.859200000000001
 30
0.0
 10
-80.178100000000001
 20
65.859200000000001
 30
0.0
 10
-80.178100000000001
 20
65.859200000000001
 30
0.0
 10
-80.178100000000001
 20
65.859200000000001
 30
0.0
 10
-80.178100000000001
 20
65.859200000000001
 30
0.0
 10
-86.921599999999998
 20
58.147399999999998
 30
0.0
 10
-86.921599999999998
 20
58.147399999999998
 30
0.0
 10
-86.921599999999998
 20
58.147399999999998
 30
0.0
 10
-86.921599999999998
 20
58.147399999999998
 30
0.0
 10
-87.936099999999996
 20
59.0349
 30
0.0
 10
-87.936099999999996
 20
59.0349
 30
0.0
 10
-87.936099999999996
 20
59.0349
 30
0.0
 10
-85.103200000000001
 20
48.798400000000001
 30
0.0
 10
-76.980099999999993
 20
40.758400000000002
 30
0.0
 10
-66.695300000000003
 20
38.044899999999998
 30
0.0
 10
-66.695300000000003
 20
38.044899999999998
 30
0.0
 10
-66.695300000000003
 20
38.044899999999998
 30
0.0
 10
-67.663499999999999
 20
39.152500000000003
 30
0.0
 10
-67.663499999999999
 20
39.152500000000003
 30
0.0
 10
-67.663499999999999
 20
39.152500000000003
 30
0.0
 10
-67.663499999999999
 20
39.152500000000003
 30
0.0
 10
-60.215000000000003
 20
45.6661
 30
0.0
 10
-60.215000000000003
 20
45.6661
 30
0.0
 10
-60.215000000000003
 20
45.6661
 30
0.0
 10
-60.215000000000003
 20
45.6661
 30
0.0
 10
-60.215000000000003
 20
48.1372
 30
0.0
 10
-60.215000000000003
 20
48.1372
 30
0.0
 10
-60.215000000000003
 20
48.1372
 30
0.0
 10
-60.215000000000003
 20
48.1372
 30
0.0
 10
-69.352999999999994
 20
40.146099999999997
 30
0.0
 10
-69.352999999999994
 20
40.146099999999997
 30
0.0
 10
-69.352999999999994
 20
40.146099999999997
 30
0.0
 10
-69.352999999999994
 20
40.146099999999997
 30
0.0
 10
-70.920400000000001
 20
41.9377
 30
0.0
 10
-70.920400000000001
 20
41.9377
 30
0.0
 10
-70.920400000000001
 20
41.9377
 30
0.0
 10
-70.920400000000001
 20
41.9377
 30
0.0
 10
-61.2928
 20
50.356999999999999
 30
0.0
 10
-61.2928
 20
50.356999999999999
 30
0.0
  0
SPLINE
  5
3A
100
AcDbEntity
  8
RÚteg 1
 62
     7
100
AcDbSpline
210
0.0
220
0.0
230
1.0
 70
     1
 71
     3
 72
   172
 73
   168
 74
     0
 42
0.0000000001
 43
0.0000000001
 40
0.0
 40
0.0
 40
0.0
 40
0.0
 40
0.0238095238095238
 40
0.0238095238095238
 40
0.0238095238095238
 40
0.0238095238095238
 40
0.0476190476190476
 40
0.0476190476190476
 40
0.0476190476190476
 40
0.0476190476190476
 40
0.0714285714285714
 40
0.0714285714285714
 40
0.0714285714285714
 40
0.0714285714285714
 40
0.0952380952380952
 40
0.0952380952380952
 40
0.0952380952380952
 40
0.0952380952380952
 40
0.119047619047619
 40
0.119047619047619
 40
0.119047619047619
 40
0.119047619047619
 40
0.1428571428571429
 40
0.1428571428571429
 40
0.1428571428571429
 40
0.1428571428571429
 40
0.1666666666666667
 40
0.1666666666666667
 40
0.1666666666666667
 40
0.1666666666666667
 40
0.1904761904761905
 40
0.1904761904761905
 40
0.1904761904761905
 40
0.1904761904761905
 40
0.2142857142857143
 40
0.2142857142857143
 40
0.2142857142857143
 40
0.2142857142857143
 40
0.2380952380952381
 40
0.2380952380952381
 40
0.2380952380952381
 40
0.2380952380952381
 40
0.2619047619047619
 40
0.2619047619047619
 40
0.2619047619047619
 40
0.2619047619047619
 40
0.2857142857142857
 40
0.2857142857142857
 40
0.2857142857142857
 40
0.2857142857142857
 40
0.3095238095238095
 40
0.3095238095238095
 40
0.3095238095238095
 40
0.3095238095238095
 40
0.3333333333333334
 40
0.3333333333333334
 40
0.3333333333333334
 40
0.3333333333333334
 40
0.3571428571428572
 40
0.3571428571428572
 40
0.3571428571428572
 40
0.3571428571428572
 40
0.380952380952381
 40
0.380952380952381
 40
0.380952380952381
 40
0.380952380952381
 40
0.4047619047619049
 40
0.4047619047619049
 40
0.4047619047619049
 40
0.4047619047619049
 40
0.4285714285714287
 40
0.4285714285714287
 40
0.4285714285714287
 40
0.4285714285714287
 40
0.4523809523809526
 40
0.4523809523809526
 40
0.4523809523809526
 40
0.4523809523809526
 40
0.4761904761904764
 40
0.4761904761904764
 40
0.4761904761904764
 40
0.4761904761904764
 40
0.5000000000000002
 40
0.5000000000000002
 40
0.5000000000000002
 40
0.5000000000000002
 40
0.5238095238095241
 40
0.5238095238095241
 40
0.5238095238095241
 40
0.5238095238095241
 40
0.5476190476190479
 40
0.5476190476190479
 40
0.5476190476190479
 40
0.5476190476190479
 40
0.5714285714285717
 40
0.5714285714285717
 40
0.5714285714285717
 40
0.5714285714285717
 40
0.5952380952380956
 40
0.5952380952380956
 40
0.5952380952380956
 40
0.5952380952380956
 40
0.6190476190476194
 40
0.6190476190476194
 40
0.6190476190476194
 40
0.6190476190476194
 40
0.6428571428571432
 40
0.6428571428571432
 40
0.6428571428571432
 40
0.6428571428571432
 40
0.6666666666666671
 40
0.6666666666666671
 40
0.6666666666666671
 40
0.6666666666666671
 40
0.6904761904761909
 40
0.6904761904761909
 40
0.6904761904761909
 40
0.6904761904761909
 40
0.7142857142857148
 40
0.7142857142857148
 40
0.7142857142857148
 40
0.7142857142857148
 40
0.7380952380952386
 40
0.7380952380952386
 40
0.7380952380952386
 40
0.7380952380952386
 40
0.7619047619047624
 40
0.7619047619047624
 40
0.7619047619047624
 40
0.7619047619047624
 40
0.7857142857142863
 40
0.7857142857142863
 40
0.7857142857142863
 40
0.7857142857142863
 40
0.8095238095238101
 40
0.8095238095238101
 40
0.8095238095238101
 40
0.8095238095238101
 40
0.8333333333333339
 40
0.8333333333333339
 40
0.8333333333333339
 40
0.8333333333333339
 40
0.8571428571428578
 40
0.8571428571428578
 40
0.8571428571428578
 40
0.8571428571428578
 40
0.8809523809523816
 40
0.8809523809523816
 40
0.8809523809523816
 40
0.8809523809523816
 40
0.9047619047619054
 40
0.9047619047619054
 40
0.9047619047619054
 40
0.9047619047619054
 40
0.9285714285714293
 40
0.9285714285714293
 40
0.9285714285714293
 40
0.9285714285714293
 40
0.9523809523809531
 40
0.9523809523809531
 40
0.9523809523809531
 40
0.9523809523809531
 40
0.9761904761904769
 40
0.9761904761904769
 40
0.9761904761904769
 40
0.9761904761904769
 40
1.0
 40
1.0
 40
1.0
 40
1.0
 10
-75.717299999999994
 20
69.3172
 30
0.0
 10
-75.520899999999997
 20
70.775800000000004
 30
0.0
 10
-75.138000000000005
 20
72.174999999999997
 30
0.0
 10
-74.592799999999997
 20
73.490300000000005
 30
0.0
 10
-74.592799999999997
 20
73.490300000000005
 30
0.0
 10
-74.592799999999997
 20
73.490300000000005
 30
0.0
 10
-75.927800000000005
 20
73.400999999999996
 30
0.0
 10
-75.927800000000005
 20
73.400999999999996
 30
0.0
 10
-75.927800000000005
 20
73.400999999999996
 30
0.0
 10
-75.927800000000005
 20
73.400999999999996
 30
0.0
 10
-76.031099999999995
 20
74.938000000000002
 30
0.0
 10
-76.031099999999995
 20
74.938000000000002
 30
0.0
 10
-76.031099999999995
 20
74.938000000000002
 30
0.0
 10
-76.031099999999995
 20
74.938000000000002
 30
0.0
 10
-73.832499999999996
 20
75.085400000000007
 30
0.0
 10
-73.832499999999996
 20
75.085400000000007
 30
0.0
 10
-73.832499999999996
 20
75.085400000000007
 30
0.0
 10
-73.641400000000004
 20
75.436899999999994
 30
0.0
 10
-73.437799999999996
 20
75.780799999999999
 30
0.0
 10
-73.222899999999996
 20
76.116399999999999
 30
0.0
 10
-73.222899999999996
 20
76.116399999999999
 30
0.0
 10
-73.222899999999996
 20
76.116399999999999
 30
0.0
 10
-75.944800000000001
 20
75.934299999999993
 30
0.0
 10
-75.944800000000001
 20
75.934299999999993
 30
0.0
 10
-75.944800000000001
 20
75.934299999999993
 30
0.0
 10
-75.944800000000001
 20
75.934299999999993
 30
0.0
 10
-76.022000000000006
 20
77.087100000000007
 30
0.0
 10
-76.022000000000006
 20
77.087100000000007
 30
0.0
 10
-76.022000000000006
 20
77.087100000000007
 30
0.0
 10
-76.022000000000006
 20
77.087100000000007
 30
0.0
 10
-72.366
 20
77.331900000000005
 30
0.0
 10
-72.366
 20
77.331900000000005
 30
0.0
 10
-72.366
 20
77.331900000000005
 30
0.0
 10
-72.064800000000005
 20
77.721999999999994
 30
0.0
 10
-71.747
 20
78.099000000000004
 30
0.0
 10
-71.413200000000003
 20
78.461100000000002
 30
0.0
 10
-71.413200000000003
 20
78.461100000000002
 30
0.0
 10
-71.413200000000003
 20
78.461100000000002
 30
0.0
 10
-71.700400000000002
 20
78.748500000000007
 30
0.0
 10
-71.700400000000002
 20
78.748500000000007
 30
0.0
 10
-71.700400000000002
 20
78.748500000000007
 30
0.0
 10
-71.700400000000002
 20
78.748500000000007
 30
0.0
 10
-76.038300000000007
 20
78.457999999999998
 30
0.0
 10
-76.038300000000007
 20
78.457999999999998
 30
0.0
 10
-76.038300000000007
 20
78.457999999999998
 30
0.0
 10
-76.038300000000007
 20
78.457999999999998
 30
0.0
 10
-76.096000000000004
 20
79.322599999999994
 30
0.0
 10
-76.096000000000004
 20
79.322599999999994
 30
0.0
 10
-76.096000000000004
 20
79.322599999999994
 30
0.0
 10
-76.096000000000004
 20
79.322599999999994
 30
0.0
 10
-72.514600000000002
 20
79.562100000000001
 30
0.0
 10
-72.514600000000002
 20
79.562100000000001
 30
0.0
 10
-72.514600000000002
 20
79.562100000000001
 30
0.0
 10
-72.514600000000002
 20
79.562100000000001
 30
0.0
 10
-73.3673
 20
80.415199999999999
 30
0.0
 10
-73.3673
 20
80.415199999999999
 30
0.0
 10
-73.3673
 20
80.415199999999999
 30
0.0
 10
-73.3673
 20
80.415199999999999
 30
0.0
 10
-72.278099999999995
 20
81.504199999999997
 30
0.0
 10
-72.278099999999995
 20
81.504199999999997
 30
0.0
 10
-72.278099999999995
 20
81.504199999999997
 30
0.0
 10
-72.278099999999995
 20
81.504199999999997
 30
0.0
 10
-71.493300000000005
 20
80.719899999999996
 30
0.0
 10
-71.493300000000005
 20
80.719899999999996
 30
0.0
 10
-71.493300000000005
 20
80.719899999999996
 30
0.0
 10
-71.493300000000005
 20
80.719899999999996
 30
0.0
 10
-71.2637
 20
84.1554
 30
0.0
 10
-71.2637
 20
84.1554
 30
0.0
 10
-71.2637
 20
84.1554
 30
0.0
 10
-71.2637
 20
84.1554
 30
0.0
 10
-70.398600000000002
 20
84.097300000000004
 30
0.0
 10
-70.398600000000002
 20
84.097300000000004
 30
0.0
 10
-70.398600000000002
 20
84.097300000000004
 30
0.0
 10
-70.398600000000002
 20
84.097300000000004
 30
0.0
 10
-70.679599999999994
 20
79.906099999999995
 30
0.0
 10
-70.679599999999994
 20
79.906099999999995
 30
0.0
 10
-70.679599999999994
 20
79.906099999999995
 30
0.0
 10
-70.679599999999994
 20
79.906099999999995
 30
0.0
 10
-70.319100000000006
 20
79.545900000000003
 30
0.0
 10
-70.319100000000006
 20
79.545900000000003
 30
0.0
 10
-70.319100000000006
 20
79.545900000000003
 30
0.0
 10
-69.995699999999999
 20
79.8386
 30
0.0
 10
-69.660200000000003
 20
80.117900000000006
 30
0.0
 10
-69.314800000000005
 20
80.385599999999997
 30
0.0
 10
-69.314800000000005
 20
80.385599999999997
 30
0.0
 10
-69.314800000000005
 20
80.385599999999997
 30
0.0
 10
-69.069800000000001
 20
84.038300000000007
 30
0.0
 10
-69.069800000000001
 20
84.038300000000007
 30
0.0
 10
-69.069800000000001
 20
84.038300000000007
 30
0.0
 10
-69.069800000000001
 20
84.038300000000007
 30
0.0
 10
-67.917299999999997
 20
83.961399999999998
 30
0.0
 10
-67.917299999999997
 20
83.961399999999998
 30
0.0
 10
-67.917299999999997
 20
83.961399999999998
 30
0.0
 10
-67.917299999999997
 20
83.961399999999998
 30
0.0
 10
-68.099400000000003
 20
81.242800000000003
 30
0.0
 10
-68.099400000000003
 20
81.242800000000003
 30
0.0
 10
-68.099400000000003
 20
81.242800000000003
 30
0.0
 10
-67.692400000000006
 20
81.503900000000002
 30
0.0
 10
-67.273200000000003
 20
81.746300000000005
 30
0.0
 10
-66.843400000000003
 20
81.971800000000002
 30
0.0
 10
-66.843400000000003
 20
81.971800000000002
 30
0.0
 10
-66.843400000000003
 20
81.971800000000002
 30
0.0
 10
-66.688800000000001
 20
84.280100000000004
 30
0.0
 10
-66.688800000000001
 20
84.280100000000004
 30
0.0
 10
-66.688800000000001
 20
84.280100000000004
 30
0.0
 10
-66.688800000000001
 20
84.280100000000004
 30
0.0
 10
-65.152199999999993
 20
84.176599999999993
 30
0.0
 10
-65.152199999999993
 20
84.176599999999993
 30
0.0
 10
-65.152199999999993
 20
84.176599999999993
 30
0.0
 10
-65.152199999999993
 20
84.176599999999993
 30
0.0
 10
-65.250799999999998
 20
82.705600000000004
 30
0.0
 10
-65.250799999999998
 20
82.705600000000004
 30
0.0
 10
-65.250799999999998
 20
82.705600000000004
 30
0.0
 10
-63.933999999999997
 20
83.230199999999996
 30
0.0
 10
-62.535499999999999
 20
83.592299999999994
 30
0.0
 10
-61.079799999999999
 20
83.769400000000005
 30
0.0
 10
-61.079799999999999
 20
83.769400000000005
 30
0.0
 10
-61.079799999999999
 20
83.769400000000005
 30
0.0
 10
-70.675600000000003
 20
92.160700000000006
 30
0.0
 10
-70.675600000000003
 20
92.160700000000006
 30
0.0
 10
-70.675600000000003
 20
92.160700000000006
 30
0.0
 10
-70.675600000000003
 20
92.160700000000006
 30
0.0
 10
-69.109200000000001
 20
93.952200000000005
 30
0.0
 10
-69.109200000000001
 20
93.952200000000005
 30
0.0
 10
-69.109200000000001
 20
93.952200000000005
 30
0.0
 10
-69.109200000000001
 20
93.952200000000005
 30
0.0
 10
-60.215000000000003
 20
86.174899999999994
 30
0.0
 10
-60.215000000000003
 20
86.174899999999994
 30
0.0
 10
-60.215000000000003
 20
86.174899999999994
 30
0.0
 10
-60.215000000000003
 20
86.174899999999994
 30
0.0
 10
-60.215000000000003
 20
88.202399999999997
 30
0.0
 10
-60.215000000000003
 20
88.202399999999997
 30
0.0
 10
-60.215000000000003
 20
88.202399999999997
 30
0.0
 10
-60.215000000000003
 20
88.202399999999997
 30
0.0
 10
-67.927000000000007
 20
94.946299999999994
 30
0.0
 10
-67.927000000000007
 20
94.946299999999994
 30
0.0
 10
-67.927000000000007
 20
94.946299999999994
 30
0.0
 10
-67.927000000000007
 20
94.946299999999994
 30
0.0
 10
-67.039199999999994
 20
95.960899999999995
 30
0.0
 10
-67.039199999999994
 20
95.960899999999995
 30
0.0
 10
-67.039199999999994
 20
95.960899999999995
 30
0.0
 10
-77.275899999999993
 20
93.128699999999995
 30
0.0
 10
-85.316299999999998
 20
85.004499999999993
 30
0.0
 10
-88.029600000000002
 20
74.719200000000001
 30
0.0
 10
-88.029600000000002
 20
74.719200000000001
 30
0.0
 10
-88.029600000000002
 20
74.719200000000001
 30
0.0
 10
-86.921599999999998
 20
75.687600000000003
 30
0.0
 10
-86.921599999999998
 20
75.687600000000003
 30
0.0
 10
-86.921599999999998
 20
75.687600000000003
 30
0.0
 10
-86.921599999999998
 20
75.687600000000003
 30
0.0
 10
-80.4084
 20
68.239099999999993
 30
0.0
 10
-80.4084
 20
68.239099999999993
 30
0.0
 10
-80.4084
 20
68.239099999999993
 30
0.0
 10
-80.4084
 20
68.239099999999993
 30
0.0
 10
-77.937299999999993
 20
68.239099999999993
 30
0.0
 10
-77.937299999999993
 20
68.239099999999993
 30
0.0
 10
-77.937299999999993
 20
68.239099999999993
 30
0.0
 10
-77.937299999999993
 20
68.239099999999993
 30
0.0
 10
-85.928100000000001
 20
77.377499999999998
 30
0.0
 10
-85.928100000000001
 20
77.377499999999998
 30
0.0
 10
-85.928100000000001
 20
77.377499999999998
 30
0.0
 10
-85.928100000000001
 20
77.377499999999998
 30
0.0
 10
-84.136399999999995
 20
78.944400000000002
 30
0.0
 10
-84.136399999999995
 20
78.944400000000002
 30
0.0
 10
-84.136399999999995
 20
78.944400000000002
 30
0.0
 10
-84.136399999999995
 20
78.944400000000002
 30
0.0
 10
-75.717299999999994
 20
69.3172
 30
0.0
 10
-75.717299999999994
 20
69.3172
 30
0.0
  0
SPLINE
  5
3B
100
AcDbEntity
  8
RÚteg 1
 62
     7
100
AcDbSpline
210
0.0
220
0.0
230
1.0
 70
     1
 71
     3
 72
    20
 73
    16
 74
     0
 42
0.0000000001
 43
0.0000000001
 40
0.0
 40
0.0
 40
0.0
 40
0.0
 40
0.25
 40
0.25
 40
0.25
 40
0.25
 40
0.5
 40
0.5
 40
0.5
 40
0.5
 40
0.75
 40
0.75
 40
0.75
 40
0.75
 40
1.0
 40
1.0
 40
1.0
 40
1.0
 10
-57.835000000000001
 20
82.404300000000006
 30
0.0
 10
-56.034399999999998
 20
82.266800000000003
 30
0.0
 10
-54.320500000000003
 20
81.819000000000003
 30
0.0
 10
-52.746299999999998
 20
81.114500000000007
 30
0.0
 10
-52.746299999999998
 20
81.114500000000007
 30
0.0
 10
-52.746299999999998
 20
81.114500000000007
 30
0.0
 10
-52.343200000000003
 20
75.091499999999996
 30
0.0
 10
-52.343200000000003
 20
75.091499999999996
 30
0.0
 10
-52.343200000000003
 20
75.091499999999996
 30
0.0
 10
-52.343200000000003
 20
75.091499999999996
 30
0.0
 10
-57.835000000000001
 20
69.600300000000004
 30
0.0
 10
-57.835000000000001
 20
69.600300000000004
 30
0.0
 10
-57.835000000000001
 20
69.600300000000004
 30
0.0
 10
-57.835000000000001
 20
69.600300000000004
 30
0.0
 10
-57.835000000000001
 20
82.404300000000006
 30
0.0
 10
-57.835000000000001
 20
82.404300000000006
 30
0.0
  0
SPLINE
  5
3C
100
AcDbEntity
  8
RÚteg 1
 62
     7
100
AcDbSpline
210
0.0
220
0.0
230
1.0
 70
     1
 71
     3
 72
    20
 73
    16
 74
     0
 42
0.0000000001
 43
0.0000000001
 40
0.0
 40
0.0
 40
0.0
 40
0.0
 40
0.25
 40
0.25
 40
0.25
 40
0.25
 40
0.5
 40
0.5
 40
0.5
 40
0.5
 40
0.75
 40
0.75
 40
0.75
 40
0.75
 40
1.0
 40
1.0
 40
1.0
 40
1.0
 10
-51.147300000000001
 20
80.283199999999994
 30
0.0
 10
-50.7928
 20
80.072000000000003
 30
0.0
 10
-50.447200000000002
 20
79.847300000000004
 30
0.0
 10
-50.112000000000002
 20
79.608999999999995
 30
0.0
 10
-50.112000000000002
 20
79.608999999999995
 30
0.0
 10
-50.112000000000002
 20
79.608999999999995
 30
0.0
 10
-49.968600000000002
 20
77.466200000000001
 30
0.0
 10
-49.968600000000002
 20
77.466200000000001
 30
0.0
 10
-49.968600000000002
 20
77.466200000000001
 30
0.0
 10
-49.968600000000002
 20
77.466200000000001
 30
0.0
 10
-50.896599999999999
 20
76.5381
 30
0.0
 10
-50.896599999999999
 20
76.5381
 30
0.0
 10
-50.896599999999999
 20
76.5381
 30
0.0
 10
-50.896599999999999
 20
76.5381
 30
0.0
 10
-51.147300000000001
 20
80.283199999999994
 30
0.0
 10
-51.147300000000001
 20
80.283199999999994
 30
0.0
  0
SPLINE
  5
3D
100
AcDbEntity
  8
RÚteg 1
 62
     7
100
AcDbSpline
210
0.0
220
0.0
230
1.0
 70
     1
 71
     3
 72
    16
 73
    12
 74
     0
 42
0.0000000001
 43
0.0000000001
 40
0.0
 40
0.0
 40
0.0
 40
0.0
 40
0.3333333333333333
 40
0.3333333333333333
 40
0.3333333333333333
 40
0.3333333333333333
 40
0.6666666666666666
 40
0.6666666666666666
 40
0.6666666666666666
 40
0.6666666666666666
 40
1.0
 40
1.0
 40
1.0
 40
1.0
 10
-48.889000000000003
 20
78.641800000000003
 30
0.0
 10
-48.889000000000003
 20
78.641800000000003
 30
0.0
 10
-48.837499999999999
 20
78.596800000000002
 30
0.0
 10
-48.837499999999999
 20
78.596800000000002
 30
0.0
 10
-48.837499999999999
 20
78.596800000000002
 30
0.0
 10
-48.837499999999999
 20
78.596800000000002
 30
0.0
 10
-48.882800000000003
 20
78.551699999999997
 30
0.0
 10
-48.882800000000003
 20
78.551699999999997
 30
0.0
 10
-48.882800000000003
 20
78.551699999999997
 30
0.0
 10
-48.882800000000003
 20
78.551699999999997
 30
0.0
 10
-48.889000000000003
 20
78.641800000000003
 30
0.0
 10
-48.889000000000003
 20
78.641800000000003
 30
0.0
  0
SPLINE
  5
3E
100
AcDbEntity
  8
RÚteg 1
 62
     7
100
AcDbSpline
210
0.0
220
0.0
230
1.0
 70
     1
 71
     3
 72
    20
 73
    16
 74
     0
 42
0.0000000001
 43
0.0000000001
 40
0.0
 40
0.0
 40
0.0
 40
0.0
 40
0.25
 40
0.25
 40
0.25
 40
0.25
 40
0.5
 40
0.5
 40
0.5
 40
0.5
 40
0.75
 40
0.75
 40
0.75
 40
0.75
 40
1.0
 40
1.0
 40
1.0
 40
1.0
 10
-46.749299999999998
 20
76.346699999999998
 30
0.0
 10
-46.4405
 20
75.9405
 30
0.0
 10
-46.152200000000001
 20
75.518699999999995
 30
0.0
 10
-45.884500000000003
 20
75.082099999999997
 30
0.0
 10
-45.884500000000003
 20
75.082099999999997
 30
0.0
 10
-45.884500000000003
 20
75.082099999999997
 30
0.0
 10
-49.9054
 20
75.351600000000005
 30
0.0
 10
-49.9054
 20
75.351600000000005
 30
0.0
 10
-49.9054
 20
75.351600000000005
 30
0.0
 10
-49.9054
 20
75.351600000000005
 30
0.0
 10
-48.773899999999998
 20
76.482399999999998
 30
0.0
 10
-48.773899999999998
 20
76.482399999999998
 30
0.0
 10
-48.773899999999998
 20
76.482399999999998
 30
0.0
 10
-48.773899999999998
 20
76.482399999999998
 30
0.0
 10
-46.749299999999998
 20
76.346699999999998
 30
0.0
 10
-46.749299999999998
 20
76.346699999999998
 30
0.0
  0
SPLINE
  5
3F
100
AcDbEntity
  8
RÚteg 1
 62
     7
100
AcDbSpline
210
0.0
220
0.0
230
1.0
 70
     1
 71
     3
 72
    20
 73
    16
 74
     0
 42
0.0000000001
 43
0.0000000001
 40
0.0
 40
0.0
 40
0.0
 40
0.0
 40
0.25
 40
0.25
 40
0.25
 40
0.25
 40
0.5
 40
0.5
 40
0.5
 40
0.5
 40
0.75
 40
0.75
 40
0.75
 40
0.75
 40
1.0
 40
1.0
 40
1.0
 40
1.0
 10
-45.029499999999999
 20
73.481200000000001
 30
0.0
 10
-44.285299999999999
 20
71.864999999999995
 30
0.0
 10
-43.812399999999997
 20
70.098299999999995
 30
0.0
 10
-43.670200000000001
 20
68.239099999999993
 30
0.0
 10
-43.670200000000001
 20
68.239099999999993
 30
0.0
 10
-43.670200000000001
 20
68.239099999999993
 30
0.0
 10
-57.017000000000003
 20
68.239099999999993
 30
0.0
 10
-57.017000000000003
 20
68.239099999999993
 30
0.0
 10
-57.017000000000003
 20
68.239099999999993
 30
0.0
 10
-57.017000000000003
 20
68.239099999999993
 30
0.0
 10
-51.352200000000003
 20
73.904700000000005
 30
0.0
 10
-51.352200000000003
 20
73.904700000000005
 30
0.0
 10
-51.352200000000003
 20
73.904700000000005
 30
0.0
 10
-51.352200000000003
 20
73.904700000000005
 30
0.0
 10
-45.029499999999999
 20
73.481200000000001
 30
0.0
 10
-45.029499999999999
 20
73.481200000000001
 30
0.0
  0
SPLINE
  5
40
100
AcDbEntity
  8
RÚteg 1
 62
     7
100
AcDbSpline
210
0.0
220
0.0
230
1.0
 70
     1
 71
     3
 72
    20
 73
    16
 74
     0
 42
0.0000000001
 43
0.0000000001
 40
0.0
 40
0.0
 40
0.0
 40
0.0
 40
0.25
 40
0.25
 40
0.25
 40
0.25
 40
0.5
 40
0.5
 40
0.5
 40
0.5
 40
0.75
 40
0.75
 40
0.75
 40
0.75
 40
1.0
 40
1.0
 40
1.0
 40
1.0
 10
-43.670200000000001
 20
65.859200000000001
 30
0.0
 10
-43.804200000000002
 20
64.109800000000007
 30
0.0
 10
-44.231000000000002
 20
62.442999999999998
 30
0.0
 10
-44.900399999999998
 20
60.905900000000003
 30
0.0
 10
-44.900399999999998
 20
60.905900000000003
 30
0.0
 10
-44.900399999999998
 20
60.905900000000003
 30
0.0
 10
-51.254199999999997
 20
60.4803
 30
0.0
 10
-51.254199999999997
 20
60.4803
 30
0.0
 10
-51.254199999999997
 20
60.4803
 30
0.0
 10
-51.254199999999997
 20
60.4803
 30
0.0
 10
-56.632599999999996
 20
65.859200000000001
 30
0.0
 10
-56.632599999999996
 20
65.859200000000001
 30
0.0
 10
-56.632599999999996
 20
65.859200000000001
 30
0.0
 10
-56.632599999999996
 20
65.859200000000001
 30
0.0
 10
-43.670200000000001
 20
65.859200000000001
 30
0.0
 10
-43.670200000000001
 20
65.859200000000001
 30
0.0
  0
SPLINE
  5
41
100
AcDbEntity
  8
RÚteg 1
 62
     7
100
AcDbSpline
210
0.0
220
0.0
230
1.0
 70
     1
 71
     3
 72
    20
 73
    16
 74
     0
 42
0.0000000001
 43
0.0000000001
 40
0.0
 40
0.0
 40
0.0
 40
0.0
 40
0.25
 40
0.25
 40
0.25
 40
0.25
 40
0.5
 40
0.5
 40
0.5
 40
0.5
 40
0.75
 40
0.75
 40
0.75
 40
0.75
 40
1.0
 40
1.0
 40
1.0
 40
1.0
 10
-45.710799999999999
 20
59.308199999999999
 30
0.0
 10
-45.917400000000001
 20
58.9542
 30
0.0
 10
-46.137300000000003
 20
58.609099999999998
 30
0.0
 10
-46.370399999999997
 20
58.273699999999998
 30
0.0
 10
-46.370399999999997
 20
58.273699999999998
 30
0.0
 10
-46.370399999999997
 20
58.273699999999998
 30
0.0
 10
-48.879399999999997
 20
58.105899999999998
 30
0.0
 10
-48.879399999999997
 20
58.105899999999998
 30
0.0
 10
-48.879399999999997
 20
58.105899999999998
 30
0.0
 10
-48.879399999999997
 20
58.105899999999998
 30
0.0
 10
-49.807400000000001
 20
59.033099999999997
 30
0.0
 10
-49.807400000000001
 20
59.033099999999997
 30
0.0
 10
-49.807400000000001
 20
59.033099999999997
 30
0.0
 10
-49.807400000000001
 20
59.033099999999997
 30
0.0
 10
-45.710799999999999
 20
59.308199999999999
 30
0.0
 10
-45.710799999999999
 20
59.308199999999999
 30
0.0
  0
SPLINE
  5
42
100
AcDbEntity
  8
RÚteg 1
 62
     7
100
AcDbSpline
210
0.0
220
0.0
230
1.0
 70
     1
 71
     3
 72
    16
 73
    12
 74
     0
 42
0.0000000001
 43
0.0000000001
 40
0.0
 40
0.0
 40
0.0
 40
0.0
 40
0.3333333333333333
 40
0.3333333333333333
 40
0.3333333333333333
 40
0.3333333333333333
 40
0.6666666666666666
 40
0.6666666666666666
 40
0.6666666666666666
 40
0.6666666666666666
 40
1.0
 40
1.0
 40
1.0
 40
1.0
 10
-47.312399999999997
 20
57.052700000000002
 30
0.0
 10
-47.391199999999998
 20
56.960299999999997
 30
0.0
 10
-47.471200000000003
 20
56.869199999999999
 30
0.0
 10
-47.552300000000002
 20
56.778500000000001
 30
0.0
 10
-47.552300000000002
 20
56.778500000000001
 30
0.0
 10
-47.552300000000002
 20
56.778500000000001
 30
0.0
 10
-47.794199999999996
 20
57.020499999999998
 30
0.0
 10
-47.794199999999996
 20
57.020499999999998
 30
0.0
 10
-47.794199999999996
 20
57.020499999999998
 30
0.0
 10
-47.794199999999996
 20
57.020499999999998
 30
0.0
 10
-47.312399999999997
 20
57.052700000000002
 30
0.0
 10
-47.312399999999997
 20
57.052700000000002
 30
0.0
  0
SPLINE
  5
43
100
AcDbEntity
  8
RÚteg 1
 62
     7
100
AcDbSpline
210
0.0
220
0.0
230
1.0
 70
     1
 71
     3
 72
    16
 73
    12
 74
     0
 42
0.0000000001
 43
0.0000000001
 40
0.0
 40
0.0
 40
0.0
 40
0.0
 40
0.3333333333333333
 40
0.3333333333333333
 40
0.3333333333333333
 40
0.3333333333333333
 40
0.6666666666666666
 40
0.6666666666666666
 40
0.6666666666666666
 40
0.6666666666666666
 40
1.0
 40
1.0
 40
1.0
 40
1.0
 10
-48.635100000000001
 20
55.683500000000002
 30
0.0
 10
-48.688800000000001
 20
55.634599999999999
 30
0.0
 10
-48.743000000000002
 20
55.586799999999997
 30
0.0
 10
-48.796900000000001
 20
55.538499999999999
 30
0.0
 10
-48.796900000000001
 20
55.538499999999999
 30
0.0
 10
-48.796900000000001
 20
55.538499999999999
 30
0.0
 10
-48.777500000000003
 20
55.826000000000001
 30
0.0
 10
-48.777500000000003
 20
55.826000000000001
 30
0.0
 10
-48.777500000000003
 20
55.826000000000001
 30
0.0
 10
-48.777500000000003
 20
55.826000000000001
 30
0.0
 10
-48.635100000000001
 20
55.683500000000002
 30
0.0
 10
-48.635100000000001
 20
55.683500000000002
 30
0.0
  0
SPLINE
  5
44
100
AcDbEntity
  8
RÚteg 1
 62
     7
100
AcDbSpline
210
0.0
220
0.0
230
1.0
 70
     1
 71
     3
 72
    20
 73
    16
 74
     0
 42
0.0000000001
 43
0.0000000001
 40
0.0
 40
0.0
 40
0.0
 40
0.0
 40
0.25
 40
0.25
 40
0.25
 40
0.25
 40
0.5
 40
0.5
 40
0.5
 40
0.5
 40
0.75
 40
0.75
 40
0.75
 40
0.75
 40
1.0
 40
1.0
 40
1.0
 40
1.0
 10
-50.020499999999998
 20
54.556800000000003
 30
0.0
 10
-50.426499999999997
 20
54.263399999999997
 30
0.0
 10
-50.847999999999999
 20
53.988900000000001
 30
0.0
 10
-51.282600000000002
 20
53.735500000000002
 30
0.0
 10
-51.282600000000002
 20
53.735500000000002
 30
0.0
 10
-51.282600000000002
 20
53.735500000000002
 30
0.0
 10
-50.994500000000002
 20
58.041899999999998
 30
0.0
 10
-50.994500000000002
 20
58.041899999999998
 30
0.0
 10
-50.994500000000002
 20
58.041899999999998
 30
0.0
 10
-50.994500000000002
 20
58.041899999999998
 30
0.0
 10
-49.862699999999997
 20
56.911299999999997
 30
0.0
 10
-49.862699999999997
 20
56.911299999999997
 30
0.0
 10
-49.862699999999997
 20
56.911299999999997
 30
0.0
 10
-49.862699999999997
 20
56.911299999999997
 30
0.0
 10
-50.020499999999998
 20
54.556800000000003
 30
0.0
 10
-50.020499999999998
 20
54.556800000000003
 30
0.0
  0
SPLINE
  5
45
100
AcDbEntity
  8
RÚteg 1
 62
     7
100
AcDbSpline
210
0.0
220
0.0
230
1.0
 70
     1
 71
     3
 72
    20
 73
    16
 74
     0
 42
0.0000000001
 43
0.0000000001
 40
0.0
 40
0.0
 40
0.0
 40
0.0
 40
0.25
 40
0.25
 40
0.25
 40
0.25
 40
0.5
 40
0.5
 40
0.5
 40
0.5
 40
0.75
 40
0.75
 40
0.75
 40
0.75
 40
1.0
 40
1.0
 40
1.0
 40
1.0
 10
-52.880499999999998
 20
52.9255
 30
0.0
 10
-54.417700000000004
 20
52.255400000000002
 30
0.0
 10
-56.085299999999997
 20
51.828499999999998
 30
0.0
 10
-57.835000000000001
 20
51.694600000000001
 30
0.0
 10
-57.835000000000001
 20
51.694600000000001
 30
0.0
 10
-57.835000000000001
 20
51.694600000000001
 30
0.0
 10
-57.835000000000001
 20
64.883200000000002
 30
0.0
 10
-57.835000000000001
 20
64.883200000000002
 30
0.0
 10
-57.835000000000001
 20
64.883200000000002
 30
0.0
 10
-57.835000000000001
 20
64.883200000000002
 30
0.0
 10
-52.441099999999999
 20
59.489199999999997
 30
0.0
 10
-52.441099999999999
 20
59.489199999999997
 30
0.0
 10
-52.441099999999999
 20
59.489199999999997
 30
0.0
 10
-52.441099999999999
 20
59.489199999999997
 30
0.0
 10
-52.880499999999998
 20
52.9255
 30
0.0
 10
-52.880499999999998
 20
52.9255
 30
0.0
  0
SPLINE
  5
46
100
AcDbEntity
  8
RÚteg 1
 62
     7
100
AcDbSpline
210
0.0
220
0.0
230
1.0
 70
     1
 71
     3
 72
    20
 73
    16
 74
     0
 42
0.0000000001
 43
0.0000000001
 40
0.0
 40
0.0
 40
0.0
 40
0.0
 40
0.25
 40
0.25
 40
0.25
 40
0.25
 40
0.5
 40
0.5
 40
0.5
 40
0.5
 40
0.75
 40
0.75
 40
0.75
 40
0.75
 40
1.0
 40
1.0
 40
1.0
 40
1.0
 10
-60.215000000000003
 20
51.694600000000001
 30
0.0
 10
-62.067999999999998
 20
51.836100000000002
 30
0.0
 10
-63.828800000000001
 20
52.3063
 30
0.0
 10
-65.440600000000003
 20
53.046399999999998
 30
0.0
 10
-65.440600000000003
 20
53.046399999999998
 30
0.0
 10
-65.440600000000003
 20
53.046399999999998
 30
0.0
 10
-65.865499999999997
 20
59.391500000000001
 30
0.0
 10
-65.865499999999997
 20
59.391500000000001
 30
0.0
 10
-65.865499999999997
 20
59.391500000000001
 30
0.0
 10
-65.865499999999997
 20
59.391500000000001
 30
0.0
 10
-60.215000000000003
 20
65.041600000000003
 30
0.0
 10
-60.215000000000003
 20
65.041600000000003
 30
0.0
 10
-60.215000000000003
 20
65.041600000000003
 30
0.0
 10
-60.215000000000003
 20
65.041600000000003
 30
0.0
 10
-60.215000000000003
 20
51.694600000000001
 30
0.0
 10
-60.215000000000003
 20
51.694600000000001
 30
0.0
  0
SPLINE
  5
47
100
AcDbEntity
  8
RÚteg 1
 62
     7
100
AcDbSpline
210
0.0
220
0.0
230
1.0
 70
     1
 71
     3
 72
    20
 73
    16
 74
     0
 42
0.0000000001
 43
0.0000000001
 40
0.0
 40
0.0
 40
0.0
 40
0.0
 40
0.25
 40
0.25
 40
0.25
 40
0.25
 40
0.5
 40
0.5
 40
0.5
 40
0.5
 40
0.75
 40
0.75
 40
0.75
 40
0.75
 40
1.0
 40
1.0
 40
1.0
 40
1.0
 10
-67.040700000000001
 20
53.898600000000002
 30
0.0
 10
-67.396199999999993
 20
54.1158
 30
0.0
 10
-67.742000000000004
 20
54.347499999999997
 30
0.0
 10
-68.077600000000004
 20
54.5914
 30
0.0
 10
-68.077600000000004
 20
54.5914
 30
0.0
 10
-68.077600000000004
 20
54.5914
 30
0.0
 10
-68.239999999999995
 20
57.017000000000003
 30
0.0
 10
-68.239999999999995
 20
57.017000000000003
 30
0.0
 10
-68.239999999999995
 20
57.017000000000003
 30
0.0
 10
-68.239999999999995
 20
57.017000000000003
 30
0.0
 10
-67.311999999999998
 20
57.945
 30
0.0
 10
-67.311999999999998
 20
57.945
 30
0.0
 10
-67.311999999999998
 20
57.945
 30
0.0
 10
-67.311999999999998
 20
57.945
 30
0.0
 10
-67.040700000000001
 20
53.898600000000002
 30
0.0
 10
-67.040700000000001
 20
53.898600000000002
 30
0.0
  0
SPLINE
  5
48
100
AcDbEntity
  8
RÚteg 1
 62
     7
100
AcDbSpline
210
0.0
220
0.0
230
1.0
 70
     1
 71
     3
 72
    16
 73
    12
 74
     0
 42
0.0000000001
 43
0.0000000001
 40
0.0
 40
0.0
 40
0.0
 40
0.0
 40
0.3333333333333333
 40
0.3333333333333333
 40
0.3333333333333333
 40
0.3333333333333333
 40
0.6666666666666666
 40
0.6666666666666666
 40
0.6666666666666666
 40
0.6666666666666666
 40
1.0
 40
1.0
 40
1.0
 40
1.0
 10
-69.301500000000004
 20
55.581400000000002
 30
0.0
 10
-69.367099999999994
 20
55.640300000000003
 30
0.0
 10
-69.432400000000001
 20
55.700000000000003
 30
0.0
 10
-69.496700000000004
 20
55.759999999999998
 30
0.0
 10
-69.496700000000004
 20
55.759999999999998
 30
0.0
 10
-69.496700000000004
 20
55.759999999999998
 30
0.0
 10
-69.325400000000002
 20
55.931600000000003
 30
0.0
 10
-69.325400000000002
 20
55.931600000000003
 30
0.0
 10
-69.325400000000002
 20
55.931600000000003
 30
0.0
 10
-69.325400000000002
 20
55.931600000000003
 30
0.0
 10
-69.301500000000004
 20
55.581400000000002
 30
0.0
 10
-69.301500000000004
 20
55.581400000000002
 30
0.0
  0
SPLINE
  5
49
100
AcDbEntity
  8
RÚteg 1
 62
     7
100
AcDbSpline
210
0.0
220
0.0
230
1.0
 70
     1
 71
     3
 72
    16
 73
    12
 74
     0
 42
0.0000000001
 43
0.0000000001
 40
0.0
 40
0.0
 40
0.0
 40
0.0
 40
0.3333333333333333
 40
0.3333333333333333
 40
0.3333333333333333
 40
0.3333333333333333
 40
0.6666666666666666
 40
0.6666666666666666
 40
0.6666666666666666
 40
0.6666666666666666
 40
1.0
 40
1.0
 40
1.0
 40
1.0
 10
-70.572100000000006
 20
56.861899999999999
 30
0.0
 10
-70.590000000000003
 20
56.882100000000001
 30
0.0
 10
-70.607799999999997
 20
56.902000000000001
 30
0.0
 10
-70.625200000000007
 20
56.922199999999997
 30
0.0
 10
-70.625200000000007
 20
56.922199999999997
 30
0.0
 10
-70.625200000000007
 20
56.922199999999997
 30
0.0
 10
-70.519099999999995
 20
56.914900000000003
 30
0.0
 10
-70.519099999999995
 20
56.914900000000003
 30
0.0
 10
-70.519099999999995
 20
56.914900000000003
 30
0.0
 10
-70.519099999999995
 20
56.914900000000003
 30
0.0
 10
-70.572100000000006
 20
56.861899999999999
 30
0.0
 10
-70.572100000000006
 20
56.861899999999999
 30
0.0
  0
SPLINE
  5
4A
100
AcDbEntity
  8
RÚteg 1
 62
     7
100
AcDbSpline
210
0.0
220
0.0
230
1.0
 70
     1
 71
     3
 72
    20
 73
    16
 74
     0
 42
0.0000000001
 43
0.0000000001
 40
0.0
 40
0.0
 40
0.0
 40
0.0
 40
0.25
 40
0.25
 40
0.25
 40
0.25
 40
0.5
 40
0.5
 40
0.5
 40
0.5
 40
0.75
 40
0.75
 40
0.75
 40
0.75
 40
1.0
 40
1.0
 40
1.0
 40
1.0
 10
-71.590100000000007
 20
58.145000000000003
 30
0.0
 10
-71.878699999999995
 20
58.551000000000002
 30
0.0
 10
-72.147400000000005
 20
58.971600000000002
 30
0.0
 10
-72.396100000000004
 20
59.405500000000004
 30
0.0
 10
-72.396100000000004
 20
59.405500000000004
 30
0.0
 10
-72.396100000000004
 20
59.405500000000004
 30
0.0
 10
-68.303200000000004
 20
59.131100000000004
 30
0.0
 10
-68.303200000000004
 20
59.131100000000004
 30
0.0
 10
-68.303200000000004
 20
59.131100000000004
 30
0.0
 10
-68.303200000000004
 20
59.131100000000004
 30
0.0
 10
-69.434200000000004
 20
58.000500000000002
 30
0.0
 10
-69.434200000000004
 20
58.000500000000002
 30
0.0
 10
-69.434200000000004
 20
58.000500000000002
 30
0.0
 10
-69.434200000000004
 20
58.000500000000002
 30
0.0
 10
-71.590100000000007
 20
58.145000000000003
 30
0.0
 10
-71.590100000000007
 20
58.145000000000003
 30
0.0
  0
SPLINE
  5
4B
100
AcDbEntity
  8
RÚteg 1
 62
     7
100
AcDbSpline
210
0.0
220
0.0
230
1.0
 70
     1
 71
     3
 72
    20
 73
    16
 74
     0
 42
0.0000000001
 43
0.0000000001
 40
0.0
 40
0.0
 40
0.0
 40
0.0
 40
0.25
 40
0.25
 40
0.25
 40
0.25
 40
0.5
 40
0.5
 40
0.5
 40
0.5
 40
0.75
 40
0.75
 40
0.75
 40
0.75
 40
1.0
 40
1.0
 40
1.0
 40
1.0
 10
-73.191699999999997
 20
61.002200000000002
 30
0.0
 10
-73.837000000000003
 20
62.512599999999999
 30
0.0
 10
-74.248599999999996
 20
64.146799999999999
 30
0.0
 10
-74.379800000000003
 20
65.859200000000001
 30
0.0
 10
-74.379800000000003
 20
65.859200000000001
 30
0.0
 10
-74.379800000000003
 20
65.859200000000001
 30
0.0
 10
-61.575600000000001
 20
65.859200000000001
 30
0.0
 10
-61.575600000000001
 20
65.859200000000001
 30
0.0
 10
-61.575600000000001
 20
65.859200000000001
 30
0.0
 10
-61.575600000000001
 20
65.859200000000001
 30
0.0
 10
-66.856899999999996
 20
60.578299999999999
 30
0.0
 10
-66.856899999999996
 20
60.578299999999999
 30
0.0
 10
-66.856899999999996
 20
60.578299999999999
 30
0.0
 10
-66.856899999999996
 20
60.578299999999999
 30
0.0
 10
-73.191699999999997
 20
61.002200000000002
 30
0.0
 10
-73.191699999999997
 20
61.002200000000002
 30
0.0
  0
SPLINE
  5
4C
100
AcDbEntity
  8
RÚteg 1
 62
     7
100
AcDbSpline
210
0.0
220
0.0
230
1.0
 70
     1
 71
     3
 72
    20
 73
    16
 74
     0
 42
0.0000000001
 43
0.0000000001
 40
0.0
 40
0.0
 40
0.0
 40
0.0
 40
0.25
 40
0.25
 40
0.25
 40
0.25
 40
0.5
 40
0.5
 40
0.5
 40
0.5
 40
0.75
 40
0.75
 40
0.75
 40
0.75
 40
1.0
 40
1.0
 40
1.0
 40
1.0
 10
-74.379800000000003
 20
68.239099999999993
 30
0.0
 10
-74.234200000000001
 20
70.144199999999998
 30
0.0
 10
-73.741
 20
71.951899999999995
 30
0.0
 10
-72.965199999999996
 20
73.599699999999999
 30
0.0
 10
-72.965199999999996
 20
73.599699999999999
 30
0.0
 10
-72.965199999999996
 20
73.599699999999999
 30
0.0
 10
-66.9542
 20
74.002700000000004
 30
0.0
 10
-66.9542
 20
74.002700000000004
 30
0.0
 10
-66.9542
 20
74.002700000000004
 30
0.0
 10
-66.9542
 20
74.002700000000004
 30
0.0
 10
-61.190800000000003
 20
68.239099999999993
 30
0.0
 10
-61.190800000000003
 20
68.239099999999993
 30
0.0
 10
-61.190800000000003
 20
68.239099999999993
 30
0.0
 10
-61.190800000000003
 20
68.239099999999993
 30
0.0
 10
-74.379800000000003
 20
68.239099999999993
 30
0.0
 10
-74.379800000000003
 20
68.239099999999993
 30
0.0
  0
SPLINE
  5
4D
100
AcDbEntity
  8
RÚteg 1
 62
     7
100
AcDbSpline
210
0.0
220
0.0
230
1.0
 70
     1
 71
     3
 72
    20
 73
    16
 74
     0
 42
0.0000000001
 43
0.0000000001
 40
0.0
 40
0.0
 40
0.0
 40
0.0
 40
0.25
 40
0.25
 40
0.25
 40
0.25
 40
0.5
 40
0.5
 40
0.5
 40
0.5
 40
0.75
 40
0.75
 40
0.75
 40
0.75
 40
1.0
 40
1.0
 40
1.0
 40
1.0
 10
-72.090900000000005
 20
75.201999999999998
 30
0.0
 10
-71.868200000000002
 20
75.5578
 30
0.0
 10
-71.632499999999993
 20
75.904300000000006
 30
0.0
 10
-71.382599999999996
 20
76.239599999999996
 30
0.0
 10
-71.382599999999996
 20
76.239599999999996
 30
0.0
 10
-71.382599999999996
 20
76.239599999999996
 30
0.0
 10
-69.329099999999997
 20
76.377399999999994
 30
0.0
 10
-69.329099999999997
 20
76.377399999999994
 30
0.0
 10
-69.329099999999997
 20
76.377399999999994
 30
0.0
 10
-69.329099999999997
 20
76.377399999999994
 30
0.0
 10
-68.400899999999993
 20
75.449299999999994
 30
0.0
 10
-68.400899999999993
 20
75.449299999999994
 30
0.0
 10
-68.400899999999993
 20
75.449299999999994
 30
0.0
 10
-68.400899999999993
 20
75.449299999999994
 30
0.0
 10
-72.090900000000005
 20
75.201999999999998
 30
0.0
 10
-72.090900000000005
 20
75.201999999999998
 30
0.0
  0
SPLINE
  5
4E
100
AcDbEntity
  8
RÚteg 1
 62
     7
100
AcDbSpline
210
0.0
220
0.0
230
1.0
 70
     1
 71
     3
 72
    20
 73
    16
 74
     0
 42
0.0000000001
 43
0.0000000001
 40
0.0
 40
0.0
 40
0.0
 40
0.0
 40
0.25
 40
0.25
 40
0.25
 40
0.25
 40
0.5
 40
0.5
 40
0.5
 40
0.5
 40
0.75
 40
0.75
 40
0.75
 40
0.75
 40
1.0
 40
1.0
 40
1.0
 40
1.0
 10
-68.222700000000003
 20
79.401399999999995
 30
0.0
 10
-67.816599999999994
 20
79.704300000000003
 30
0.0
 10
-67.394800000000004
 20
79.987399999999994
 30
0.0
 10
-66.958799999999997
 20
80.249899999999997
 30
0.0
 10
-66.958799999999997
 20
80.249899999999997
 30
0.0
 10
-66.958799999999997
 20
80.249899999999997
 30
0.0
 10
-67.214299999999994
 20
76.4405
 30
0.0
 10
-67.214299999999994
 20
76.4405
 30
0.0
 10
-67.214299999999994
 20
76.4405
 30
0.0
 10
-67.214299999999994
 20
76.4405
 30
0.0
 10
-68.345600000000005
 20
77.571100000000001
 30
0.0
 10
-68.345600000000005
 20
77.571100000000001
 30
0.0
 10
-68.345600000000005
 20
77.571100000000001
 30
0.0
 10
-68.345600000000005
 20
77.571100000000001
 30
0.0
 10
-68.222700000000003
 20
79.401399999999995
 30
0.0
 10
-68.222700000000003
 20
79.401399999999995
 30
0.0
  0
SPLINE
  5
4F
100
AcDbEntity
  8
RÚteg 1
 62
     7
100
AcDbSpline
210
0.0
220
0.0
230
1.0
 70
     1
 71
     3
 72
    20
 73
    16
 74
     0
 42
0.0000000001
 43
0.0000000001
 40
0.0
 40
0.0
 40
0.0
 40
0.0
 40
0.25
 40
0.25
 40
0.25
 40
0.25
 40
0.5
 40
0.5
 40
0.5
 40
0.5
 40
0.75
 40
0.75
 40
0.75
 40
0.75
 40
1.0
 40
1.0
 40
1.0
 40
1.0
 10
-65.359099999999998
 20
81.090500000000006
 30
0.0
 10
-63.770099999999999
 20
81.808800000000005
 30
0.0
 10
-62.036499999999997
 20
82.2654
 30
0.0
 10
-60.215000000000003
 20
82.404300000000006
 30
0.0
 10
-60.215000000000003
 20
82.404300000000006
 30
0.0
 10
-60.215000000000003
 20
82.404300000000006
 30
0.0
 10
-60.215000000000003
 20
69.441699999999997
 30
0.0
 10
-60.215000000000003
 20
69.441699999999997
 30
0.0
 10
-60.215000000000003
 20
69.441699999999997
 30
0.0
 10
-60.215000000000003
 20
69.441699999999997
 30
0.0
 10
-65.767300000000006
 20
74.993799999999993
 30
0.0
 10
-65.767300000000006
 20
74.993799999999993
 30
0.0
 10
-65.767300000000006
 20
74.993799999999993
 30
0.0
 10
-65.767300000000006
 20
74.993799999999993
 30
0.0
 10
-65.359099999999998
 20
81.090500000000006
 30
0.0
 10
-65.359099999999998
 20
81.090500000000006
 30
0.0
  0
SPLINE
  5
50
100
AcDbEntity
  8
RÚteg 1
 62
     7
100
AcDbSpline
210
0.0
220
0.0
230
1.0
 70
     1
 71
     3
 72
    20
 73
    16
 74
     0
 42
0.0000000001
 43
0.0000000001
 40
0.0
 40
0.0
 40
0.0
 40
0.0
 40
0.25
 40
0.25
 40
0.25
 40
0.25
 40
0.5
 40
0.5
 40
0.5
 40
0.5
 40
0.75
 40
0.75
 40
0.75
 40
0.75
 40
1.0
 40
1.0
 40
1.0
 40
1.0
 10
-57.835000000000001
 20
97.020099999999999
 30
0.0
 10
-57.835000000000001
 20
97.020099999999999
 30
0.0
 10
-57.835000000000001
 20
96.166499999999999
 30
0.0
 10
-57.835000000000001
 20
96.166499999999999
 30
0.0
 10
-57.835000000000001
 20
96.166499999999999
 30
0.0
 10
-57.835000000000001
 20
96.166499999999999
 30
0.0
 10
-57.835000000000001
 20
95.312600000000003
 30
0.0
 10
-57.835000000000001
 20
95.312600000000003
 30
0.0
 10
-57.835000000000001
 20
95.312600000000003
 30
0.0
 10
-57.835000000000001
 20
95.312600000000003
 30
0.0
 10
-56.023200000000003
 20
96.896699999999996
 30
0.0
 10
-56.023200000000003
 20
96.896699999999996
 30
0.0
 10
-56.023200000000003
 20
96.896699999999996
 30
0.0
 10
-56.621899999999997
 20
96.956299999999999
 30
0.0
 10
-57.226399999999998
 20
96.996700000000004
 30
0.0
 10
-57.835000000000001
 20
97.020099999999999
 30
0.0
  0
SPLINE
  5
51
100
AcDbEntity
  8
RÚteg 1
 62
     7
100
AcDbSpline
210
0.0
220
0.0
230
1.0
 70
     1
 71
     3
 72
    20
 73
    16
 74
     0
 42
0.0000000001
 43
0.0000000001
 40
0.0
 40
0.0
 40
0.0
 40
0.0
 40
0.25
 40
0.25
 40
0.25
 40
0.25
 40
0.5
 40
0.5
 40
0.5
 40
0.5
 40
0.75
 40
0.75
 40
0.75
 40
0.75
 40
1.0
 40
1.0
 40
1.0
 40
1.0
 10
-54.253100000000003
 20
96.666200000000003
 30
0.0
 10
-54.253100000000003
 20
96.666200000000003
 30
0.0
 10
-57.835000000000001
 20
93.533600000000007
 30
0.0
 10
-57.835000000000001
 20
93.533600000000007
 30
0.0
 10
-57.835000000000001
 20
93.533600000000007
 30
0.0
 10
-57.835000000000001
 20
93.533600000000007
 30
0.0
 10
-57.835000000000001
 20
90.803799999999995
 30
0.0
 10
-57.835000000000001
 20
90.803799999999995
 30
0.0
 10
-57.835000000000001
 20
90.803799999999995
 30
0.0
 10
-57.835000000000001
 20
90.803799999999995
 30
0.0
 10
-51.722799999999999
 20
96.148499999999999
 30
0.0
 10
-51.722799999999999
 20
96.148499999999999
 30
0.0
 10
-51.722799999999999
 20
96.148499999999999
 30
0.0
 10
-52.552900000000001
 20
96.356499999999997
 30
0.0
 10
-53.397199999999998
 20
96.529399999999995
 30
0.0
 10
-54.253100000000003
 20
96.666200000000003
 30
0.0
  0
SPLINE
  5
52
100
AcDbEntity
  8
RÚteg 1
 62
     7
100
AcDbSpline
210
0.0
220
0.0
230
1.0
 70
     1
 71
     3
 72
    20
 73
    16
 74
     0
 42
0.0000000001
 43
0.0000000001
 40
0.0
 40
0.0
 40
0.0
 40
0.0
 40
0.25
 40
0.25
 40
0.25
 40
0.25
 40
0.5
 40
0.5
 40
0.5
 40
0.5
 40
0.75
 40
0.75
 40
0.75
 40
0.75
 40
1.0
 40
1.0
 40
1.0
 40
1.0
 10
-29.976099999999999
 20
74.556700000000006
 30
0.0
 10
-29.976099999999999
 20
74.556700000000006
 30
0.0
 10
-35.501199999999997
 20
68.239099999999993
 30
0.0
 10
-35.501199999999997
 20
68.239099999999993
 30
0.0
 10
-35.501199999999997
 20
68.239099999999993
 30
0.0
 10
-35.501199999999997
 20
68.239099999999993
 30
0.0
 10
-32.690100000000001
 20
68.239099999999993
 30
0.0
 10
-32.690100000000001
 20
68.239099999999993
 30
0.0
 10
-32.690100000000001
 20
68.239099999999993
 30
0.0
 10
-32.690100000000001
 20
68.239099999999993
 30
0.0
 10
-29.431899999999999
 20
71.965199999999996
 30
0.0
 10
-29.431899999999999
 20
71.965199999999996
 30
0.0
 10
-29.431899999999999
 20
71.965199999999996
 30
0.0
 10
-29.576799999999999
 20
72.842399999999998
 30
0.0
 10
-29.757300000000001
 20
73.706999999999994
 30
0.0
 10
-29.976099999999999
 20
74.556700000000006
 30
0.0
  0
SPLINE
  5
53
100
AcDbEntity
  8
RÚteg 1
 62
     7
100
AcDbSpline
210
0.0
220
0.0
230
1.0
 70
     1
 71
     3
 72
    20
 73
    16
 74
     0
 42
0.0000000001
 43
0.0000000001
 40
0.0
 40
0.0
 40
0.0
 40
0.0
 40
0.25
 40
0.25
 40
0.25
 40
0.25
 40
0.5
 40
0.5
 40
0.5
 40
0.5
 40
0.75
 40
0.75
 40
0.75
 40
0.75
 40
1.0
 40
1.0
 40
1.0
 40
1.0
 10
-29.1934
 20
70.204400000000007
 30
0.0
 10
-29.1934
 20
70.204400000000007
 30
0.0
 10
-30.911799999999999
 20
68.239099999999993
 30
0.0
 10
-30.911799999999999
 20
68.239099999999993
 30
0.0
 10
-30.911799999999999
 20
68.239099999999993
 30
0.0
 10
-30.911799999999999
 20
68.239099999999993
 30
0.0
 10
-29.7517
 20
68.239099999999993
 30
0.0
 10
-29.7517
 20
68.239099999999993
 30
0.0
 10
-29.7517
 20
68.239099999999993
 30
0.0
 10
-29.7517
 20
68.239099999999993
 30
0.0
 10
-29.054200000000002
 20
68.239099999999993
 30
0.0
 10
-29.054200000000002
 20
68.239099999999993
 30
0.0
 10
-29.054200000000002
 20
68.239099999999993
 30
0.0
 10
-29.080200000000001
 20
68.899699999999996
 30
0.0
 10
-29.125299999999999
 20
69.555499999999995
 30
0.0
 10
-29.1934
 20
70.204400000000007
 30
0.0
  0
SPLINE
  5
54
100
AcDbEntity
  8
RÚteg 1
 62
     7
100
AcDbSpline
210
0.0
220
0.0
230
1.0
 70
     1
 71
     3
 72
    16
 73
    12
 74
     0
 42
0.0000000001
 43
0.0000000001
 40
0.0
 40
0.0
 40
0.0
 40
0.0
 40
0.3333333333333333
 40
0.3333333333333333
 40
0.3333333333333333
 40
0.3333333333333333
 40
0.6666666666666666
 40
0.6666666666666666
 40
0.6666666666666666
 40
0.6666666666666666
 40
1.0
 40
1.0
 40
1.0
 40
1.0
 10
-29.054200000000002
 20
65.859200000000001
 30
0.0
 10
-29.054200000000002
 20
65.859200000000001
 30
0.0
 10
-30.761700000000001
 20
65.859200000000001
 30
0.0
 10
-30.761700000000001
 20
65.859200000000001
 30
0.0
 10
-30.761700000000001
 20
65.859200000000001
 30
0.0
 10
-30.761700000000001
 20
65.859200000000001
 30
0.0
 10
-29.177700000000002
 20
64.047300000000007
 30
0.0
 10
-29.177700000000002
 20
64.047300000000007
 30
0.0
 10
-29.177700000000002
 20
64.047300000000007
 30
0.0
 10
-29.118300000000001
 20
64.646299999999997
 30
0.0
 10
-29.0777
 20
65.250600000000006
 30
0.0
 10
-29.054200000000002
 20
65.859200000000001
 30
0.0
  0
SPLINE
  5
55
100
AcDbEntity
  8
RÚteg 1
 62
     7
100
AcDbSpline
210
0.0
220
0.0
230
1.0
 70
     1
 71
     3
 72
    20
 73
    16
 74
     0
 42
0.0000000001
 43
0.0000000001
 40
0.0
 40
0.0
 40
0.0
 40
0.0
 40
0.25
 40
0.25
 40
0.25
 40
0.25
 40
0.5
 40
0.5
 40
0.5
 40
0.5
 40
0.75
 40
0.75
 40
0.75
 40
0.75
 40
1.0
 40
1.0
 40
1.0
 40
1.0
 10
-29.408200000000001
 20
62.2774
 30
0.0
 10
-29.408200000000001
 20
62.2774
 30
0.0
 10
-32.540500000000002
 20
65.859200000000001
 30
0.0
 10
-32.540500000000002
 20
65.859200000000001
 30
0.0
 10
-32.540500000000002
 20
65.859200000000001
 30
0.0
 10
-32.540500000000002
 20
65.859200000000001
 30
0.0
 10
-35.270499999999998
 20
65.859200000000001
 30
0.0
 10
-35.270499999999998
 20
65.859200000000001
 30
0.0
 10
-35.270499999999998
 20
65.859200000000001
 30
0.0
 10
-35.270499999999998
 20
65.859200000000001
 30
0.0
 10
-29.926200000000001
 20
59.747100000000003
 30
0.0
 10
-29.926200000000001
 20
59.747100000000003
 30
0.0
 10
-29.926200000000001
 20
59.747100000000003
 30
0.0
 10
-29.7182
 20
60.577800000000003
 30
0.0
 10
-29.545000000000002
 20
61.421399999999998
 30
0.0
 10
-29.408200000000001
 20
62.2774
 30
0.0
  0
SPLINE
  5
56
100
AcDbEntity
  8
RÚteg 1
 62
     7
100
AcDbSpline
210
0.0
220
0.0
230
1.0
 70
     1
 71
     3
 72
    20
 73
    16
 74
     0
 42
0.0000000001
 43
0.0000000001
 40
0.0
 40
0.0
 40
0.0
 40
0.0
 40
0.25
 40
0.25
 40
0.25
 40
0.25
 40
0.5
 40
0.5
 40
0.5
 40
0.5
 40
0.75
 40
0.75
 40
0.75
 40
0.75
 40
1.0
 40
1.0
 40
1.0
 40
1.0
 10
-51.517699999999998
 20
38.000799999999998
 30
0.0
 10
-51.517699999999998
 20
38.000799999999998
 30
0.0
 10
-57.835000000000001
 20
43.525100000000002
 30
0.0
 10
-57.835000000000001
 20
43.525100000000002
 30
0.0
 10
-57.835000000000001
 20
43.525100000000002
 30
0.0
 10
-57.835000000000001
 20
43.525100000000002
 30
0.0
 10
-57.835000000000001
 20
40.714300000000001
 30
0.0
 10
-57.835000000000001
 20
40.714300000000001
 30
0.0
 10
-57.835000000000001
 20
40.714300000000001
 30
0.0
 10
-57.835000000000001
 20
40.714300000000001
 30
0.0
 10
-54.109299999999998
 20
37.456499999999998
 30
0.0
 10
-54.109299999999998
 20
37.456499999999998
 30
0.0
 10
-54.109299999999998
 20
37.456499999999998
 30
0.0
 10
-53.232300000000002
 20
37.601199999999999
 30
0.0
 10
-52.366799999999998
 20
37.781399999999998
 30
0.0
 10
-51.517699999999998
 20
38.000799999999998
 30
0.0
  0
SPLINE
  5
57
100
AcDbEntity
  8
RÚteg 1
 62
     7
100
AcDbSpline
210
0.0
220
0.0
230
1.0
 70
     1
 71
     3
 72
    20
 73
    16
 74
     0
 42
0.0000000001
 43
0.0000000001
 40
0.0
 40
0.0
 40
0.0
 40
0.0
 40
0.25
 40
0.25
 40
0.25
 40
0.25
 40
0.5
 40
0.5
 40
0.5
 40
0.5
 40
0.75
 40
0.75
 40
0.75
 40
0.75
 40
1.0
 40
1.0
 40
1.0
 40
1.0
 10
-60.215000000000003
 20
37.078699999999998
 30
0.0
 10
-60.215000000000003
 20
37.078699999999998
 30
0.0
 10
-60.215000000000003
 20
37.566299999999998
 30
0.0
 10
-60.215000000000003
 20
37.566299999999998
 30
0.0
 10
-60.215000000000003
 20
37.566299999999998
 30
0.0
 10
-60.215000000000003
 20
37.566299999999998
 30
0.0
 10
-60.215000000000003
 20
38.786299999999997
 30
0.0
 10
-60.215000000000003
 20
38.786299999999997
 30
0.0
 10
-60.215000000000003
 20
38.786299999999997
 30
0.0
 10
-60.215000000000003
 20
38.786299999999997
 30
0.0
 10
-62.026800000000001
 20
37.201799999999999
 30
0.0
 10
-62.026800000000001
 20
37.201799999999999
 30
0.0
 10
-62.026800000000001
 20
37.201799999999999
 30
0.0
 10
-61.427900000000001
 20
37.142499999999998
 30
0.0
 10
-60.823599999999999
 20
37.102200000000003
 30
0.0
 10
-60.215000000000003
 20
37.078699999999998
 30
0.0
  0
SPLINE
  5
58
100
AcDbEntity
  8
RÚteg 1
 62
     7
100
AcDbSpline
210
0.0
220
0.0
230
1.0
 70
     1
 71
     3
 72
    20
 73
    16
 74
     0
 42
0.0000000001
 43
0.0000000001
 40
0.0
 40
0.0
 40
0.0
 40
0.0
 40
0.25
 40
0.25
 40
0.25
 40
0.25
 40
0.5
 40
0.5
 40
0.5
 40
0.5
 40
0.75
 40
0.75
 40
0.75
 40
0.75
 40
1.0
 40
1.0
 40
1.0
 40
1.0
 10
-63.796900000000001
 20
37.432600000000001
 30
0.0
 10
-63.796900000000001
 20
37.432600000000001
 30
0.0
 10
-60.215000000000003
 20
40.564799999999998
 30
0.0
 10
-60.215000000000003
 20
40.564799999999998
 30
0.0
 10
-60.215000000000003
 20
40.564799999999998
 30
0.0
 10
-60.215000000000003
 20
40.564799999999998
 30
0.0
 10
-60.215000000000003
 20
43.294699999999999
 30
0.0
 10
-60.215000000000003
 20
43.294699999999999
 30
0.0
 10
-60.215000000000003
 20
43.294699999999999
 30
0.0
 10
-60.215000000000003
 20
43.294699999999999
 30
0.0
 10
-66.326999999999998
 20
37.950400000000002
 30
0.0
 10
-66.326999999999998
 20
37.950400000000002
 30
0.0
 10
-66.326999999999998
 20
37.950400000000002
 30
0.0
 10
-65.497100000000003
 20
37.742600000000003
 30
0.0
 10
-64.652799999999999
 20
37.569200000000002
 30
0.0
 10
-63.796900000000001
 20
37.432600000000001
 30
0.0
  0
SPLINE
  5
59
100
AcDbEntity
  8
RÚteg 1
 62
     7
100
AcDbSpline
210
0.0
220
0.0
230
1.0
 70
     1
 71
     3
 72
    20
 73
    16
 74
     0
 42
0.0000000001
 43
0.0000000001
 40
0.0
 40
0.0
 40
0.0
 40
0.0
 40
0.25
 40
0.25
 40
0.25
 40
0.25
 40
0.5
 40
0.5
 40
0.5
 40
0.5
 40
0.75
 40
0.75
 40
0.75
 40
0.75
 40
1.0
 40
1.0
 40
1.0
 40
1.0
 10
-88.073700000000002
 20
59.542099999999998
 30
0.0
 10
-88.073700000000002
 20
59.542099999999998
 30
0.0
 10
-82.5488
 20
65.859200000000001
 30
0.0
 10
-82.5488
 20
65.859200000000001
 30
0.0
 10
-82.5488
 20
65.859200000000001
 30
0.0
 10
-82.5488
 20
65.859200000000001
 30
0.0
 10
-85.359899999999996
 20
65.859200000000001
 30
0.0
 10
-85.359899999999996
 20
65.859200000000001
 30
0.0
 10
-85.359899999999996
 20
65.859200000000001
 30
0.0
 10
-85.359899999999996
 20
65.859200000000001
 30
0.0
 10
-88.618099999999998
 20
62.133600000000001
 30
0.0
 10
-88.618099999999998
 20
62.133600000000001
 30
0.0
 10
-88.618099999999998
 20
62.133600000000001
 30
0.0
 10
-88.473100000000002
 20
61.256599999999999
 30
0.0
 10
-88.292599999999993
 20
60.391300000000001
 30
0.0
 10
-88.073700000000002
 20
59.542099999999998
 30
0.0
  0
SPLINE
  5
5A
100
AcDbEntity
  8
RÚteg 1
 62
     7
100
AcDbSpline
210
0.0
220
0.0
230
1.0
 70
     1
 71
     3
 72
    20
 73
    16
 74
     0
 42
0.0000000001
 43
0.0000000001
 40
0.0
 40
0.0
 40
0.0
 40
0.0
 40
0.25
 40
0.25
 40
0.25
 40
0.25
 40
0.5
 40
0.5
 40
0.5
 40
0.5
 40
0.75
 40
0.75
 40
0.75
 40
0.75
 40
1.0
 40
1.0
 40
1.0
 40
1.0
 10
-88.8566
 20
63.894100000000002
 30
0.0
 10
-88.8566
 20
63.894100000000002
 30
0.0
 10
-87.138199999999998
 20
65.859200000000001
 30
0.0
 10
-87.138199999999998
 20
65.859200000000001
 30
0.0
 10
-87.138199999999998
 20
65.859200000000001
 30
0.0
 10
-87.138199999999998
 20
65.859200000000001
 30
0.0
 10
-88.0672
 20
65.859200000000001
 30
0.0
 10
-88.0672
 20
65.859200000000001
 30
0.0
 10
-88.0672
 20
65.859200000000001
 30
0.0
 10
-88.0672
 20
65.859200000000001
 30
0.0
 10
-88.995800000000003
 20
65.859200000000001
 30
0.0
 10
-88.995800000000003
 20
65.859200000000001
 30
0.0
 10
-88.995800000000003
 20
65.859200000000001
 30
0.0
 10
-88.969800000000006
 20
65.198800000000006
 30
0.0
 10
-88.924499999999995
 20
64.543199999999999
 30
0.0
 10
-88.8566
 20
63.894100000000002
 30
0.0
  0
SPLINE
  5
5B
100
AcDbEntity
  8
RÚteg 1
 62
     7
100
AcDbSpline
210
0.0
220
0.0
230
1.0
 70
     1
 71
     3
 72
    16
 73
    12
 74
     0
 42
0.0000000001
 43
0.0000000001
 40
0.0
 40
0.0
 40
0.0
 40
0.0
 40
0.3333333333333333
 40
0.3333333333333333
 40
0.3333333333333333
 40
0.3333333333333333
 40
0.6666666666666666
 40
0.6666666666666666
 40
0.6666666666666666
 40
0.6666666666666666
 40
1.0
 40
1.0
 40
1.0
 40
1.0
 10
-88.995800000000003
 20
68.239099999999993
 30
0.0
 10
-88.995800000000003
 20
68.239099999999993
 30
0.0
 10
-87.288300000000007
 20
68.239099999999993
 30
0.0
 10
-87.288300000000007
 20
68.239099999999993
 30
0.0
 10
-87.288300000000007
 20
68.239099999999993
 30
0.0
 10
-87.288300000000007
 20
68.239099999999993
 30
0.0
 10
-88.872299999999996
 20
70.051199999999994
 30
0.0
 10
-88.872299999999996
 20
70.051199999999994
 30
0.0
 10
-88.872299999999996
 20
70.051199999999994
 30
0.0
 10
-88.931799999999996
 20
69.452699999999993
 30
0.0
 10
-88.972300000000004
 20
68.848299999999995
 30
0.0
 10
-88.995800000000003
 20
68.239099999999993
 30
0.0
  0
SPLINE
  5
5C
100
AcDbEntity
  8
RÚteg 1
 62
     7
100
AcDbSpline
210
0.0
220
0.0
230
1.0
 70
     1
 71
     3
 72
    20
 73
    16
 74
     0
 42
0.0000000001
 43
0.0000000001
 40
0.0
 40
0.0
 40
0.0
 40
0.0
 40
0.25
 40
0.25
 40
0.25
 40
0.25
 40
0.5
 40
0.5
 40
0.5
 40
0.5
 40
0.75
 40
0.75
 40
0.75
 40
0.75
 40
1.0
 40
1.0
 40
1.0
 40
1.0
 10
-88.642099999999999
 20
71.821200000000005
 30
0.0
 10
-88.642099999999999
 20
71.821200000000005
 30
0.0
 10
-85.509500000000003
 20
68.239099999999993
 30
0.0
 10
-85.509500000000003
 20
68.239099999999993
 30
0.0
 10
-85.509500000000003
 20
68.239099999999993
 30
0.0
 10
-85.509500000000003
 20
68.239099999999993
 30
0.0
 10
-82.779499999999999
 20
68.239099999999993
 30
0.0
 10
-82.779499999999999
 20
68.239099999999993
 30
0.0
 10
-82.779499999999999
 20
68.239099999999993
 30
0.0
 10
-82.779499999999999
 20
68.239099999999993
 30
0.0
 10
-88.123800000000003
 20
74.351299999999995
 30
0.0
 10
-88.123800000000003
 20
74.351299999999995
 30
0.0
 10
-88.123800000000003
 20
74.351299999999995
 30
0.0
 10
-88.331800000000001
 20
73.521100000000004
 30
0.0
 10
-88.504999999999995
 20
72.677300000000002
 30
0.0
 10
-88.642099999999999
 20
71.821200000000005
 30
0.0
  0
SPLINE
  5
5D
100
AcDbEntity
  8
RÚteg 1
 62
     7
100
AcDbSpline
210
0.0
220
0.0
230
1.0
 70
     1
 71
     3
 72
    20
 73
    16
 74
     0
 42
0.0000000001
 43
0.0000000001
 40
0.0
 40
0.0
 40
0.0
 40
0.0
 40
0.25
 40
0.25
 40
0.25
 40
0.25
 40
0.5
 40
0.5
 40
0.5
 40
0.5
 40
0.75
 40
0.75
 40
0.75
 40
0.75
 40
1.0
 40
1.0
 40
1.0
 40
1.0
 10
-66.532300000000006
 20
96.098399999999998
 30
0.0
 10
-66.532300000000006
 20
96.098399999999998
 30
0.0
 10
-60.215000000000003
 20
90.573300000000003
 30
0.0
 10
-60.215000000000003
 20
90.573300000000003
 30
0.0
 10
-60.215000000000003
 20
90.573300000000003
 30
0.0
 10
-60.215000000000003
 20
90.573300000000003
 30
0.0
 10
-60.215000000000003
 20
93.384399999999999
 30
0.0
 10
-60.215000000000003
 20
93.384399999999999
 30
0.0
 10
-60.215000000000003
 20
93.384399999999999
 30
0.0
 10
-60.215000000000003
 20
93.384399999999999
 30
0.0
 10
-63.9407
 20
96.642200000000003
 30
0.0
 10
-63.9407
 20
96.642200000000003
 30
0.0
 10
-63.9407
 20
96.642200000000003
 30
0.0
 10
-64.817899999999995
 20
96.4983
 30
0.0
 10
-65.683199999999999
 20
96.317099999999996
 30
0.0
 10
-66.532300000000006
 20
96.098399999999998
 30
0.0
  0
SPLINE
  5
5E
100
AcDbEntity
  8
RÚteg 1
 62
     7
100
AcDbSpline
210
0.0
220
0.0
230
1.0
 70
     1
 71
     3
 72
    16
 73
    12
 74
     0
 42
0.0000000001
 43
0.0000000001
 40
0.0
 40
0.0
 40
0.0
 40
0.0
 40
0.3333333333333333
 40
0.3333333333333333
 40
0.3333333333333333
 40
0.3333333333333333
 40
0.6666666666666666
 40
0.6666666666666666
 40
0.6666666666666666
 40
0.6666666666666666
 40
1.0
 40
1.0
 40
1.0
 40
1.0
 10
-62.18
 20
96.880899999999997
 30
0.0
 10
-62.18
 20
96.880899999999997
 30
0.0
 10
-60.215000000000003
 20
95.162499999999994
 30
0.0
 10
-60.215000000000003
 20
95.162499999999994
 30
0.0
 10
-60.215000000000003
 20
95.162499999999994
 30
0.0
 10
-60.215000000000003
 20
95.162499999999994
 30
0.0
 10
-60.215000000000003
 20
97.020099999999999
 30
0.0
 10
-60.215000000000003
 20
97.020099999999999
 30
0.0
 10
-60.215000000000003
 20
97.020099999999999
 30
0.0
 10
-60.875399999999999
 20
96.994600000000005
 30
0.0
 10
-61.531100000000002
 20
96.948700000000002
 30
0.0
 10
-62.18
 20
96.880899999999997
 30
0.0
  0
ENDSEC
  0
SECTION
  2
OBJECTS
  0
DICTIONARY
  5
19
100
AcDbDictionary
280
     0
281
     1
  3
ACAD_GROUP
350
1A
  3
ACAD_MLINESTYLE
350
1B
  3
ACAD_LAYOUT
350
1E
  3
ACAD_PLOTSETTINGS
350
22
  3
ACAD_PLOTSTYLENAME
350
1F
  3
ACAD_WIPEOUT_VARS
350
23
  0
DICTIONARY
  5
1A
102
{ACAD_REACTORS
330
19
102
}
100
AcDbDictionary
280
     0
281
     1
  0
DICTIONARY
  5
1B
102
{ACAD_REACTORS
330
19
102
}
100
AcDbDictionary
280
     0
281
     1
  3
Standard
350
1C
  0
MLINESTYLE
  5
1C
102
{ACAD_REACTORS
330
1B
102
}
100
AcDbMlineStyle
  2
Standard
 70
     0
  3

 62
     0
 51
90.0
 52
90.0
 71
     2
 49
0.5
 62
   256
  6
BYLAYER
 49
-0.5
 62
   256
  6
BYLAYER
  0
ACDBDICTIONARYWDFLT
  5
1F
102
{ACAD_REACTORS
330
19
102
}
100
AcDbDictionary
281
     1
  3
Normal
350
1D
100
AcDbDictionaryWithDefault
340
1D
  0
ACDBPLACEHOLDER
  5
1D
102
{ACAD_REACTORS
330
1F
102
}
  0
LAYOUT
  5
20
102
{ACAD_REACTORS
330
1E
102
}
100
AcDbPlotSettings
  1

  2

  4

  6

 40
0.0
 41
0.0
 42
0.0
 43
0.0
 44
0.0
 45
0.0
 46
0.0
 47
0.0
 48
0.0
 49
0.0
140
0.0
141
0.0
142
1.0
143
1.0
 70
  1024
 72
     0
 73
     0
 74
     0
  7

 75
     0
147
1.0
148
0.0
149
0.0
100
AcDbLayout
  1
Model
 70
     0
 71
     0
 10
0.0
 20
0.0
 11
0.0
 21
0.0
 12
0.0
 22
0.0
 32
0.0
 14
0.0
 24
0.0
 34
0.0
 15
0.0
 25
0.0
 35
0.0
146
0.0
 13
0.0
 23
0.0
 33
0.0
 16
0.0
 26
0.0
 36
0.0
 17
0.0
 27
0.0
 37
0.0
 76
     0
330
A
331
0
345
0
346
0
  0
LAYOUT
  5
21
102
{ACAD_REACTORS
330
1E
102
}
100
AcDbPlotSettings
  1

  2

  4

  6

 40
0.0
 41
0.0
 42
0.0
 43
0.0
 44
0.0
 45
0.0
 46
0.0
 47
0.0
 48
0.0
 49
0.0
140
0.0
141
0.0
142
1.0
143
1.0
 70
     0
 72
     0
 73
     0
 74
     0
  7

 75
     0
147
1.0
148
0.0
149
0.0
100
AcDbLayout
  1
Layout1
 70
     0
 71
     0
 10
0.0
 20
0.0
 11
0.0
 21
0.0
 12
0.0
 22
0.0
 32
0.0
 14
0.0
 24
0.0
 34
0.0
 15
0.0
 25
0.0
 35
0.0
146
0.0
 13
0.0
 23
0.0
 33
0.0
 16
0.0
 26
0.0
 36
0.0
 17
0.0
 27
0.0
 37
0.0
 76
     0
330
B
331
0
345
0
346
0
  0
DICTIONARY
  5
1E
102
{ACAD_REACTORS
330
19
102
}
100
AcDbDictionary
280
     0
281
     1
  3
Layout1
350
21
  3
Model
350
20
  0
DICTIONARY
  5
22
102
{ACAD_REACTORS
330
19
102
}
100
AcDbDictionary
280
     0
281
     1
  0
WIPEOUTVARIABLES
  5
23
100
AcDbWipeoutVariables
 70
     1
  0
ENDSEC
  0
EOF
