  0
SECTION
  2
HEADER
  9
$ACADVER
  1
AC1015
  9
$ACADMAINTVER
 70
     6
  9
$DWGCODEPAGE
  3
DOS850
  9
$INSBASE
 10
0.0
 20
0.0
 30
0.0
  9
$EXTMIN
 10
-87.9881
 20
38.0862
 30
1.000000E+20
  9
$EXTMAX
 10
52.0881
 20
115.3381
 30
-1.000000E+20
  9
$LIMMIN
 10
0.0
 20
0.0
  9
$LIMMAX
 10
0.0
 20
0.0
  9
$ORTHOMODE
 70
     0
  9
$REGENMODE
 70
     1
  9
$FILLMODE
 70
     1
  9
$QTEXTMODE
 70
     0
  9
$MIRRTEXT
 70
     1
  9
$LTSCALE
 40
1.0
  9
$ATTMODE
 70
     1
  9
$TEXTSIZE
 40
0.2
  9
$TRACEWID
 40
0.05
  9
$TEXTSTYLE
  7
Standard
  9
$CLAYER
  8
0
  9
$CELTYPE
  6
Continuous
  9
$CECOLOR
 62
   256
  9
$CELTSCALE
 40
1.0
  9
$DISPSILH
 70
     0
  9
$DIMSCALE
 40
1.0
  9
$DIMASZ
 40
0.18
  9
$DIMEXO
 40
0.0625
  9
$DIMDLI
 40
0.38
  9
$DIMRND
 40
0.0
  9
$DIMDLE
 40
0.0
  9
$DIMEXE
 40
0.18
  9
$DIMTP
 40
0.0
  9
$DIMTM
 40
0.0
  9
$DIMTXT
 40
0.18
  9
$DIMCEN
 40
0.09
  9
$DIMTSZ
 40
0.0
  9
$DIMTOL
 70
     0
  9
$DIMLIM
 70
     0
  9
$DIMTIH
 70
     1
  9
$DIMTOH
 70
     1
  9
$DIMSE1
 70
     0
  9
$DIMSE2
 70
     0
  9
$DIMTAD
 70
     0
  9
$DIMZIN
 70
     0
  9
$DIMBLK
  1

  9
$DIMASO
 70
     1
  9
$DIMSHO
 70
     1
  9
$DIMPOST
  1

  9
$DIMAPOST
  1

  9
$DIMALT
 70
     0
  9
$DIMALTD
 70
     2
  9
$DIMALTF
 40
25.4
  9
$DIMLFAC
 40
1.0
  9
$DIMTOFL
 70
     0
  9
$DIMTVP
 40
0.0
  9
$DIMTIX
 70
     0
  9
$DIMSOXD
 70
     0
  9
$DIMSAH
 70
     0
  9
$DIMBLK1
  1

  9
$DIMBLK2
  1

  9
$DIMSTYLE
  2
Standard
  9
$DIMCLRD
 70
     0
  9
$DIMCLRE
 70
     0
  9
$DIMCLRT
 70
     0
  9
$DIMTFAC
 40
1.0
  9
$DIMGAP
 40
0.09
  9
$DIMJUST
 70
     0
  9
$DIMSD1
 70
     0
  9
$DIMSD2
 70
     0
  9
$DIMTOLJ
 70
     1
  9
$DIMTZIN
 70
     0
  9
$DIMALTZ
 70
     0
  9
$DIMALTTZ
 70
     0
  9
$DIMUPT
 70
     0
  9
$DIMDEC
 70
     4
  9
$DIMTDEC
 70
     4
  9
$DIMALTU
 70
     2
  9
$DIMALTTD
 70
     2
  9
$DIMTXSTY
  7
Standard
  9
$DIMAUNIT
 70
     0
  9
$DIMADEC
 70
     0
  9
$DIMALTRND
 40
0.0
  9
$DIMAZIN
 70
     0
  9
$DIMDSEP
 70
     0
  9
$DIMATFIT
 70
     3
  9
$DIMFRAC
 70
     0
  9
$DIMLDRBLK
  1

  9
$DIMLUNIT
 70
     2
  9
$DIMLWD
 70
     0
  9
$DIMLWE
 70
     0
  9
$DIMTMOVE
 70
     0
  9
$LUNITS
 70
     2
  9
$LUPREC
 70
     4
  9
$SKETCHINC
 40
0.1
  9
$FILLETRAD
 40
0.0
  9
$AUNITS
 70
     0
  9
$AUPREC
 70
     0
  9
$MENU
  1
acad
  9
$ELEVATION
 40
0.0
  9
$PELEVATION
 40
0.0
  9
$THICKNESS
 40
0.0
  9
$LIMCHECK
 70
     0
  9
$CHAMFERA
 40
0.0
  9
$CHAMFERB
 40
0.0
  9
$CHAMFERC
 40
0.0
  9
$CHAMFERD
 40
0.0
  9
$SKPOLY
 70
     0
  9
$TDCREATE
 40
0.000000000
  9
$TDUCREATE
 40
0.000000000
  9
$TDUPDATE
 40
0.000000000
  9
$TDUUPDATE
 40
0.000000000
  9
$TDINDWG
 40
0.0000000000
  9
$TDUSRTIMER
 40
0.0000000000
  9
$USRTIMER
 70
     1
  9
$ANGBASE
 50
0.0
  9
$ANGDIR
 70
     0
  9
$PDMODE
 70
     0
  9
$PDSIZE
 40
0.0
  9
$PLINEWID
 40
0.0
  9
$SPLFRAME
 70
     0
  9
$SPLINETYPE
 70
     6
  9
$SPLINESEGS
 70
     8
  9
$HANDSEED
  5
3A
  9
$SURFTAB1
 70
     6
  9
$SURFTAB2
 70
     6
  9
$SURFTYPE
 70
     6
  9
$SURFU
 70
     6
  9
$SURFV
 70
     6
  9
$UCSBASE
  2

  9
$UCSNAME
  2

  9
$UCSORG
 10
0.0
 20
0.0
 30
0.0
  9
$UCSXDIR
 10
1.0
 20
0.0
 30
0.0
  9
$UCSYDIR
 10
0.0
 20
1.0
 30
0.0
  9
$UCSORTHOREF
  2

  9
$UCSORTHOVIEW
 70
     0
  9
$UCSORGTOP
 10
0.0
 20
0.0
 30
0.0
  9
$UCSORGBOTTOM
 10
0.0
 20
0.0
 30
0.0
  9
$UCSORGLEFT
 10
0.0
 20
0.0
 30
0.0
  9
$UCSORGRIGHT
 10
0.0
 20
0.0
 30
0.0
  9
$UCSORGFRONT
 10
0.0
 20
0.0
 30
0.0
  9
$UCSORGBACK
 10
0.0
 20
0.0
 30
0.0
  9
$PUCSBASE
  2

  9
$PUCSNAME
  2

  9
$PUCSORG
 10
0.0
 20
0.0
 30
0.0
  9
$PUCSXDIR
 10
1.0
 20
0.0
 30
0.0
  9
$PUCSYDIR
 10
0.0
 20
1.0
 30
0.0
  9
$PUCSORTHOREF
  2

  9
$PUCSORTHOVIEW
 70
     0
  9
$PUCSORGTOP
 10
0.0
 20
0.0
 30
0.0
  9
$PUCSORGBOTTOM
 10
0.0
 20
0.0
 30
0.0
  9
$PUCSORGLEFT
 10
0.0
 20
0.0
 30
0.0
  9
$PUCSORGRIGHT
 10
0.0
 20
0.0
 30
0.0
  9
$PUCSORGFRONT
 10
0.0
 20
0.0
 30
0.0
  9
$PUCSORGBACK
 10
0.0
 20
0.0
 30
0.0
  9
$USERI1
 70
     0
  9
$USERI2
 70
     0
  9
$USERI3
 70
     0
  9
$USERI4
 70
     0
  9
$USERI5
 70
     0
  9
$USERR1
 40
0.0
  9
$USERR2
 40
0.0
  9
$USERR3
 40
0.0
  9
$USERR4
 40
0.0
  9
$USERR5
 40
0.0
  9
$WORLDVIEW
 70
     1
  9
$SHADEDGE
 70
     3
  9
$SHADEDIF
 70
    70
  9
$TILEMODE
 70
     1
  9
$MAXACTVP
 70
    16
  9
$PINSBASE
 10
0.0
 20
0.0
 30
0.0
  9
$PLIMCHECK
 70
     0
  9
$PEXTMIN
 10
1.000000E+20
 20
1.000000E+20
 30
1.000000E+20
  9
$PEXTMAX
 10
-1.000000E+20
 20
-1.000000E+20
 30
-1.000000E+20
  9
$PLIMMIN
 10
0.0
 20
0.0
  9
$PLIMMAX
 10
12.0
 20
9.0
  9
$UNITMODE
 70
     0
  9
$VISRETAIN
 70
     0
  9
$PLINEGEN
 70
     1
  9
$PSLTSCALE
 70
     0
  9
$TREEDEPTH
 70
  3020
  9
$CMLSTYLE
  2
Standard
  9
$CMLJUST
 70
     0
  9
$CMLSCALE
 40
1.0
  9
$PROXYGRAPHICS
 70
     0
  9
$MEASUREMENT
 70
     0
  9
$CELWEIGHT
370
     0
  9
$ENDCAPS
280
     0
  9
$JOINSTYLE
280
     0
  9
$LWDISPLAY
290
     0
  9
$INSUNITS
 70
     4
  9
$HYPERLINKBASE
  1

  9
$XEDIT
290
     1
  9
$CEPSNTYPE
380
     0
  9
$PSTYLEMODE
290
     1
  9
$FINGERPRINTGUID
  2

  9
$VERSIONGUID
  2

  9
$EXTNAMES
290
     1
  9
$PSVPSCALE
 40
0.0
  0
ENDSEC
  0
SECTION
  2
CLASSES
  0
CLASS
  1
LWPOLYLINE
  2
AcDbPolyline
  3
AutoCAD 2000
 90
    32768
280
     0
281
     1
  0
CLASS
  1
IMAGE
  2
AcDbRasterImage
  3
ISM
 90
    32895
280
     0
281
     1
  0
CLASS
  1
OLE2FRAME
  2
AcDbOle2Frame
  3
AutoCAD 2000
 90
    32768
280
     0
281
     1
  0
CLASS
  1
HATCH
  2
AcDbHatch
  3
AutoCAD 2000
 90
    32768
280
     0
281
     1
  0
CLASS
  1
DICTIONARYVAR
  2
AcDbDictionaryVar
  3
AutoCAD 2000
 90
    32768
280
     0
281
     0
  0
CLASS
  1
RASTERVARIABLES
  2
AcDbRasterVariables
  3
ISM
 90
    32768
280
     0
281
     0
  0
CLASS
  1
IMAGEDEF
  2
AcDbRasterImageDef
  3
ISM
 90
    32768
280
     0
281
     0
  0
CLASS
  1
IMAGEDEF_REACTOR
  2
AcDbRasterImageDefReactor
  3
ISM
 90
    32769
280
     0
281
     0
  0
CLASS
  1
IDBUFFER
  2
AcDbIdBuffer
  3
AutoCAD 2000
 90
    32768
280
     0
281
     0
  0
CLASS
  1
SPATIAL_FILTER
  2
AcDbSpatialFilter
  3
AutoCAD 2000
 90
    32768
280
     0
281
     0
  0
CLASS
  1
XRECORD
  2
AcDbXrecord
  3
AutoCAD 2000
 90
    32768
280
     0
281
     0
  0
CLASS
  1
SORTENTSTABLE
  2
AcDbSortentsTable
  3
AutoCAD 2000
 90
    32768
280
     0
281
     0
  0
CLASS
  1
LAYER_INDEX
  2
AcDbLayerIndex
  3
AutoCAD 2000
 90
    32768
280
     0
281
     0
  0
CLASS
  1
SPATIAL_INDEX
  2
AcDbSpatialIndex
  3
AutoCAD 2000
 90
    32768
280
     0
281
     0
  0
CLASS
  1
OBJECT_PTR
  2
CAseDLPNTableRecord
  3
"ASE-LPNTableRecord"
 90
    32769
280
     0
281
     0
  0
CLASS
  1
LAYOUT
  2
AcDbLayout
  3
AutoCAD 2000
 90
        0
280
     0
281
     0
  0
CLASS
  1
PLOTSETTINGS
  2
AcDbPlotSettings
  3
AutoCAD 2000
 90
    32768
280
     0
281
     0
  0
CLASS
  1
ACDBDICTIONARYWDFLT
  2
AcDbDictionaryWithDefault
  3
AutoCAD 2000
 90
        0
280
     0
281
     0
  0
CLASS
  1
ACDBPLACEHOLDER
  2
AcDbPlaceHolder
  3
AutoCAD 2000
 90
        0
280
     0
281
     0
  0
CLASS
  1
VBA_PROJECT
  2
AcDbVbaProject
  3
acadvba
 90
    32768
280
     0
281
     0
  0
CLASS
  1
WIPEOUT
  2
AcDbWipeout
  3
WipeOut|AutoCAD Express Tool|expresstools@autodesk.com
 90
    32895
280
     0
281
     1
  0
CLASS
  1
WIPEOUTVARIABLES
  2
AcDbWipeoutVariables
  3
WipeOut|AutoCAD Express Tool|expresstools@autodesk.com
 90
        0
280
     0
281
     0
  0
CLASS
  1
RTEXT
  2
RText
  3
RText|AutoCAD Express Tool|expresstools@autodesk.com
 90
    32768
280
     0
281
     1
  0
CLASS
  1
ARCALIGNEDTEXT
  2
AcDbArcAlignedText
  3
ATEXT|AutoCAD Express Tool|expresstools@autodesk.com
 90
    32768
280
     0
281
     1
  0
ENDSEC
  0
SECTION
  2
TABLES
  0
TABLE
  2
VPORT
  5
7
100
AcDbSymbolTable
 70
     1
  0
VPORT
  5
15
100
AcDbSymbolTableRecord
100
AcDbViewportTableRecord
  2
*ACTIVE
 70
     0
 10
0.0
 20
0.0
 11
1.0
 21
1.0
 12
6.591288
 22
4.579184
 13
0.0
 23
0.0
 14
1.0
 24
1.0
 15
0.0
 25
0.0
 16
0.0
 26
0.0
 36
1.0
 17
0.0
 27
0.0
 37
0.0
 40
9.158369
 41
0.688564
 42
50.0
 43
0.0
 44
0.0
 50
0.0
 51
0.0
 71
     0
 72
   100
 73
     1
 74
     1
 75
     0
 76
     0
 77
     0
 78
     0
281
     0
 65
     0
110
0.0
120
0.0
130
0.0
111
1.0
121
0.0
131
0.0
112
0.0
122
1.0
132
0.0
345
0
346
0
 79
     0
146
0.0
  0
ENDTAB
  0
TABLE
  2
LTYPE
  5
4
100
AcDbSymbolTable
 70
     3
  0
LTYPE
  5
11
100
AcDbSymbolTableRecord
100
AcDbLinetypeTableRecord
  2
ByBlock
 70
    64
  3

 72
    65
 73
     0
 40
0.0
  0
LTYPE
  5
12
100
AcDbSymbolTableRecord
100
AcDbLinetypeTableRecord
  2
ByLayer
 70
    64
  3

 72
    65
 73
     0
 40
0.0
  0
LTYPE
  5
13
100
AcDbSymbolTableRecord
100
AcDbLinetypeTableRecord
  2
Continuous
 70
    64
  3
Solid line
 72
    65
 73
     0
 40
0.0
  0
ENDTAB
  0
TABLE
  2
LAYER
  5
2
100
AcDbSymbolTable
 70
     2
  0
LAYER
  5
14
100
AcDbSymbolTableRecord
100
AcDbLayerTableRecord
  2
0
 70
     0
 62
     7
  6
Continuous
290
     1
370
    -3
390
1D
  0
LAYER
  5
24
100
AcDbSymbolTableRecord
100
AcDbLayerTableRecord
  2
RÚteg 1
 70
     0
 62
     7
  6
Continuous
290
     1
370
    -3
390
1F
  0
ENDTAB
  0
TABLE
  2
STYLE
  5
3
100
AcDbSymbolTable
 70
     1
  0
STYLE
  5
17
100
AcDbSymbolTableRecord
100
AcDbTextStyleTableRecord
  2
Standard
 70
     0
 40
0.0
 41
1.0
 50
0.0
 71
     0
 42
0.0
  3
txt
  4

  0
ENDTAB
  0
TABLE
  2
VIEW
  5
5
100
AcDbSymbolTable
 70
     0
  0
ENDTAB
  0
TABLE
  2
UCS
  5
6
100
AcDbSymbolTable
 70
     0
  0
ENDTAB
  0
TABLE
  2
APPID
  5
8
100
AcDbSymbolTable
 70
     1
  0
APPID
  5
16
100
AcDbSymbolTableRecord
100
AcDbRegAppTableRecord
  2
ACAD
 70
     0
  0
ENDTAB
  0
TABLE
  2
DIMSTYLE
  5
9
100
AcDbSymbolTable
 70
     1
100
AcDbDimStyleTable
 71
     0
  0
DIMSTYLE
105
18
100
AcDbSymbolTableRecord
100
AcDbDimStyleTableRecord
  2
Standard
 70
     0
  3

  4

 40
1.0
 41
0.18
 42
0.0625
 43
0.38
 44
0.18
 45
0.0
 46
0.0
 47
0.0
 48
0.0
 71
     0
 72
     0
 73
     1
 74
     1
 75
     0
 76
     0
 77
     0
 78
     0
 79
     0
140
0.18
141
0.09
142
0.0
143
25.4
144
1.0
145
0.0
146
1.0
147
0.09
148
0.0
170
     0
171
     2
172
     0
173
     0
174
     0
175
     0
176
     0
177
     0
178
     0
179
     0
271
     4
272
     4
273
     2
274
     2
275
     0
276
     0
277
     2
278
    46
279
     0
280
     0
281
     0
282
     0
283
     1
284
     0
285
     0
286
     0
288
     0
340
17
341
0
342
0
343
0
344
0
371
    -2
372
    -2
  0
ENDTAB
  0
TABLE
  2
BLOCK_RECORD
  5
1
100
AcDbSymbolTable
 70
     0
  0
BLOCK_RECORD
  5
A
100
AcDbSymbolTableRecord
100
AcDbBlockTableRecord
  2
*MODEL_SPACE
340
20
  0
BLOCK_RECORD
  5
B
100
AcDbSymbolTableRecord
100
AcDbBlockTableRecord
  2
*PAPER_SPACE
340
21
  0
ENDTAB
  0
ENDSEC
  0
SECTION
  2
BLOCKS
  0
BLOCK
  5
D
100
AcDbEntity
  8
0
100
AcDbBlockBegin
  2
*MODEL_SPACE
 70
     0
 10
0.0
 20
0.0
 30
0.0
  3
*MODEL_SPACE
  1

  0
ENDBLK
  5
E
100
AcDbEntity
  8
0
100
AcDbBlockEnd
  0
BLOCK
  5
F
100
AcDbEntity
 67
     1
  8
0
100
AcDbBlockBegin
  2
*PAPER_SPACE
 70
     0
 10
0.0
 20
0.0
 30
0.0
  3
*PAPER_SPACE
  1

  0
ENDBLK
  5
10
100
AcDbEntity
 67
     1
  8
0
100
AcDbBlockEnd
  0
ENDSEC
  0
SECTION
  2
ENTITIES
  0
SPLINE
  5
25
100
AcDbEntity
  8
RÚteg 1
 62
     7
100
AcDbSpline
210
0.0
220
0.0
230
1.0
 70
     1
 71
     3
 72
    28
 73
    24
 74
     0
 42
0.0000000001
 43
0.0000000001
 40
0.0
 40
0.0
 40
0.0
 40
0.0
 40
0.1666666666666667
 40
0.1666666666666667
 40
0.1666666666666667
 40
0.1666666666666667
 40
0.3333333333333333
 40
0.3333333333333333
 40
0.3333333333333333
 40
0.3333333333333333
 40
0.5
 40
0.5
 40
0.5
 40
0.5
 40
0.6666666666666666
 40
0.6666666666666666
 40
0.6666666666666666
 40
0.6666666666666666
 40
0.8333333333333333
 40
0.8333333333333333
 40
0.8333333333333333
 40
0.8333333333333333
 40
1.0
 40
1.0
 40
1.0
 40
1.0
 10
18.1249
 20
105.9743
 30
0.0
 10
18.940100000000001
 20
105.9743
 30
0.0
 10
19.748100000000001
 20
105.94450000000001
 30
0.0
 10
20.5486
 20
105.8873
 30
0.0
 10
20.5486
 20
105.8873
 30
0.0
 10
21.646699999999999
 20
106.6537
 30
0.0
 10
22.365600000000001
 20
107.9265
 30
0.0
 10
22.365600000000001
 20
109.3668
 30
0.0
 10
22.365600000000001
 20
109.3668
 30
0.0
 10
22.365600000000001
 20
111.7084
 30
0.0
 10
20.466699999999999
 20
113.6075
 30
0.0
 10
18.125
 20
113.6075
 30
0.0
 10
18.125
 20
113.6075
 30
0.0
 10
15.783300000000001
 20
113.6075
 30
0.0
 10
13.884399999999999
 20
111.7084
 30
0.0
 10
13.884399999999999
 20
109.3668
 30
0.0
 10
13.884399999999999
 20
109.3668
 30
0.0
 10
13.884399999999999
 20
107.9265
 30
0.0
 10
14.603300000000001
 20
106.6537
 30
0.0
 10
15.7014
 20
105.8873
 30
0.0
 10
15.7014
 20
105.8873
 30
0.0
 10
16.501799999999999
 20
105.94450000000001
 30
0.0
 10
17.309899999999999
 20
105.9743
 30
0.0
 10
18.1249
 20
105.9743
 30
0.0
  0
SPLINE
  5
26
100
AcDbEntity
  8
RÚteg 1
 62
     7
100
AcDbSpline
210
0.0
220
0.0
230
1.0
 70
     1
 71
     3
 72
    36
 73
    32
 74
     0
 42
0.0000000001
 43
0.0000000001
 40
0.0
 40
0.0
 40
0.0
 40
0.0
 40
0.125
 40
0.125
 40
0.125
 40
0.125
 40
0.25
 40
0.25
 40
0.25
 40
0.25
 40
0.375
 40
0.375
 40
0.375
 40
0.375
 40
0.5
 40
0.5
 40
0.5
 40
0.5
 40
0.625
 40
0.625
 40
0.625
 40
0.625
 40
0.75
 40
0.75
 40
0.75
 40
0.75
 40
0.875
 40
0.875
 40
0.875
 40
0.875
 40
1.0
 40
1.0
 40
1.0
 40
1.0
 10
22.755600000000001
 20
105.6584
 30
0.0
 10
39.298400000000001
 20
103.399
 30
0.0
 10
52.049999999999997
 20
89.211399999999998
 30
0.0
 10
52.049999999999997
 20
72.049300000000002
 30
0.0
 10
52.049999999999997
 20
72.049300000000002
 30
0.0
 10
52.049999999999997
 20
53.316200000000002
 30
0.0
 10
36.8581
 20
38.124299999999998
 30
0.0
 10
18.1249
 20
38.124299999999998
 30
0.0
 10
18.1249
 20
38.124299999999998
 30
0.0
 10
-0.6081
 20
38.124299999999998
 30
0.0
 10
-15.800000000000001
 20
53.316200000000002
 30
0.0
 10
-15.800000000000001
 20
72.049300000000002
 30
0.0
 10
-15.800000000000001
 20
72.049300000000002
 30
0.0
 10
-15.800000000000001
 20
89.211399999999998
 30
0.0
 10
-3.0484
 20
103.3991
 30
0.0
 10
13.494400000000001
 20
105.6584
 30
0.0
 10
13.494400000000001
 20
105.6584
 30
0.0
 10
12.6797
 20
106.67449999999999
 30
0.0
 10
12.191800000000001
 20
107.9636
 30
0.0
 10
12.191800000000001
 20
109.3668
 30
0.0
 10
12.191800000000001
 20
109.3668
 30
0.0
 10
12.191800000000001
 20
112.6431
 30
0.0
 10
14.8489
 20
115.3
 30
0.0
 10
18.125
 20
115.3
 30
0.0
 10
18.125
 20
115.3
 30
0.0
 10
21.4011
 20
115.3
 30
0.0
 10
24.058199999999999
 20
112.6431
 30
0.0
 10
24.058199999999999
 20
109.3668
 30
0.0
 10
24.058199999999999
 20
109.3668
 30
0.0
 10
24.058199999999999
 20
107.9636
 30
0.0
 10
23.5703
 20
106.67449999999999
 30
0.0
 10
22.755600000000001
 20
105.6584
 30
0.0
  0
SPLINE
  5
27
100
AcDbEntity
  8
RÚteg 1
 62
     7
100
AcDbSpline
210
0.0
220
0.0
230
1.0
 70
     1
 71
     3
 72
    60
 73
    56
 74
     0
 42
0.0000000001
 43
0.0000000001
 40
0.0
 40
0.0
 40
0.0
 40
0.0
 40
0.0714285714285714
 40
0.0714285714285714
 40
0.0714285714285714
 40
0.0714285714285714
 40
0.1428571428571429
 40
0.1428571428571429
 40
0.1428571428571429
 40
0.1428571428571429
 40
0.2142857142857143
 40
0.2142857142857143
 40
0.2142857142857143
 40
0.2142857142857143
 40
0.2857142857142857
 40
0.2857142857142857
 40
0.2857142857142857
 40
0.2857142857142857
 40
0.3571428571428571
 40
0.3571428571428571
 40
0.3571428571428571
 40
0.3571428571428571
 40
0.4285714285714285
 40
0.4285714285714285
 40
0.4285714285714285
 40
0.4285714285714285
 40
0.4999999999999999
 40
0.4999999999999999
 40
0.4999999999999999
 40
0.4999999999999999
 40
0.5714285714285713
 40
0.5714285714285713
 40
0.5714285714285713
 40
0.5714285714285713
 40
0.6428571428571427
 40
0.6428571428571427
 40
0.6428571428571427
 40
0.6428571428571427
 40
0.7142857142857141
 40
0.7142857142857141
 40
0.7142857142857141
 40
0.7142857142857141
 40
0.7857142857142855
 40
0.7857142857142855
 40
0.7857142857142855
 40
0.7857142857142855
 40
0.8571428571428569
 40
0.8571428571428569
 40
0.8571428571428569
 40
0.8571428571428569
 40
0.9285714285714283
 40
0.9285714285714283
 40
0.9285714285714283
 40
0.9285714285714283
 40
1.0
 40
1.0
 40
1.0
 40
1.0
 10
18.125
 20
77.239199999999997
 30
0.0
 10
18.125
 20
77.239199999999997
 30
0.0
 10
19.128499999999999
 20
73.862399999999994
 30
0.0
 10
19.128499999999999
 20
73.862399999999994
 30
0.0
 10
19.128499999999999
 20
73.862399999999994
 30
0.0
 10
19.128499999999999
 20
73.862399999999994
 30
0.0
 10
22.394100000000002
 20
75.183400000000006
 30
0.0
 10
22.394100000000002
 20
75.183400000000006
 30
0.0
 10
22.394100000000002
 20
75.183400000000006
 30
0.0
 10
22.394100000000002
 20
75.183400000000006
 30
0.0
 10
20.379200000000001
 20
72.293599999999998
 30
0.0
 10
20.379200000000001
 20
72.293599999999998
 30
0.0
 10
20.379200000000001
 20
72.293599999999998
 30
0.0
 10
20.379200000000001
 20
72.293599999999998
 30
0.0
 10
23.448499999999999
 20
70.563999999999993
 30
0.0
 10
23.448499999999999
 20
70.563999999999993
 30
0.0
 10
23.448499999999999
 20
70.563999999999993
 30
0.0
 10
23.448499999999999
 20
70.563999999999993
 30
0.0
 10
19.932700000000001
 20
70.337299999999999
 30
0.0
 10
19.932700000000001
 20
70.337299999999999
 30
0.0
 10
19.932700000000001
 20
70.337299999999999
 30
0.0
 10
19.932700000000001
 20
70.337299999999999
 30
0.0
 10
20.494199999999999
 20
66.859300000000005
 30
0.0
 10
20.494199999999999
 20
66.859300000000005
 30
0.0
 10
20.494199999999999
 20
66.859300000000005
 30
0.0
 10
20.494199999999999
 20
66.859300000000005
 30
0.0
 10
18.125
 20
69.466800000000006
 30
0.0
 10
18.125
 20
69.466800000000006
 30
0.0
 10
18.125
 20
69.466800000000006
 30
0.0
 10
18.125
 20
69.466800000000006
 30
0.0
 10
15.755800000000001
 20
66.859300000000005
 30
0.0
 10
15.755800000000001
 20
66.859300000000005
 30
0.0
 10
15.755800000000001
 20
66.859300000000005
 30
0.0
 10
15.755800000000001
 20
66.859300000000005
 30
0.0
 10
16.317299999999999
 20
70.337299999999999
 30
0.0
 10
16.317299999999999
 20
70.337299999999999
 30
0.0
 10
16.317299999999999
 20
70.337299999999999
 30
0.0
 10
16.317299999999999
 20
70.337299999999999
 30
0.0
 10
12.801500000000001
 20
70.563999999999993
 30
0.0
 10
12.801500000000001
 20
70.563999999999993
 30
0.0
 10
12.801500000000001
 20
70.563999999999993
 30
0.0
 10
12.801500000000001
 20
70.563999999999993
 30
0.0
 10
15.870799999999999
 20
72.293599999999998
 30
0.0
 10
15.870799999999999
 20
72.293599999999998
 30
0.0
 10
15.870799999999999
 20
72.293599999999998
 30
0.0
 10
15.870799999999999
 20
72.293599999999998
 30
0.0
 10
13.8559
 20
75.183400000000006
 30
0.0
 10
13.8559
 20
75.183400000000006
 30
0.0
 10
13.8559
 20
75.183400000000006
 30
0.0
 10
13.8559
 20
75.183400000000006
 30
0.0
 10
17.121500000000001
 20
73.862399999999994
 30
0.0
 10
17.121500000000001
 20
73.862399999999994
 30
0.0
 10
17.121500000000001
 20
73.862399999999994
 30
0.0
 10
17.121500000000001
 20
73.862399999999994
 30
0.0
 10
18.125
 20
77.239199999999997
 30
0.0
 10
18.125
 20
77.239199999999997
 30
0.0
  0
SPLINE
  5
28
100
AcDbEntity
  8
RÚteg 1
 62
     7
100
AcDbSpline
210
0.0
220
0.0
230
1.0
 70
     1
 71
     3
 72
    28
 73
    24
 74
     0
 42
0.0000000001
 43
0.0000000001
 40
0.0
 40
0.0
 40
0.0
 40
0.0
 40
0.1666666666666667
 40
0.1666666666666667
 40
0.1666666666666667
 40
0.1666666666666667
 40
0.3333333333333333
 40
0.3333333333333333
 40
0.3333333333333333
 40
0.3333333333333333
 40
0.5
 40
0.5
 40
0.5
 40
0.5
 40
0.6666666666666666
 40
0.6666666666666666
 40
0.6666666666666666
 40
0.6666666666666666
 40
0.8333333333333333
 40
0.8333333333333333
 40
0.8333333333333333
 40
0.8333333333333333
 40
1.0
 40
1.0
 40
1.0
 40
1.0
 10
41.726999999999997
 20
79.718000000000004
 30
0.0
 10
44.4499
 20
79.308099999999996
 30
0.0
 10
46.002000000000002
 20
78.517300000000006
 30
0.0
 10
46.762999999999998
 20
76.174800000000005
 30
0.0
 10
46.762999999999998
 20
76.174800000000005
 30
0.0
 10
47.603400000000001
 20
73.588399999999993
 30
0.0
 10
46.186500000000002
 20
70.807500000000005
 30
0.0
 10
43.600200000000001
 20
69.967100000000002
 30
0.0
 10
43.600200000000001
 20
69.967100000000002
 30
0.0
 10
38.915100000000002
 20
68.445099999999996
 30
0.0
 10
32.707599999999999
 20
71.607900000000001
 30
0.0
 10
26.500399999999999
 20
74.770799999999994
 30
0.0
 10
26.500399999999999
 20
74.770799999999994
 30
0.0
 10
29.6632
 20
80.977999999999994
 30
0.0
 10
32.826099999999997
 20
87.185199999999995
 30
0.0
 10
37.511099999999999
 20
88.707800000000006
 30
0.0
 10
37.511099999999999
 20
88.707800000000006
 30
0.0
 10
40.097200000000001
 20
89.548100000000005
 30
0.0
 10
42.878300000000003
 20
88.131100000000004
 30
0.0
 10
43.718299999999999
 20
85.544899999999998
 30
0.0
 10
43.718299999999999
 20
85.544899999999998
 30
0.0
 10
44.479599999999998
 20
83.202299999999994
 30
0.0
 10
43.689100000000003
 20
81.650499999999994
 30
0.0
 10
41.726999999999997
 20
79.718000000000004
 30
0.0
  0
SPLINE
  5
29
100
AcDbEntity
  8
RÚteg 1
 62
     7
100
AcDbSpline
210
0.0
220
0.0
230
1.0
 70
     1
 71
     3
 72
    28
 73
    24
 74
     0
 42
0.0000000001
 43
0.0000000001
 40
0.0
 40
0.0
 40
0.0
 40
0.0
 40
0.1666666666666667
 40
0.1666666666666667
 40
0.1666666666666667
 40
0.1666666666666667
 40
0.3333333333333333
 40
0.3333333333333333
 40
0.3333333333333333
 40
0.3333333333333333
 40
0.5
 40
0.5
 40
0.5
 40
0.5
 40
0.6666666666666666
 40
0.6666666666666666
 40
0.6666666666666666
 40
0.6666666666666666
 40
0.8333333333333333
 40
0.8333333333333333
 40
0.8333333333333333
 40
0.8333333333333333
 40
1.0
 40
1.0
 40
1.0
 40
1.0
 10
32.7117
 20
51.972499999999997
 30
0.0
 10
33.1633
 20
49.255899999999997
 30
0.0
 10
32.890799999999999
 20
47.535400000000003
 30
0.0
 10
30.898099999999999
 20
46.087699999999998
 30
0.0
 10
30.898099999999999
 20
46.087699999999998
 30
0.0
 10
28.6982
 20
44.489400000000003
 30
0.0
 10
25.615400000000001
 20
44.977600000000002
 30
0.0
 10
24.017099999999999
 20
47.177500000000002
 30
0.0
 10
24.017099999999999
 20
47.177500000000002
 30
0.0
 10
21.121600000000001
 20
51.1629
 30
0.0
 10
22.211600000000001
 20
58.043999999999997
 30
0.0
 10
23.301400000000001
 20
64.924800000000005
 30
0.0
 10
23.301400000000001
 20
64.924800000000005
 30
0.0
 10
30.182300000000001
 20
63.835000000000001
 30
0.0
 10
37.063099999999999
 20
62.745100000000001
 30
0.0
 10
39.9587
 20
58.759799999999998
 30
0.0
 10
39.9587
 20
58.759799999999998
 30
0.0
 10
41.557000000000002
 20
56.559800000000003
 30
0.0
 10
41.068899999999999
 20
53.476999999999997
 30
0.0
 10
38.868899999999996
 20
51.878999999999998
 30
0.0
 10
38.868899999999996
 20
51.878999999999998
 30
0.0
 10
36.876199999999997
 20
50.430999999999997
 30
0.0
 10
35.155799999999999
 20
50.703299999999999
 30
0.0
 10
32.7117
 20
51.972499999999997
 30
0.0
  0
SPLINE
  5
2A
100
AcDbEntity
  8
RÚteg 1
 62
     7
100
AcDbSpline
210
0.0
220
0.0
230
1.0
 70
     1
 71
     3
 72
    28
 73
    24
 74
     0
 42
0.0000000001
 43
0.0000000001
 40
0.0
 40
0.0
 40
0.0
 40
0.0
 40
0.1666666666666667
 40
0.1666666666666667
 40
0.1666666666666667
 40
0.1666666666666667
 40
0.3333333333333333
 40
0.3333333333333333
 40
0.3333333333333333
 40
0.3333333333333333
 40
0.5
 40
0.5
 40
0.5
 40
0.5
 40
0.6666666666666666
 40
0.6666666666666666
 40
0.6666666666666666
 40
0.6666666666666666
 40
0.8333333333333333
 40
0.8333333333333333
 40
0.8333333333333333
 40
0.8333333333333333
 40
1.0
 40
1.0
 40
1.0
 40
1.0
 10
3.5383
 20
51.972499999999997
 30
0.0
 10
1.0942000000000001
 20
50.703600000000002
 30
0.0
 10
-0.6262
 20
50.430999999999997
 30
0.0
 10
-2.6189
 20
51.878999999999998
 30
0.0
 10
-2.6189
 20
51.878999999999998
 30
0.0
 10
-4.8189000000000002
 20
53.4773
 30
0.0
 10
-5.3070000000000004
 20
56.559800000000003
 30
0.0
 10
-3.7086999999999999
 20
58.759799999999998
 30
0.0
 10
-3.7086999999999999
 20
58.759799999999998
 30
0.0
 10
-0.8132
 20
62.745100000000001
 30
0.0
 10
6.0677000000000003
 20
63.835000000000001
 30
0.0
 10
12.9488
 20
64.924800000000005
 30
0.0
 10
12.9488
 20
64.924800000000005
 30
0.0
 10
14.038399999999999
 20
58.043999999999997
 30
0.0
 10
15.128399999999999
 20
51.162999999999997
 30
0.0
 10
12.232900000000001
 20
47.177500000000002
 30
0.0
 10
12.232900000000001
 20
47.177500000000002
 30
0.0
 10
10.634600000000001
 20
44.977600000000002
 30
0.0
 10
7.5518000000000001
 20
44.489600000000003
 30
0.0
 10
5.3518999999999997
 20
46.087800000000001
 30
0.0
 10
5.3518999999999997
 20
46.087800000000001
 30
0.0
 10
3.3592
 20
47.535499999999999
 30
0.0
 10
3.0867
 20
49.255699999999997
 30
0.0
 10
3.5383
 20
51.972499999999997
 30
0.0
  0
SPLINE
  5
2B
100
AcDbEntity
  8
RÚteg 1
 62
     7
100
AcDbSpline
210
0.0
220
0.0
230
1.0
 70
     1
 71
     3
 72
    28
 73
    24
 74
     0
 42
0.0000000001
 43
0.0000000001
 40
0.0
 40
0.0
 40
0.0
 40
0.0
 40
0.1666666666666667
 40
0.1666666666666667
 40
0.1666666666666667
 40
0.1666666666666667
 40
0.3333333333333333
 40
0.3333333333333333
 40
0.3333333333333333
 40
0.3333333333333333
 40
0.5
 40
0.5
 40
0.5
 40
0.5
 40
0.6666666666666666
 40
0.6666666666666666
 40
0.6666666666666666
 40
0.6666666666666666
 40
0.8333333333333333
 40
0.8333333333333333
 40
0.8333333333333333
 40
0.8333333333333333
 40
1.0
 40
1.0
 40
1.0
 40
1.0
 10
-5.4770000000000003
 20
79.718000000000004
 30
0.0
 10
-7.4387999999999996
 20
81.650400000000005
 30
0.0
 10
-8.2295999999999996
 20
83.202299999999994
 30
0.0
 10
-7.4683000000000002
 20
85.544899999999998
 30
0.0
 10
-7.4683000000000002
 20
85.544899999999998
 30
0.0
 10
-6.6281999999999996
 20
88.131100000000004
 30
0.0
 10
-3.8472
 20
89.548100000000005
 30
0.0
 10
-1.2611000000000001
 20
88.707800000000006
 30
0.0
 10
-1.2611000000000001
 20
88.707800000000006
 30
0.0
 10
3.4239000000000002
 20
87.185400000000001
 30
0.0
 10
6.5869999999999997
 20
80.977999999999994
 30
0.0
 10
9.7497000000000007
 20
74.770700000000005
 30
0.0
 10
9.7497000000000007
 20
74.770700000000005
 30
0.0
 10
3.5424000000000002
 20
71.607900000000001
 30
0.0
 10
-2.6650999999999998
 20
68.445099999999996
 30
0.0
 10
-7.3502000000000001
 20
69.967100000000002
 30
0.0
 10
-7.3502000000000001
 20
69.967100000000002
 30
0.0
 10
-9.9365000000000006
 20
70.807500000000005
 30
0.0
 10
-11.353400000000001
 20
73.588499999999996
 30
0.0
 10
-10.513
 20
76.174800000000005
 30
0.0
 10
-10.513
 20
76.174800000000005
 30
0.0
 10
-9.7520000000000007
 20
78.517300000000006
 30
0.0
 10
-8.2001000000000008
 20
79.308099999999996
 30
0.0
 10
-5.4770000000000003
 20
79.718000000000004
 30
0.0
  0
SPLINE
  5
2C
100
AcDbEntity
  8
RÚteg 1
 62
     7
100
AcDbSpline
210
0.0
220
0.0
230
1.0
 70
     1
 71
     3
 72
    28
 73
    24
 74
     0
 42
0.0000000001
 43
0.0000000001
 40
0.0
 40
0.0
 40
0.0
 40
0.0
 40
0.1666666666666667
 40
0.1666666666666667
 40
0.1666666666666667
 40
0.1666666666666667
 40
0.3333333333333333
 40
0.3333333333333333
 40
0.3333333333333333
 40
0.3333333333333333
 40
0.5
 40
0.5
 40
0.5
 40
0.5
 40
0.6666666666666666
 40
0.6666666666666666
 40
0.6666666666666666
 40
0.6666666666666666
 40
0.8333333333333333
 40
0.8333333333333333
 40
0.8333333333333333
 40
0.8333333333333333
 40
1.0
 40
1.0
 40
1.0
 40
1.0
 10
18.125
 20
96.866100000000003
 30
0.0
 10
19.3566
 20
99.3292
 30
0.0
 10
20.588100000000001
 20
100.5605
 30
0.0
 10
23.051200000000001
 20
100.5605
 30
0.0
 10
23.051200000000001
 20
100.5605
 30
0.0
 10
25.770600000000002
 20
100.5605
 30
0.0
 10
27.977499999999999
 20
98.3536
 30
0.0
 10
27.977499999999999
 20
95.634399999999999
 30
0.0
 10
27.977499999999999
 20
95.634399999999999
 30
0.0
 10
27.977499999999999
 20
90.708100000000002
 30
0.0
 10
23.051200000000001
 20
85.781800000000004
 30
0.0
 10
18.125
 20
80.855599999999995
 30
0.0
 10
18.125
 20
80.855599999999995
 30
0.0
 10
13.1988
 20
85.781800000000004
 30
0.0
 10
8.2725000000000009
 20
90.708100000000002
 30
0.0
 10
8.2725000000000009
 20
95.634399999999999
 30
0.0
 10
8.2725000000000009
 20
95.634399999999999
 30
0.0
 10
8.2725000000000009
 20
98.3536
 30
0.0
 10
10.4795
 20
100.5605
 30
0.0
 10
13.1988
 20
100.5605
 30
0.0
 10
13.1988
 20
100.5605
 30
0.0
 10
15.661899999999999
 20
100.5605
 30
0.0
 10
16.8934
 20
99.3292
 30
0.0
 10
18.125
 20
96.866100000000003
 30
0.0
  0
SPLINE
  5
2D
100
AcDbEntity
  8
RÚteg 1
 62
     7
100
AcDbSpline
210
0.0
220
0.0
230
1.0
 70
     1
 71
     3
 72
    36
 73
    32
 74
     0
 42
0.0000000001
 43
0.0000000001
 40
0.0
 40
0.0
 40
0.0
 40
0.0
 40
0.125
 40
0.125
 40
0.125
 40
0.125
 40
0.25
 40
0.25
 40
0.25
 40
0.25
 40
0.375
 40
0.375
 40
0.375
 40
0.375
 40
0.5
 40
0.5
 40
0.5
 40
0.5
 40
0.625
 40
0.625
 40
0.625
 40
0.625
 40
0.75
 40
0.75
 40
0.75
 40
0.75
 40
0.875
 40
0.875
 40
0.875
 40
0.875
 40
1.0
 40
1.0
 40
1.0
 40
1.0
 10
-54.024999999999999
 20
115.3
 30
0.0
 10
-50.748899999999999
 20
115.3
 30
0.0
 10
-48.091799999999999
 20
112.643
 30
0.0
 10
-48.091799999999999
 20
109.3668
 30
0.0
 10
-48.091799999999999
 20
109.3668
 30
0.0
 10
-48.091799999999999
 20
107.9636
 30
0.0
 10
-48.579700000000003
 20
106.67440000000001
 30
0.0
 10
-49.394399999999997
 20
105.6583
 30
0.0
 10
-49.394399999999997
 20
105.6583
 30
0.0
 10
-32.851700000000001
 20
103.3991
 30
0.0
 10
-20.100000000000001
 20
89.211299999999994
 30
0.0
 10
-20.100000000000001
 20
72.049300000000002
 30
0.0
 10
-20.100000000000001
 20
72.049300000000002
 30
0.0
 10
-20.100000000000001
 20
53.316200000000002
 30
0.0
 10
-35.291899999999998
 20
38.124299999999998
 30
0.0
 10
-54.024999999999999
 20
38.124299999999998
 30
0.0
 10
-54.024999999999999
 20
38.124299999999998
 30
0.0
 10
-72.758099999999999
 20
38.124299999999998
 30
0.0
 10
-87.950000000000003
 20
53.316200000000002
 30
0.0
 10
-87.950000000000003
 20
72.049300000000002
 30
0.0
 10
-87.950000000000003
 20
72.049300000000002
 30
0.0
 10
-87.950000000000003
 20
89.211299999999994
 30
0.0
 10
-75.198300000000003
 20
103.3991
 30
0.0
 10
-58.6556
 20
105.6583
 30
0.0
 10
-58.6556
 20
105.6583
 30
0.0
 10
-59.470300000000002
 20
106.67440000000001
 30
0.0
 10
-59.958199999999998
 20
107.9636
 30
0.0
 10
-59.958199999999998
 20
109.3668
 30
0.0
 10
-59.958199999999998
 20
109.3668
 30
0.0
 10
-59.958199999999998
 20
112.643
 30
0.0
 10
-57.301099999999998
 20
115.3
 30
0.0
 10
-54.024999999999999
 20
115.3
 30
0.0
  0
SPLINE
  5
2E
100
AcDbEntity
  8
RÚteg 1
 62
     7
100
AcDbSpline
210
0.0
220
0.0
230
1.0
 70
     1
 71
     3
 72
    28
 73
    24
 74
     0
 42
0.0000000001
 43
0.0000000001
 40
0.0
 40
0.0
 40
0.0
 40
0.0
 40
0.1666666666666667
 40
0.1666666666666667
 40
0.1666666666666667
 40
0.1666666666666667
 40
0.3333333333333333
 40
0.3333333333333333
 40
0.3333333333333333
 40
0.3333333333333333
 40
0.5
 40
0.5
 40
0.5
 40
0.5
 40
0.6666666666666666
 40
0.6666666666666666
 40
0.6666666666666666
 40
0.6666666666666666
 40
0.8333333333333333
 40
0.8333333333333333
 40
0.8333333333333333
 40
0.8333333333333333
 40
1.0
 40
1.0
 40
1.0
 40
1.0
 10
-54.024999999999999
 20
105.9743
 30
0.0
 10
-53.209899999999998
 20
105.9743
 30
0.0
 10
-52.401800000000001
 20
105.9444
 30
0.0
 10
-51.601399999999998
 20
105.8873
 30
0.0
 10
-51.601399999999998
 20
105.8873
 30
0.0
 10
-50.503300000000003
 20
106.6537
 30
0.0
 10
-49.784399999999998
 20
107.9265
 30
0.0
 10
-49.784399999999998
 20
109.3668
 30
0.0
 10
-49.784399999999998
 20
109.3668
 30
0.0
 10
-49.784399999999998
 20
111.7084
 30
0.0
 10
-51.683300000000003
 20
113.6075
 30
0.0
 10
-54.024999999999999
 20
113.6075
 30
0.0
 10
-54.024999999999999
 20
113.6075
 30
0.0
 10
-56.366700000000002
 20
113.6075
 30
0.0
 10
-58.265599999999999
 20
111.7084
 30
0.0
 10
-58.265599999999999
 20
109.3668
 30
0.0
 10
-58.265599999999999
 20
109.3668
 30
0.0
 10
-58.265599999999999
 20
107.9265
 30
0.0
 10
-57.546700000000001
 20
106.6537
 30
0.0
 10
-56.448599999999999
 20
105.8873
 30
0.0
 10
-56.448599999999999
 20
105.8873
 30
0.0
 10
-55.648200000000003
 20
105.9444
 30
0.0
 10
-54.8401
 20
105.9743
 30
0.0
 10
-54.024999999999999
 20
105.9743
 30
0.0
  0
SPLINE
  5
2F
100
AcDbEntity
  8
RÚteg 1
 62
     7
100
AcDbSpline
210
0.0
220
0.0
230
1.0
 70
     1
 71
     3
 72
    44
 73
    40
 74
     0
 42
0.0000000001
 43
0.0000000001
 40
0.0
 40
0.0
 40
0.0
 40
0.0
 40
0.1
 40
0.1
 40
0.1
 40
0.1
 40
0.2
 40
0.2
 40
0.2
 40
0.2
 40
0.3
 40
0.3
 40
0.3
 40
0.3
 40
0.4
 40
0.4
 40
0.4
 40
0.4
 40
0.5
 40
0.5
 40
0.5
 40
0.5
 40
0.6
 40
0.6
 40
0.6
 40
0.6
 40
0.7
 40
0.7
 40
0.7
 40
0.7
 40
0.7999999999999999
 40
0.7999999999999999
 40
0.7999999999999999
 40
0.7999999999999999
 40
0.8999999999999999
 40
0.8999999999999999
 40
0.8999999999999999
 40
0.8999999999999999
 40
1.0
 40
1.0
 40
1.0
 40
1.0
 10
-36.6524
 20
95.960899999999995
 30
0.0
 10
-36.6524
 20
95.960899999999995
 30
0.0
 10
-38.316699999999997
 20
90.871499999999997
 30
0.0
 10
-38.316699999999997
 20
90.871499999999997
 30
0.0
 10
-38.316699999999997
 20
90.871499999999997
 30
0.0
 10
-38.316699999999997
 20
90.871499999999997
 30
0.0
 10
-33.978499999999997
 20
87.732399999999998
 30
0.0
 10
-33.978499999999997
 20
87.732399999999998
 30
0.0
 10
-33.978499999999997
 20
87.732399999999998
 30
0.0
 10
-33.978499999999997
 20
87.732399999999998
 30
0.0
 10
-39.332999999999998
 20
87.742900000000006
 30
0.0
 10
-39.332999999999998
 20
87.742900000000006
 30
0.0
 10
-39.332999999999998
 20
87.742900000000006
 30
0.0
 10
-39.332999999999998
 20
87.742900000000006
 30
0.0
 10
-40.978200000000001
 20
82.647099999999995
 30
0.0
 10
-40.978200000000001
 20
82.647099999999995
 30
0.0
 10
-40.978200000000001
 20
82.647099999999995
 30
0.0
 10
-40.978200000000001
 20
82.647099999999995
 30
0.0
 10
-42.622999999999998
 20
87.742900000000006
 30
0.0
 10
-42.622999999999998
 20
87.742900000000006
 30
0.0
 10
-42.622999999999998
 20
87.742900000000006
 30
0.0
 10
-42.622999999999998
 20
87.742900000000006
 30
0.0
 10
-47.977699999999999
 20
87.732399999999998
 30
0.0
 10
-47.977699999999999
 20
87.732399999999998
 30
0.0
 10
-47.977699999999999
 20
87.732399999999998
 30
0.0
 10
-47.977699999999999
 20
87.732399999999998
 30
0.0
 10
-43.639499999999998
 20
90.871499999999997
 30
0.0
 10
-43.639499999999998
 20
90.871499999999997
 30
0.0
 10
-43.639499999999998
 20
90.871499999999997
 30
0.0
 10
-43.639499999999998
 20
90.871499999999997
 30
0.0
 10
-45.303800000000003
 20
95.960899999999995
 30
0.0
 10
-45.303800000000003
 20
95.960899999999995
 30
0.0
 10
-45.303800000000003
 20
95.960899999999995
 30
0.0
 10
-45.303800000000003
 20
95.960899999999995
 30
0.0
 10
-40.978200000000001
 20
92.805300000000003
 30
0.0
 10
-40.978200000000001
 20
92.805300000000003
 30
0.0
 10
-40.978200000000001
 20
92.805300000000003
 30
0.0
 10
-40.978200000000001
 20
92.805300000000003
 30
0.0
 10
-36.6524
 20
95.960899999999995
 30
0.0
 10
-36.6524
 20
95.960899999999995
 30
0.0
  0
SPLINE
  5
30
100
AcDbEntity
  8
RÚteg 1
 62
     7
100
AcDbSpline
210
0.0
220
0.0
230
1.0
 70
     1
 71
     3
 72
    44
 73
    40
 74
     0
 42
0.0000000001
 43
0.0000000001
 40
0.0
 40
0.0
 40
0.0
 40
0.0
 40
0.1
 40
0.1
 40
0.1
 40
0.1
 40
0.2
 40
0.2
 40
0.2
 40
0.2
 40
0.3
 40
0.3
 40
0.3
 40
0.3
 40
0.4
 40
0.4
 40
0.4
 40
0.4
 40
0.5
 40
0.5
 40
0.5
 40
0.5
 40
0.6
 40
0.6
 40
0.6
 40
0.6
 40
0.7
 40
0.7
 40
0.7
 40
0.7
 40
0.7999999999999999
 40
0.7999999999999999
 40
0.7999999999999999
 40
0.7999999999999999
 40
0.8999999999999999
 40
0.8999999999999999
 40
0.8999999999999999
 40
0.8999999999999999
 40
1.0
 40
1.0
 40
1.0
 40
1.0
 10
-25.915299999999998
 20
81.182599999999994
 30
0.0
 10
-25.915299999999998
 20
81.182599999999994
 30
0.0
 10
-30.253299999999999
 20
78.043700000000001
 30
0.0
 10
-30.253299999999999
 20
78.043700000000001
 30
0.0
 10
-30.253299999999999
 20
78.043700000000001
 30
0.0
 10
-30.253299999999999
 20
78.043700000000001
 30
0.0
 10
-28.588999999999999
 20
72.954400000000007
 30
0.0
 10
-28.588999999999999
 20
72.954400000000007
 30
0.0
 10
-28.588999999999999
 20
72.954400000000007
 30
0.0
 10
-28.588999999999999
 20
72.954400000000007
 30
0.0
 10
-32.914499999999997
 20
76.110100000000003
 30
0.0
 10
-32.914499999999997
 20
76.110100000000003
 30
0.0
 10
-32.914499999999997
 20
76.110100000000003
 30
0.0
 10
-32.914499999999997
 20
76.110100000000003
 30
0.0
 10
-37.240600000000001
 20
72.954499999999996
 30
0.0
 10
-37.240600000000001
 20
72.954499999999996
 30
0.0
 10
-37.240600000000001
 20
72.954499999999996
 30
0.0
 10
-37.240600000000001
 20
72.954499999999996
 30
0.0
 10
-35.576099999999997
 20
78.043800000000005
 30
0.0
 10
-35.576099999999997
 20
78.043800000000005
 30
0.0
 10
-35.576099999999997
 20
78.043800000000005
 30
0.0
 10
-35.576099999999997
 20
78.043800000000005
 30
0.0
 10
-39.914000000000001
 20
81.182599999999994
 30
0.0
 10
-39.914000000000001
 20
81.182599999999994
 30
0.0
 10
-39.914000000000001
 20
81.182599999999994
 30
0.0
 10
-39.914000000000001
 20
81.182599999999994
 30
0.0
 10
-34.559800000000003
 20
81.172499999999999
 30
0.0
 10
-34.559800000000003
 20
81.172499999999999
 30
0.0
 10
-34.559800000000003
 20
81.172499999999999
 30
0.0
 10
-34.559800000000003
 20
81.172499999999999
 30
0.0
 10
-32.914499999999997
 20
86.267899999999997
 30
0.0
 10
-32.914499999999997
 20
86.267899999999997
 30
0.0
 10
-32.914499999999997
 20
86.267899999999997
 30
0.0
 10
-32.914499999999997
 20
86.267899999999997
 30
0.0
 10
-31.2698
 20
81.172499999999999
 30
0.0
 10
-31.2698
 20
81.172499999999999
 30
0.0
 10
-31.2698
 20
81.172499999999999
 30
0.0
 10
-31.2698
 20
81.172499999999999
 30
0.0
 10
-25.915299999999998
 20
81.182599999999994
 30
0.0
 10
-25.915299999999998
 20
81.182599999999994
 30
0.0
  0
SPLINE
  5
31
100
AcDbEntity
  8
RÚteg 1
 62
     7
100
AcDbSpline
210
0.0
220
0.0
230
1.0
 70
     1
 71
     3
 72
    44
 73
    40
 74
     0
 42
0.0000000001
 43
0.0000000001
 40
0.0
 40
0.0
 40
0.0
 40
0.0
 40
0.1
 40
0.1
 40
0.1
 40
0.1
 40
0.2
 40
0.2
 40
0.2
 40
0.2
 40
0.3
 40
0.3
 40
0.3
 40
0.3
 40
0.4
 40
0.4
 40
0.4
 40
0.4
 40
0.5
 40
0.5
 40
0.5
 40
0.5
 40
0.6
 40
0.6
 40
0.6
 40
0.6
 40
0.7
 40
0.7
 40
0.7
 40
0.7
 40
0.7999999999999999
 40
0.7999999999999999
 40
0.7999999999999999
 40
0.7999999999999999
 40
0.8999999999999999
 40
0.8999999999999999
 40
0.8999999999999999
 40
0.8999999999999999
 40
1.0
 40
1.0
 40
1.0
 40
1.0
 10
-25.915299999999998
 20
62.915999999999997
 30
0.0
 10
-25.915299999999998
 20
62.915999999999997
 30
0.0
 10
-31.2698
 20
62.926099999999998
 30
0.0
 10
-31.2698
 20
62.926099999999998
 30
0.0
 10
-31.2698
 20
62.926099999999998
 30
0.0
 10
-31.2698
 20
62.926099999999998
 30
0.0
 10
-32.914499999999997
 20
57.830599999999997
 30
0.0
 10
-32.914499999999997
 20
57.830599999999997
 30
0.0
 10
-32.914499999999997
 20
57.830599999999997
 30
0.0
 10
-32.914499999999997
 20
57.830599999999997
 30
0.0
 10
-34.559800000000003
 20
62.926099999999998
 30
0.0
 10
-34.559800000000003
 20
62.926099999999998
 30
0.0
 10
-34.559800000000003
 20
62.926099999999998
 30
0.0
 10
-34.559800000000003
 20
62.926099999999998
 30
0.0
 10
-39.914000000000001
 20
62.9161
 30
0.0
 10
-39.914000000000001
 20
62.9161
 30
0.0
 10
-39.914000000000001
 20
62.9161
 30
0.0
 10
-39.914000000000001
 20
62.9161
 30
0.0
 10
-35.576099999999997
 20
66.055099999999996
 30
0.0
 10
-35.576099999999997
 20
66.055099999999996
 30
0.0
 10
-35.576099999999997
 20
66.055099999999996
 30
0.0
 10
-35.576099999999997
 20
66.055099999999996
 30
0.0
 10
-37.240600000000001
 20
71.144300000000001
 30
0.0
 10
-37.240600000000001
 20
71.144300000000001
 30
0.0
 10
-37.240600000000001
 20
71.144300000000001
 30
0.0
 10
-37.240600000000001
 20
71.144300000000001
 30
0.0
 10
-32.914499999999997
 20
67.988399999999999
 30
0.0
 10
-32.914499999999997
 20
67.988399999999999
 30
0.0
 10
-32.914499999999997
 20
67.988399999999999
 30
0.0
 10
-32.914499999999997
 20
67.988399999999999
 30
0.0
 10
-28.588999999999999
 20
71.144300000000001
 30
0.0
 10
-28.588999999999999
 20
71.144300000000001
 30
0.0
 10
-28.588999999999999
 20
71.144300000000001
 30
0.0
 10
-28.588999999999999
 20
71.144300000000001
 30
0.0
 10
-30.253299999999999
 20
66.055099999999996
 30
0.0
 10
-30.253299999999999
 20
66.055099999999996
 30
0.0
 10
-30.253299999999999
 20
66.055099999999996
 30
0.0
 10
-30.253299999999999
 20
66.055099999999996
 30
0.0
 10
-25.915299999999998
 20
62.915999999999997
 30
0.0
 10
-25.915299999999998
 20
62.915999999999997
 30
0.0
  0
SPLINE
  5
32
100
AcDbEntity
  8
RÚteg 1
 62
     7
100
AcDbSpline
210
0.0
220
0.0
230
1.0
 70
     1
 71
     3
 72
    44
 73
    40
 74
     0
 42
0.0000000001
 43
0.0000000001
 40
0.0
 40
0.0
 40
0.0
 40
0.0
 40
0.1
 40
0.1
 40
0.1
 40
0.1
 40
0.2
 40
0.2
 40
0.2
 40
0.2
 40
0.3
 40
0.3
 40
0.3
 40
0.3
 40
0.4
 40
0.4
 40
0.4
 40
0.4
 40
0.5
 40
0.5
 40
0.5
 40
0.5
 40
0.6
 40
0.6
 40
0.6
 40
0.6
 40
0.7
 40
0.7
 40
0.7
 40
0.7
 40
0.7999999999999999
 40
0.7999999999999999
 40
0.7999999999999999
 40
0.7999999999999999
 40
0.8999999999999999
 40
0.8999999999999999
 40
0.8999999999999999
 40
0.8999999999999999
 40
1.0
 40
1.0
 40
1.0
 40
1.0
 10
-36.6524
 20
48.137799999999999
 30
0.0
 10
-36.6524
 20
48.137799999999999
 30
0.0
 10
-40.978200000000001
 20
51.293300000000002
 30
0.0
 10
-40.978200000000001
 20
51.293300000000002
 30
0.0
 10
-40.978200000000001
 20
51.293300000000002
 30
0.0
 10
-40.978200000000001
 20
51.293300000000002
 30
0.0
 10
-45.303800000000003
 20
48.137799999999999
 30
0.0
 10
-45.303800000000003
 20
48.137799999999999
 30
0.0
 10
-45.303800000000003
 20
48.137799999999999
 30
0.0
 10
-45.303800000000003
 20
48.137799999999999
 30
0.0
 10
-43.639499999999998
 20
53.226999999999997
 30
0.0
 10
-43.639499999999998
 20
53.226999999999997
 30
0.0
 10
-43.639499999999998
 20
53.226999999999997
 30
0.0
 10
-43.639499999999998
 20
53.226999999999997
 30
0.0
 10
-47.977499999999999
 20
56.366100000000003
 30
0.0
 10
-47.977499999999999
 20
56.366100000000003
 30
0.0
 10
-47.977499999999999
 20
56.366100000000003
 30
0.0
 10
-47.977499999999999
 20
56.366100000000003
 30
0.0
 10
-42.622999999999998
 20
56.355600000000003
 30
0.0
 10
-42.622999999999998
 20
56.355600000000003
 30
0.0
 10
-42.622999999999998
 20
56.355600000000003
 30
0.0
 10
-42.622999999999998
 20
56.355600000000003
 30
0.0
 10
-40.978200000000001
 20
61.451500000000003
 30
0.0
 10
-40.978200000000001
 20
61.451500000000003
 30
0.0
 10
-40.978200000000001
 20
61.451500000000003
 30
0.0
 10
-40.978200000000001
 20
61.451500000000003
 30
0.0
 10
-39.332999999999998
 20
56.355600000000003
 30
0.0
 10
-39.332999999999998
 20
56.355600000000003
 30
0.0
 10
-39.332999999999998
 20
56.355600000000003
 30
0.0
 10
-39.332999999999998
 20
56.355600000000003
 30
0.0
 10
-33.978700000000003
 20
56.366100000000003
 30
0.0
 10
-33.978700000000003
 20
56.366100000000003
 30
0.0
 10
-33.978700000000003
 20
56.366100000000003
 30
0.0
 10
-33.978700000000003
 20
56.366100000000003
 30
0.0
 10
-38.316699999999997
 20
53.226999999999997
 30
0.0
 10
-38.316699999999997
 20
53.226999999999997
 30
0.0
 10
-38.316699999999997
 20
53.226999999999997
 30
0.0
 10
-38.316699999999997
 20
53.226999999999997
 30
0.0
 10
-36.6524
 20
48.137799999999999
 30
0.0
 10
-36.6524
 20
48.137799999999999
 30
0.0
  0
SPLINE
  5
33
100
AcDbEntity
  8
RÚteg 1
 62
     7
100
AcDbSpline
210
0.0
220
0.0
230
1.0
 70
     1
 71
     3
 72
    44
 73
    40
 74
     0
 42
0.0000000001
 43
0.0000000001
 40
0.0
 40
0.0
 40
0.0
 40
0.0
 40
0.1
 40
0.1
 40
0.1
 40
0.1
 40
0.2
 40
0.2
 40
0.2
 40
0.2
 40
0.3
 40
0.3
 40
0.3
 40
0.3
 40
0.4
 40
0.4
 40
0.4
 40
0.4
 40
0.5
 40
0.5
 40
0.5
 40
0.5
 40
0.6
 40
0.6
 40
0.6
 40
0.6
 40
0.7
 40
0.7
 40
0.7
 40
0.7
 40
0.7999999999999999
 40
0.7999999999999999
 40
0.7999999999999999
 40
0.7999999999999999
 40
0.8999999999999999
 40
0.8999999999999999
 40
0.8999999999999999
 40
0.8999999999999999
 40
1.0
 40
1.0
 40
1.0
 40
1.0
 10
-54.024999999999999
 20
42.493000000000002
 30
0.0
 10
-54.024999999999999
 20
42.493000000000002
 30
0.0
 10
-55.669800000000002
 20
47.588700000000003
 30
0.0
 10
-55.669800000000002
 20
47.588700000000003
 30
0.0
 10
-55.669800000000002
 20
47.588700000000003
 30
0.0
 10
-55.669800000000002
 20
47.588700000000003
 30
0.0
 10
-61.024500000000003
 20
47.578499999999998
 30
0.0
 10
-61.024500000000003
 20
47.578499999999998
 30
0.0
 10
-61.024500000000003
 20
47.578499999999998
 30
0.0
 10
-61.024500000000003
 20
47.578499999999998
 30
0.0
 10
-56.686399999999999
 20
50.717399999999998
 30
0.0
 10
-56.686399999999999
 20
50.717399999999998
 30
0.0
 10
-56.686399999999999
 20
50.717399999999998
 30
0.0
 10
-56.686399999999999
 20
50.717399999999998
 30
0.0
 10
-58.350999999999999
 20
55.806699999999999
 30
0.0
 10
-58.350999999999999
 20
55.806699999999999
 30
0.0
 10
-58.350999999999999
 20
55.806699999999999
 30
0.0
 10
-58.350999999999999
 20
55.806699999999999
 30
0.0
 10
-54.024900000000002
 20
52.6511
 30
0.0
 10
-54.024900000000002
 20
52.6511
 30
0.0
 10
-54.024900000000002
 20
52.6511
 30
0.0
 10
-54.024900000000002
 20
52.6511
 30
0.0
 10
-49.698999999999998
 20
55.806699999999999
 30
0.0
 10
-49.698999999999998
 20
55.806699999999999
 30
0.0
 10
-49.698999999999998
 20
55.806699999999999
 30
0.0
 10
-49.698999999999998
 20
55.806699999999999
 30
0.0
 10
-51.363599999999998
 20
50.717399999999998
 30
0.0
 10
-51.363599999999998
 20
50.717399999999998
 30
0.0
 10
-51.363599999999998
 20
50.717399999999998
 30
0.0
 10
-51.363599999999998
 20
50.717399999999998
 30
0.0
 10
-47.025599999999997
 20
47.578499999999998
 30
0.0
 10
-47.025599999999997
 20
47.578499999999998
 30
0.0
 10
-47.025599999999997
 20
47.578499999999998
 30
0.0
 10
-47.025599999999997
 20
47.578499999999998
 30
0.0
 10
-52.380200000000002
 20
47.588700000000003
 30
0.0
 10
-52.380200000000002
 20
47.588700000000003
 30
0.0
 10
-52.380200000000002
 20
47.588700000000003
 30
0.0
 10
-52.380200000000002
 20
47.588700000000003
 30
0.0
 10
-54.024999999999999
 20
42.493000000000002
 30
0.0
 10
-54.024999999999999
 20
42.493000000000002
 30
0.0
  0
SPLINE
  5
34
100
AcDbEntity
  8
RÚteg 1
 62
     7
100
AcDbSpline
210
0.0
220
0.0
230
1.0
 70
     1
 71
     3
 72
    44
 73
    40
 74
     0
 42
0.0000000001
 43
0.0000000001
 40
0.0
 40
0.0
 40
0.0
 40
0.0
 40
0.1
 40
0.1
 40
0.1
 40
0.1
 40
0.2
 40
0.2
 40
0.2
 40
0.2
 40
0.3
 40
0.3
 40
0.3
 40
0.3
 40
0.4
 40
0.4
 40
0.4
 40
0.4
 40
0.5
 40
0.5
 40
0.5
 40
0.5
 40
0.6
 40
0.6
 40
0.6
 40
0.6
 40
0.7
 40
0.7
 40
0.7
 40
0.7
 40
0.7999999999999999
 40
0.7999999999999999
 40
0.7999999999999999
 40
0.7999999999999999
 40
0.8999999999999999
 40
0.8999999999999999
 40
0.8999999999999999
 40
0.8999999999999999
 40
1.0
 40
1.0
 40
1.0
 40
1.0
 10
-71.397599999999997
 20
48.137799999999999
 30
0.0
 10
-71.397599999999997
 20
48.137799999999999
 30
0.0
 10
-69.7333
 20
53.226999999999997
 30
0.0
 10
-69.7333
 20
53.226999999999997
 30
0.0
 10
-69.7333
 20
53.226999999999997
 30
0.0
 10
-69.7333
 20
53.226999999999997
 30
0.0
 10
-74.0715
 20
56.366100000000003
 30
0.0
 10
-74.0715
 20
56.366100000000003
 30
0.0
 10
-74.0715
 20
56.366100000000003
 30
0.0
 10
-74.0715
 20
56.366100000000003
 30
0.0
 10
-68.716999999999999
 20
56.355600000000003
 30
0.0
 10
-68.716999999999999
 20
56.355600000000003
 30
0.0
 10
-68.716999999999999
 20
56.355600000000003
 30
0.0
 10
-68.716999999999999
 20
56.355600000000003
 30
0.0
 10
-67.071799999999996
 20
61.451500000000003
 30
0.0
 10
-67.071799999999996
 20
61.451500000000003
 30
0.0
 10
-67.071799999999996
 20
61.451500000000003
 30
0.0
 10
-67.071799999999996
 20
61.451500000000003
 30
0.0
 10
-65.427000000000007
 20
56.355600000000003
 30
0.0
 10
-65.427000000000007
 20
56.355600000000003
 30
0.0
 10
-65.427000000000007
 20
56.355600000000003
 30
0.0
 10
-65.427000000000007
 20
56.355600000000003
 30
0.0
 10
-60.072299999999998
 20
56.366100000000003
 30
0.0
 10
-60.072299999999998
 20
56.366100000000003
 30
0.0
 10
-60.072299999999998
 20
56.366100000000003
 30
0.0
 10
-60.072299999999998
 20
56.366100000000003
 30
0.0
 10
-64.410499999999999
 20
53.226999999999997
 30
0.0
 10
-64.410499999999999
 20
53.226999999999997
 30
0.0
 10
-64.410499999999999
 20
53.226999999999997
 30
0.0
 10
-64.410499999999999
 20
53.226999999999997
 30
0.0
 10
-62.746200000000002
 20
48.137799999999999
 30
0.0
 10
-62.746200000000002
 20
48.137799999999999
 30
0.0
 10
-62.746200000000002
 20
48.137799999999999
 30
0.0
 10
-62.746200000000002
 20
48.137799999999999
 30
0.0
 10
-67.071799999999996
 20
51.293300000000002
 30
0.0
 10
-67.071799999999996
 20
51.293300000000002
 30
0.0
 10
-67.071799999999996
 20
51.293300000000002
 30
0.0
 10
-67.071799999999996
 20
51.293300000000002
 30
0.0
 10
-71.397599999999997
 20
48.137799999999999
 30
0.0
 10
-71.397599999999997
 20
48.137799999999999
 30
0.0
  0
SPLINE
  5
35
100
AcDbEntity
  8
RÚteg 1
 62
     7
100
AcDbSpline
210
0.0
220
0.0
230
1.0
 70
     1
 71
     3
 72
    44
 73
    40
 74
     0
 42
0.0000000001
 43
0.0000000001
 40
0.0
 40
0.0
 40
0.0
 40
0.0
 40
0.1
 40
0.1
 40
0.1
 40
0.1
 40
0.2
 40
0.2
 40
0.2
 40
0.2
 40
0.3
 40
0.3
 40
0.3
 40
0.3
 40
0.4
 40
0.4
 40
0.4
 40
0.4
 40
0.5
 40
0.5
 40
0.5
 40
0.5
 40
0.6
 40
0.6
 40
0.6
 40
0.6
 40
0.7
 40
0.7
 40
0.7
 40
0.7
 40
0.7999999999999999
 40
0.7999999999999999
 40
0.7999999999999999
 40
0.7999999999999999
 40
0.8999999999999999
 40
0.8999999999999999
 40
0.8999999999999999
 40
0.8999999999999999
 40
1.0
 40
1.0
 40
1.0
 40
1.0
 10
-82.134699999999995
 20
62.915999999999997
 30
0.0
 10
-82.134699999999995
 20
62.915999999999997
 30
0.0
 10
-77.796700000000001
 20
66.055099999999996
 30
0.0
 10
-77.796700000000001
 20
66.055099999999996
 30
0.0
 10
-77.796700000000001
 20
66.055099999999996
 30
0.0
 10
-77.796700000000001
 20
66.055099999999996
 30
0.0
 10
-79.460999999999999
 20
71.144300000000001
 30
0.0
 10
-79.460999999999999
 20
71.144300000000001
 30
0.0
 10
-79.460999999999999
 20
71.144300000000001
 30
0.0
 10
-79.460999999999999
 20
71.144300000000001
 30
0.0
 10
-75.135499999999993
 20
67.988399999999999
 30
0.0
 10
-75.135499999999993
 20
67.988399999999999
 30
0.0
 10
-75.135499999999993
 20
67.988399999999999
 30
0.0
 10
-75.135499999999993
 20
67.988399999999999
 30
0.0
 10
-70.809399999999997
 20
71.144300000000001
 30
0.0
 10
-70.809399999999997
 20
71.144300000000001
 30
0.0
 10
-70.809399999999997
 20
71.144300000000001
 30
0.0
 10
-70.809399999999997
 20
71.144300000000001
 30
0.0
 10
-72.4739
 20
66.054900000000004
 30
0.0
 10
-72.4739
 20
66.054900000000004
 30
0.0
 10
-72.4739
 20
66.054900000000004
 30
0.0
 10
-72.4739
 20
66.054900000000004
 30
0.0
 10
-68.135999999999996
 20
62.915999999999997
 30
0.0
 10
-68.135999999999996
 20
62.915999999999997
 30
0.0
 10
-68.135999999999996
 20
62.915999999999997
 30
0.0
 10
-68.135999999999996
 20
62.915999999999997
 30
0.0
 10
-73.490200000000002
 20
62.926099999999998
 30
0.0
 10
-73.490200000000002
 20
62.926099999999998
 30
0.0
 10
-73.490200000000002
 20
62.926099999999998
 30
0.0
 10
-73.490200000000002
 20
62.926099999999998
 30
0.0
 10
-75.135499999999993
 20
57.830599999999997
 30
0.0
 10
-75.135499999999993
 20
57.830599999999997
 30
0.0
 10
-75.135499999999993
 20
57.830599999999997
 30
0.0
 10
-75.135499999999993
 20
57.830599999999997
 30
0.0
 10
-76.780199999999994
 20
62.926099999999998
 30
0.0
 10
-76.780199999999994
 20
62.926099999999998
 30
0.0
 10
-76.780199999999994
 20
62.926099999999998
 30
0.0
 10
-76.780199999999994
 20
62.926099999999998
 30
0.0
 10
-82.134699999999995
 20
62.915999999999997
 30
0.0
 10
-82.134699999999995
 20
62.915999999999997
 30
0.0
  0
SPLINE
  5
36
100
AcDbEntity
  8
RÚteg 1
 62
     7
100
AcDbSpline
210
0.0
220
0.0
230
1.0
 70
     1
 71
     3
 72
    44
 73
    40
 74
     0
 42
0.0000000001
 43
0.0000000001
 40
0.0
 40
0.0
 40
0.0
 40
0.0
 40
0.1
 40
0.1
 40
0.1
 40
0.1
 40
0.2
 40
0.2
 40
0.2
 40
0.2
 40
0.3
 40
0.3
 40
0.3
 40
0.3
 40
0.4
 40
0.4
 40
0.4
 40
0.4
 40
0.5
 40
0.5
 40
0.5
 40
0.5
 40
0.6
 40
0.6
 40
0.6
 40
0.6
 40
0.7
 40
0.7
 40
0.7
 40
0.7
 40
0.7999999999999999
 40
0.7999999999999999
 40
0.7999999999999999
 40
0.7999999999999999
 40
0.8999999999999999
 40
0.8999999999999999
 40
0.8999999999999999
 40
0.8999999999999999
 40
1.0
 40
1.0
 40
1.0
 40
1.0
 10
-82.134699999999995
 20
81.182599999999994
 30
0.0
 10
-82.134699999999995
 20
81.182599999999994
 30
0.0
 10
-76.780199999999994
 20
81.172499999999999
 30
0.0
 10
-76.780199999999994
 20
81.172499999999999
 30
0.0
 10
-76.780199999999994
 20
81.172499999999999
 30
0.0
 10
-76.780199999999994
 20
81.172499999999999
 30
0.0
 10
-75.135499999999993
 20
86.267899999999997
 30
0.0
 10
-75.135499999999993
 20
86.267899999999997
 30
0.0
 10
-75.135499999999993
 20
86.267899999999997
 30
0.0
 10
-75.135499999999993
 20
86.267899999999997
 30
0.0
 10
-73.490200000000002
 20
81.172499999999999
 30
0.0
 10
-73.490200000000002
 20
81.172499999999999
 30
0.0
 10
-73.490200000000002
 20
81.172499999999999
 30
0.0
 10
-73.490200000000002
 20
81.172499999999999
 30
0.0
 10
-68.135999999999996
 20
81.182599999999994
 30
0.0
 10
-68.135999999999996
 20
81.182599999999994
 30
0.0
 10
-68.135999999999996
 20
81.182599999999994
 30
0.0
 10
-68.135999999999996
 20
81.182599999999994
 30
0.0
 10
-72.4739
 20
78.043700000000001
 30
0.0
 10
-72.4739
 20
78.043700000000001
 30
0.0
 10
-72.4739
 20
78.043700000000001
 30
0.0
 10
-72.4739
 20
78.043700000000001
 30
0.0
 10
-70.809399999999997
 20
72.954400000000007
 30
0.0
 10
-70.809399999999997
 20
72.954400000000007
 30
0.0
 10
-70.809399999999997
 20
72.954400000000007
 30
0.0
 10
-70.809399999999997
 20
72.954400000000007
 30
0.0
 10
-75.135499999999993
 20
76.110100000000003
 30
0.0
 10
-75.135499999999993
 20
76.110100000000003
 30
0.0
 10
-75.135499999999993
 20
76.110100000000003
 30
0.0
 10
-75.135499999999993
 20
76.110100000000003
 30
0.0
 10
-79.460999999999999
 20
72.954400000000007
 30
0.0
 10
-79.460999999999999
 20
72.954400000000007
 30
0.0
 10
-79.460999999999999
 20
72.954400000000007
 30
0.0
 10
-79.460999999999999
 20
72.954400000000007
 30
0.0
 10
-77.796700000000001
 20
78.043599999999998
 30
0.0
 10
-77.796700000000001
 20
78.043599999999998
 30
0.0
 10
-77.796700000000001
 20
78.043599999999998
 30
0.0
 10
-77.796700000000001
 20
78.043599999999998
 30
0.0
 10
-82.134699999999995
 20
81.182599999999994
 30
0.0
 10
-82.134699999999995
 20
81.182599999999994
 30
0.0
  0
SPLINE
  5
37
100
AcDbEntity
  8
RÚteg 1
 62
     7
100
AcDbSpline
210
0.0
220
0.0
230
1.0
 70
     1
 71
     3
 72
    44
 73
    40
 74
     0
 42
0.0000000001
 43
0.0000000001
 40
0.0
 40
0.0
 40
0.0
 40
0.0
 40
0.1
 40
0.1
 40
0.1
 40
0.1
 40
0.2
 40
0.2
 40
0.2
 40
0.2
 40
0.3
 40
0.3
 40
0.3
 40
0.3
 40
0.4
 40
0.4
 40
0.4
 40
0.4
 40
0.5
 40
0.5
 40
0.5
 40
0.5
 40
0.6
 40
0.6
 40
0.6
 40
0.6
 40
0.7
 40
0.7
 40
0.7
 40
0.7
 40
0.7999999999999999
 40
0.7999999999999999
 40
0.7999999999999999
 40
0.7999999999999999
 40
0.8999999999999999
 40
0.8999999999999999
 40
0.8999999999999999
 40
0.8999999999999999
 40
1.0
 40
1.0
 40
1.0
 40
1.0
 10
-71.397599999999997
 20
95.960899999999995
 30
0.0
 10
-71.397599999999997
 20
95.960899999999995
 30
0.0
 10
-67.071799999999996
 20
92.805300000000003
 30
0.0
 10
-67.071799999999996
 20
92.805300000000003
 30
0.0
 10
-67.071799999999996
 20
92.805300000000003
 30
0.0
 10
-67.071799999999996
 20
92.805300000000003
 30
0.0
 10
-62.746200000000002
 20
95.960899999999995
 30
0.0
 10
-62.746200000000002
 20
95.960899999999995
 30
0.0
 10
-62.746200000000002
 20
95.960899999999995
 30
0.0
 10
-62.746200000000002
 20
95.960899999999995
 30
0.0
 10
-64.410499999999999
 20
90.871499999999997
 30
0.0
 10
-64.410499999999999
 20
90.871499999999997
 30
0.0
 10
-64.410499999999999
 20
90.871499999999997
 30
0.0
 10
-64.410499999999999
 20
90.871499999999997
 30
0.0
 10
-60.072299999999998
 20
87.732399999999998
 30
0.0
 10
-60.072299999999998
 20
87.732399999999998
 30
0.0
 10
-60.072299999999998
 20
87.732399999999998
 30
0.0
 10
-60.072299999999998
 20
87.732399999999998
 30
0.0
 10
-65.427000000000007
 20
87.742900000000006
 30
0.0
 10
-65.427000000000007
 20
87.742900000000006
 30
0.0
 10
-65.427000000000007
 20
87.742900000000006
 30
0.0
 10
-65.427000000000007
 20
87.742900000000006
 30
0.0
 10
-67.071799999999996
 20
82.647099999999995
 30
0.0
 10
-67.071799999999996
 20
82.647099999999995
 30
0.0
 10
-67.071799999999996
 20
82.647099999999995
 30
0.0
 10
-67.071799999999996
 20
82.647099999999995
 30
0.0
 10
-68.716999999999999
 20
87.742900000000006
 30
0.0
 10
-68.716999999999999
 20
87.742900000000006
 30
0.0
 10
-68.716999999999999
 20
87.742900000000006
 30
0.0
 10
-68.716999999999999
 20
87.742900000000006
 30
0.0
 10
-74.071299999999994
 20
87.732399999999998
 30
0.0
 10
-74.071299999999994
 20
87.732399999999998
 30
0.0
 10
-74.071299999999994
 20
87.732399999999998
 30
0.0
 10
-74.071299999999994
 20
87.732399999999998
 30
0.0
 10
-69.7333
 20
90.871499999999997
 30
0.0
 10
-69.7333
 20
90.871499999999997
 30
0.0
 10
-69.7333
 20
90.871499999999997
 30
0.0
 10
-69.7333
 20
90.871499999999997
 30
0.0
 10
-71.397599999999997
 20
95.960899999999995
 30
0.0
 10
-71.397599999999997
 20
95.960899999999995
 30
0.0
  0
SPLINE
  5
38
100
AcDbEntity
  8
RÚteg 1
 62
     7
100
AcDbSpline
210
0.0
220
0.0
230
1.0
 70
     1
 71
     3
 72
    44
 73
    40
 74
     0
 42
0.0000000001
 43
0.0000000001
 40
0.0
 40
0.0
 40
0.0
 40
0.0
 40
0.1
 40
0.1
 40
0.1
 40
0.1
 40
0.2
 40
0.2
 40
0.2
 40
0.2
 40
0.3
 40
0.3
 40
0.3
 40
0.3
 40
0.4
 40
0.4
 40
0.4
 40
0.4
 40
0.5
 40
0.5
 40
0.5
 40
0.5
 40
0.6
 40
0.6
 40
0.6
 40
0.6
 40
0.7
 40
0.7
 40
0.7
 40
0.7
 40
0.7999999999999999
 40
0.7999999999999999
 40
0.7999999999999999
 40
0.7999999999999999
 40
0.8999999999999999
 40
0.8999999999999999
 40
0.8999999999999999
 40
0.8999999999999999
 40
1.0
 40
1.0
 40
1.0
 40
1.0
 10
-54.024999999999999
 20
84.068299999999994
 30
0.0
 10
-54.024999999999999
 20
84.068299999999994
 30
0.0
 10
-51.055199999999999
 20
74.867900000000006
 30
0.0
 10
-51.055199999999999
 20
74.867900000000006
 30
0.0
 10
-51.055199999999999
 20
74.867900000000006
 30
0.0
 10
-51.055199999999999
 20
74.867900000000006
 30
0.0
 10
-41.387599999999999
 20
74.886600000000001
 30
0.0
 10
-41.387599999999999
 20
74.886600000000001
 30
0.0
 10
-41.387599999999999
 20
74.886600000000001
 30
0.0
 10
-41.387599999999999
 20
74.886600000000001
 30
0.0
 10
-49.219700000000003
 20
69.219200000000001
 30
0.0
 10
-49.219700000000003
 20
69.219200000000001
 30
0.0
 10
-49.219700000000003
 20
69.219200000000001
 30
0.0
 10
-49.219700000000003
 20
69.219200000000001
 30
0.0
 10
-46.214500000000001
 20
60.030200000000001
 30
0.0
 10
-46.214500000000001
 20
60.030200000000001
 30
0.0
 10
-46.214500000000001
 20
60.030200000000001
 30
0.0
 10
-46.214500000000001
 20
60.030200000000001
 30
0.0
 10
-54.024999999999999
 20
65.727999999999994
 30
0.0
 10
-54.024999999999999
 20
65.727999999999994
 30
0.0
 10
-54.024999999999999
 20
65.727999999999994
 30
0.0
 10
-54.024999999999999
 20
65.727999999999994
 30
0.0
 10
-61.835500000000003
 20
60.030200000000001
 30
0.0
 10
-61.835500000000003
 20
60.030200000000001
 30
0.0
 10
-61.835500000000003
 20
60.030200000000001
 30
0.0
 10
-61.835500000000003
 20
60.030200000000001
 30
0.0
 10
-58.830300000000001
 20
69.219200000000001
 30
0.0
 10
-58.830300000000001
 20
69.219200000000001
 30
0.0
 10
-58.830300000000001
 20
69.219200000000001
 30
0.0
 10
-58.830300000000001
 20
69.219200000000001
 30
0.0
 10
-66.662400000000005
 20
74.886600000000001
 30
0.0
 10
-66.662400000000005
 20
74.886600000000001
 30
0.0
 10
-66.662400000000005
 20
74.886600000000001
 30
0.0
 10
-66.662400000000005
 20
74.886600000000001
 30
0.0
 10
-56.994799999999998
 20
74.867900000000006
 30
0.0
 10
-56.994799999999998
 20
74.867900000000006
 30
0.0
 10
-56.994799999999998
 20
74.867900000000006
 30
0.0
 10
-56.994799999999998
 20
74.867900000000006
 30
0.0
 10
-54.024999999999999
 20
84.068299999999994
 30
0.0
 10
-54.024999999999999
 20
84.068299999999994
 30
0.0
  0
SPLINE
  5
39
100
AcDbEntity
  8
RÚteg 1
 62
     7
100
AcDbSpline
210
0.0
220
0.0
230
1.0
 70
     1
 71
     3
 72
    44
 73
    40
 74
     0
 42
0.0000000001
 43
0.0000000001
 40
0.0
 40
0.0
 40
0.0
 40
0.0
 40
0.1
 40
0.1
 40
0.1
 40
0.1
 40
0.2
 40
0.2
 40
0.2
 40
0.2
 40
0.3
 40
0.3
 40
0.3
 40
0.3
 40
0.4
 40
0.4
 40
0.4
 40
0.4
 40
0.5
 40
0.5
 40
0.5
 40
0.5
 40
0.6
 40
0.6
 40
0.6
 40
0.6
 40
0.7
 40
0.7
 40
0.7
 40
0.7
 40
0.7999999999999999
 40
0.7999999999999999
 40
0.7999999999999999
 40
0.7999999999999999
 40
0.8999999999999999
 40
0.8999999999999999
 40
0.8999999999999999
 40
0.8999999999999999
 40
1.0
 40
1.0
 40
1.0
 40
1.0
 10
-54.024999999999999
 20
101.60550000000001
 30
0.0
 10
-54.024999999999999
 20
101.60550000000001
 30
0.0
 10
-52.380200000000002
 20
96.510000000000005
 30
0.0
 10
-52.380200000000002
 20
96.510000000000005
 30
0.0
 10
-52.380200000000002
 20
96.510000000000005
 30
0.0
 10
-52.380200000000002
 20
96.510000000000005
 30
0.0
 10
-47.025599999999997
 20
96.520200000000003
 30
0.0
 10
-47.025599999999997
 20
96.520200000000003
 30
0.0
 10
-47.025599999999997
 20
96.520200000000003
 30
0.0
 10
-47.025599999999997
 20
96.520200000000003
 30
0.0
 10
-51.363599999999998
 20
93.381200000000007
 30
0.0
 10
-51.363599999999998
 20
93.381200000000007
 30
0.0
 10
-51.363599999999998
 20
93.381200000000007
 30
0.0
 10
-51.363599999999998
 20
93.381200000000007
 30
0.0
 10
-49.698999999999998
 20
88.291899999999998
 30
0.0
 10
-49.698999999999998
 20
88.291899999999998
 30
0.0
 10
-49.698999999999998
 20
88.291899999999998
 30
0.0
 10
-49.698999999999998
 20
88.291899999999998
 30
0.0
 10
-54.024999999999999
 20
91.447599999999994
 30
0.0
 10
-54.024999999999999
 20
91.447599999999994
 30
0.0
 10
-54.024999999999999
 20
91.447599999999994
 30
0.0
 10
-54.024999999999999
 20
91.447599999999994
 30
0.0
 10
-58.350999999999999
 20
88.291899999999998
 30
0.0
 10
-58.350999999999999
 20
88.291899999999998
 30
0.0
 10
-58.350999999999999
 20
88.291899999999998
 30
0.0
 10
-58.350999999999999
 20
88.291899999999998
 30
0.0
 10
-56.686399999999999
 20
93.381200000000007
 30
0.0
 10
-56.686399999999999
 20
93.381200000000007
 30
0.0
 10
-56.686399999999999
 20
93.381200000000007
 30
0.0
 10
-56.686399999999999
 20
93.381200000000007
 30
0.0
 10
-61.0244
 20
96.520200000000003
 30
0.0
 10
-61.0244
 20
96.520200000000003
 30
0.0
 10
-61.0244
 20
96.520200000000003
 30
0.0
 10
-61.0244
 20
96.520200000000003
 30
0.0
 10
-55.669800000000002
 20
96.510000000000005
 30
0.0
 10
-55.669800000000002
 20
96.510000000000005
 30
0.0
 10
-55.669800000000002
 20
96.510000000000005
 30
0.0
 10
-55.669800000000002
 20
96.510000000000005
 30
0.0
 10
-54.024999999999999
 20
101.60550000000001
 30
0.0
 10
-54.024999999999999
 20
101.60550000000001
 30
0.0
  0
ENDSEC
  0
SECTION
  2
OBJECTS
  0
DICTIONARY
  5
19
100
AcDbDictionary
280
     0
281
     1
  3
ACAD_GROUP
350
1A
  3
ACAD_MLINESTYLE
350
1B
  3
ACAD_LAYOUT
350
1E
  3
ACAD_PLOTSETTINGS
350
22
  3
ACAD_PLOTSTYLENAME
350
1F
  3
ACAD_WIPEOUT_VARS
350
23
  0
DICTIONARY
  5
1A
102
{ACAD_REACTORS
330
19
102
}
100
AcDbDictionary
280
     0
281
     1
  0
DICTIONARY
  5
1B
102
{ACAD_REACTORS
330
19
102
}
100
AcDbDictionary
280
     0
281
     1
  3
Standard
350
1C
  0
MLINESTYLE
  5
1C
102
{ACAD_REACTORS
330
1B
102
}
100
AcDbMlineStyle
  2
Standard
 70
     0
  3

 62
     0
 51
90.0
 52
90.0
 71
     2
 49
0.5
 62
   256
  6
BYLAYER
 49
-0.5
 62
   256
  6
BYLAYER
  0
ACDBDICTIONARYWDFLT
  5
1F
102
{ACAD_REACTORS
330
19
102
}
100
AcDbDictionary
281
     1
  3
Normal
350
1D
100
AcDbDictionaryWithDefault
340
1D
  0
ACDBPLACEHOLDER
  5
1D
102
{ACAD_REACTORS
330
1F
102
}
  0
LAYOUT
  5
20
102
{ACAD_REACTORS
330
1E
102
}
100
AcDbPlotSettings
  1

  2

  4

  6

 40
0.0
 41
0.0
 42
0.0
 43
0.0
 44
0.0
 45
0.0
 46
0.0
 47
0.0
 48
0.0
 49
0.0
140
0.0
141
0.0
142
1.0
143
1.0
 70
  1024
 72
     0
 73
     0
 74
     0
  7

 75
     0
147
1.0
148
0.0
149
0.0
100
AcDbLayout
  1
Model
 70
     0
 71
     0
 10
0.0
 20
0.0
 11
0.0
 21
0.0
 12
0.0
 22
0.0
 32
0.0
 14
0.0
 24
0.0
 34
0.0
 15
0.0
 25
0.0
 35
0.0
146
0.0
 13
0.0
 23
0.0
 33
0.0
 16
0.0
 26
0.0
 36
0.0
 17
0.0
 27
0.0
 37
0.0
 76
     0
330
A
331
0
345
0
346
0
  0
LAYOUT
  5
21
102
{ACAD_REACTORS
330
1E
102
}
100
AcDbPlotSettings
  1

  2

  4

  6

 40
0.0
 41
0.0
 42
0.0
 43
0.0
 44
0.0
 45
0.0
 46
0.0
 47
0.0
 48
0.0
 49
0.0
140
0.0
141
0.0
142
1.0
143
1.0
 70
     0
 72
     0
 73
     0
 74
     0
  7

 75
     0
147
1.0
148
0.0
149
0.0
100
AcDbLayout
  1
Layout1
 70
     0
 71
     0
 10
0.0
 20
0.0
 11
0.0
 21
0.0
 12
0.0
 22
0.0
 32
0.0
 14
0.0
 24
0.0
 34
0.0
 15
0.0
 25
0.0
 35
0.0
146
0.0
 13
0.0
 23
0.0
 33
0.0
 16
0.0
 26
0.0
 36
0.0
 17
0.0
 27
0.0
 37
0.0
 76
     0
330
B
331
0
345
0
346
0
  0
DICTIONARY
  5
1E
102
{ACAD_REACTORS
330
19
102
}
100
AcDbDictionary
280
     0
281
     1
  3
Layout1
350
21
  3
Model
350
20
  0
DICTIONARY
  5
22
102
{ACAD_REACTORS
330
19
102
}
100
AcDbDictionary
280
     0
281
     1
  0
WIPEOUTVARIABLES
  5
23
100
AcDbWipeoutVariables
 70
     1
  0
ENDSEC
  0
EOF
