  0
SECTION
  2
HEADER
  9
$ACADVER
  1
AC1015
  9
$ACADMAINTVER
 70
     6
  9
$DWGCODEPAGE
  3
DOS850
  9
$INSBASE
 10
0.0
 20
0.0
 30
0.0
  9
$EXTMIN
 10
-82.9881
 20
38.0861
 30
1.000000E+20
  9
$EXTMAX
 10
57.0881
 20
115.3381
 30
-1.000000E+20
  9
$LIMMIN
 10
0.0
 20
0.0
  9
$LIMMAX
 10
0.0
 20
0.0
  9
$ORTHOMODE
 70
     0
  9
$REGENMODE
 70
     1
  9
$FILLMODE
 70
     1
  9
$QTEXTMODE
 70
     0
  9
$MIRRTEXT
 70
     1
  9
$LTSCALE
 40
1.0
  9
$ATTMODE
 70
     1
  9
$TEXTSIZE
 40
0.2
  9
$TRACEWID
 40
0.05
  9
$TEXTSTYLE
  7
Standard
  9
$CLAYER
  8
0
  9
$CELTYPE
  6
Continuous
  9
$CECOLOR
 62
   256
  9
$CELTSCALE
 40
1.0
  9
$DISPSILH
 70
     0
  9
$DIMSCALE
 40
1.0
  9
$DIMASZ
 40
0.18
  9
$DIMEXO
 40
0.0625
  9
$DIMDLI
 40
0.38
  9
$DIMRND
 40
0.0
  9
$DIMDLE
 40
0.0
  9
$DIMEXE
 40
0.18
  9
$DIMTP
 40
0.0
  9
$DIMTM
 40
0.0
  9
$DIMTXT
 40
0.18
  9
$DIMCEN
 40
0.09
  9
$DIMTSZ
 40
0.0
  9
$DIMTOL
 70
     0
  9
$DIMLIM
 70
     0
  9
$DIMTIH
 70
     1
  9
$DIMTOH
 70
     1
  9
$DIMSE1
 70
     0
  9
$DIMSE2
 70
     0
  9
$DIMTAD
 70
     0
  9
$DIMZIN
 70
     0
  9
$DIMBLK
  1

  9
$DIMASO
 70
     1
  9
$DIMSHO
 70
     1
  9
$DIMPOST
  1

  9
$DIMAPOST
  1

  9
$DIMALT
 70
     0
  9
$DIMALTD
 70
     2
  9
$DIMALTF
 40
25.4
  9
$DIMLFAC
 40
1.0
  9
$DIMTOFL
 70
     0
  9
$DIMTVP
 40
0.0
  9
$DIMTIX
 70
     0
  9
$DIMSOXD
 70
     0
  9
$DIMSAH
 70
     0
  9
$DIMBLK1
  1

  9
$DIMBLK2
  1

  9
$DIMSTYLE
  2
Standard
  9
$DIMCLRD
 70
     0
  9
$DIMCLRE
 70
     0
  9
$DIMCLRT
 70
     0
  9
$DIMTFAC
 40
1.0
  9
$DIMGAP
 40
0.09
  9
$DIMJUST
 70
     0
  9
$DIMSD1
 70
     0
  9
$DIMSD2
 70
     0
  9
$DIMTOLJ
 70
     1
  9
$DIMTZIN
 70
     0
  9
$DIMALTZ
 70
     0
  9
$DIMALTTZ
 70
     0
  9
$DIMUPT
 70
     0
  9
$DIMDEC
 70
     4
  9
$DIMTDEC
 70
     4
  9
$DIMALTU
 70
     2
  9
$DIMALTTD
 70
     2
  9
$DIMTXSTY
  7
Standard
  9
$DIMAUNIT
 70
     0
  9
$DIMADEC
 70
     0
  9
$DIMALTRND
 40
0.0
  9
$DIMAZIN
 70
     0
  9
$DIMDSEP
 70
     0
  9
$DIMATFIT
 70
     3
  9
$DIMFRAC
 70
     0
  9
$DIMLDRBLK
  1

  9
$DIMLUNIT
 70
     2
  9
$DIMLWD
 70
     0
  9
$DIMLWE
 70
     0
  9
$DIMTMOVE
 70
     0
  9
$LUNITS
 70
     2
  9
$LUPREC
 70
     4
  9
$SKETCHINC
 40
0.1
  9
$FILLETRAD
 40
0.0
  9
$AUNITS
 70
     0
  9
$AUPREC
 70
     0
  9
$MENU
  1
acad
  9
$ELEVATION
 40
0.0
  9
$PELEVATION
 40
0.0
  9
$THICKNESS
 40
0.0
  9
$LIMCHECK
 70
     0
  9
$CHAMFERA
 40
0.0
  9
$CHAMFERB
 40
0.0
  9
$CHAMFERC
 40
0.0
  9
$CHAMFERD
 40
0.0
  9
$SKPOLY
 70
     0
  9
$TDCREATE
 40
0.000000000
  9
$TDUCREATE
 40
0.000000000
  9
$TDUPDATE
 40
0.000000000
  9
$TDUUPDATE
 40
0.000000000
  9
$TDINDWG
 40
0.0000000000
  9
$TDUSRTIMER
 40
0.0000000000
  9
$USRTIMER
 70
     1
  9
$ANGBASE
 50
0.0
  9
$ANGDIR
 70
     0
  9
$PDMODE
 70
     0
  9
$PDSIZE
 40
0.0
  9
$PLINEWID
 40
0.0
  9
$SPLFRAME
 70
     0
  9
$SPLINETYPE
 70
     6
  9
$SPLINESEGS
 70
     8
  9
$HANDSEED
  5
4D
  9
$SURFTAB1
 70
     6
  9
$SURFTAB2
 70
     6
  9
$SURFTYPE
 70
     6
  9
$SURFU
 70
     6
  9
$SURFV
 70
     6
  9
$UCSBASE
  2

  9
$UCSNAME
  2

  9
$UCSORG
 10
0.0
 20
0.0
 30
0.0
  9
$UCSXDIR
 10
1.0
 20
0.0
 30
0.0
  9
$UCSYDIR
 10
0.0
 20
1.0
 30
0.0
  9
$UCSORTHOREF
  2

  9
$UCSORTHOVIEW
 70
     0
  9
$UCSORGTOP
 10
0.0
 20
0.0
 30
0.0
  9
$UCSORGBOTTOM
 10
0.0
 20
0.0
 30
0.0
  9
$UCSORGLEFT
 10
0.0
 20
0.0
 30
0.0
  9
$UCSORGRIGHT
 10
0.0
 20
0.0
 30
0.0
  9
$UCSORGFRONT
 10
0.0
 20
0.0
 30
0.0
  9
$UCSORGBACK
 10
0.0
 20
0.0
 30
0.0
  9
$PUCSBASE
  2

  9
$PUCSNAME
  2

  9
$PUCSORG
 10
0.0
 20
0.0
 30
0.0
  9
$PUCSXDIR
 10
1.0
 20
0.0
 30
0.0
  9
$PUCSYDIR
 10
0.0
 20
1.0
 30
0.0
  9
$PUCSORTHOREF
  2

  9
$PUCSORTHOVIEW
 70
     0
  9
$PUCSORGTOP
 10
0.0
 20
0.0
 30
0.0
  9
$PUCSORGBOTTOM
 10
0.0
 20
0.0
 30
0.0
  9
$PUCSORGLEFT
 10
0.0
 20
0.0
 30
0.0
  9
$PUCSORGRIGHT
 10
0.0
 20
0.0
 30
0.0
  9
$PUCSORGFRONT
 10
0.0
 20
0.0
 30
0.0
  9
$PUCSORGBACK
 10
0.0
 20
0.0
 30
0.0
  9
$USERI1
 70
     0
  9
$USERI2
 70
     0
  9
$USERI3
 70
     0
  9
$USERI4
 70
     0
  9
$USERI5
 70
     0
  9
$USERR1
 40
0.0
  9
$USERR2
 40
0.0
  9
$USERR3
 40
0.0
  9
$USERR4
 40
0.0
  9
$USERR5
 40
0.0
  9
$WORLDVIEW
 70
     1
  9
$SHADEDGE
 70
     3
  9
$SHADEDIF
 70
    70
  9
$TILEMODE
 70
     1
  9
$MAXACTVP
 70
    16
  9
$PINSBASE
 10
0.0
 20
0.0
 30
0.0
  9
$PLIMCHECK
 70
     0
  9
$PEXTMIN
 10
1.000000E+20
 20
1.000000E+20
 30
1.000000E+20
  9
$PEXTMAX
 10
-1.000000E+20
 20
-1.000000E+20
 30
-1.000000E+20
  9
$PLIMMIN
 10
0.0
 20
0.0
  9
$PLIMMAX
 10
12.0
 20
9.0
  9
$UNITMODE
 70
     0
  9
$VISRETAIN
 70
     0
  9
$PLINEGEN
 70
     1
  9
$PSLTSCALE
 70
     0
  9
$TREEDEPTH
 70
  3020
  9
$CMLSTYLE
  2
Standard
  9
$CMLJUST
 70
     0
  9
$CMLSCALE
 40
1.0
  9
$PROXYGRAPHICS
 70
     0
  9
$MEASUREMENT
 70
     0
  9
$CELWEIGHT
370
     0
  9
$ENDCAPS
280
     0
  9
$JOINSTYLE
280
     0
  9
$LWDISPLAY
290
     0
  9
$INSUNITS
 70
     4
  9
$HYPERLINKBASE
  1

  9
$XEDIT
290
     1
  9
$CEPSNTYPE
380
     0
  9
$PSTYLEMODE
290
     1
  9
$FINGERPRINTGUID
  2

  9
$VERSIONGUID
  2

  9
$EXTNAMES
290
     1
  9
$PSVPSCALE
 40
0.0
  0
ENDSEC
  0
SECTION
  2
CLASSES
  0
CLASS
  1
LWPOLYLINE
  2
AcDbPolyline
  3
AutoCAD 2000
 90
    32768
280
     0
281
     1
  0
CLASS
  1
IMAGE
  2
AcDbRasterImage
  3
ISM
 90
    32895
280
     0
281
     1
  0
CLASS
  1
OLE2FRAME
  2
AcDbOle2Frame
  3
AutoCAD 2000
 90
    32768
280
     0
281
     1
  0
CLASS
  1
HATCH
  2
AcDbHatch
  3
AutoCAD 2000
 90
    32768
280
     0
281
     1
  0
CLASS
  1
DICTIONARYVAR
  2
AcDbDictionaryVar
  3
AutoCAD 2000
 90
    32768
280
     0
281
     0
  0
CLASS
  1
RASTERVARIABLES
  2
AcDbRasterVariables
  3
ISM
 90
    32768
280
     0
281
     0
  0
CLASS
  1
IMAGEDEF
  2
AcDbRasterImageDef
  3
ISM
 90
    32768
280
     0
281
     0
  0
CLASS
  1
IMAGEDEF_REACTOR
  2
AcDbRasterImageDefReactor
  3
ISM
 90
    32769
280
     0
281
     0
  0
CLASS
  1
IDBUFFER
  2
AcDbIdBuffer
  3
AutoCAD 2000
 90
    32768
280
     0
281
     0
  0
CLASS
  1
SPATIAL_FILTER
  2
AcDbSpatialFilter
  3
AutoCAD 2000
 90
    32768
280
     0
281
     0
  0
CLASS
  1
XRECORD
  2
AcDbXrecord
  3
AutoCAD 2000
 90
    32768
280
     0
281
     0
  0
CLASS
  1
SORTENTSTABLE
  2
AcDbSortentsTable
  3
AutoCAD 2000
 90
    32768
280
     0
281
     0
  0
CLASS
  1
LAYER_INDEX
  2
AcDbLayerIndex
  3
AutoCAD 2000
 90
    32768
280
     0
281
     0
  0
CLASS
  1
SPATIAL_INDEX
  2
AcDbSpatialIndex
  3
AutoCAD 2000
 90
    32768
280
     0
281
     0
  0
CLASS
  1
OBJECT_PTR
  2
CAseDLPNTableRecord
  3
"ASE-LPNTableRecord"
 90
    32769
280
     0
281
     0
  0
CLASS
  1
LAYOUT
  2
AcDbLayout
  3
AutoCAD 2000
 90
        0
280
     0
281
     0
  0
CLASS
  1
PLOTSETTINGS
  2
AcDbPlotSettings
  3
AutoCAD 2000
 90
    32768
280
     0
281
     0
  0
CLASS
  1
ACDBDICTIONARYWDFLT
  2
AcDbDictionaryWithDefault
  3
AutoCAD 2000
 90
        0
280
     0
281
     0
  0
CLASS
  1
ACDBPLACEHOLDER
  2
AcDbPlaceHolder
  3
AutoCAD 2000
 90
        0
280
     0
281
     0
  0
CLASS
  1
VBA_PROJECT
  2
AcDbVbaProject
  3
acadvba
 90
    32768
280
     0
281
     0
  0
CLASS
  1
WIPEOUT
  2
AcDbWipeout
  3
WipeOut|AutoCAD Express Tool|expresstools@autodesk.com
 90
    32895
280
     0
281
     1
  0
CLASS
  1
WIPEOUTVARIABLES
  2
AcDbWipeoutVariables
  3
WipeOut|AutoCAD Express Tool|expresstools@autodesk.com
 90
        0
280
     0
281
     0
  0
CLASS
  1
RTEXT
  2
RText
  3
RText|AutoCAD Express Tool|expresstools@autodesk.com
 90
    32768
280
     0
281
     1
  0
CLASS
  1
ARCALIGNEDTEXT
  2
AcDbArcAlignedText
  3
ATEXT|AutoCAD Express Tool|expresstools@autodesk.com
 90
    32768
280
     0
281
     1
  0
ENDSEC
  0
SECTION
  2
TABLES
  0
TABLE
  2
VPORT
  5
7
100
AcDbSymbolTable
 70
     1
  0
VPORT
  5
15
100
AcDbSymbolTableRecord
100
AcDbViewportTableRecord
  2
*ACTIVE
 70
     0
 10
0.0
 20
0.0
 11
1.0
 21
1.0
 12
6.591288
 22
4.579184
 13
0.0
 23
0.0
 14
1.0
 24
1.0
 15
0.0
 25
0.0
 16
0.0
 26
0.0
 36
1.0
 17
0.0
 27
0.0
 37
0.0
 40
9.158369
 41
0.688564
 42
50.0
 43
0.0
 44
0.0
 50
0.0
 51
0.0
 71
     0
 72
   100
 73
     1
 74
     1
 75
     0
 76
     0
 77
     0
 78
     0
281
     0
 65
     0
110
0.0
120
0.0
130
0.0
111
1.0
121
0.0
131
0.0
112
0.0
122
1.0
132
0.0
345
0
346
0
 79
     0
146
0.0
  0
ENDTAB
  0
TABLE
  2
LTYPE
  5
4
100
AcDbSymbolTable
 70
     3
  0
LTYPE
  5
11
100
AcDbSymbolTableRecord
100
AcDbLinetypeTableRecord
  2
ByBlock
 70
    64
  3

 72
    65
 73
     0
 40
0.0
  0
LTYPE
  5
12
100
AcDbSymbolTableRecord
100
AcDbLinetypeTableRecord
  2
ByLayer
 70
    64
  3

 72
    65
 73
     0
 40
0.0
  0
LTYPE
  5
13
100
AcDbSymbolTableRecord
100
AcDbLinetypeTableRecord
  2
Continuous
 70
    64
  3
Solid line
 72
    65
 73
     0
 40
0.0
  0
ENDTAB
  0
TABLE
  2
LAYER
  5
2
100
AcDbSymbolTable
 70
     2
  0
LAYER
  5
14
100
AcDbSymbolTableRecord
100
AcDbLayerTableRecord
  2
0
 70
     0
 62
     7
  6
Continuous
290
     1
370
    -3
390
1D
  0
LAYER
  5
24
100
AcDbSymbolTableRecord
100
AcDbLayerTableRecord
  2
RÚteg 1
 70
     0
 62
     7
  6
Continuous
290
     1
370
    -3
390
1F
  0
ENDTAB
  0
TABLE
  2
STYLE
  5
3
100
AcDbSymbolTable
 70
     1
  0
STYLE
  5
17
100
AcDbSymbolTableRecord
100
AcDbTextStyleTableRecord
  2
Standard
 70
     0
 40
0.0
 41
1.0
 50
0.0
 71
     0
 42
0.0
  3
txt
  4

  0
ENDTAB
  0
TABLE
  2
VIEW
  5
5
100
AcDbSymbolTable
 70
     0
  0
ENDTAB
  0
TABLE
  2
UCS
  5
6
100
AcDbSymbolTable
 70
     0
  0
ENDTAB
  0
TABLE
  2
APPID
  5
8
100
AcDbSymbolTable
 70
     1
  0
APPID
  5
16
100
AcDbSymbolTableRecord
100
AcDbRegAppTableRecord
  2
ACAD
 70
     0
  0
ENDTAB
  0
TABLE
  2
DIMSTYLE
  5
9
100
AcDbSymbolTable
 70
     1
100
AcDbDimStyleTable
 71
     0
  0
DIMSTYLE
105
18
100
AcDbSymbolTableRecord
100
AcDbDimStyleTableRecord
  2
Standard
 70
     0
  3

  4

 40
1.0
 41
0.18
 42
0.0625
 43
0.38
 44
0.18
 45
0.0
 46
0.0
 47
0.0
 48
0.0
 71
     0
 72
     0
 73
     1
 74
     1
 75
     0
 76
     0
 77
     0
 78
     0
 79
     0
140
0.18
141
0.09
142
0.0
143
25.4
144
1.0
145
0.0
146
1.0
147
0.09
148
0.0
170
     0
171
     2
172
     0
173
     0
174
     0
175
     0
176
     0
177
     0
178
     0
179
     0
271
     4
272
     4
273
     2
274
     2
275
     0
276
     0
277
     2
278
    46
279
     0
280
     0
281
     0
282
     0
283
     1
284
     0
285
     0
286
     0
288
     0
340
17
341
0
342
0
343
0
344
0
371
    -2
372
    -2
  0
ENDTAB
  0
TABLE
  2
BLOCK_RECORD
  5
1
100
AcDbSymbolTable
 70
     0
  0
BLOCK_RECORD
  5
A
100
AcDbSymbolTableRecord
100
AcDbBlockTableRecord
  2
*MODEL_SPACE
340
20
  0
BLOCK_RECORD
  5
B
100
AcDbSymbolTableRecord
100
AcDbBlockTableRecord
  2
*PAPER_SPACE
340
21
  0
ENDTAB
  0
ENDSEC
  0
SECTION
  2
BLOCKS
  0
BLOCK
  5
D
100
AcDbEntity
  8
0
100
AcDbBlockBegin
  2
*MODEL_SPACE
 70
     0
 10
0.0
 20
0.0
 30
0.0
  3
*MODEL_SPACE
  1

  0
ENDBLK
  5
E
100
AcDbEntity
  8
0
100
AcDbBlockEnd
  0
BLOCK
  5
F
100
AcDbEntity
 67
     1
  8
0
100
AcDbBlockBegin
  2
*PAPER_SPACE
 70
     0
 10
0.0
 20
0.0
 30
0.0
  3
*PAPER_SPACE
  1

  0
ENDBLK
  5
10
100
AcDbEntity
 67
     1
  8
0
100
AcDbBlockEnd
  0
ENDSEC
  0
SECTION
  2
ENTITIES
  0
SPLINE
  5
25
100
AcDbEntity
  8
RÚteg 1
 62
     7
100
AcDbSpline
210
0.0
220
0.0
230
1.0
 70
     1
 71
     3
 72
    28
 73
    24
 74
     0
 42
0.0000000001
 43
0.0000000001
 40
0.0
 40
0.0
 40
0.0
 40
0.0
 40
0.1666666666666667
 40
0.1666666666666667
 40
0.1666666666666667
 40
0.1666666666666667
 40
0.3333333333333333
 40
0.3333333333333333
 40
0.3333333333333333
 40
0.3333333333333333
 40
0.5
 40
0.5
 40
0.5
 40
0.5
 40
0.6666666666666666
 40
0.6666666666666666
 40
0.6666666666666666
 40
0.6666666666666666
 40
0.8333333333333333
 40
0.8333333333333333
 40
0.8333333333333333
 40
0.8333333333333333
 40
1.0
 40
1.0
 40
1.0
 40
1.0
 10
-49.024999999999999
 20
105.9742
 30
0.0
 10
-48.209899999999998
 20
105.9742
 30
0.0
 10
-47.401899999999998
 20
105.9443
 30
0.0
 10
-46.601399999999998
 20
105.8871
 30
0.0
 10
-46.601399999999998
 20
105.8871
 30
0.0
 10
-45.503300000000003
 20
106.6537
 30
0.0
 10
-44.784399999999998
 20
107.9263
 30
0.0
 10
-44.784399999999998
 20
109.36669999999999
 30
0.0
 10
-44.784399999999998
 20
109.36669999999999
 30
0.0
 10
-44.784399999999998
 20
111.7084
 30
0.0
 10
-46.683399999999999
 20
113.6074
 30
0.0
 10
-49.025100000000002
 20
113.6074
 30
0.0
 10
-49.025100000000002
 20
113.6074
 30
0.0
 10
-51.366599999999998
 20
113.6074
 30
0.0
 10
-53.265599999999999
 20
111.7084
 30
0.0
 10
-53.265599999999999
 20
109.36669999999999
 30
0.0
 10
-53.265599999999999
 20
109.36669999999999
 30
0.0
 10
-53.265599999999999
 20
107.9263
 30
0.0
 10
-52.546700000000001
 20
106.6536
 30
0.0
 10
-51.448599999999999
 20
105.8871
 30
0.0
 10
-51.448599999999999
 20
105.8871
 30
0.0
 10
-50.648200000000003
 20
105.9443
 30
0.0
 10
-49.8401
 20
105.9742
 30
0.0
 10
-49.024999999999999
 20
105.9742
 30
0.0
  0
SPLINE
  5
26
100
AcDbEntity
  8
RÚteg 1
 62
     7
100
AcDbSpline
210
0.0
220
0.0
230
1.0
 70
     1
 71
     3
 72
    36
 73
    32
 74
     0
 42
0.0000000001
 43
0.0000000001
 40
0.0
 40
0.0
 40
0.0
 40
0.0
 40
0.125
 40
0.125
 40
0.125
 40
0.125
 40
0.25
 40
0.25
 40
0.25
 40
0.25
 40
0.375
 40
0.375
 40
0.375
 40
0.375
 40
0.5
 40
0.5
 40
0.5
 40
0.5
 40
0.625
 40
0.625
 40
0.625
 40
0.625
 40
0.75
 40
0.75
 40
0.75
 40
0.75
 40
0.875
 40
0.875
 40
0.875
 40
0.875
 40
1.0
 40
1.0
 40
1.0
 40
1.0
 10
-44.394399999999997
 20
105.65819999999999
 30
0.0
 10
-27.851600000000001
 20
103.3989
 30
0.0
 10
-15.1
 20
89.211100000000002
 30
0.0
 10
-15.1
 20
72.049199999999999
 30
0.0
 10
-15.1
 20
72.049199999999999
 30
0.0
 10
-15.1
 20
53.316099999999999
 30
0.0
 10
-30.291899999999998
 20
38.124200000000002
 30
0.0
 10
-49.024999999999999
 20
38.124200000000002
 30
0.0
 10
-49.024999999999999
 20
38.124200000000002
 30
0.0
 10
-67.758099999999999
 20
38.124200000000002
 30
0.0
 10
-82.950000000000003
 20
53.316099999999999
 30
0.0
 10
-82.950000000000003
 20
72.049199999999999
 30
0.0
 10
-82.950000000000003
 20
72.049199999999999
 30
0.0
 10
-82.950000000000003
 20
89.211100000000002
 30
0.0
 10
-70.198400000000007
 20
103.3989
 30
0.0
 10
-53.6556
 20
105.65819999999999
 30
0.0
 10
-53.6556
 20
105.65819999999999
 30
0.0
 10
-54.470500000000001
 20
106.67400000000001
 30
0.0
 10
-54.958300000000001
 20
107.96339999999999
 30
0.0
 10
-54.958300000000001
 20
109.36669999999999
 30
0.0
 10
-54.958300000000001
 20
109.36669999999999
 30
0.0
 10
-54.958300000000001
 20
112.643
 30
0.0
 10
-52.301400000000001
 20
115.3
 30
0.0
 10
-49.024999999999999
 20
115.3
 30
0.0
 10
-49.024999999999999
 20
115.3
 30
0.0
 10
-45.748600000000003
 20
115.3
 30
0.0
 10
-43.091700000000003
 20
112.643
 30
0.0
 10
-43.091700000000003
 20
109.36669999999999
 30
0.0
 10
-43.091700000000003
 20
109.36669999999999
 30
0.0
 10
-43.091700000000003
 20
107.96339999999999
 30
0.0
 10
-43.579500000000003
 20
106.67400000000001
 30
0.0
 10
-44.394399999999997
 20
105.65819999999999
 30
0.0
  0
SPLINE
  5
27
100
AcDbEntity
  8
RÚteg 1
 62
     7
100
AcDbSpline
210
0.0
220
0.0
230
1.0
 70
     1
 71
     3
 72
    36
 73
    32
 74
     0
 42
0.0000000001
 43
0.0000000001
 40
0.0
 40
0.0
 40
0.0
 40
0.0
 40
0.125
 40
0.125
 40
0.125
 40
0.125
 40
0.25
 40
0.25
 40
0.25
 40
0.25
 40
0.375
 40
0.375
 40
0.375
 40
0.375
 40
0.5
 40
0.5
 40
0.5
 40
0.5
 40
0.625
 40
0.625
 40
0.625
 40
0.625
 40
0.75
 40
0.75
 40
0.75
 40
0.75
 40
0.875
 40
0.875
 40
0.875
 40
0.875
 40
1.0
 40
1.0
 40
1.0
 40
1.0
 10
-48.369599999999998
 20
73.134100000000004
 30
0.0
 10
-47.849200000000003
 20
73.134100000000004
 30
0.0
 10
-47.415300000000002
 20
72.938699999999997
 30
0.0
 10
-47.068399999999997
 20
72.548400000000001
 30
0.0
 10
-47.068399999999997
 20
72.548400000000001
 30
0.0
 10
-46.720999999999997
 20
72.158000000000001
 30
0.0
 10
-46.547400000000003
 20
71.680700000000002
 30
0.0
 10
-46.547400000000003
 20
71.116600000000005
 30
0.0
 10
-46.547400000000003
 20
71.116600000000005
 30
0.0
 10
-46.547400000000003
 20
70.5959
 30
0.0
 10
-46.720999999999997
 20
70.140199999999993
 30
0.0
 10
-47.068399999999997
 20
69.749799999999993
 30
0.0
 10
-47.068399999999997
 20
69.749799999999993
 30
0.0
 10
-47.415300000000002
 20
69.359099999999998
 30
0.0
 10
-47.849200000000003
 20
69.164199999999994
 30
0.0
 10
-48.369599999999998
 20
69.164199999999994
 30
0.0
 10
-48.369599999999998
 20
69.164199999999994
 30
0.0
 10
-48.8902
 20
69.164199999999994
 30
0.0
 10
-49.324300000000001
 20
69.359099999999998
 30
0.0
 10
-49.671100000000003
 20
69.749799999999993
 30
0.0
 10
-49.671100000000003
 20
69.749799999999993
 30
0.0
 10
-50.0184
 20
70.140199999999993
 30
0.0
 10
-50.192100000000003
 20
70.5959
 30
0.0
 10
-50.192100000000003
 20
71.116600000000005
 30
0.0
 10
-50.192100000000003
 20
71.116600000000005
 30
0.0
 10
-50.192100000000003
 20
71.680700000000002
 30
0.0
 10
-50.0184
 20
72.158000000000001
 30
0.0
 10
-49.671100000000003
 20
72.548400000000001
 30
0.0
 10
-49.671100000000003
 20
72.548400000000001
 30
0.0
 10
-49.324300000000001
 20
72.938699999999997
 30
0.0
 10
-48.8902
 20
73.134100000000004
 30
0.0
 10
-48.369599999999998
 20
73.134100000000004
 30
0.0
  0
SPLINE
  5
28
100
AcDbEntity
  8
RÚteg 1
 62
     7
100
AcDbSpline
210
0.0
220
0.0
230
1.0
 70
     1
 71
     3
 72
    32
 73
    28
 74
     0
 42
0.0000000001
 43
0.0000000001
 40
0.0
 40
0.0
 40
0.0
 40
0.0
 40
0.1428571428571429
 40
0.1428571428571429
 40
0.1428571428571429
 40
0.1428571428571429
 40
0.2857142857142857
 40
0.2857142857142857
 40
0.2857142857142857
 40
0.2857142857142857
 40
0.4285714285714286
 40
0.4285714285714286
 40
0.4285714285714286
 40
0.4285714285714286
 40
0.5714285714285714
 40
0.5714285714285714
 40
0.5714285714285714
 40
0.5714285714285714
 40
0.7142857142857142
 40
0.7142857142857142
 40
0.7142857142857142
 40
0.7142857142857142
 40
0.857142857142857
 40
0.857142857142857
 40
0.857142857142857
 40
0.857142857142857
 40
1.0
 40
1.0
 40
1.0
 40
1.0
 10
-52.664999999999999
 20
74.695700000000002
 30
0.0
 10
-52.057499999999997
 20
74.695700000000002
 30
0.0
 10
-51.558300000000003
 20
74.501000000000005
 30
0.0
 10
-51.167999999999999
 20
74.110200000000006
 30
0.0
 10
-51.167999999999999
 20
74.110200000000006
 30
0.0
 10
-50.777700000000003
 20
73.719700000000003
 30
0.0
 10
-50.582299999999996
 20
73.2423
 30
0.0
 10
-50.582299999999996
 20
72.678600000000003
 30
0.0
 10
-50.582299999999996
 20
72.678600000000003
 30
0.0
 10
-50.582299999999996
 20
71.159700000000001
 30
0.0
 10
-51.276400000000002
 20
70.400499999999994
 30
0.0
 10
-52.664999999999999
 20
70.400499999999994
 30
0.0
 10
-52.664999999999999
 20
70.400499999999994
 30
0.0
 10
-53.185600000000001
 20
70.400499999999994
 30
0.0
 10
-53.652200000000001
 20
70.628500000000003
 30
0.0
 10
-54.064500000000002
 20
71.084000000000003
 30
0.0
 10
-54.064500000000002
 20
71.084000000000003
 30
0.0
 10
-54.476300000000002
 20
71.539500000000004
 30
0.0
 10
-54.682299999999998
 20
72.070499999999996
 30
0.0
 10
-54.682299999999998
 20
72.678600000000003
 30
0.0
 10
-54.682299999999998
 20
72.678600000000003
 30
0.0
 10
-54.682299999999998
 20
73.1999
 30
0.0
 10
-54.476300000000002
 20
73.665300000000002
 30
0.0
 10
-54.064500000000002
 20
74.077600000000004
 30
0.0
 10
-54.064500000000002
 20
74.077600000000004
 30
0.0
 10
-53.652200000000001
 20
74.489800000000002
 30
0.0
 10
-53.185600000000001
 20
74.695700000000002
 30
0.0
 10
-52.664999999999999
 20
74.695700000000002
 30
0.0
  0
SPLINE
  5
29
100
AcDbEntity
  8
RÚteg 1
 62
     7
100
AcDbSpline
210
0.0
220
0.0
230
1.0
 70
     1
 71
     3
 72
    24
 73
    20
 74
     0
 42
0.0000000001
 43
0.0000000001
 40
0.0
 40
0.0
 40
0.0
 40
0.0
 40
0.2
 40
0.2
 40
0.2
 40
0.2
 40
0.4
 40
0.4
 40
0.4
 40
0.4
 40
0.6000000000000001
 40
0.6000000000000001
 40
0.6000000000000001
 40
0.6000000000000001
 40
0.8
 40
0.8
 40
0.8
 40
0.8
 40
1.0
 40
1.0
 40
1.0
 40
1.0
 10
-49.085700000000003
 20
77.819999999999993
 30
0.0
 10
-47.827500000000001
 20
77.819999999999993
 30
0.0
 10
-47.198500000000003
 20
77.2774
 30
0.0
 10
-47.198500000000003
 20
76.192499999999995
 30
0.0
 10
-47.198500000000003
 20
76.192499999999995
 30
0.0
 10
-47.198500000000003
 20
75.628699999999995
 30
0.0
 10
-47.371899999999997
 20
75.151499999999999
 30
0.0
 10
-47.718800000000002
 20
74.761200000000002
 30
0.0
 10
-47.718800000000002
 20
74.761200000000002
 30
0.0
 10
-48.066000000000003
 20
74.370699999999999
 30
0.0
 10
-48.5214
 20
74.175200000000004
 30
0.0
 10
-49.085700000000003
 20
74.175200000000004
 30
0.0
 10
-49.085700000000003
 20
74.175200000000004
 30
0.0
 10
-50.170400000000001
 20
74.175200000000004
 30
0.0
 10
-50.712699999999998
 20
74.847899999999996
 30
0.0
 10
-50.712699999999998
 20
76.192499999999995
 30
0.0
 10
-50.712699999999998
 20
76.192499999999995
 30
0.0
 10
-50.712699999999998
 20
77.2774
 30
0.0
 10
-50.170400000000001
 20
77.819999999999993
 30
0.0
 10
-49.085700000000003
 20
77.819999999999993
 30
0.0
  0
SPLINE
  5
2A
100
AcDbEntity
  8
RÚteg 1
 62
     7
100
AcDbSpline
210
0.0
220
0.0
230
1.0
 70
     1
 71
     3
 72
   160
 73
   156
 74
     0
 42
0.0000000001
 43
0.0000000001
 40
0.0
 40
0.0
 40
0.0
 40
0.0
 40
0.0256410256410256
 40
0.0256410256410256
 40
0.0256410256410256
 40
0.0256410256410256
 40
0.0512820512820513
 40
0.0512820512820513
 40
0.0512820512820513
 40
0.0512820512820513
 40
0.0769230769230769
 40
0.0769230769230769
 40
0.0769230769230769
 40
0.0769230769230769
 40
0.1025641025641026
 40
0.1025641025641026
 40
0.1025641025641026
 40
0.1025641025641026
 40
0.1282051282051282
 40
0.1282051282051282
 40
0.1282051282051282
 40
0.1282051282051282
 40
0.1538461538461538
 40
0.1538461538461538
 40
0.1538461538461538
 40
0.1538461538461538
 40
0.1794871794871795
 40
0.1794871794871795
 40
0.1794871794871795
 40
0.1794871794871795
 40
0.2051282051282051
 40
0.2051282051282051
 40
0.2051282051282051
 40
0.2051282051282051
 40
0.2307692307692307
 40
0.2307692307692307
 40
0.2307692307692307
 40
0.2307692307692307
 40
0.2564102564102564
 40
0.2564102564102564
 40
0.2564102564102564
 40
0.2564102564102564
 40
0.2820512820512821
 40
0.2820512820512821
 40
0.2820512820512821
 40
0.2820512820512821
 40
0.3076923076923077
 40
0.3076923076923077
 40
0.3076923076923077
 40
0.3076923076923077
 40
0.3333333333333334
 40
0.3333333333333334
 40
0.3333333333333334
 40
0.3333333333333334
 40
0.358974358974359
 40
0.358974358974359
 40
0.358974358974359
 40
0.358974358974359
 40
0.3846153846153847
 40
0.3846153846153847
 40
0.3846153846153847
 40
0.3846153846153847
 40
0.4102564102564104
 40
0.4102564102564104
 40
0.4102564102564104
 40
0.4102564102564104
 40
0.435897435897436
 40
0.435897435897436
 40
0.435897435897436
 40
0.435897435897436
 40
0.4615384615384617
 40
0.4615384615384617
 40
0.4615384615384617
 40
0.4615384615384617
 40
0.4871794871794873
 40
0.4871794871794873
 40
0.4871794871794873
 40
0.4871794871794873
 40
0.512820512820513
 40
0.512820512820513
 40
0.512820512820513
 40
0.512820512820513
 40
0.5384615384615387
 40
0.5384615384615387
 40
0.5384615384615387
 40
0.5384615384615387
 40
0.5641025641025643
 40
0.5641025641025643
 40
0.5641025641025643
 40
0.5641025641025643
 40
0.58974358974359
 40
0.58974358974359
 40
0.58974358974359
 40
0.58974358974359
 40
0.6153846153846156
 40
0.6153846153846156
 40
0.6153846153846156
 40
0.6153846153846156
 40
0.6410256410256413
 40
0.6410256410256413
 40
0.6410256410256413
 40
0.6410256410256413
 40
0.666666666666667
 40
0.666666666666667
 40
0.666666666666667
 40
0.666666666666667
 40
0.6923076923076926
 40
0.6923076923076926
 40
0.6923076923076926
 40
0.6923076923076926
 40
0.7179487179487183
 40
0.7179487179487183
 40
0.7179487179487183
 40
0.7179487179487183
 40
0.743589743589744
 40
0.743589743589744
 40
0.743589743589744
 40
0.743589743589744
 40
0.7692307692307696
 40
0.7692307692307696
 40
0.7692307692307696
 40
0.7692307692307696
 40
0.7948717948717953
 40
0.7948717948717953
 40
0.7948717948717953
 40
0.7948717948717953
 40
0.8205128205128209
 40
0.8205128205128209
 40
0.8205128205128209
 40
0.8205128205128209
 40
0.8461538461538466
 40
0.8461538461538466
 40
0.8461538461538466
 40
0.8461538461538466
 40
0.8717948717948723
 40
0.8717948717948723
 40
0.8717948717948723
 40
0.8717948717948723
 40
0.8974358974358979
 40
0.8974358974358979
 40
0.8974358974358979
 40
0.8974358974358979
 40
0.9230769230769236
 40
0.9230769230769236
 40
0.9230769230769236
 40
0.9230769230769236
 40
0.9487179487179492
 40
0.9487179487179492
 40
0.9487179487179492
 40
0.9487179487179492
 40
0.9743589743589749
 40
0.9743589743589749
 40
0.9743589743589749
 40
0.9743589743589749
 40
1.0
 40
1.0
 40
1.0
 40
1.0
 10
-51.558300000000003
 20
68.578400000000002
 30
0.0
 10
-51.558300000000003
 20
68.231200000000001
 30
0.0
 10
-51.884
 20
67.602099999999993
 30
0.0
 10
-52.5351
 20
66.690899999999999
 30
0.0
 10
-52.5351
 20
66.690899999999999
 30
0.0
 10
-53.185600000000001
 20
65.780100000000004
 30
0.0
 10
-53.511200000000002
 20
65.085499999999996
 30
0.0
 10
-53.511200000000002
 20
64.608400000000003
 30
0.0
 10
-53.511200000000002
 20
64.608400000000003
 30
0.0
 10
-53.511200000000002
 20
64.131299999999996
 30
0.0
 10
-53.250700000000002
 20
63.783999999999999
 30
0.0
 10
-52.730200000000004
 20
63.567300000000003
 30
0.0
 10
-52.730200000000004
 20
63.567300000000003
 30
0.0
 10
-50.733899999999998
 20
62.569299999999998
 30
0.0
 10
-49.193800000000003
 20
61.332999999999998
 30
0.0
 10
-48.109400000000001
 20
59.857700000000001
 30
0.0
 10
-48.109400000000001
 20
59.857700000000001
 30
0.0
 10
-47.198500000000003
 20
58.642800000000001
 30
0.0
 10
-46.742800000000003
 20
57.536299999999997
 30
0.0
 10
-46.742800000000003
 20
56.538600000000002
 30
0.0
 10
-46.742800000000003
 20
56.538600000000002
 30
0.0
 10
-46.742800000000003
 20
56.061300000000003
 30
0.0
 10
-46.894500000000001
 20
55.822400000000002
 30
0.0
 10
-47.198500000000003
 20
55.822400000000002
 30
0.0
 10
-47.198500000000003
 20
55.822400000000002
 30
0.0
 10
-47.198500000000003
 20
55.822400000000002
 30
0.0
 10
-47.599600000000002
 20
55.953000000000003
 30
0.0
 10
-47.599600000000002
 20
55.953000000000003
 30
0.0
 10
-47.599600000000002
 20
55.953000000000003
 30
0.0
 10
-50.311100000000003
 20
57.688099999999999
 30
0.0
 10
-52.002899999999997
 20
58.556100000000001
 30
0.0
 10
-52.664999999999999
 20
58.556100000000001
 30
0.0
 10
-52.664999999999999
 20
58.556100000000001
 30
0.0
 10
-52.968800000000002
 20
58.556100000000001
 30
0.0
 10
-53.1203
 20
58.339100000000002
 30
0.0
 10
-53.1203
 20
57.905099999999997
 30
0.0
 10
-53.1203
 20
57.905099999999997
 30
0.0
 10
-53.1203
 20
57.601900000000001
 30
0.0
 10
-53.066200000000002
 20
57.146099999999997
 30
0.0
 10
-52.947299999999998
 20
56.538600000000002
 30
0.0
 10
-52.947299999999998
 20
56.538600000000002
 30
0.0
 10
-52.632800000000003
 20
54.890099999999997
 30
0.0
 10
-52.469700000000003
 20
53.653300000000002
 30
0.0
 10
-52.469700000000003
 20
52.829099999999997
 30
0.0
 10
-52.469700000000003
 20
52.829099999999997
 30
0.0
 10
-52.469700000000003
 20
52.829099999999997
 30
0.0
 10
-52.469700000000003
 20
51.397399999999998
 30
0.0
 10
-52.469700000000003
 20
51.397399999999998
 30
0.0
 10
-52.469700000000003
 20
51.397399999999998
 30
0.0
 10
-52.469700000000003
 20
51.310299999999998
 30
0.0
 10
-52.578400000000002
 20
51.201900000000002
 30
0.0
 10
-52.795400000000001
 20
51.0717
 30
0.0
 10
-52.795400000000001
 20
51.0717
 30
0.0
 10
-53.088000000000001
 20
51.0717
 30
0.0
 10
-53.543599999999998
 20
51.321399999999997
 30
0.0
 10
-54.1616
 20
51.820300000000003
 30
0.0
 10
-54.1616
 20
51.820300000000003
 30
0.0
 10
-54.780000000000001
 20
52.319299999999998
 30
0.0
 10
-55.419899999999998
 20
52.8506
 30
0.0
 10
-56.059899999999999
 20
53.415100000000002
 30
0.0
 10
-56.059899999999999
 20
53.415100000000002
 30
0.0
 10
-56.309699999999999
 20
53.328099999999999
 30
0.0
 10
-56.439399999999999
 20
53.024299999999997
 30
0.0
 10
-56.439399999999999
 20
52.493000000000002
 30
0.0
 10
-56.439399999999999
 20
52.493000000000002
 30
0.0
 10
-56.439399999999999
 20
52.058900000000001
 30
0.0
 10
-56.353000000000002
 20
51.440800000000003
 30
0.0
 10
-56.179299999999998
 20
50.6599
 30
0.0
 10
-56.179299999999998
 20
50.6599
 30
0.0
 10
-55.745600000000003
 20
48.729199999999999
 30
0.0
 10
-55.528199999999998
 20
47.655099999999997
 30
0.0
 10
-55.528199999999998
 20
47.438000000000002
 30
0.0
 10
-55.528199999999998
 20
47.438000000000002
 30
0.0
 10
-55.528199999999998
 20
47.080199999999998
 30
0.0
 10
-55.604399999999998
 20
46.819800000000001
 30
0.0
 10
-55.756399999999999
 20
46.6464
 30
0.0
 10
-55.756399999999999
 20
46.6464
 30
0.0
 10
-55.756399999999999
 20
46.6464
 30
0.0
 10
-56.049500000000002
 20
46.6464
 30
0.0
 10
-56.049500000000002
 20
46.6464
 30
0.0
 10
-56.049500000000002
 20
46.6464
 30
0.0
 10
-56.537300000000002
 20
46.6464
 30
0.0
 10
-57.1554
 20
47.167400000000001
 30
0.0
 10
-57.914999999999999
 20
48.208199999999998
 30
0.0
 10
-57.914999999999999
 20
48.208199999999998
 30
0.0
 10
-58.131599999999999
 20
48.555599999999998
 30
0.0
 10
-58.468000000000004
 20
49.075899999999997
 30
0.0
 10
-58.912700000000001
 20
49.770099999999999
 30
0.0
 10
-58.912700000000001
 20
49.770099999999999
 30
0.0
 10
-58.912700000000001
 20
49.770099999999999
 30
0.0
 10
-65.355900000000005
 20
47.2971
 30
0.0
 10
-65.355900000000005
 20
47.2971
 30
0.0
 10
-65.355900000000005
 20
47.2971
 30
0.0
 10
-65.572500000000005
 20
47.5139
 30
0.0
 10
-65.681200000000004
 20
47.731200000000001
 30
0.0
 10
-65.681200000000004
 20
47.947800000000001
 30
0.0
 10
-65.681200000000004
 20
47.947800000000001
 30
0.0
 10
-65.681200000000004
 20
48.512300000000003
 30
0.0
 10
-65.084500000000006
 20
49.3904
 30
0.0
 10
-63.891300000000001
 20
50.583599999999997
 30
0.0
 10
-63.891300000000001
 20
50.583599999999997
 30
0.0
 10
-62.698300000000003
 20
51.776899999999998
 30
0.0
 10
-62.101700000000001
 20
52.460299999999997
 30
0.0
 10
-62.101700000000001
 20
52.633699999999997
 30
0.0
 10
-62.101700000000001
 20
52.633699999999997
 30
0.0
 10
-62.101700000000001
 20
52.633699999999997
 30
0.0
 10
-62.296999999999997
 20
52.829099999999997
 30
0.0
 10
-62.296999999999997
 20
52.829099999999997
 30
0.0
 10
-62.296999999999997
 20
52.829099999999997
 30
0.0
 10
-63.728299999999997
 20
53.132599999999996
 30
0.0
 10
-64.487799999999993
 20
53.306600000000003
 30
0.0
 10
-64.574799999999996
 20
53.349600000000002
 30
0.0
 10
-64.574799999999996
 20
53.349600000000002
 30
0.0
 10
-65.832999999999998
 20
53.740299999999998
 30
0.0
 10
-66.462000000000003
 20
54.217100000000002
 30
0.0
 10
-66.462000000000003
 20
54.781500000000001
 30
0.0
 10
-66.462000000000003
 20
54.781500000000001
 30
0.0
 10
-66.462000000000003
 20
55.215299999999999
 30
0.0
 10
-66.277500000000003
 20
55.5623
 30
0.0
 10
-65.908500000000004
 20
55.822400000000002
 30
0.0
 10
-65.908500000000004
 20
55.822400000000002
 30
0.0
 10
-65.539900000000003
 20
56.082900000000002
 30
0.0
 10
-64.487799999999993
 20
56.647100000000002
 30
0.0
 10
-62.752200000000002
 20
57.514800000000001
 30
0.0
 10
-62.752200000000002
 20
57.514800000000001
 30
0.0
 10
-61.364199999999997
 20
58.208799999999997
 30
0.0
 10
-60.669899999999998
 20
58.772399999999998
 30
0.0
 10
-60.669899999999998
 20
59.207000000000001
 30
0.0
 10
-60.669899999999998
 20
59.207000000000001
 30
0.0
 10
-60.669899999999998
 20
59.5976
 30
0.0
 10
-60.962899999999998
 20
59.922800000000002
 30
0.0
 10
-61.548299999999998
 20
60.183
 30
0.0
 10
-61.548299999999998
 20
60.183
 30
0.0
 10
-62.134300000000003
 20
60.443399999999997
 30
0.0
 10
-63.251399999999997
 20
60.725299999999997
 30
0.0
 10
-64.900199999999998
 20
61.029299999999999
 30
0.0
 10
-64.900199999999998
 20
61.029299999999999
 30
0.0
 10
-65.030299999999997
 20
61.245899999999999
 30
0.0
 10
-65.095500000000001
 20
61.3979
 30
0.0
 10
-65.095500000000001
 20
61.484499999999997
 30
0.0
 10
-65.095500000000001
 20
61.484499999999997
 30
0.0
 10
-65.095500000000001
 20
62.222299999999997
 30
0.0
 10
-64.574799999999996
 20
62.894599999999997
 30
0.0
 10
-63.533499999999997
 20
63.502400000000002
 30
0.0
 10
-63.533499999999997
 20
63.502400000000002
 30
0.0
 10
-61.971499999999999
 20
64.412899999999993
 30
0.0
 10
-59.563800000000001
 20
65.020700000000005
 30
0.0
 10
-56.309699999999999
 20
65.324299999999994
 30
0.0
 10
-56.309699999999999
 20
65.324299999999994
 30
0.0
 10
-55.441800000000001
 20
66.018299999999996
 30
0.0
 10
-54.552399999999999
 20
66.7346
 30
0.0
 10
-53.640999999999998
 20
67.472200000000001
 30
0.0
 10
-53.640999999999998
 20
67.472200000000001
 30
0.0
 10
-52.686799999999998
 20
68.122799999999998
 30
0.0
 10
-51.992400000000004
 20
68.491600000000005
 30
0.0
 10
-51.558300000000003
 20
68.578400000000002
 30
0.0
  0
SPLINE
  5
2B
100
AcDbEntity
  8
RÚteg 1
 62
     7
100
AcDbSpline
210
0.0
220
0.0
230
1.0
 70
     1
 71
     3
 72
   192
 73
   188
 74
     0
 42
0.0000000001
 43
0.0000000001
 40
0.0
 40
0.0
 40
0.0
 40
0.0
 40
0.0212765957446809
 40
0.0212765957446809
 40
0.0212765957446809
 40
0.0212765957446809
 40
0.0425531914893617
 40
0.0425531914893617
 40
0.0425531914893617
 40
0.0425531914893617
 40
0.0638297872340425
 40
0.0638297872340425
 40
0.0638297872340425
 40
0.0638297872340425
 40
0.0851063829787234
 40
0.0851063829787234
 40
0.0851063829787234
 40
0.0851063829787234
 40
0.1063829787234043
 40
0.1063829787234043
 40
0.1063829787234043
 40
0.1063829787234043
 40
0.1276595744680851
 40
0.1276595744680851
 40
0.1276595744680851
 40
0.1276595744680851
 40
0.148936170212766
 40
0.148936170212766
 40
0.148936170212766
 40
0.148936170212766
 40
0.1702127659574468
 40
0.1702127659574468
 40
0.1702127659574468
 40
0.1702127659574468
 40
0.1914893617021277
 40
0.1914893617021277
 40
0.1914893617021277
 40
0.1914893617021277
 40
0.2127659574468085
 40
0.2127659574468085
 40
0.2127659574468085
 40
0.2127659574468085
 40
0.2340425531914894
 40
0.2340425531914894
 40
0.2340425531914894
 40
0.2340425531914894
 40
0.2553191489361702
 40
0.2553191489361702
 40
0.2553191489361702
 40
0.2553191489361702
 40
0.276595744680851
 40
0.276595744680851
 40
0.276595744680851
 40
0.276595744680851
 40
0.2978723404255319
 40
0.2978723404255319
 40
0.2978723404255319
 40
0.2978723404255319
 40
0.3191489361702127
 40
0.3191489361702127
 40
0.3191489361702127
 40
0.3191489361702127
 40
0.3404255319148935
 40
0.3404255319148935
 40
0.3404255319148935
 40
0.3404255319148935
 40
0.3617021276595743
 40
0.3617021276595743
 40
0.3617021276595743
 40
0.3617021276595743
 40
0.3829787234042552
 40
0.3829787234042552
 40
0.3829787234042552
 40
0.3829787234042552
 40
0.404255319148936
 40
0.404255319148936
 40
0.404255319148936
 40
0.404255319148936
 40
0.4255319148936168
 40
0.4255319148936168
 40
0.4255319148936168
 40
0.4255319148936168
 40
0.4468085106382976
 40
0.4468085106382976
 40
0.4468085106382976
 40
0.4468085106382976
 40
0.4680851063829785
 40
0.4680851063829785
 40
0.4680851063829785
 40
0.4680851063829785
 40
0.4893617021276593
 40
0.4893617021276593
 40
0.4893617021276593
 40
0.4893617021276593
 40
0.5106382978723402
 40
0.5106382978723402
 40
0.5106382978723402
 40
0.5106382978723402
 40
0.5319148936170211
 40
0.5319148936170211
 40
0.5319148936170211
 40
0.5319148936170211
 40
0.5531914893617019
 40
0.5531914893617019
 40
0.5531914893617019
 40
0.5531914893617019
 40
0.5744680851063828
 40
0.5744680851063828
 40
0.5744680851063828
 40
0.5744680851063828
 40
0.5957446808510637
 40
0.5957446808510637
 40
0.5957446808510637
 40
0.5957446808510637
 40
0.6170212765957446
 40
0.6170212765957446
 40
0.6170212765957446
 40
0.6170212765957446
 40
0.6382978723404255
 40
0.6382978723404255
 40
0.6382978723404255
 40
0.6382978723404255
 40
0.6595744680851063
 40
0.6595744680851063
 40
0.6595744680851063
 40
0.6595744680851063
 40
0.6808510638297872
 40
0.6808510638297872
 40
0.6808510638297872
 40
0.6808510638297872
 40
0.7021276595744681
 40
0.7021276595744681
 40
0.7021276595744681
 40
0.7021276595744681
 40
0.723404255319149
 40
0.723404255319149
 40
0.723404255319149
 40
0.723404255319149
 40
0.7446808510638299
 40
0.7446808510638299
 40
0.7446808510638299
 40
0.7446808510638299
 40
0.7659574468085107
 40
0.7659574468085107
 40
0.7659574468085107
 40
0.7659574468085107
 40
0.7872340425531916
 40
0.7872340425531916
 40
0.7872340425531916
 40
0.7872340425531916
 40
0.8085106382978725
 40
0.8085106382978725
 40
0.8085106382978725
 40
0.8085106382978725
 40
0.8297872340425534
 40
0.8297872340425534
 40
0.8297872340425534
 40
0.8297872340425534
 40
0.8510638297872343
 40
0.8510638297872343
 40
0.8510638297872343
 40
0.8510638297872343
 40
0.8723404255319152
 40
0.8723404255319152
 40
0.8723404255319152
 40
0.8723404255319152
 40
0.893617021276596
 40
0.893617021276596
 40
0.893617021276596
 40
0.893617021276596
 40
0.9148936170212769
 40
0.9148936170212769
 40
0.9148936170212769
 40
0.9148936170212769
 40
0.9361702127659578
 40
0.9361702127659578
 40
0.9361702127659578
 40
0.9361702127659578
 40
0.9574468085106387
 40
0.9574468085106387
 40
0.9574468085106387
 40
0.9574468085106387
 40
0.9787234042553196
 40
0.9787234042553196
 40
0.9787234042553196
 40
0.9787234042553196
 40
1.0
 40
1.0
 40
1.0
 40
1.0
 10
-36.720500000000001
 20
76.192499999999995
 30
0.0
 10
-36.069299999999998
 20
77.234200000000001
 30
0.0
 10
-35.505000000000003
 20
78.015299999999996
 30
0.0
 10
-35.028300000000002
 20
78.535899999999998
 30
0.0
 10
-35.028300000000002
 20
78.535899999999998
 30
0.0
 10
-33.5533
 20
80.140699999999995
 30
0.0
 10
-32.056399999999996
 20
80.9435
 30
0.0
 10
-30.537500000000001
 20
80.9435
 30
0.0
 10
-30.537500000000001
 20
80.9435
 30
0.0
 10
-30.537500000000001
 20
80.9435
 30
0.0
 10
-29.8871
 20
80.878600000000006
 30
0.0
 10
-29.8871
 20
80.878600000000006
 30
0.0
 10
-29.8871
 20
80.878600000000006
 30
0.0
 10
-29.6265
 20
80.8352
 30
0.0
 10
-29.496700000000001
 20
80.704899999999995
 30
0.0
 10
-29.496700000000001
 20
80.488100000000003
 30
0.0
 10
-29.496700000000001
 20
80.488100000000003
 30
0.0
 10
-29.496700000000001
 20
80.271000000000001
 30
0.0
 10
-29.7134
 20
79.793999999999997
 30
0.0
 10
-30.147200000000002
 20
79.0565
 30
0.0
 10
-30.147200000000002
 20
79.0565
 30
0.0
 10
-30.581
 20
78.3185
 30
0.0
 10
-30.798100000000002
 20
77.841700000000003
 30
0.0
 10
-30.798100000000002
 20
77.624399999999994
 30
0.0
 10
-30.798100000000002
 20
77.624399999999994
 30
0.0
 10
-30.624600000000001
 20
77.450900000000004
 30
0.0
 10
-30.4726
 20
77.364199999999997
 30
0.0
 10
-30.342600000000001
 20
77.364199999999997
 30
0.0
 10
-30.342600000000001
 20
77.364199999999997
 30
0.0
 10
-29.648099999999999
 20
77.364199999999997
 30
0.0
 10
-28.639700000000001
 20
78.090800000000002
 30
0.0
 10
-27.316299999999998
 20
79.544300000000007
 30
0.0
 10
-27.316299999999998
 20
79.544300000000007
 30
0.0
 10
-25.993099999999998
 20
80.998000000000005
 30
0.0
 10
-25.222799999999999
 20
81.724500000000006
 30
0.0
 10
-25.005700000000001
 20
81.724500000000006
 30
0.0
 10
-25.005700000000001
 20
81.724500000000006
 30
0.0
 10
-24.702200000000001
 20
81.724500000000006
 30
0.0
 10
-24.550000000000001
 20
81.377700000000004
 30
0.0
 10
-24.550000000000001
 20
80.672700000000006
 30
0.0
 10
-24.550000000000001
 20
80.672700000000006
 30
0.0
 10
-24.550000000000001
 20
80.455399999999997
 30
0.0
 10
-24.919
 20
79.848200000000006
 30
0.0
 10
-25.657
 20
78.850300000000004
 30
0.0
 10
-25.657
 20
78.850300000000004
 30
0.0
 10
-26.394100000000002
 20
77.841700000000003
 30
0.0
 10
-26.763200000000001
 20
77.038799999999995
 30
0.0
 10
-26.763200000000001
 20
76.4208
 30
0.0
 10
-26.763200000000001
 20
76.4208
 30
0.0
 10
-26.763200000000001
 20
75.899900000000002
 30
0.0
 10
-26.546099999999999
 20
75.433499999999995
 30
0.0
 10
-26.112500000000001
 20
75.021600000000007
 30
0.0
 10
-26.112500000000001
 20
75.021600000000007
 30
0.0
 10
-25.6784
 20
74.598699999999994
 30
0.0
 10
-24.919
 20
74.197000000000003
 30
0.0
 10
-23.834199999999999
 20
73.806299999999993
 30
0.0
 10
-23.834199999999999
 20
73.806299999999993
 30
0.0
 10
-23.1401
 20
73.719700000000003
 30
0.0
 10
-22.229299999999999
 20
73.437700000000007
 30
0.0
 10
-21.101199999999999
 20
72.949799999999996
 30
0.0
 10
-21.101199999999999
 20
72.949799999999996
 30
0.0
 10
-19.582599999999999
 20
72.299199999999999
 30
0.0
 10
-18.8232
 20
71.647999999999996
 30
0.0
 10
-18.8232
 20
70.986199999999997
 30
0.0
 10
-18.8232
 20
70.986199999999997
 30
0.0
 10
-18.909800000000001
 20
70.422200000000004
 30
0.0
 10
-19.300599999999999
 20
70.140199999999993
 30
0.0
 10
-19.994900000000001
 20
70.140199999999993
 30
0.0
 10
-19.994900000000001
 20
70.140199999999993
 30
0.0
 10
-20.211500000000001
 20
70.140199999999993
 30
0.0
 10
-20.580200000000001
 20
70.183999999999997
 30
0.0
 10
-21.101199999999999
 20
70.269800000000004
 30
0.0
 10
-21.101199999999999
 20
70.269800000000004
 30
0.0
 10
-21.621700000000001
 20
70.357100000000003
 30
0.0
 10
-22.033899999999999
 20
70.400499999999994
 30
0.0
 10
-22.337599999999998
 20
70.400499999999994
 30
0.0
 10
-22.337599999999998
 20
70.400499999999994
 30
0.0
 10
-22.988299999999999
 20
70.400499999999994
 30
0.0
 10
-23.4877
 20
70.172899999999998
 30
0.0
 10
-23.834199999999999
 20
69.717600000000004
 30
0.0
 10
-23.834199999999999
 20
69.717600000000004
 30
0.0
 10
-24.1815
 20
69.261399999999995
 30
0.0
 10
-24.355
 20
68.404799999999994
 30
0.0
 10
-24.355
 20
67.1464
 30
0.0
 10
-24.355
 20
67.1464
 30
0.0
 10
-24.355
 20
66.625699999999995
 30
0.0
 10
-24.506900000000002
 20
66.365799999999993
 30
0.0
 10
-24.810300000000002
 20
66.365799999999993
 30
0.0
 10
-24.810300000000002
 20
66.365799999999993
 30
0.0
 10
-25.157900000000001
 20
66.365799999999993
 30
0.0
 10
-25.721699999999998
 20
66.864400000000003
 30
0.0
 10
-26.502500000000001
 20
67.862399999999994
 30
0.0
 10
-26.502500000000001
 20
67.862399999999994
 30
0.0
 10
-27.283799999999999
 20
68.860399999999998
 30
0.0
 10
-27.771699999999999
 20
69.489400000000003
 30
0.0
 10
-27.967099999999999
 20
69.749799999999993
 30
0.0
 10
-27.967099999999999
 20
69.749799999999993
 30
0.0
 10
-28.162199999999999
 20
70.010300000000001
 30
0.0
 10
-28.4114
 20
70.140199999999993
 30
0.0
 10
-28.715499999999999
 20
70.140199999999993
 30
0.0
 10
-28.715499999999999
 20
70.140199999999993
 30
0.0
 10
-29.279499999999999
 20
70.140199999999993
 30
0.0
 10
-29.756799999999998
 20
69.142600000000002
 30
0.0
 10
-30.147200000000002
 20
67.1464
 30
0.0
 10
-30.147200000000002
 20
67.1464
 30
0.0
 10
-30.321200000000001
 20
66.365799999999993
 30
0.0
 10
-30.429200000000002
 20
65.780100000000004
 30
0.0
 10
-30.4726
 20
65.389799999999994
 30
0.0
 10
-30.4726
 20
65.389799999999994
 30
0.0
 10
-30.5594
 20
65.258499999999998
 30
0.0
 10
-30.624600000000001
 20
65.172300000000007
 30
0.0
 10
-30.667999999999999
 20
65.128799999999998
 30
0.0
 10
-30.667999999999999
 20
65.128799999999998
 30
0.0
 10
-30.710899999999999
 20
65.085499999999996
 30
0.0
 10
-30.7547
 20
65.042400000000001
 30
0.0
 10
-30.798100000000002
 20
64.998699999999999
 30
0.0
 10
-30.798100000000002
 20
64.998699999999999
 30
0.0
 10
-31.101800000000001
 20
64.998699999999999
 30
0.0
 10
-31.709
 20
65.671300000000002
 30
0.0
 10
-32.619999999999997
 20
67.016300000000001
 30
0.0
 10
-32.619999999999997
 20
67.016300000000001
 30
0.0
 10
-33.227699999999999
 20
67.927899999999994
 30
0.0
 10
-33.834899999999998
 20
68.838700000000003
 30
0.0
 10
-34.442300000000003
 20
69.749799999999993
 30
0.0
 10
-34.442300000000003
 20
69.749799999999993
 30
0.0
 10
-34.485799999999998
 20
69.836500000000001
 30
0.0
 10
-34.561799999999998
 20
69.912599999999998
 30
0.0
 10
-34.670099999999998
 20
69.977599999999995
 30
0.0
 10
-34.670099999999998
 20
69.977599999999995
 30
0.0
 10
-34.778700000000001
 20
70.042500000000004
 30
0.0
 10
-34.854799999999997
 20
70.096400000000003
 30
0.0
 10
-34.898099999999999
 20
70.140199999999993
 30
0.0
 10
-34.898099999999999
 20
70.140199999999993
 30
0.0
 10
-35.288800000000002
 20
70.140199999999993
 30
0.0
 10
-35.8309
 20
69.142600000000002
 30
0.0
 10
-36.525100000000002
 20
67.1464
 30
0.0
 10
-36.525100000000002
 20
67.1464
 30
0.0
 10
-37.219299999999997
 20
65.150499999999994
 30
0.0
 10
-37.674799999999998
 20
64.152699999999996
 30
0.0
 10
-37.891500000000001
 20
64.152699999999996
 30
0.0
 10
-37.891500000000001
 20
64.152699999999996
 30
0.0
 10
-38.4559
 20
64.456699999999998
 30
0.0
 10
-38.933199999999999
 20
65.128799999999998
 30
0.0
 10
-39.323599999999999
 20
66.170500000000004
 30
0.0
 10
-39.323599999999999
 20
66.170500000000004
 30
0.0
 10
-39.540599999999998
 20
66.778099999999995
 30
0.0
 10
-39.843899999999998
 20
67.754000000000005
 30
0.0
 10
-40.2348
 20
69.099199999999996
 30
0.0
 10
-40.2348
 20
69.099199999999996
 30
0.0
 10
-40.451700000000002
 20
70.010300000000001
 30
0.0
 10
-41.037300000000002
 20
70.791300000000007
 30
0.0
 10
-41.991900000000001
 20
71.431100000000001
 30
0.0
 10
-41.991900000000001
 20
71.431100000000001
 30
0.0
 10
-42.946100000000001
 20
71.951800000000006
 30
0.0
 10
-43.901000000000003
 20
72.494299999999996
 30
0.0
 10
-44.8553
 20
73.046999999999997
 30
0.0
 10
-44.8553
 20
73.046999999999997
 30
0.0
 10
-44.551400000000001
 20
73.308000000000007
 30
0.0
 10
-44.291400000000003
 20
73.481300000000005
 30
0.0
 10
-44.074399999999997
 20
73.567800000000005
 30
0.0
 10
-44.074399999999997
 20
73.567800000000005
 30
0.0
 10
-42.382199999999997
 20
74.305599999999998
 30
0.0
 10
-40.950499999999998
 20
75.487799999999993
 30
0.0
 10
-39.779299999999999
 20
77.125399999999999
 30
0.0
 10
-39.779299999999999
 20
77.125399999999999
 30
0.0
 10
-38.867800000000003
 20
78.644300000000001
 30
0.0
 10
-37.935099999999998
 20
80.173599999999993
 30
0.0
 10
-36.980800000000002
 20
81.724500000000006
 30
0.0
 10
-36.980800000000002
 20
81.724500000000006
 30
0.0
 10
-36.676699999999997
 20
81.4208
 30
0.0
 10
-36.4711
 20
81.095299999999995
 30
0.0
 10
-36.362499999999997
 20
80.748400000000004
 30
0.0
 10
-36.362499999999997
 20
80.748400000000004
 30
0.0
 10
-36.253999999999998
 20
80.401499999999999
 30
0.0
 10
-36.188299999999998
 20
80.130300000000005
 30
0.0
 10
-36.166800000000002
 20
79.935000000000002
 30
0.0
 10
-36.166800000000002
 20
79.935000000000002
 30
0.0
 10
-36.145499999999998
 20
79.739000000000004
 30
0.0
 10
-36.134399999999999
 20
79.403700000000001
 30
0.0
 10
-36.134399999999999
 20
78.926199999999994
 30
0.0
 10
-36.134399999999999
 20
78.926199999999994
 30
0.0
 10
-36.134399999999999
 20
78.232200000000006
 30
0.0
 10
-36.166800000000002
 20
77.733000000000004
 30
0.0
 10
-36.232199999999999
 20
77.429299999999998
 30
0.0
 10
-36.232199999999999
 20
77.429299999999998
 30
0.0
 10
-36.2971
 20
77.125399999999999
 30
0.0
 10
-36.459699999999998
 20
76.7136
 30
0.0
 10
-36.720500000000001
 20
76.192499999999995
 30
0.0
  0
SPLINE
  5
2C
100
AcDbEntity
  8
RÚteg 1
 62
     7
100
AcDbSpline
210
0.0
220
0.0
230
1.0
 70
     1
 71
     3
 72
   216
 73
   212
 74
     0
 42
0.0000000001
 43
0.0000000001
 40
0.0
 40
0.0
 40
0.0
 40
0.0
 40
0.0188679245283019
 40
0.0188679245283019
 40
0.0188679245283019
 40
0.0188679245283019
 40
0.0377358490566038
 40
0.0377358490566038
 40
0.0377358490566038
 40
0.0377358490566038
 40
0.0566037735849057
 40
0.0566037735849057
 40
0.0566037735849057
 40
0.0566037735849057
 40
0.0754716981132075
 40
0.0754716981132075
 40
0.0754716981132075
 40
0.0754716981132075
 40
0.0943396226415094
 40
0.0943396226415094
 40
0.0943396226415094
 40
0.0943396226415094
 40
0.1132075471698113
 40
0.1132075471698113
 40
0.1132075471698113
 40
0.1132075471698113
 40
0.1320754716981132
 40
0.1320754716981132
 40
0.1320754716981132
 40
0.1320754716981132
 40
0.1509433962264151
 40
0.1509433962264151
 40
0.1509433962264151
 40
0.1509433962264151
 40
0.169811320754717
 40
0.169811320754717
 40
0.169811320754717
 40
0.169811320754717
 40
0.1886792452830189
 40
0.1886792452830189
 40
0.1886792452830189
 40
0.1886792452830189
 40
0.2075471698113207
 40
0.2075471698113207
 40
0.2075471698113207
 40
0.2075471698113207
 40
0.2264150943396226
 40
0.2264150943396226
 40
0.2264150943396226
 40
0.2264150943396226
 40
0.2452830188679245
 40
0.2452830188679245
 40
0.2452830188679245
 40
0.2452830188679245
 40
0.2641509433962264
 40
0.2641509433962264
 40
0.2641509433962264
 40
0.2641509433962264
 40
0.2830188679245283
 40
0.2830188679245283
 40
0.2830188679245283
 40
0.2830188679245283
 40
0.3018867924528302
 40
0.3018867924528302
 40
0.3018867924528302
 40
0.3018867924528302
 40
0.3207547169811321
 40
0.3207547169811321
 40
0.3207547169811321
 40
0.3207547169811321
 40
0.3396226415094339
 40
0.3396226415094339
 40
0.3396226415094339
 40
0.3396226415094339
 40
0.3584905660377358
 40
0.3584905660377358
 40
0.3584905660377358
 40
0.3584905660377358
 40
0.3773584905660377
 40
0.3773584905660377
 40
0.3773584905660377
 40
0.3773584905660377
 40
0.3962264150943396
 40
0.3962264150943396
 40
0.3962264150943396
 40
0.3962264150943396
 40
0.4150943396226415
 40
0.4150943396226415
 40
0.4150943396226415
 40
0.4150943396226415
 40
0.4339622641509434
 40
0.4339622641509434
 40
0.4339622641509434
 40
0.4339622641509434
 40
0.4528301886792452
 40
0.4528301886792452
 40
0.4528301886792452
 40
0.4528301886792452
 40
0.4716981132075471
 40
0.4716981132075471
 40
0.4716981132075471
 40
0.4716981132075471
 40
0.490566037735849
 40
0.490566037735849
 40
0.490566037735849
 40
0.490566037735849
 40
0.5094339622641509
 40
0.5094339622641509
 40
0.5094339622641509
 40
0.5094339622641509
 40
0.5283018867924528
 40
0.5283018867924528
 40
0.5283018867924528
 40
0.5283018867924528
 40
0.5471698113207547
 40
0.5471698113207547
 40
0.5471698113207547
 40
0.5471698113207547
 40
0.5660377358490566
 40
0.5660377358490566
 40
0.5660377358490566
 40
0.5660377358490566
 40
0.5849056603773585
 40
0.5849056603773585
 40
0.5849056603773585
 40
0.5849056603773585
 40
0.6037735849056604
 40
0.6037735849056604
 40
0.6037735849056604
 40
0.6037735849056604
 40
0.6226415094339622
 40
0.6226415094339622
 40
0.6226415094339622
 40
0.6226415094339622
 40
0.6415094339622641
 40
0.6415094339622641
 40
0.6415094339622641
 40
0.6415094339622641
 40
0.660377358490566
 40
0.660377358490566
 40
0.660377358490566
 40
0.660377358490566
 40
0.6792452830188679
 40
0.6792452830188679
 40
0.6792452830188679
 40
0.6792452830188679
 40
0.6981132075471698
 40
0.6981132075471698
 40
0.6981132075471698
 40
0.6981132075471698
 40
0.7169811320754717
 40
0.7169811320754717
 40
0.7169811320754717
 40
0.7169811320754717
 40
0.7358490566037735
 40
0.7358490566037735
 40
0.7358490566037735
 40
0.7358490566037735
 40
0.7547169811320754
 40
0.7547169811320754
 40
0.7547169811320754
 40
0.7547169811320754
 40
0.7735849056603773
 40
0.7735849056603773
 40
0.7735849056603773
 40
0.7735849056603773
 40
0.7924528301886792
 40
0.7924528301886792
 40
0.7924528301886792
 40
0.7924528301886792
 40
0.8113207547169811
 40
0.8113207547169811
 40
0.8113207547169811
 40
0.8113207547169811
 40
0.830188679245283
 40
0.830188679245283
 40
0.830188679245283
 40
0.830188679245283
 40
0.8490566037735848
 40
0.8490566037735848
 40
0.8490566037735848
 40
0.8490566037735848
 40
0.8679245283018867
 40
0.8679245283018867
 40
0.8679245283018867
 40
0.8679245283018867
 40
0.8867924528301886
 40
0.8867924528301886
 40
0.8867924528301886
 40
0.8867924528301886
 40
0.9056603773584905
 40
0.9056603773584905
 40
0.9056603773584905
 40
0.9056603773584905
 40
0.9245283018867924
 40
0.9245283018867924
 40
0.9245283018867924
 40
0.9245283018867924
 40
0.9433962264150942
 40
0.9433962264150942
 40
0.9433962264150942
 40
0.9433962264150942
 40
0.9622641509433961
 40
0.9622641509433961
 40
0.9622641509433961
 40
0.9622641509433961
 40
0.981132075471698
 40
0.981132075471698
 40
0.981132075471698
 40
0.981132075471698
 40
1.0
 40
1.0
 40
1.0
 40
1.0
 10
-61.385800000000003
 20
89.859899999999996
 30
0.0
 10
-61.212400000000002
 20
89.859899999999996
 30
0.0
 10
-60.746000000000002
 20
90.478099999999998
 30
0.0
 10
-59.986400000000003
 20
91.714699999999993
 30
0.0
 10
-59.986400000000003
 20
91.714699999999993
 30
0.0
 10
-59.227200000000003
 20
92.950800000000001
 30
0.0
 10
-58.695799999999998
 20
93.569299999999998
 30
0.0
 10
-58.392000000000003
 20
93.569299999999998
 30
0.0
 10
-58.392000000000003
 20
93.569299999999998
 30
0.0
 10
-58.392000000000003
 20
93.569299999999998
 30
0.0
 10
-58.066800000000001
 20
93.373800000000003
 30
0.0
 10
-58.066800000000001
 20
93.373800000000003
 30
0.0
 10
-58.066800000000001
 20
93.373800000000003
 30
0.0
 10
-57.806600000000003
 20
92.983599999999996
 30
0.0
 10
-57.676299999999998
 20
92.506399999999999
 30
0.0
 10
-57.676299999999998
 20
91.942400000000006
 30
0.0
 10
-57.676299999999998
 20
91.942400000000006
 30
0.0
 10
-57.676299999999998
 20
91.377899999999997
 30
0.0
 10
-57.773699999999998
 20
90.553700000000006
 30
0.0
 10
-57.968800000000002
 20
89.468900000000005
 30
0.0
 10
-57.968800000000002
 20
89.468900000000005
 30
0.0
 10
-58.1646
 20
88.384500000000003
 30
0.0
 10
-58.261899999999997
 20
87.7119
 30
0.0
 10
-58.261899999999997
 20
87.451599999999999
 30
0.0
 10
-58.261899999999997
 20
87.451599999999999
 30
0.0
 10
-58.261899999999997
 20
87.451599999999999
 30
0.0
 10
-58.261899999999997
 20
86.670900000000003
 30
0.0
 10
-58.261899999999997
 20
86.670900000000003
 30
0.0
 10
-58.261899999999997
 20
86.670900000000003
 30
0.0
 10
-58.261899999999997
 20
86.670900000000003
 30
0.0
 10
-57.990499999999997
 20
86.4756
 30
0.0
 10
-57.990499999999997
 20
86.4756
 30
0.0
 10
-57.990499999999997
 20
86.4756
 30
0.0
 10
-57.719900000000003
 20
86.4756
 30
0.0
 10
-57.166499999999999
 20
87.039400000000001
 30
0.0
 10
-56.309699999999999
 20
88.167599999999993
 30
0.0
 10
-56.309699999999999
 20
88.167599999999993
 30
0.0
 10
-55.4529
 20
89.296099999999996
 30
0.0
 10
-54.931899999999999
 20
89.859899999999996
 30
0.0
 10
-54.758600000000001
 20
89.859899999999996
 30
0.0
 10
-54.758600000000001
 20
89.859899999999996
 30
0.0
 10
-54.573799999999999
 20
89.339200000000005
 30
0.0
 10
-54.487200000000001
 20
88.904799999999994
 30
0.0
 10
-54.487200000000001
 20
88.558199999999999
 30
0.0
 10
-54.487200000000001
 20
88.558199999999999
 30
0.0
 10
-54.487200000000001
 20
87.733599999999996
 30
0.0
 10
-54.747399999999999
 20
86.453800000000001
 30
0.0
 10
-55.2682
 20
84.718299999999999
 30
0.0
 10
-55.2682
 20
84.718299999999999
 30
0.0
 10
-55.788699999999999
 20
82.982600000000005
 30
0.0
 10
-56.049500000000002
 20
81.963300000000004
 30
0.0
 10
-56.049500000000002
 20
81.659599999999998
 30
0.0
 10
-56.049500000000002
 20
81.659599999999998
 30
0.0
 10
-56.049500000000002
 20
81.572599999999994
 30
0.0
 10
-56.016599999999997
 20
81.4863
 30
0.0
 10
-55.9514
 20
81.399199999999993
 30
0.0
 10
-55.9514
 20
81.399199999999993
 30
0.0
 10
-55.886499999999998
 20
81.312299999999993
 30
0.0
 10
-55.8431
 20
81.247399999999999
 30
0.0
 10
-55.799599999999998
 20
81.203999999999994
 30
0.0
 10
-55.799599999999998
 20
81.203999999999994
 30
0.0
 10
-55.799599999999998
 20
81.203999999999994
 30
0.0
 10
-55.289999999999999
 20
81.399199999999993
 30
0.0
 10
-55.289999999999999
 20
81.399199999999993
 30
0.0
 10
-55.289999999999999
 20
81.399199999999993
 30
0.0
 10
-54.444200000000002
 20
81.963300000000004
 30
0.0
 10
-53.8581
 20
82.613500000000002
 30
0.0
 10
-53.511200000000002
 20
83.351699999999994
 30
0.0
 10
-53.511200000000002
 20
83.351699999999994
 30
0.0
 10
-53.218200000000003
 20
84.349699999999999
 30
0.0
 10
-52.968800000000002
 20
85.217500000000001
 30
0.0
 10
-52.751899999999999
 20
85.954700000000003
 30
0.0
 10
-52.751899999999999
 20
85.954700000000003
 30
0.0
 10
-52.415399999999998
 20
85.650700000000001
 30
0.0
 10
-52.1877
 20
85.390799999999999
 30
0.0
 10
-52.057499999999997
 20
85.173699999999997
 30
0.0
 10
-52.057499999999997
 20
85.173699999999997
 30
0.0
 10
-51.591200000000001
 20
84.522900000000007
 30
0.0
 10
-51.363399999999999
 20
83.872399999999999
 30
0.0
 10
-51.363399999999999
 20
83.221599999999995
 30
0.0
 10
-51.363399999999999
 20
83.221599999999995
 30
0.0
 10
-51.363399999999999
 20
82.570800000000006
 30
0.0
 10
-51.602400000000003
 20
82.007000000000005
 30
0.0
 10
-52.0901
 20
81.529399999999995
 30
0.0
 10
-52.0901
 20
81.529399999999995
 30
0.0
 10
-52.772799999999997
 20
80.8352
 30
0.0
 10
-53.1203
 20
80.140699999999995
 30
0.0
 10
-53.1203
 20
79.4465
 30
0.0
 10
-53.1203
 20
79.4465
 30
0.0
 10
-53.1203
 20
79.013099999999994
 30
0.0
 10
-52.957799999999999
 20
78.470500000000001
 30
0.0
 10
-52.632800000000003
 20
77.819999999999993
 30
0.0
 10
-52.632800000000003
 20
77.819999999999993
 30
0.0
 10
-52.307000000000002
 20
77.169200000000004
 30
0.0
 10
-52.144399999999997
 20
76.735500000000002
 30
0.0
 10
-52.144399999999997
 20
76.5184
 30
0.0
 10
-52.144399999999997
 20
76.5184
 30
0.0
 10
-52.144399999999997
 20
76.084400000000002
 30
0.0
 10
-52.318100000000001
 20
75.867400000000004
 30
0.0
 10
-52.664999999999999
 20
75.867400000000004
 30
0.0
 10
-52.664999999999999
 20
75.867400000000004
 30
0.0
 10
-52.9253
 20
75.867400000000004
 30
0.0
 10
-53.283200000000001
 20
75.954099999999997
 30
0.0
 10
-53.760599999999997
 20
76.127700000000004
 30
0.0
 10
-53.760599999999997
 20
76.127700000000004
 30
0.0
 10
-55.008299999999998
 20
76.605000000000004
 30
0.0
 10
-55.854100000000003
 20
76.843400000000003
 30
0.0
 10
-56.287700000000001
 20
76.843400000000003
 30
0.0
 10
-56.287700000000001
 20
76.843400000000003
 30
0.0
 10
-56.754199999999997
 20
76.843400000000003
 30
0.0
 10
-57.166499999999999
 20
76.691900000000004
 30
0.0
 10
-57.513399999999997
 20
76.388099999999994
 30
0.0
 10
-57.513399999999997
 20
76.388099999999994
 30
0.0
 10
-58.381300000000003
 20
75.737200000000001
 30
0.0
 10
-59.314300000000003
 20
75.129800000000003
 30
0.0
 10
-60.323099999999997
 20
74.566100000000006
 30
0.0
 10
-60.323099999999997
 20
74.566100000000006
 30
0.0
 10
-61.342199999999998
 20
74.001599999999996
 30
0.0
 10
-62.145200000000003
 20
73.719700000000003
 30
0.0
 10
-62.752200000000002
 20
73.719700000000003
 30
0.0
 10
-62.752200000000002
 20
73.719700000000003
 30
0.0
 10
-62.839500000000001
 20
73.763000000000005
 30
0.0
 10
-62.925699999999999
 20
73.915199999999999
 30
0.0
 10
-63.012700000000002
 20
74.175200000000004
 30
0.0
 10
-63.012700000000002
 20
74.175200000000004
 30
0.0
 10
-63.012700000000002
 20
74.566100000000006
 30
0.0
 10
-62.405700000000003
 20
75.444299999999998
 30
0.0
 10
-61.190600000000003
 20
76.8108
 30
0.0
 10
-61.190600000000003
 20
76.8108
 30
0.0
 10
-59.9756
 20
78.177999999999997
 30
0.0
 10
-59.368400000000001
 20
78.991200000000006
 30
0.0
 10
-59.368400000000001
 20
79.251499999999993
 30
0.0
 10
-59.368400000000001
 20
79.251499999999993
 30
0.0
 10
-59.498699999999999
 20
79.468400000000003
 30
0.0
 10
-59.607100000000003
 20
79.576999999999998
 30
0.0
 10
-59.693600000000004
 20
79.576999999999998
 30
0.0
 10
-59.693600000000004
 20
79.576999999999998
 30
0.0
 10
-60.084099999999999
 20
79.576999999999998
 30
0.0
 10
-60.973500000000001
 20
79.457700000000003
 30
0.0
 10
-62.362099999999998
 20
79.219300000000004
 30
0.0
 10
-62.362099999999998
 20
79.219300000000004
 30
0.0
 10
-63.750399999999999
 20
78.980500000000006
 30
0.0
 10
-64.704800000000006
 20
78.861199999999997
 30
0.0
 10
-65.225499999999997
 20
78.861199999999997
 30
0.0
 10
-65.225499999999997
 20
78.861199999999997
 30
0.0
 10
-66.396799999999999
 20
78.861199999999997
 30
0.0
 10
-66.982399999999998
 20
79.143199999999993
 30
0.0
 10
-66.982399999999998
 20
79.706999999999994
 30
0.0
 10
-66.982399999999998
 20
79.706999999999994
 30
0.0
 10
-66.982399999999998
 20
80.401499999999999
 30
0.0
 10
-66.331599999999995
 20
81.1173
 30
0.0
 10
-65.030299999999997
 20
81.855000000000004
 30
0.0
 10
-65.030299999999997
 20
81.855000000000004
 30
0.0
 10
-64.379599999999996
 20
82.201999999999998
 30
0.0
 10
-63.707099999999997
 20
82.549000000000007
 30
0.0
 10
-63.012700000000002
 20
82.8964
 30
0.0
 10
-63.012700000000002
 20
82.8964
 30
0.0
 10
-63.142699999999998
 20
82.982600000000005
 30
0.0
 10
-63.251399999999997
 20
83.026200000000003
 30
0.0
 10
-63.338299999999997
 20
83.026200000000003
 30
0.0
 10
-63.338299999999997
 20
83.026200000000003
 30
0.0
 10
-64.769999999999996
 20
83.026200000000003
 30
0.0
 10
-66.060699999999997
 20
83.340699999999998
 30
0.0
 10
-67.210499999999996
 20
83.980699999999999
 30
0.0
 10
-67.210499999999996
 20
83.980699999999999
 30
0.0
 10
-68.360200000000006
 20
84.620900000000006
 30
0.0
 10
-68.978499999999997
 20
85.238799999999998
 30
0.0
 10
-69.065200000000004
 20
85.835800000000006
 30
0.0
 10
-69.065200000000004
 20
85.835800000000006
 30
0.0
 10
-69.065200000000004
 20
85.835800000000006
 30
0.0
 10
-69.065200000000004
 20
86.095799999999997
 30
0.0
 10
-69.065200000000004
 20
86.095799999999997
 30
0.0
 10
-69.065200000000004
 20
86.095799999999997
 30
0.0
 10
-69.065200000000004
 20
86.4756
 30
0.0
 10
-68.653300000000002
 20
86.670900000000003
 30
0.0
 10
-67.828800000000001
 20
86.670900000000003
 30
0.0
 10
-67.828800000000001
 20
86.670900000000003
 30
0.0
 10
-67.828800000000001
 20
86.670900000000003
 30
0.0
 10
-65.4208
 20
86.670900000000003
 30
0.0
 10
-65.4208
 20
86.670900000000003
 30
0.0
 10
-65.4208
 20
86.670900000000003
 30
0.0
 10
-65.4208
 20
86.670900000000003
 30
0.0
 10
-64.119200000000006
 20
86.670900000000003
 30
0.0
 10
-64.119200000000006
 20
86.670900000000003
 30
0.0
 10
-64.119200000000006
 20
86.670900000000003
 30
0.0
 10
-63.815399999999997
 20
86.801299999999998
 30
0.0
 10
-63.663899999999998
 20
86.974800000000002
 30
0.0
 10
-63.663899999999998
 20
87.190899999999999
 30
0.0
 10
-63.663899999999998
 20
87.190899999999999
 30
0.0
 10
-63.663899999999998
 20
87.592600000000004
 30
0.0
 10
-64.509500000000003
 20
88.623199999999997
 30
0.0
 10
-66.201700000000002
 20
90.282399999999996
 30
0.0
 10
-66.201700000000002
 20
90.282399999999996
 30
0.0
 10
-67.893500000000003
 20
91.942400000000006
 30
0.0
 10
-68.739699999999999
 20
93.081100000000006
 30
0.0
 10
-68.739699999999999
 20
93.688400000000001
 30
0.0
 10
-68.739699999999999
 20
93.688400000000001
 30
0.0
 10
-68.739699999999999
 20
93.688400000000001
 30
0.0
 10
-68.414199999999994
 20
94.219999999999999
 30
0.0
 10
-68.414199999999994
 20
94.219999999999999
 30
0.0
 10
-68.414199999999994
 20
94.219999999999999
 30
0.0
 10
-68.414199999999994
 20
94.219999999999999
 30
0.0
 10
-67.763599999999997
 20
94.350300000000004
 30
0.0
 10
-67.763599999999997
 20
94.350300000000004
 30
0.0
 10
-67.763599999999997
 20
94.350300000000004
 30
0.0
 10
-67.025999999999996
 20
94.350300000000004
 30
0.0
 10
-65.962999999999994
 20
93.7864
 30
0.0
 10
-64.574799999999996
 20
92.647400000000005
 30
0.0
 10
-64.574799999999996
 20
92.647400000000005
 30
0.0
 10
-63.533499999999997
 20
91.714699999999993
 30
0.0
 10
-62.470500000000001
 20
90.792599999999993
 30
0.0
 10
-61.385800000000003
 20
89.859899999999996
 30
0.0
  0
SPLINE
  5
2D
100
AcDbEntity
  8
RÚteg 1
 62
     7
100
AcDbSpline
210
0.0
220
0.0
230
1.0
 70
     1
 71
     3
 72
    16
 73
    12
 74
     0
 42
0.0000000001
 43
0.0000000001
 40
0.0
 40
0.0
 40
0.0
 40
0.0
 40
0.3333333333333333
 40
0.3333333333333333
 40
0.3333333333333333
 40
0.3333333333333333
 40
0.6666666666666666
 40
0.6666666666666666
 40
0.6666666666666666
 40
0.6666666666666666
 40
1.0
 40
1.0
 40
1.0
 40
1.0
 10
24.991700000000002
 20
54.908200000000001
 30
0.0
 10
24.991700000000002
 20
54.908200000000001
 30
0.0
 10
25.684000000000001
 20
52.577399999999997
 30
0.0
 10
25.684000000000001
 20
52.577399999999997
 30
0.0
 10
25.684000000000001
 20
52.577399999999997
 30
0.0
 10
25.684000000000001
 20
52.577399999999997
 30
0.0
 10
26.726700000000001
 20
52.999299999999998
 30
0.0
 10
26.726700000000001
 20
52.999299999999998
 30
0.0
 10
26.726700000000001
 20
52.999299999999998
 30
0.0
 10
26.726700000000001
 20
52.999299999999998
 30
0.0
 10
24.991700000000002
 20
54.908200000000001
 30
0.0
 10
24.991700000000002
 20
54.908200000000001
 30
0.0
  0
SPLINE
  5
2E
100
AcDbEntity
  8
RÚteg 1
 62
     7
100
AcDbSpline
210
0.0
220
0.0
230
1.0
 70
     1
 71
     3
 72
    36
 73
    32
 74
     0
 42
0.0000000001
 43
0.0000000001
 40
0.0
 40
0.0
 40
0.0
 40
0.0
 40
0.125
 40
0.125
 40
0.125
 40
0.125
 40
0.25
 40
0.25
 40
0.25
 40
0.25
 40
0.375
 40
0.375
 40
0.375
 40
0.375
 40
0.5
 40
0.5
 40
0.5
 40
0.5
 40
0.625
 40
0.625
 40
0.625
 40
0.625
 40
0.75
 40
0.75
 40
0.75
 40
0.75
 40
0.875
 40
0.875
 40
0.875
 40
0.875
 40
1.0
 40
1.0
 40
1.0
 40
1.0
 10
24.0747
 20
115.3
 30
0.0
 10
27.350999999999999
 20
115.3
 30
0.0
 10
30.007899999999999
 20
112.643
 30
0.0
 10
30.007899999999999
 20
109.36660000000001
 30
0.0
 10
30.007899999999999
 20
109.36660000000001
 30
0.0
 10
30.007899999999999
 20
107.9875
 30
0.0
 10
29.536899999999999
 20
106.7184
 30
0.0
 10
28.747199999999999
 20
105.7107
 30
0.0
 10
28.747199999999999
 20
105.7107
 30
0.0
 10
44.805199999999999
 20
103.0308
 30
0.0
 10
57.049999999999997
 20
89.069800000000001
 30
0.0
 10
57.049999999999997
 20
72.252200000000002
 30
0.0
 10
57.049999999999997
 20
72.252200000000002
 30
0.0
 10
57.049999999999997
 20
53.519199999999998
 30
0.0
 10
41.8581
 20
38.327199999999998
 30
0.0
 10
23.125
 20
38.327199999999998
 30
0.0
 10
23.125
 20
38.327199999999998
 30
0.0
 10
4.3918999999999997
 20
38.327199999999998
 30
0.0
 10
-10.800000000000001
 20
53.519199999999998
 30
0.0
 10
-10.800000000000001
 20
72.252200000000002
 30
0.0
 10
-10.800000000000001
 20
72.252200000000002
 30
0.0
 10
-10.800000000000001
 20
89.665199999999999
 30
0.0
 10
2.3271000000000002
 20
104.0159
 30
0.0
 10
19.2225
 20
105.9524
 30
0.0
 10
19.2225
 20
105.9524
 30
0.0
 10
18.541599999999999
 20
106.9182
 30
0.0
 10
18.141200000000001
 20
108.0956
 30
0.0
 10
18.141200000000001
 20
109.36660000000001
 30
0.0
 10
18.141200000000001
 20
109.36660000000001
 30
0.0
 10
18.141200000000001
 20
112.643
 30
0.0
 10
20.798200000000001
 20
115.3
 30
0.0
 10
24.0747
 20
115.3
 30
0.0
  0
SPLINE
  5
2F
100
AcDbEntity
  8
RÚteg 1
 62
     7
100
AcDbSpline
210
0.0
220
0.0
230
1.0
 70
     1
 71
     3
 72
    28
 73
    24
 74
     0
 42
0.0000000001
 43
0.0000000001
 40
0.0
 40
0.0
 40
0.0
 40
0.0
 40
0.1666666666666667
 40
0.1666666666666667
 40
0.1666666666666667
 40
0.1666666666666667
 40
0.3333333333333333
 40
0.3333333333333333
 40
0.3333333333333333
 40
0.3333333333333333
 40
0.5
 40
0.5
 40
0.5
 40
0.5
 40
0.6666666666666666
 40
0.6666666666666666
 40
0.6666666666666666
 40
0.6666666666666666
 40
0.8333333333333333
 40
0.8333333333333333
 40
0.8333333333333333
 40
0.8333333333333333
 40
1.0
 40
1.0
 40
1.0
 40
1.0
 10
23.895600000000002
 20
74.334199999999996
 30
0.0
 10
24.119599999999998
 20
74.334199999999996
 30
0.0
 10
24.334800000000001
 20
74.295400000000001
 30
0.0
 10
24.534600000000001
 20
74.224500000000006
 30
0.0
 10
24.534600000000001
 20
74.224500000000006
 30
0.0
 10
24.534600000000001
 20
74.224500000000006
 30
0.0
 10
25.082799999999999
 20
75.777199999999993
 30
0.0
 10
25.082799999999999
 20
75.777199999999993
 30
0.0
 10
25.082799999999999
 20
75.777199999999993
 30
0.0
 10
25.082799999999999
 20
75.777199999999993
 30
0.0
 10
23.926500000000001
 20
76.064599999999999
 30
0.0
 10
23.926500000000001
 20
76.064599999999999
 30
0.0
 10
23.926500000000001
 20
76.064599999999999
 30
0.0
 10
23.926500000000001
 20
76.064599999999999
 30
0.0
 10
22.770499999999998
 20
75.777199999999993
 30
0.0
 10
22.770499999999998
 20
75.777199999999993
 30
0.0
 10
22.770499999999998
 20
75.777199999999993
 30
0.0
 10
22.770499999999998
 20
75.777199999999993
 30
0.0
 10
23.3123
 20
74.243300000000005
 30
0.0
 10
23.3123
 20
74.243300000000005
 30
0.0
 10
23.3123
 20
74.243300000000005
 30
0.0
 10
23.496300000000002
 20
74.302199999999999
 30
0.0
 10
23.6921
 20
74.334199999999996
 30
0.0
 10
23.895600000000002
 20
74.334199999999996
 30
0.0
  0
SPLINE
  5
30
100
AcDbEntity
  8
RÚteg 1
 62
     7
100
AcDbSpline
210
0.0
220
0.0
230
1.0
 70
     1
 71
     3
 72
    24
 73
    20
 74
     0
 42
0.0000000001
 43
0.0000000001
 40
0.0
 40
0.0
 40
0.0
 40
0.0
 40
0.2
 40
0.2
 40
0.2
 40
0.2
 40
0.4
 40
0.4
 40
0.4
 40
0.4
 40
0.6000000000000001
 40
0.6000000000000001
 40
0.6000000000000001
 40
0.6000000000000001
 40
0.8
 40
0.8
 40
0.8
 40
0.8
 40
1.0
 40
1.0
 40
1.0
 40
1.0
 10
25.385200000000001
 20
73.620800000000003
 30
0.0
 10
25.6432
 20
73.300899999999999
 30
0.0
 10
25.8005
 20
72.8964
 30
0.0
 10
25.8081
 20
72.455399999999997
 30
0.0
 10
25.8081
 20
72.455399999999997
 30
0.0
 10
25.8081
 20
72.455399999999997
 30
0.0
 10
27.397500000000001
 20
72.415000000000006
 30
0.0
 10
27.397500000000001
 20
72.415000000000006
 30
0.0
 10
27.397500000000001
 20
72.415000000000006
 30
0.0
 10
27.397500000000001
 20
72.415000000000006
 30
0.0
 10
27.313600000000001
 20
73.6036
 30
0.0
 10
27.313600000000001
 20
73.6036
 30
0.0
 10
27.313600000000001
 20
73.6036
 30
0.0
 10
27.313600000000001
 20
73.6036
 30
0.0
 10
26.6831
 20
74.614800000000002
 30
0.0
 10
26.6831
 20
74.614800000000002
 30
0.0
 10
26.6831
 20
74.614800000000002
 30
0.0
 10
26.6831
 20
74.614800000000002
 30
0.0
 10
25.385200000000001
 20
73.620800000000003
 30
0.0
 10
25.385200000000001
 20
73.620800000000003
 30
0.0
  0
SPLINE
  5
31
100
AcDbEntity
  8
RÚteg 1
 62
     7
100
AcDbSpline
210
0.0
220
0.0
230
1.0
 70
     1
 71
     3
 72
    24
 73
    20
 74
     0
 42
0.0000000001
 43
0.0000000001
 40
0.0
 40
0.0
 40
0.0
 40
0.0
 40
0.2
 40
0.2
 40
0.2
 40
0.2
 40
0.4
 40
0.4
 40
0.4
 40
0.4
 40
0.6000000000000001
 40
0.6000000000000001
 40
0.6000000000000001
 40
0.6000000000000001
 40
0.8
 40
0.8
 40
0.8
 40
0.8
 40
1.0
 40
1.0
 40
1.0
 40
1.0
 10
25.518000000000001
 20
71.407600000000002
 30
0.0
 10
25.282599999999999
 20
71.031700000000001
 30
0.0
 10
24.9206
 20
70.743300000000005
 30
0.0
 10
24.491299999999999
 20
70.602900000000005
 30
0.0
 10
24.491299999999999
 20
70.602900000000005
 30
0.0
 10
24.491299999999999
 20
70.602900000000005
 30
0.0
 10
24.915500000000002
 20
69.175399999999996
 30
0.0
 10
24.915500000000002
 20
69.175399999999996
 30
0.0
 10
24.915500000000002
 20
69.175399999999996
 30
0.0
 10
24.915500000000002
 20
69.175399999999996
 30
0.0
 10
26.020299999999999
 20
69.621899999999997
 30
0.0
 10
26.020299999999999
 20
69.621899999999997
 30
0.0
 10
26.020299999999999
 20
69.621899999999997
 30
0.0
 10
26.020299999999999
 20
69.621899999999997
 30
0.0
 10
26.786000000000001
 20
70.534599999999998
 30
0.0
 10
26.786000000000001
 20
70.534599999999998
 30
0.0
 10
26.786000000000001
 20
70.534599999999998
 30
0.0
 10
26.786000000000001
 20
70.534599999999998
 30
0.0
 10
25.518000000000001
 20
71.407600000000002
 30
0.0
 10
25.518000000000001
 20
71.407600000000002
 30
0.0
  0
SPLINE
  5
32
100
AcDbEntity
  8
RÚteg 1
 62
     7
100
AcDbSpline
210
0.0
220
0.0
230
1.0
 70
     1
 71
     3
 72
    24
 73
    20
 74
     0
 42
0.0000000001
 43
0.0000000001
 40
0.0
 40
0.0
 40
0.0
 40
0.0
 40
0.2
 40
0.2
 40
0.2
 40
0.2
 40
0.4
 40
0.4
 40
0.4
 40
0.4
 40
0.6000000000000001
 40
0.6000000000000001
 40
0.6000000000000001
 40
0.6000000000000001
 40
0.8
 40
0.8
 40
0.8
 40
0.8
 40
1.0
 40
1.0
 40
1.0
 40
1.0
 10
23.3567
 20
70.585300000000004
 30
0.0
 10
22.9145
 20
70.715100000000007
 30
0.0
 10
22.538499999999999
 20
71.000399999999999
 30
0.0
 10
22.292200000000001
 20
71.378
 30
0.0
 10
22.292200000000001
 20
71.378
 30
0.0
 10
22.292200000000001
 20
71.378
 30
0.0
 10
21.067299999999999
 20
70.534599999999998
 30
0.0
 10
21.067299999999999
 20
70.534599999999998
 30
0.0
 10
21.067299999999999
 20
70.534599999999998
 30
0.0
 10
21.067299999999999
 20
70.534599999999998
 30
0.0
 10
21.832899999999999
 20
69.621899999999997
 30
0.0
 10
21.832899999999999
 20
69.621899999999997
 30
0.0
 10
21.832899999999999
 20
69.621899999999997
 30
0.0
 10
21.832899999999999
 20
69.621899999999997
 30
0.0
 10
22.937799999999999
 20
69.175399999999996
 30
0.0
 10
22.937799999999999
 20
69.175399999999996
 30
0.0
 10
22.937799999999999
 20
69.175399999999996
 30
0.0
 10
22.937799999999999
 20
69.175399999999996
 30
0.0
 10
23.3567
 20
70.585300000000004
 30
0.0
 10
23.3567
 20
70.585300000000004
 30
0.0
  0
SPLINE
  5
33
100
AcDbEntity
  8
RÚteg 1
 62
     7
100
AcDbSpline
210
0.0
220
0.0
230
1.0
 70
     1
 71
     3
 72
    24
 73
    20
 74
     0
 42
0.0000000001
 43
0.0000000001
 40
0.0
 40
0.0
 40
0.0
 40
0.0
 40
0.2
 40
0.2
 40
0.2
 40
0.2
 40
0.4
 40
0.4
 40
0.4
 40
0.4
 40
0.6000000000000001
 40
0.6000000000000001
 40
0.6000000000000001
 40
0.6000000000000001
 40
0.8
 40
0.8
 40
0.8
 40
0.8
 40
1.0
 40
1.0
 40
1.0
 40
1.0
 10
21.9833
 20
72.453999999999994
 30
0.0
 10
21.9908
 20
72.909199999999998
 30
0.0
 10
22.157499999999999
 20
73.325500000000005
 30
0.0
 10
22.430099999999999
 20
73.650000000000006
 30
0.0
 10
22.430099999999999
 20
73.650000000000006
 30
0.0
 10
22.430099999999999
 20
73.650000000000006
 30
0.0
 10
21.170400000000001
 20
74.614800000000002
 30
0.0
 10
21.170400000000001
 20
74.614800000000002
 30
0.0
 10
21.170400000000001
 20
74.614800000000002
 30
0.0
 10
21.170400000000001
 20
74.614800000000002
 30
0.0
 10
20.5397
 20
73.6036
 30
0.0
 10
20.5397
 20
73.6036
 30
0.0
 10
20.5397
 20
73.6036
 30
0.0
 10
20.5397
 20
73.6036
 30
0.0
 10
20.4559
 20
72.415000000000006
 30
0.0
 10
20.4559
 20
72.415000000000006
 30
0.0
 10
20.4559
 20
72.415000000000006
 30
0.0
 10
20.4559
 20
72.415000000000006
 30
0.0
 10
21.9833
 20
72.453999999999994
 30
0.0
 10
21.9833
 20
72.453999999999994
 30
0.0
  0
SPLINE
  5
34
100
AcDbEntity
  8
RÚteg 1
 62
     7
100
AcDbSpline
210
0.0
220
0.0
230
1.0
 70
     1
 71
     3
 72
    28
 73
    24
 74
     0
 42
0.0000000001
 43
0.0000000001
 40
0.0
 40
0.0
 40
0.0
 40
0.0
 40
0.1666666666666667
 40
0.1666666666666667
 40
0.1666666666666667
 40
0.1666666666666667
 40
0.3333333333333333
 40
0.3333333333333333
 40
0.3333333333333333
 40
0.3333333333333333
 40
0.5
 40
0.5
 40
0.5
 40
0.5
 40
0.6666666666666666
 40
0.6666666666666666
 40
0.6666666666666666
 40
0.6666666666666666
 40
0.8333333333333333
 40
0.8333333333333333
 40
0.8333333333333333
 40
0.8333333333333333
 40
1.0
 40
1.0
 40
1.0
 40
1.0
 10
23.125
 20
106.1772
 30
0.0
 10
24.314399999999999
 20
106.1772
 30
0.0
 10
25.4893
 20
106.1163
 30
0.0
 10
26.646999999999998
 20
105.996
 30
0.0
 10
26.646999999999998
 20
105.996
 30
0.0
 10
27.660900000000002
 20
106.77079999999999
 30
0.0
 10
28.315200000000001
 20
107.9924
 30
0.0
 10
28.315200000000001
 20
109.3668
 30
0.0
 10
28.315200000000001
 20
109.3668
 30
0.0
 10
28.315200000000001
 20
111.7084
 30
0.0
 10
26.4163
 20
113.60720000000001
 30
0.0
 10
24.0745
 20
113.60720000000001
 30
0.0
 10
24.0745
 20
113.60720000000001
 30
0.0
 10
21.733000000000001
 20
113.60720000000001
 30
0.0
 10
19.8339
 20
111.7084
 30
0.0
 10
19.8339
 20
109.3668
 30
0.0
 10
19.8339
 20
109.3668
 30
0.0
 10
19.8339
 20
108.0693
 30
0.0
 10
20.417200000000001
 20
106.9083
 30
0.0
 10
21.3354
 20
106.1302
 30
0.0
 10
21.3354
 20
106.1302
 30
0.0
 10
21.927900000000001
 20
106.1617
 30
0.0
 10
22.5246
 20
106.1772
 30
0.0
 10
23.125
 20
106.1772
 30
0.0
  0
SPLINE
  5
35
100
AcDbEntity
  8
RÚteg 1
 62
     7
100
AcDbSpline
210
0.0
220
0.0
230
1.0
 70
     1
 71
     3
 72
   140
 73
   136
 74
     0
 42
0.0000000001
 43
0.0000000001
 40
0.0
 40
0.0
 40
0.0
 40
0.0
 40
0.0294117647058824
 40
0.0294117647058824
 40
0.0294117647058824
 40
0.0294117647058824
 40
0.0588235294117647
 40
0.0588235294117647
 40
0.0588235294117647
 40
0.0588235294117647
 40
0.0882352941176471
 40
0.0882352941176471
 40
0.0882352941176471
 40
0.0882352941176471
 40
0.1176470588235294
 40
0.1176470588235294
 40
0.1176470588235294
 40
0.1176470588235294
 40
0.1470588235294118
 40
0.1470588235294118
 40
0.1470588235294118
 40
0.1470588235294118
 40
0.1764705882352941
 40
0.1764705882352941
 40
0.1764705882352941
 40
0.1764705882352941
 40
0.2058823529411765
 40
0.2058823529411765
 40
0.2058823529411765
 40
0.2058823529411765
 40
0.2352941176470589
 40
0.2352941176470589
 40
0.2352941176470589
 40
0.2352941176470589
 40
0.2647058823529412
 40
0.2647058823529412
 40
0.2647058823529412
 40
0.2647058823529412
 40
0.2941176470588235
 40
0.2941176470588235
 40
0.2941176470588235
 40
0.2941176470588235
 40
0.3235294117647059
 40
0.3235294117647059
 40
0.3235294117647059
 40
0.3235294117647059
 40
0.3529411764705883
 40
0.3529411764705883
 40
0.3529411764705883
 40
0.3529411764705883
 40
0.3823529411764706
 40
0.3823529411764706
 40
0.3823529411764706
 40
0.3823529411764706
 40
0.411764705882353
 40
0.411764705882353
 40
0.411764705882353
 40
0.411764705882353
 40
0.4411764705882353
 40
0.4411764705882353
 40
0.4411764705882353
 40
0.4411764705882353
 40
0.4705882352941177
 40
0.4705882352941177
 40
0.4705882352941177
 40
0.4705882352941177
 40
0.5
 40
0.5
 40
0.5
 40
0.5
 40
0.5294117647058824
 40
0.5294117647058824
 40
0.5294117647058824
 40
0.5294117647058824
 40
0.5588235294117647
 40
0.5588235294117647
 40
0.5588235294117647
 40
0.5588235294117647
 40
0.5882352941176471
 40
0.5882352941176471
 40
0.5882352941176471
 40
0.5882352941176471
 40
0.6176470588235294
 40
0.6176470588235294
 40
0.6176470588235294
 40
0.6176470588235294
 40
0.6470588235294118
 40
0.6470588235294118
 40
0.6470588235294118
 40
0.6470588235294118
 40
0.6764705882352942
 40
0.6764705882352942
 40
0.6764705882352942
 40
0.6764705882352942
 40
0.7058823529411765
 40
0.7058823529411765
 40
0.7058823529411765
 40
0.7058823529411765
 40
0.7352941176470589
 40
0.7352941176470589
 40
0.7352941176470589
 40
0.7352941176470589
 40
0.7647058823529412
 40
0.7647058823529412
 40
0.7647058823529412
 40
0.7647058823529412
 40
0.7941176470588236
 40
0.7941176470588236
 40
0.7941176470588236
 40
0.7941176470588236
 40
0.823529411764706
 40
0.823529411764706
 40
0.823529411764706
 40
0.823529411764706
 40
0.8529411764705883
 40
0.8529411764705883
 40
0.8529411764705883
 40
0.8529411764705883
 40
0.8823529411764707
 40
0.8823529411764707
 40
0.8823529411764707
 40
0.8823529411764707
 40
0.911764705882353
 40
0.911764705882353
 40
0.911764705882353
 40
0.911764705882353
 40
0.9411764705882354
 40
0.9411764705882354
 40
0.9411764705882354
 40
0.9411764705882354
 40
0.9705882352941178
 40
0.9705882352941178
 40
0.9705882352941178
 40
0.9705882352941178
 40
1.0
 40
1.0
 40
1.0
 40
1.0
 10
23.125
 20
103.3164
 30
0.0
 10
28.753799999999998
 20
103.3164
 30
0.0
 10
34.033200000000001
 20
101.81829999999999
 30
0.0
 10
38.586799999999997
 20
99.199200000000005
 30
0.0
 10
38.586799999999997
 20
99.199200000000005
 30
0.0
 10
38.586799999999997
 20
99.199200000000005
 30
0.0
 10
36.706400000000002
 20
95.481399999999994
 30
0.0
 10
36.706400000000002
 20
95.481399999999994
 30
0.0
 10
36.706400000000002
 20
95.481399999999994
 30
0.0
 10
36.706400000000002
 20
95.481399999999994
 30
0.0
 10
31.489799999999999
 20
98.780699999999996
 30
0.0
 10
31.489799999999999
 20
98.780699999999996
 30
0.0
 10
31.489799999999999
 20
98.780699999999996
 30
0.0
 10
31.489799999999999
 20
98.780699999999996
 30
0.0
 10
34.0595
 20
93.168400000000005
 30
0.0
 10
34.0595
 20
93.168400000000005
 30
0.0
 10
34.0595
 20
93.168400000000005
 30
0.0
 10
34.0595
 20
93.168400000000005
 30
0.0
 10
28.2273
 20
91.147400000000005
 30
0.0
 10
28.2273
 20
91.147400000000005
 30
0.0
 10
28.2273
 20
91.147400000000005
 30
0.0
 10
28.2273
 20
91.147400000000005
 30
0.0
 10
32.872399999999999
 20
89.991299999999995
 30
0.0
 10
32.872399999999999
 20
89.991299999999995
 30
0.0
 10
32.872399999999999
 20
89.991299999999995
 30
0.0
 10
32.872399999999999
 20
89.991299999999995
 30
0.0
 10
30.985499999999998
 20
86.259799999999998
 30
0.0
 10
30.985499999999998
 20
86.259799999999998
 30
0.0
 10
30.985499999999998
 20
86.259799999999998
 30
0.0
 10
30.985499999999998
 20
86.259799999999998
 30
0.0
 10
27.0733
 20
88.734499999999997
 30
0.0
 10
27.0733
 20
88.734499999999997
 30
0.0
 10
27.0733
 20
88.734499999999997
 30
0.0
 10
27.0733
 20
88.734499999999997
 30
0.0
 10
29.0
 20
84.525999999999996
 30
0.0
 10
29.0
 20
84.525999999999996
 30
0.0
 10
29.0
 20
84.525999999999996
 30
0.0
 10
29.0
 20
84.525999999999996
 30
0.0
 10
24.625900000000001
 20
83.009699999999995
 30
0.0
 10
24.625900000000001
 20
83.009699999999995
 30
0.0
 10
24.625900000000001
 20
83.009699999999995
 30
0.0
 10
24.625900000000001
 20
83.009699999999995
 30
0.0
 10
29.117999999999999
 20
81.891800000000003
 30
0.0
 10
29.117999999999999
 20
81.891800000000003
 30
0.0
 10
29.117999999999999
 20
81.891800000000003
 30
0.0
 10
29.117999999999999
 20
81.891800000000003
 30
0.0
 10
28.325099999999999
 20
79.646500000000003
 30
0.0
 10
28.325099999999999
 20
79.646500000000003
 30
0.0
 10
28.325099999999999
 20
79.646500000000003
 30
0.0
 10
28.325099999999999
 20
79.646500000000003
 30
0.0
 10
28.0504
 20
82.151399999999995
 30
0.0
 10
28.0504
 20
82.151399999999995
 30
0.0
 10
28.0504
 20
82.151399999999995
 30
0.0
 10
28.0504
 20
82.151399999999995
 30
0.0
 10
26.4832
 20
79.053200000000004
 30
0.0
 10
26.4832
 20
79.053200000000004
 30
0.0
 10
26.4832
 20
79.053200000000004
 30
0.0
 10
26.4832
 20
79.053200000000004
 30
0.0
 10
24.134699999999999
 20
80.539000000000001
 30
0.0
 10
24.134699999999999
 20
80.539000000000001
 30
0.0
 10
24.134699999999999
 20
80.539000000000001
 30
0.0
 10
24.134699999999999
 20
80.539000000000001
 30
0.0
 10
24.304600000000001
 20
80.909400000000005
 30
0.0
 10
24.304600000000001
 20
80.909400000000005
 30
0.0
 10
24.304600000000001
 20
80.909400000000005
 30
0.0
 10
24.304600000000001
 20
80.909400000000005
 30
0.0
 10
23.926500000000001
 20
80.670400000000001
 30
0.0
 10
23.926500000000001
 20
80.670400000000001
 30
0.0
 10
23.926500000000001
 20
80.670400000000001
 30
0.0
 10
23.926500000000001
 20
80.670400000000001
 30
0.0
 10
23.548500000000001
 20
80.909400000000005
 30
0.0
 10
23.548500000000001
 20
80.909400000000005
 30
0.0
 10
23.548500000000001
 20
80.909400000000005
 30
0.0
 10
23.548500000000001
 20
80.909400000000005
 30
0.0
 10
23.718599999999999
 20
80.539000000000001
 30
0.0
 10
23.718599999999999
 20
80.539000000000001
 30
0.0
 10
23.718599999999999
 20
80.539000000000001
 30
0.0
 10
23.718599999999999
 20
80.539000000000001
 30
0.0
 10
21.370200000000001
 20
79.053200000000004
 30
0.0
 10
21.370200000000001
 20
79.053200000000004
 30
0.0
 10
21.370200000000001
 20
79.053200000000004
 30
0.0
 10
21.370200000000001
 20
79.053200000000004
 30
0.0
 10
19.802800000000001
 20
82.151499999999999
 30
0.0
 10
19.802800000000001
 20
82.151499999999999
 30
0.0
 10
19.802800000000001
 20
82.151499999999999
 30
0.0
 10
19.802800000000001
 20
82.151499999999999
 30
0.0
 10
19.528300000000002
 20
79.646500000000003
 30
0.0
 10
19.528300000000002
 20
79.646500000000003
 30
0.0
 10
19.528300000000002
 20
79.646500000000003
 30
0.0
 10
19.528300000000002
 20
79.646500000000003
 30
0.0
 10
18.735099999999999
 20
81.891800000000003
 30
0.0
 10
18.735099999999999
 20
81.891800000000003
 30
0.0
 10
18.735099999999999
 20
81.891800000000003
 30
0.0
 10
18.735099999999999
 20
81.891800000000003
 30
0.0
 10
23.227599999999999
 20
83.009699999999995
 30
0.0
 10
23.227599999999999
 20
83.009699999999995
 30
0.0
 10
23.227599999999999
 20
83.009699999999995
 30
0.0
 10
23.227599999999999
 20
83.009699999999995
 30
0.0
 10
18.853200000000001
 20
84.525999999999996
 30
0.0
 10
18.853200000000001
 20
84.525999999999996
 30
0.0
 10
18.853200000000001
 20
84.525999999999996
 30
0.0
 10
18.853200000000001
 20
84.525999999999996
 30
0.0
 10
20.779900000000001
 20
88.734499999999997
 30
0.0
 10
20.779900000000001
 20
88.734499999999997
 30
0.0
 10
20.779900000000001
 20
88.734499999999997
 30
0.0
 10
20.779900000000001
 20
88.734499999999997
 30
0.0
 10
16.867599999999999
 20
86.259799999999998
 30
0.0
 10
16.867599999999999
 20
86.259799999999998
 30
0.0
 10
16.867599999999999
 20
86.259799999999998
 30
0.0
 10
16.867599999999999
 20
86.259799999999998
 30
0.0
 10
14.9808
 20
89.991299999999995
 30
0.0
 10
14.9808
 20
89.991299999999995
 30
0.0
 10
14.9808
 20
89.991299999999995
 30
0.0
 10
14.9808
 20
89.991299999999995
 30
0.0
 10
19.626000000000001
 20
91.147400000000005
 30
0.0
 10
19.626000000000001
 20
91.147400000000005
 30
0.0
 10
19.626000000000001
 20
91.147400000000005
 30
0.0
 10
19.626000000000001
 20
91.147400000000005
 30
0.0
 10
13.794
 20
93.168400000000005
 30
0.0
 10
13.794
 20
93.168400000000005
 30
0.0
 10
13.794
 20
93.168400000000005
 30
0.0
 10
13.794
 20
93.168400000000005
 30
0.0
 10
16.363600000000002
 20
98.780699999999996
 30
0.0
 10
16.363600000000002
 20
98.780699999999996
 30
0.0
 10
16.363600000000002
 20
98.780699999999996
 30
0.0
 10
16.363600000000002
 20
98.780699999999996
 30
0.0
 10
11.147
 20
95.481399999999994
 30
0.0
 10
11.147
 20
95.481399999999994
 30
0.0
 10
11.147
 20
95.481399999999994
 30
0.0
 10
11.147
 20
95.481399999999994
 30
0.0
 10
8.9206000000000003
 20
99.883499999999998
 30
0.0
 10
8.9206000000000003
 20
99.883499999999998
 30
0.0
 10
8.9206000000000003
 20
99.883499999999998
 30
0.0
 10
13.1776
 20
102.0774
 30
0.0
 10
18.006799999999998
 20
103.3164
 30
0.0
 10
23.125
 20
103.3164
 30
0.0
  0
SPLINE
  5
36
100
AcDbEntity
  8
RÚteg 1
 62
     7
100
AcDbSpline
210
0.0
220
0.0
230
1.0
 70
     1
 71
     3
 72
    16
 73
    12
 74
     0
 42
0.0000000001
 43
0.0000000001
 40
0.0
 40
0.0
 40
0.0
 40
0.0
 40
0.3333333333333333
 40
0.3333333333333333
 40
0.3333333333333333
 40
0.3333333333333333
 40
0.6666666666666666
 40
0.6666666666666666
 40
0.6666666666666666
 40
0.6666666666666666
 40
1.0
 40
1.0
 40
1.0
 40
1.0
 10
39.7669
 20
98.483800000000002
 30
0.0
 10
41.133699999999997
 20
97.614699999999999
 30
0.0
 10
42.427500000000002
 20
96.641400000000004
 30
0.0
 10
43.638100000000001
 20
95.575599999999994
 30
0.0
 10
43.638100000000001
 20
95.575599999999994
 30
0.0
 10
43.638100000000001
 20
95.575599999999994
 30
0.0
 10
40.165199999999999
 20
94.853999999999999
 30
0.0
 10
40.165199999999999
 20
94.853999999999999
 30
0.0
 10
40.165199999999999
 20
94.853999999999999
 30
0.0
 10
40.165199999999999
 20
94.853999999999999
 30
0.0
 10
39.7669
 20
98.483800000000002
 30
0.0
 10
39.7669
 20
98.483800000000002
 30
0.0
  0
SPLINE
  5
37
100
AcDbEntity
  8
RÚteg 1
 62
     7
100
AcDbSpline
210
0.0
220
0.0
230
1.0
 70
     1
 71
     3
 72
   140
 73
   136
 74
     0
 42
0.0000000001
 43
0.0000000001
 40
0.0
 40
0.0
 40
0.0
 40
0.0
 40
0.0294117647058824
 40
0.0294117647058824
 40
0.0294117647058824
 40
0.0294117647058824
 40
0.0588235294117647
 40
0.0588235294117647
 40
0.0588235294117647
 40
0.0588235294117647
 40
0.0882352941176471
 40
0.0882352941176471
 40
0.0882352941176471
 40
0.0882352941176471
 40
0.1176470588235294
 40
0.1176470588235294
 40
0.1176470588235294
 40
0.1176470588235294
 40
0.1470588235294118
 40
0.1470588235294118
 40
0.1470588235294118
 40
0.1470588235294118
 40
0.1764705882352941
 40
0.1764705882352941
 40
0.1764705882352941
 40
0.1764705882352941
 40
0.2058823529411765
 40
0.2058823529411765
 40
0.2058823529411765
 40
0.2058823529411765
 40
0.2352941176470589
 40
0.2352941176470589
 40
0.2352941176470589
 40
0.2352941176470589
 40
0.2647058823529412
 40
0.2647058823529412
 40
0.2647058823529412
 40
0.2647058823529412
 40
0.2941176470588235
 40
0.2941176470588235
 40
0.2941176470588235
 40
0.2941176470588235
 40
0.3235294117647059
 40
0.3235294117647059
 40
0.3235294117647059
 40
0.3235294117647059
 40
0.3529411764705883
 40
0.3529411764705883
 40
0.3529411764705883
 40
0.3529411764705883
 40
0.3823529411764706
 40
0.3823529411764706
 40
0.3823529411764706
 40
0.3823529411764706
 40
0.411764705882353
 40
0.411764705882353
 40
0.411764705882353
 40
0.411764705882353
 40
0.4411764705882353
 40
0.4411764705882353
 40
0.4411764705882353
 40
0.4411764705882353
 40
0.4705882352941177
 40
0.4705882352941177
 40
0.4705882352941177
 40
0.4705882352941177
 40
0.5
 40
0.5
 40
0.5
 40
0.5
 40
0.5294117647058824
 40
0.5294117647058824
 40
0.5294117647058824
 40
0.5294117647058824
 40
0.5588235294117647
 40
0.5588235294117647
 40
0.5588235294117647
 40
0.5588235294117647
 40
0.5882352941176471
 40
0.5882352941176471
 40
0.5882352941176471
 40
0.5882352941176471
 40
0.6176470588235294
 40
0.6176470588235294
 40
0.6176470588235294
 40
0.6176470588235294
 40
0.6470588235294118
 40
0.6470588235294118
 40
0.6470588235294118
 40
0.6470588235294118
 40
0.6764705882352942
 40
0.6764705882352942
 40
0.6764705882352942
 40
0.6764705882352942
 40
0.7058823529411765
 40
0.7058823529411765
 40
0.7058823529411765
 40
0.7058823529411765
 40
0.7352941176470589
 40
0.7352941176470589
 40
0.7352941176470589
 40
0.7352941176470589
 40
0.7647058823529412
 40
0.7647058823529412
 40
0.7647058823529412
 40
0.7647058823529412
 40
0.7941176470588236
 40
0.7941176470588236
 40
0.7941176470588236
 40
0.7941176470588236
 40
0.823529411764706
 40
0.823529411764706
 40
0.823529411764706
 40
0.823529411764706
 40
0.8529411764705883
 40
0.8529411764705883
 40
0.8529411764705883
 40
0.8529411764705883
 40
0.8823529411764707
 40
0.8823529411764707
 40
0.8823529411764707
 40
0.8823529411764707
 40
0.911764705882353
 40
0.911764705882353
 40
0.911764705882353
 40
0.911764705882353
 40
0.9411764705882354
 40
0.9411764705882354
 40
0.9411764705882354
 40
0.9411764705882354
 40
0.9705882352941178
 40
0.9705882352941178
 40
0.9705882352941178
 40
0.9705882352941178
 40
1.0
 40
1.0
 40
1.0
 40
1.0
 10
44.693300000000001
 20
94.603499999999997
 30
0.0
 10
50.5471
 20
88.953999999999994
 30
0.0
 10
54.189100000000003
 20
81.027900000000002
 30
0.0
 10
54.189100000000003
 20
72.252200000000002
 30
0.0
 10
54.189100000000003
 20
72.252200000000002
 30
0.0
 10
54.189100000000003
 20
70.402500000000003
 30
0.0
 10
54.026400000000002
 20
68.590800000000002
 30
0.0
 10
53.716299999999997
 20
66.830100000000002
 30
0.0
 10
53.716299999999997
 20
66.830100000000002
 30
0.0
 10
53.716299999999997
 20
66.830100000000002
 30
0.0
 10
49.729199999999999
 20
67.449799999999996
 30
0.0
 10
49.729199999999999
 20
67.449799999999996
 30
0.0
 10
49.729199999999999
 20
67.449799999999996
 30
0.0
 10
49.729199999999999
 20
67.449799999999996
 30
0.0
 10
51.255099999999999
 20
73.429900000000004
 30
0.0
 10
51.255099999999999
 20
73.429900000000004
 30
0.0
 10
51.255099999999999
 20
73.429900000000004
 30
0.0
 10
51.255099999999999
 20
73.429900000000004
 30
0.0
 10
46.711599999999997
 20
69.252799999999993
 30
0.0
 10
46.711599999999997
 20
69.252799999999993
 30
0.0
 10
46.711599999999997
 20
69.252799999999993
 30
0.0
 10
46.711599999999997
 20
69.252799999999993
 30
0.0
 10
42.987200000000001
 20
74.174199999999999
 30
0.0
 10
42.987200000000001
 20
74.174199999999999
 30
0.0
 10
42.987200000000001
 20
74.174199999999999
 30
0.0
 10
42.987200000000001
 20
74.174199999999999
 30
0.0
 10
43.323500000000003
 20
69.398899999999998
 30
0.0
 10
43.323500000000003
 20
69.398899999999998
 30
0.0
 10
43.323500000000003
 20
69.398899999999998
 30
0.0
 10
43.323500000000003
 20
69.398899999999998
 30
0.0
 10
39.191699999999997
 20
70.040899999999993
 30
0.0
 10
39.191699999999997
 20
70.040899999999993
 30
0.0
 10
39.191699999999997
 20
70.040899999999993
 30
0.0
 10
39.191699999999997
 20
70.040899999999993
 30
0.0
 10
40.335900000000002
 20
74.526600000000002
 30
0.0
 10
40.335900000000002
 20
74.526600000000002
 30
0.0
 10
40.335900000000002
 20
74.526600000000002
 30
0.0
 10
40.335900000000002
 20
74.526600000000002
 30
0.0
 10
36.927999999999997
 20
71.393199999999993
 30
0.0
 10
36.927999999999997
 20
71.393199999999993
 30
0.0
 10
36.927999999999997
 20
71.393199999999993
 30
0.0
 10
36.927999999999997
 20
71.393199999999993
 30
0.0
 10
34.134700000000002
 20
75.084500000000006
 30
0.0
 10
34.134700000000002
 20
75.084500000000006
 30
0.0
 10
34.134700000000002
 20
75.084500000000006
 30
0.0
 10
34.134700000000002
 20
75.084500000000006
 30
0.0
 10
34.459899999999998
 20
70.466999999999999
 30
0.0
 10
34.459899999999998
 20
70.466999999999999
 30
0.0
 10
34.459899999999998
 20
70.466999999999999
 30
0.0
 10
34.459899999999998
 20
70.466999999999999
 30
0.0
 10
32.079700000000003
 20
70.527500000000003
 30
0.0
 10
32.079700000000003
 20
70.527500000000003
 30
0.0
 10
32.079700000000003
 20
70.527500000000003
 30
0.0
 10
32.079700000000003
 20
70.527500000000003
 30
0.0
 10
34.377200000000002
 20
71.562700000000007
 30
0.0
 10
34.377200000000002
 20
71.562700000000007
 30
0.0
 10
34.377200000000002
 20
71.562700000000007
 30
0.0
 10
34.377200000000002
 20
71.562700000000007
 30
0.0
 10
30.946200000000001
 20
72.096000000000004
 30
0.0
 10
30.946200000000001
 20
72.096000000000004
 30
0.0
 10
30.946200000000001
 20
72.096000000000004
 30
0.0
 10
30.946200000000001
 20
72.096000000000004
 30
0.0
 10
31.6328
 20
74.788499999999999
 30
0.0
 10
31.6328
 20
74.788499999999999
 30
0.0
 10
31.6328
 20
74.788499999999999
 30
0.0
 10
31.6328
 20
74.788499999999999
 30
0.0
 10
32.037599999999998
 20
74.742199999999997
 30
0.0
 10
32.037599999999998
 20
74.742199999999997
 30
0.0
 10
32.037599999999998
 20
74.742199999999997
 30
0.0
 10
32.037599999999998
 20
74.742199999999997
 30
0.0
 10
31.693899999999999
 20
75.027100000000004
 30
0.0
 10
31.693899999999999
 20
75.027100000000004
 30
0.0
 10
31.693899999999999
 20
75.027100000000004
 30
0.0
 10
31.693899999999999
 20
75.027100000000004
 30
0.0
 10
31.804500000000001
 20
75.460400000000007
 30
0.0
 10
31.804500000000001
 20
75.460400000000007
 30
0.0
 10
31.804500000000001
 20
75.460400000000007
 30
0.0
 10
31.804500000000001
 20
75.460400000000007
 30
0.0
 10
31.504899999999999
 20
75.184200000000004
 30
0.0
 10
31.504899999999999
 20
75.184200000000004
 30
0.0
 10
31.504899999999999
 20
75.184200000000004
 30
0.0
 10
31.504899999999999
 20
75.184200000000004
 30
0.0
 10
29.366
 20
76.959299999999999
 30
0.0
 10
29.366
 20
76.959299999999999
 30
0.0
 10
29.366
 20
76.959299999999999
 30
0.0
 10
29.366
 20
76.959299999999999
 30
0.0
 10
31.828499999999998
 20
79.406700000000001
 30
0.0
 10
31.828499999999998
 20
79.406700000000001
 30
0.0
 10
31.828499999999998
 20
79.406700000000001
 30
0.0
 10
31.828499999999998
 20
79.406700000000001
 30
0.0
 10
29.361000000000001
 20
78.893699999999995
 30
0.0
 10
29.361000000000001
 20
78.893699999999995
 30
0.0
 10
29.361000000000001
 20
78.893699999999995
 30
0.0
 10
29.361000000000001
 20
78.893699999999995
 30
0.0
 10
31.2515
 20
80.342299999999994
 30
0.0
 10
31.2515
 20
80.342299999999994
 30
0.0
 10
31.2515
 20
80.342299999999994
 30
0.0
 10
31.2515
 20
80.342299999999994
 30
0.0
 10
33.702599999999997
 20
76.415000000000006
 30
0.0
 10
33.702599999999997
 20
76.415000000000006
 30
0.0
 10
33.702599999999997
 20
76.415000000000006
 30
0.0
 10
33.702599999999997
 20
76.415000000000006
 30
0.0
 10
33.793100000000003
 20
81.043300000000002
 30
0.0
 10
33.793100000000003
 20
81.043300000000002
 30
0.0
 10
33.793100000000003
 20
81.043300000000002
 30
0.0
 10
33.793100000000003
 20
81.043300000000002
 30
0.0
 10
38.391500000000001
 20
80.512
 30
0.0
 10
38.391500000000001
 20
80.512
 30
0.0
 10
38.391500000000001
 20
80.512
 30
0.0
 10
38.391500000000001
 20
80.512
 30
0.0
 10
34.828699999999998
 20
83.467500000000001
 30
0.0
 10
34.828699999999998
 20
83.467500000000001
 30
0.0
 10
34.828699999999998
 20
83.467500000000001
 30
0.0
 10
34.828699999999998
 20
83.467500000000001
 30
0.0
 10
37.794699999999999
 20
86.415599999999998
 30
0.0
 10
37.794699999999999
 20
86.415599999999998
 30
0.0
 10
37.794699999999999
 20
86.415599999999998
 30
0.0
 10
37.794699999999999
 20
86.415599999999998
 30
0.0
 10
40.329099999999997
 20
82.355000000000004
 30
0.0
 10
40.329099999999997
 20
82.355000000000004
 30
0.0
 10
40.329099999999997
 20
82.355000000000004
 30
0.0
 10
40.329099999999997
 20
82.355000000000004
 30
0.0
 10
40.4495
 20
88.525800000000004
 30
0.0
 10
40.4495
 20
88.525800000000004
 30
0.0
 10
40.4495
 20
88.525800000000004
 30
0.0
 10
40.4495
 20
88.525800000000004
 30
0.0
 10
46.581000000000003
 20
87.816900000000004
 30
0.0
 10
46.581000000000003
 20
87.816900000000004
 30
0.0
 10
46.581000000000003
 20
87.816900000000004
 30
0.0
 10
46.581000000000003
 20
87.816900000000004
 30
0.0
 10
41.831099999999999
 20
91.757800000000003
 30
0.0
 10
41.831099999999999
 20
91.757800000000003
 30
0.0
 10
41.831099999999999
 20
91.757800000000003
 30
0.0
 10
41.831099999999999
 20
91.757800000000003
 30
0.0
 10
44.693300000000001
 20
94.603499999999997
 30
0.0
 10
44.693300000000001
 20
94.603499999999997
 30
0.0
  0
SPLINE
  5
38
100
AcDbEntity
  8
RÚteg 1
 62
     7
100
AcDbSpline
210
0.0
220
0.0
230
1.0
 70
     1
 71
     3
 72
    16
 73
    12
 74
     0
 42
0.0000000001
 43
0.0000000001
 40
0.0
 40
0.0
 40
0.0
 40
0.0
 40
0.3333333333333333
 40
0.3333333333333333
 40
0.3333333333333333
 40
0.3333333333333333
 40
0.6666666666666666
 40
0.6666666666666666
 40
0.6666666666666666
 40
0.6666666666666666
 40
1.0
 40
1.0
 40
1.0
 40
1.0
 10
53.433799999999998
 20
65.422799999999995
 30
0.0
 10
53.077100000000002
 20
63.833199999999998
 30
0.0
 10
52.599299999999999
 20
62.289400000000001
 30
0.0
 10
52.009099999999997
 20
60.802
 30
0.0
 10
52.009099999999997
 20
60.802
 30
0.0
 10
52.009099999999997
 20
60.802
 30
0.0
 10
50.201300000000003
 20
63.966299999999997
 30
0.0
 10
50.201300000000003
 20
63.966299999999997
 30
0.0
 10
50.201300000000003
 20
63.966299999999997
 30
0.0
 10
50.201300000000003
 20
63.966299999999997
 30
0.0
 10
53.433799999999998
 20
65.422799999999995
 30
0.0
 10
53.433799999999998
 20
65.422799999999995
 30
0.0
  0
SPLINE
  5
39
100
AcDbEntity
  8
RÚteg 1
 62
     7
100
AcDbSpline
210
0.0
220
0.0
230
1.0
 70
     1
 71
     3
 72
   136
 73
   132
 74
     0
 42
0.0000000001
 43
0.0000000001
 40
0.0
 40
0.0
 40
0.0
 40
0.0
 40
0.0303030303030303
 40
0.0303030303030303
 40
0.0303030303030303
 40
0.0303030303030303
 40
0.0606060606060606
 40
0.0606060606060606
 40
0.0606060606060606
 40
0.0606060606060606
 40
0.0909090909090909
 40
0.0909090909090909
 40
0.0909090909090909
 40
0.0909090909090909
 40
0.1212121212121212
 40
0.1212121212121212
 40
0.1212121212121212
 40
0.1212121212121212
 40
0.1515151515151515
 40
0.1515151515151515
 40
0.1515151515151515
 40
0.1515151515151515
 40
0.1818181818181818
 40
0.1818181818181818
 40
0.1818181818181818
 40
0.1818181818181818
 40
0.2121212121212121
 40
0.2121212121212121
 40
0.2121212121212121
 40
0.2121212121212121
 40
0.2424242424242424
 40
0.2424242424242424
 40
0.2424242424242424
 40
0.2424242424242424
 40
0.2727272727272727
 40
0.2727272727272727
 40
0.2727272727272727
 40
0.2727272727272727
 40
0.303030303030303
 40
0.303030303030303
 40
0.303030303030303
 40
0.303030303030303
 40
0.3333333333333333
 40
0.3333333333333333
 40
0.3333333333333333
 40
0.3333333333333333
 40
0.3636363636363635
 40
0.3636363636363635
 40
0.3636363636363635
 40
0.3636363636363635
 40
0.3939393939393938
 40
0.3939393939393938
 40
0.3939393939393938
 40
0.3939393939393938
 40
0.4242424242424241
 40
0.4242424242424241
 40
0.4242424242424241
 40
0.4242424242424241
 40
0.4545454545454544
 40
0.4545454545454544
 40
0.4545454545454544
 40
0.4545454545454544
 40
0.4848484848484846
 40
0.4848484848484846
 40
0.4848484848484846
 40
0.4848484848484846
 40
0.5151515151515149
 40
0.5151515151515149
 40
0.5151515151515149
 40
0.5151515151515149
 40
0.5454545454545452
 40
0.5454545454545452
 40
0.5454545454545452
 40
0.5454545454545452
 40
0.5757575757575755
 40
0.5757575757575755
 40
0.5757575757575755
 40
0.5757575757575755
 40
0.6060606060606057
 40
0.6060606060606057
 40
0.6060606060606057
 40
0.6060606060606057
 40
0.636363636363636
 40
0.636363636363636
 40
0.636363636363636
 40
0.636363636363636
 40
0.6666666666666663
 40
0.6666666666666663
 40
0.6666666666666663
 40
0.6666666666666663
 40
0.6969696969696966
 40
0.6969696969696966
 40
0.6969696969696966
 40
0.6969696969696966
 40
0.7272727272727269
 40
0.7272727272727269
 40
0.7272727272727269
 40
0.7272727272727269
 40
0.7575757575757571
 40
0.7575757575757571
 40
0.7575757575757571
 40
0.7575757575757571
 40
0.7878787878787874
 40
0.7878787878787874
 40
0.7878787878787874
 40
0.7878787878787874
 40
0.8181818181818177
 40
0.8181818181818177
 40
0.8181818181818177
 40
0.8181818181818177
 40
0.848484848484848
 40
0.848484848484848
 40
0.848484848484848
 40
0.848484848484848
 40
0.8787878787878782
 40
0.8787878787878782
 40
0.8787878787878782
 40
0.8787878787878782
 40
0.9090909090909085
 40
0.9090909090909085
 40
0.9090909090909085
 40
0.9090909090909085
 40
0.9393939393939388
 40
0.9393939393939388
 40
0.9393939393939388
 40
0.9393939393939388
 40
0.9696969696969691
 40
0.9696969696969691
 40
0.9696969696969691
 40
0.9696969696969691
 40
1.0
 40
1.0
 40
1.0
 40
1.0
 10
51.469900000000003
 20
59.527500000000003
 30
0.0
 10
47.231000000000002
 20
50.101500000000001
 30
0.0
 10
38.428100000000001
 20
43.170400000000001
 30
0.0
 10
27.877199999999998
 20
41.549900000000001
 30
0.0
 10
27.877199999999998
 20
41.549900000000001
 30
0.0
 10
27.877199999999998
 20
41.549900000000001
 30
0.0
 10
27.093800000000002
 20
46.402000000000001
 30
0.0
 10
27.093800000000002
 20
46.402000000000001
 30
0.0
 10
27.093800000000002
 20
46.402000000000001
 30
0.0
 10
27.093800000000002
 20
46.402000000000001
 30
0.0
 10
33.253500000000003
 20
46.798900000000003
 30
0.0
 10
33.253500000000003
 20
46.798900000000003
 30
0.0
 10
33.253500000000003
 20
46.798900000000003
 30
0.0
 10
33.253500000000003
 20
46.798900000000003
 30
0.0
 10
27.876200000000001
 20
49.8292
 30
0.0
 10
27.876200000000001
 20
49.8292
 30
0.0
 10
27.876200000000001
 20
49.8292
 30
0.0
 10
27.876200000000001
 20
49.8292
 30
0.0
 10
31.406400000000001
 20
54.892299999999999
 30
0.0
 10
31.406400000000001
 20
54.892299999999999
 30
0.0
 10
31.406400000000001
 20
54.892299999999999
 30
0.0
 10
31.406400000000001
 20
54.892299999999999
 30
0.0
 10
26.9682
 20
53.097000000000001
 30
0.0
 10
26.9682
 20
53.097000000000001
 30
0.0
 10
26.9682
 20
53.097000000000001
 30
0.0
 10
26.9682
 20
53.097000000000001
 30
0.0
 10
26.3019
 20
57.224699999999999
 30
0.0
 10
26.3019
 20
57.224699999999999
 30
0.0
 10
26.3019
 20
57.224699999999999
 30
0.0
 10
26.3019
 20
57.224699999999999
 30
0.0
 10
30.921500000000002
 20
57.522500000000001
 30
0.0
 10
30.921500000000002
 20
57.522500000000001
 30
0.0
 10
30.921500000000002
 20
57.522500000000001
 30
0.0
 10
30.921500000000002
 20
57.522500000000001
 30
0.0
 10
26.889099999999999
 20
59.795200000000001
 30
0.0
 10
26.889099999999999
 20
59.795200000000001
 30
0.0
 10
26.889099999999999
 20
59.795200000000001
 30
0.0
 10
26.889099999999999
 20
59.795200000000001
 30
0.0
 10
29.5365
 20
63.591999999999999
 30
0.0
 10
29.5365
 20
63.591999999999999
 30
0.0
 10
29.5365
 20
63.591999999999999
 30
0.0
 10
29.5365
 20
63.591999999999999
 30
0.0
 10
25.244900000000001
 20
61.856200000000001
 30
0.0
 10
25.244900000000001
 20
61.856200000000001
 30
0.0
 10
25.244900000000001
 20
61.856200000000001
 30
0.0
 10
25.244900000000001
 20
61.856200000000001
 30
0.0
 10
24.5669
 20
64.139200000000002
 30
0.0
 10
24.5669
 20
64.139200000000002
 30
0.0
 10
24.5669
 20
64.139200000000002
 30
0.0
 10
24.5669
 20
64.139200000000002
 30
0.0
 10
26.261600000000001
 20
62.273400000000002
 30
0.0
 10
26.261600000000001
 20
62.273400000000002
 30
0.0
 10
26.261600000000001
 20
62.273400000000002
 30
0.0
 10
26.261600000000001
 20
62.273400000000002
 30
0.0
 10
25.708400000000001
 20
65.701400000000007
 30
0.0
 10
25.708400000000001
 20
65.701400000000007
 30
0.0
 10
25.708400000000001
 20
65.701400000000007
 30
0.0
 10
25.708400000000001
 20
65.701400000000007
 30
0.0
 10
28.4815
 20
65.879999999999995
 30
0.0
 10
28.4815
 20
65.879999999999995
 30
0.0
 10
28.4815
 20
65.879999999999995
 30
0.0
 10
28.4815
 20
65.879999999999995
 30
0.0
 10
28.561900000000001
 20
65.480900000000005
 30
0.0
 10
28.561900000000001
 20
65.480900000000005
 30
0.0
 10
28.561900000000001
 20
65.480900000000005
 30
0.0
 10
28.561900000000001
 20
65.480900000000005
 30
0.0
 10
28.7271
 20
65.896299999999997
 30
0.0
 10
28.7271
 20
65.896299999999997
 30
0.0
 10
28.7271
 20
65.896299999999997
 30
0.0
 10
28.7271
 20
65.896299999999997
 30
0.0
 10
29.172999999999998
 20
65.924599999999998
 30
0.0
 10
29.172999999999998
 20
65.924599999999998
 30
0.0
 10
29.172999999999998
 20
65.924599999999998
 30
0.0
 10
29.172999999999998
 20
65.924599999999998
 30
0.0
 10
28.818200000000001
 20
66.124499999999998
 30
0.0
 10
28.818200000000001
 20
66.124499999999998
 30
0.0
 10
28.818200000000001
 20
66.124499999999998
 30
0.0
 10
28.818200000000001
 20
66.124499999999998
 30
0.0
 10
29.845400000000001
 20
68.706999999999994
 30
0.0
 10
29.845400000000001
 20
68.706999999999994
 30
0.0
 10
29.845400000000001
 20
68.706999999999994
 30
0.0
 10
29.845400000000001
 20
68.706999999999994
 30
0.0
 10
32.933900000000001
 20
67.121399999999994
 30
0.0
 10
32.933900000000001
 20
67.121399999999994
 30
0.0
 10
32.933900000000001
 20
67.121399999999994
 30
0.0
 10
32.933900000000001
 20
67.121399999999994
 30
0.0
 10
31.684200000000001
 20
69.309600000000003
 30
0.0
 10
31.684200000000001
 20
69.309600000000003
 30
0.0
 10
31.684200000000001
 20
69.309600000000003
 30
0.0
 10
31.684200000000001
 20
69.309600000000003
 30
0.0
 10
33.645400000000002
 20
67.959199999999996
 30
0.0
 10
33.645400000000002
 20
67.959199999999996
 30
0.0
 10
33.645400000000002
 20
67.959199999999996
 30
0.0
 10
33.645400000000002
 20
67.959199999999996
 30
0.0
 10
30.668099999999999
 20
64.4148
 30
0.0
 10
30.668099999999999
 20
64.4148
 30
0.0
 10
30.668099999999999
 20
64.4148
 30
0.0
 10
30.668099999999999
 20
64.4148
 30
0.0
 10
35.0976
 20
65.759500000000003
 30
0.0
 10
35.0976
 20
65.759500000000003
 30
0.0
 10
35.0976
 20
65.759500000000003
 30
0.0
 10
35.0976
 20
65.759500000000003
 30
0.0
 10
36.012799999999999
 20
61.221299999999999
 30
0.0
 10
36.012799999999999
 20
61.221299999999999
 30
0.0
 10
36.012799999999999
 20
61.221299999999999
 30
0.0
 10
36.012799999999999
 20
61.221299999999999
 30
0.0
 10
37.723399999999998
 20
65.522900000000007
 30
0.0
 10
37.723399999999998
 20
65.522900000000007
 30
0.0
 10
37.723399999999998
 20
65.522900000000007
 30
0.0
 10
37.723399999999998
 20
65.522900000000007
 30
0.0
 10
41.443199999999997
 20
63.613599999999998
 30
0.0
 10
41.443199999999997
 20
63.613599999999998
 30
0.0
 10
41.443199999999997
 20
63.613599999999998
 30
0.0
 10
41.443199999999997
 20
63.613599999999998
 30
0.0
 10
38.364100000000001
 20
59.947800000000001
 30
0.0
 10
38.364100000000001
 20
59.947800000000001
 30
0.0
 10
38.364100000000001
 20
59.947800000000001
 30
0.0
 10
38.364100000000001
 20
59.947800000000001
 30
0.0
 10
44.270899999999997
 20
61.7408
 30
0.0
 10
44.270899999999997
 20
61.7408
 30
0.0
 10
44.270899999999997
 20
61.7408
 30
0.0
 10
44.270899999999997
 20
61.7408
 30
0.0
 10
45.491199999999999
 20
55.689999999999998
 30
0.0
 10
45.491199999999999
 20
55.689999999999998
 30
0.0
 10
45.491199999999999
 20
55.689999999999998
 30
0.0
 10
45.491199999999999
 20
55.689999999999998
 30
0.0
 10
47.772100000000002
 20
61.4255
 30
0.0
 10
47.772100000000002
 20
61.4255
 30
0.0
 10
47.772100000000002
 20
61.4255
 30
0.0
 10
47.772100000000002
 20
61.4255
 30
0.0
 10
51.469900000000003
 20
59.527500000000003
 30
0.0
 10
51.469900000000003
 20
59.527500000000003
 30
0.0
  0
SPLINE
  5
3A
100
AcDbEntity
  8
RÚteg 1
 62
     7
100
AcDbSpline
210
0.0
220
0.0
230
1.0
 70
     1
 71
     3
 72
    20
 73
    16
 74
     0
 42
0.0000000001
 43
0.0000000001
 40
0.0
 40
0.0
 40
0.0
 40
0.0
 40
0.25
 40
0.25
 40
0.25
 40
0.25
 40
0.5
 40
0.5
 40
0.5
 40
0.5
 40
0.75
 40
0.75
 40
0.75
 40
0.75
 40
1.0
 40
1.0
 40
1.0
 40
1.0
 10
27.054099999999998
 20
41.434800000000003
 30
0.0
 10
25.767199999999999
 20
41.272199999999998
 30
0.0
 10
24.4559
 20
41.188000000000002
 30
0.0
 10
23.125
 20
41.188000000000002
 30
0.0
 10
23.125
 20
41.188000000000002
 30
0.0
 10
22.296199999999999
 20
41.188000000000002
 30
0.0
 10
21.4754
 20
41.221499999999999
 30
0.0
 10
20.6632
 20
41.285200000000003
 30
0.0
 10
20.6632
 20
41.285200000000003
 30
0.0
 10
20.6632
 20
41.285200000000003
 30
0.0
 10
23.926500000000001
 20
44.876600000000003
 30
0.0
 10
23.926500000000001
 20
44.876600000000003
 30
0.0
 10
23.926500000000001
 20
44.876600000000003
 30
0.0
 10
23.926500000000001
 20
44.876600000000003
 30
0.0
 10
27.054099999999998
 20
41.434800000000003
 30
0.0
 10
27.054099999999998
 20
41.434800000000003
 30
0.0
  0
SPLINE
  5
3B
100
AcDbEntity
  8
RÚteg 1
 62
     7
100
AcDbSpline
210
0.0
220
0.0
230
1.0
 70
     1
 71
     3
 72
   136
 73
   132
 74
     0
 42
0.0000000001
 43
0.0000000001
 40
0.0
 40
0.0
 40
0.0
 40
0.0
 40
0.0303030303030303
 40
0.0303030303030303
 40
0.0303030303030303
 40
0.0303030303030303
 40
0.0606060606060606
 40
0.0606060606060606
 40
0.0606060606060606
 40
0.0606060606060606
 40
0.0909090909090909
 40
0.0909090909090909
 40
0.0909090909090909
 40
0.0909090909090909
 40
0.1212121212121212
 40
0.1212121212121212
 40
0.1212121212121212
 40
0.1212121212121212
 40
0.1515151515151515
 40
0.1515151515151515
 40
0.1515151515151515
 40
0.1515151515151515
 40
0.1818181818181818
 40
0.1818181818181818
 40
0.1818181818181818
 40
0.1818181818181818
 40
0.2121212121212121
 40
0.2121212121212121
 40
0.2121212121212121
 40
0.2121212121212121
 40
0.2424242424242424
 40
0.2424242424242424
 40
0.2424242424242424
 40
0.2424242424242424
 40
0.2727272727272727
 40
0.2727272727272727
 40
0.2727272727272727
 40
0.2727272727272727
 40
0.303030303030303
 40
0.303030303030303
 40
0.303030303030303
 40
0.303030303030303
 40
0.3333333333333333
 40
0.3333333333333333
 40
0.3333333333333333
 40
0.3333333333333333
 40
0.3636363636363635
 40
0.3636363636363635
 40
0.3636363636363635
 40
0.3636363636363635
 40
0.3939393939393938
 40
0.3939393939393938
 40
0.3939393939393938
 40
0.3939393939393938
 40
0.4242424242424241
 40
0.4242424242424241
 40
0.4242424242424241
 40
0.4242424242424241
 40
0.4545454545454544
 40
0.4545454545454544
 40
0.4545454545454544
 40
0.4545454545454544
 40
0.4848484848484846
 40
0.4848484848484846
 40
0.4848484848484846
 40
0.4848484848484846
 40
0.5151515151515149
 40
0.5151515151515149
 40
0.5151515151515149
 40
0.5151515151515149
 40
0.5454545454545452
 40
0.5454545454545452
 40
0.5454545454545452
 40
0.5454545454545452
 40
0.5757575757575755
 40
0.5757575757575755
 40
0.5757575757575755
 40
0.5757575757575755
 40
0.6060606060606057
 40
0.6060606060606057
 40
0.6060606060606057
 40
0.6060606060606057
 40
0.636363636363636
 40
0.636363636363636
 40
0.636363636363636
 40
0.636363636363636
 40
0.6666666666666663
 40
0.6666666666666663
 40
0.6666666666666663
 40
0.6666666666666663
 40
0.6969696969696966
 40
0.6969696969696966
 40
0.6969696969696966
 40
0.6969696969696966
 40
0.7272727272727269
 40
0.7272727272727269
 40
0.7272727272727269
 40
0.7272727272727269
 40
0.7575757575757571
 40
0.7575757575757571
 40
0.7575757575757571
 40
0.7575757575757571
 40
0.7878787878787874
 40
0.7878787878787874
 40
0.7878787878787874
 40
0.7878787878787874
 40
0.8181818181818177
 40
0.8181818181818177
 40
0.8181818181818177
 40
0.8181818181818177
 40
0.848484848484848
 40
0.848484848484848
 40
0.848484848484848
 40
0.848484848484848
 40
0.8787878787878782
 40
0.8787878787878782
 40
0.8787878787878782
 40
0.8787878787878782
 40
0.9090909090909085
 40
0.9090909090909085
 40
0.9090909090909085
 40
0.9090909090909085
 40
0.9393939393939388
 40
0.9393939393939388
 40
0.9393939393939388
 40
0.9393939393939388
 40
0.9696969696969691
 40
0.9696969696969691
 40
0.9696969696969691
 40
0.9696969696969691
 40
1.0
 40
1.0
 40
1.0
 40
1.0
 10
19.9437
 20
41.348999999999997
 30
0.0
 10
8.9534000000000002
 20
42.467799999999997
 30
0.0
 10
-0.344
 20
49.318399999999997
 30
0.0
 10
-4.9114000000000004
 20
58.863
 30
0.0
 10
-4.9114000000000004
 20
58.863
 30
0.0
 10
-4.9114000000000004
 20
58.863
 30
0.0
 10
0.0812
 20
61.4255
 30
0.0
 10
0.0812
 20
61.4255
 30
0.0
 10
0.0812
 20
61.4255
 30
0.0
 10
0.0812
 20
61.4255
 30
0.0
 10
2.3620000000000001
 20
55.689999999999998
 30
0.0
 10
2.3620000000000001
 20
55.689999999999998
 30
0.0
 10
2.3620000000000001
 20
55.689999999999998
 30
0.0
 10
2.3620000000000001
 20
55.689999999999998
 30
0.0
 10
3.5825
 20
61.7408
 30
0.0
 10
3.5825
 20
61.7408
 30
0.0
 10
3.5825
 20
61.7408
 30
0.0
 10
3.5825
 20
61.7408
 30
0.0
 10
9.4891000000000005
 20
59.947800000000001
 30
0.0
 10
9.4891000000000005
 20
59.947800000000001
 30
0.0
 10
9.4891000000000005
 20
59.947800000000001
 30
0.0
 10
9.4891000000000005
 20
59.947800000000001
 30
0.0
 10
6.4100999999999999
 20
63.613599999999998
 30
0.0
 10
6.4100999999999999
 20
63.613599999999998
 30
0.0
 10
6.4100999999999999
 20
63.613599999999998
 30
0.0
 10
6.4100999999999999
 20
63.613599999999998
 30
0.0
 10
10.1297
 20
65.522900000000007
 30
0.0
 10
10.1297
 20
65.522900000000007
 30
0.0
 10
10.1297
 20
65.522900000000007
 30
0.0
 10
10.1297
 20
65.522900000000007
 30
0.0
 10
11.840400000000001
 20
61.221299999999999
 30
0.0
 10
11.840400000000001
 20
61.221299999999999
 30
0.0
 10
11.840400000000001
 20
61.221299999999999
 30
0.0
 10
11.840400000000001
 20
61.221299999999999
 30
0.0
 10
12.755699999999999
 20
65.759500000000003
 30
0.0
 10
12.755699999999999
 20
65.759500000000003
 30
0.0
 10
12.755699999999999
 20
65.759500000000003
 30
0.0
 10
12.755699999999999
 20
65.759500000000003
 30
0.0
 10
17.185199999999998
 20
64.4148
 30
0.0
 10
17.185199999999998
 20
64.4148
 30
0.0
 10
17.185199999999998
 20
64.4148
 30
0.0
 10
17.185199999999998
 20
64.4148
 30
0.0
 10
14.208
 20
67.959199999999996
 30
0.0
 10
14.208
 20
67.959199999999996
 30
0.0
 10
14.208
 20
67.959199999999996
 30
0.0
 10
14.208
 20
67.959199999999996
 30
0.0
 10
16.169
 20
69.309600000000003
 30
0.0
 10
16.169
 20
69.309600000000003
 30
0.0
 10
16.169
 20
69.309600000000003
 30
0.0
 10
16.169
 20
69.309600000000003
 30
0.0
 10
14.9194
 20
67.121600000000001
 30
0.0
 10
14.9194
 20
67.121600000000001
 30
0.0
 10
14.9194
 20
67.121600000000001
 30
0.0
 10
14.9194
 20
67.121600000000001
 30
0.0
 10
18.008099999999999
 20
68.706999999999994
 30
0.0
 10
18.008099999999999
 20
68.706999999999994
 30
0.0
 10
18.008099999999999
 20
68.706999999999994
 30
0.0
 10
18.008099999999999
 20
68.706999999999994
 30
0.0
 10
19.035
 20
66.124499999999998
 30
0.0
 10
19.035
 20
66.124499999999998
 30
0.0
 10
19.035
 20
66.124499999999998
 30
0.0
 10
19.035
 20
66.124499999999998
 30
0.0
 10
18.680399999999999
 20
65.924599999999998
 30
0.0
 10
18.680399999999999
 20
65.924599999999998
 30
0.0
 10
18.680399999999999
 20
65.924599999999998
 30
0.0
 10
18.680399999999999
 20
65.924599999999998
 30
0.0
 10
19.1265
 20
65.896299999999997
 30
0.0
 10
19.1265
 20
65.896299999999997
 30
0.0
 10
19.1265
 20
65.896299999999997
 30
0.0
 10
19.1265
 20
65.896299999999997
 30
0.0
 10
19.2912
 20
65.480900000000005
 30
0.0
 10
19.2912
 20
65.480900000000005
 30
0.0
 10
19.2912
 20
65.480900000000005
 30
0.0
 10
19.2912
 20
65.480900000000005
 30
0.0
 10
19.3719
 20
65.879999999999995
 30
0.0
 10
19.3719
 20
65.879999999999995
 30
0.0
 10
19.3719
 20
65.879999999999995
 30
0.0
 10
19.3719
 20
65.879999999999995
 30
0.0
 10
22.1447
 20
65.701400000000007
 30
0.0
 10
22.1447
 20
65.701400000000007
 30
0.0
 10
22.1447
 20
65.701400000000007
 30
0.0
 10
22.1447
 20
65.701400000000007
 30
0.0
 10
21.591799999999999
 20
62.273400000000002
 30
0.0
 10
21.591799999999999
 20
62.273400000000002
 30
0.0
 10
21.591799999999999
 20
62.273400000000002
 30
0.0
 10
21.591799999999999
 20
62.273400000000002
 30
0.0
 10
23.2865
 20
64.139200000000002
 30
0.0
 10
23.2865
 20
64.139200000000002
 30
0.0
 10
23.2865
 20
64.139200000000002
 30
0.0
 10
23.2865
 20
64.139200000000002
 30
0.0
 10
22.6084
 20
61.856200000000001
 30
0.0
 10
22.6084
 20
61.856200000000001
 30
0.0
 10
22.6084
 20
61.856200000000001
 30
0.0
 10
22.6084
 20
61.856200000000001
 30
0.0
 10
18.316700000000001
 20
63.591999999999999
 30
0.0
 10
18.316700000000001
 20
63.591999999999999
 30
0.0
 10
18.316700000000001
 20
63.591999999999999
 30
0.0
 10
18.316700000000001
 20
63.591999999999999
 30
0.0
 10
20.964400000000001
 20
59.795200000000001
 30
0.0
 10
20.964400000000001
 20
59.795200000000001
 30
0.0
 10
20.964400000000001
 20
59.795200000000001
 30
0.0
 10
20.964400000000001
 20
59.795200000000001
 30
0.0
 10
16.9316
 20
57.522500000000001
 30
0.0
 10
16.9316
 20
57.522500000000001
 30
0.0
 10
16.9316
 20
57.522500000000001
 30
0.0
 10
16.9316
 20
57.522500000000001
 30
0.0
 10
21.5518
 20
57.224699999999999
 30
0.0
 10
21.5518
 20
57.224699999999999
 30
0.0
 10
21.5518
 20
57.224699999999999
 30
0.0
 10
21.5518
 20
57.224699999999999
 30
0.0
 10
20.884899999999998
 20
53.097000000000001
 30
0.0
 10
20.884899999999998
 20
53.097000000000001
 30
0.0
 10
20.884899999999998
 20
53.097000000000001
 30
0.0
 10
20.884899999999998
 20
53.097000000000001
 30
0.0
 10
16.446999999999999
 20
54.892299999999999
 30
0.0
 10
16.446999999999999
 20
54.892299999999999
 30
0.0
 10
16.446999999999999
 20
54.892299999999999
 30
0.0
 10
16.446999999999999
 20
54.892299999999999
 30
0.0
 10
19.9773
 20
49.8292
 30
0.0
 10
19.9773
 20
49.8292
 30
0.0
 10
19.9773
 20
49.8292
 30
0.0
 10
19.9773
 20
49.8292
 30
0.0
 10
14.5998
 20
46.798900000000003
 30
0.0
 10
14.5998
 20
46.798900000000003
 30
0.0
 10
14.5998
 20
46.798900000000003
 30
0.0
 10
14.5998
 20
46.798900000000003
 30
0.0
 10
20.759599999999999
 20
46.402000000000001
 30
0.0
 10
20.759599999999999
 20
46.402000000000001
 30
0.0
 10
20.759599999999999
 20
46.402000000000001
 30
0.0
 10
20.759599999999999
 20
46.402000000000001
 30
0.0
 10
19.9437
 20
41.348999999999997
 30
0.0
 10
19.9437
 20
41.348999999999997
 30
0.0
  0
SPLINE
  5
3C
100
AcDbEntity
  8
RÚteg 1
 62
     7
100
AcDbSpline
210
0.0
220
0.0
230
1.0
 70
     1
 71
     3
 72
    16
 73
    12
 74
     0
 42
0.0000000001
 43
0.0000000001
 40
0.0
 40
0.0
 40
0.0
 40
0.0
 40
0.3333333333333333
 40
0.3333333333333333
 40
0.3333333333333333
 40
0.3333333333333333
 40
0.6666666666666666
 40
0.6666666666666666
 40
0.6666666666666666
 40
0.6666666666666666
 40
1.0
 40
1.0
 40
1.0
 40
1.0
 10
-5.0697000000000001
 20
59.202500000000001
 30
0.0
 10
-6.0952000000000002
 20
61.413600000000002
 30
0.0
 10
-6.8677000000000001
 20
63.765599999999999
 30
0.0
 10
-7.3514999999999997
 20
66.2209
 30
0.0
 10
-7.3514999999999997
 20
66.2209
 30
0.0
 10
-7.3514999999999997
 20
66.2209
 30
0.0
 10
-2.3481000000000001
 20
63.966299999999997
 30
0.0
 10
-2.3481000000000001
 20
63.966299999999997
 30
0.0
 10
-2.3481000000000001
 20
63.966299999999997
 30
0.0
 10
-2.3481000000000001
 20
63.966299999999997
 30
0.0
 10
-5.0697000000000001
 20
59.202500000000001
 30
0.0
 10
-5.0697000000000001
 20
59.202500000000001
 30
0.0
  0
SPLINE
  5
3D
100
AcDbEntity
  8
RÚteg 1
 62
     7
100
AcDbSpline
210
0.0
220
0.0
230
1.0
 70
     1
 71
     3
 72
   140
 73
   136
 74
     0
 42
0.0000000001
 43
0.0000000001
 40
0.0
 40
0.0
 40
0.0
 40
0.0
 40
0.0294117647058824
 40
0.0294117647058824
 40
0.0294117647058824
 40
0.0294117647058824
 40
0.0588235294117647
 40
0.0588235294117647
 40
0.0588235294117647
 40
0.0588235294117647
 40
0.0882352941176471
 40
0.0882352941176471
 40
0.0882352941176471
 40
0.0882352941176471
 40
0.1176470588235294
 40
0.1176470588235294
 40
0.1176470588235294
 40
0.1176470588235294
 40
0.1470588235294118
 40
0.1470588235294118
 40
0.1470588235294118
 40
0.1470588235294118
 40
0.1764705882352941
 40
0.1764705882352941
 40
0.1764705882352941
 40
0.1764705882352941
 40
0.2058823529411765
 40
0.2058823529411765
 40
0.2058823529411765
 40
0.2058823529411765
 40
0.2352941176470589
 40
0.2352941176470589
 40
0.2352941176470589
 40
0.2352941176470589
 40
0.2647058823529412
 40
0.2647058823529412
 40
0.2647058823529412
 40
0.2647058823529412
 40
0.2941176470588235
 40
0.2941176470588235
 40
0.2941176470588235
 40
0.2941176470588235
 40
0.3235294117647059
 40
0.3235294117647059
 40
0.3235294117647059
 40
0.3235294117647059
 40
0.3529411764705883
 40
0.3529411764705883
 40
0.3529411764705883
 40
0.3529411764705883
 40
0.3823529411764706
 40
0.3823529411764706
 40
0.3823529411764706
 40
0.3823529411764706
 40
0.411764705882353
 40
0.411764705882353
 40
0.411764705882353
 40
0.411764705882353
 40
0.4411764705882353
 40
0.4411764705882353
 40
0.4411764705882353
 40
0.4411764705882353
 40
0.4705882352941177
 40
0.4705882352941177
 40
0.4705882352941177
 40
0.4705882352941177
 40
0.5
 40
0.5
 40
0.5
 40
0.5
 40
0.5294117647058824
 40
0.5294117647058824
 40
0.5294117647058824
 40
0.5294117647058824
 40
0.5588235294117647
 40
0.5588235294117647
 40
0.5588235294117647
 40
0.5588235294117647
 40
0.5882352941176471
 40
0.5882352941176471
 40
0.5882352941176471
 40
0.5882352941176471
 40
0.6176470588235294
 40
0.6176470588235294
 40
0.6176470588235294
 40
0.6176470588235294
 40
0.6470588235294118
 40
0.6470588235294118
 40
0.6470588235294118
 40
0.6470588235294118
 40
0.6764705882352942
 40
0.6764705882352942
 40
0.6764705882352942
 40
0.6764705882352942
 40
0.7058823529411765
 40
0.7058823529411765
 40
0.7058823529411765
 40
0.7058823529411765
 40
0.7352941176470589
 40
0.7352941176470589
 40
0.7352941176470589
 40
0.7352941176470589
 40
0.7647058823529412
 40
0.7647058823529412
 40
0.7647058823529412
 40
0.7647058823529412
 40
0.7941176470588236
 40
0.7941176470588236
 40
0.7941176470588236
 40
0.7941176470588236
 40
0.823529411764706
 40
0.823529411764706
 40
0.823529411764706
 40
0.823529411764706
 40
0.8529411764705883
 40
0.8529411764705883
 40
0.8529411764705883
 40
0.8529411764705883
 40
0.8823529411764707
 40
0.8823529411764707
 40
0.8823529411764707
 40
0.8823529411764707
 40
0.911764705882353
 40
0.911764705882353
 40
0.911764705882353
 40
0.911764705882353
 40
0.9411764705882354
 40
0.9411764705882354
 40
0.9411764705882354
 40
0.9411764705882354
 40
0.9705882352941178
 40
0.9705882352941178
 40
0.9705882352941178
 40
0.9705882352941178
 40
1.0
 40
1.0
 40
1.0
 40
1.0
 10
-7.4221000000000004
 20
66.587999999999994
 30
0.0
 10
-7.7610999999999999
 20
68.424499999999995
 30
0.0
 10
-7.9390999999999998
 20
70.317700000000002
 30
0.0
 10
-7.9390999999999998
 20
72.252200000000002
 30
0.0
 10
-7.9390999999999998
 20
72.252200000000002
 30
0.0
 10
-7.9390999999999998
 20
81.434700000000007
 30
0.0
 10
-3.9514999999999998
 20
89.686800000000005
 30
0.0
 10
2.3847999999999998
 20
95.374099999999999
 30
0.0
 10
2.3847999999999998
 20
95.374099999999999
 30
0.0
 10
2.3847999999999998
 20
95.374099999999999
 30
0.0
 10
6.0221
 20
91.757800000000003
 30
0.0
 10
6.0221
 20
91.757800000000003
 30
0.0
 10
6.0221
 20
91.757800000000003
 30
0.0
 10
6.0221
 20
91.757800000000003
 30
0.0
 10
1.2724
 20
87.816900000000004
 30
0.0
 10
1.2724
 20
87.816900000000004
 30
0.0
 10
1.2724
 20
87.816900000000004
 30
0.0
 10
1.2724
 20
87.816900000000004
 30
0.0
 10
7.4038000000000004
 20
88.525800000000004
 30
0.0
 10
7.4038000000000004
 20
88.525800000000004
 30
0.0
 10
7.4038000000000004
 20
88.525800000000004
 30
0.0
 10
7.4038000000000004
 20
88.525800000000004
 30
0.0
 10
7.524
 20
82.355000000000004
 30
0.0
 10
7.524
 20
82.355000000000004
 30
0.0
 10
7.524
 20
82.355000000000004
 30
0.0
 10
7.524
 20
82.355000000000004
 30
0.0
 10
10.0589
 20
86.415599999999998
 30
0.0
 10
10.0589
 20
86.415599999999998
 30
0.0
 10
10.0589
 20
86.415599999999998
 30
0.0
 10
10.0589
 20
86.415599999999998
 30
0.0
 10
13.0245
 20
83.467500000000001
 30
0.0
 10
13.0245
 20
83.467500000000001
 30
0.0
 10
13.0245
 20
83.467500000000001
 30
0.0
 10
13.0245
 20
83.467500000000001
 30
0.0
 10
9.4618000000000002
 20
80.512
 30
0.0
 10
9.4618000000000002
 20
80.512
 30
0.0
 10
9.4618000000000002
 20
80.512
 30
0.0
 10
9.4618000000000002
 20
80.512
 30
0.0
 10
14.0602
 20
81.043300000000002
 30
0.0
 10
14.0602
 20
81.043300000000002
 30
0.0
 10
14.0602
 20
81.043300000000002
 30
0.0
 10
14.0602
 20
81.043300000000002
 30
0.0
 10
14.150700000000001
 20
76.415000000000006
 30
0.0
 10
14.150700000000001
 20
76.415000000000006
 30
0.0
 10
14.150700000000001
 20
76.415000000000006
 30
0.0
 10
14.150700000000001
 20
76.415000000000006
 30
0.0
 10
16.601600000000001
 20
80.342299999999994
 30
0.0
 10
16.601600000000001
 20
80.342299999999994
 30
0.0
 10
16.601600000000001
 20
80.342299999999994
 30
0.0
 10
16.601600000000001
 20
80.342299999999994
 30
0.0
 10
18.4925
 20
78.893699999999995
 30
0.0
 10
18.4925
 20
78.893699999999995
 30
0.0
 10
18.4925
 20
78.893699999999995
 30
0.0
 10
18.4925
 20
78.893699999999995
 30
0.0
 10
16.024899999999999
 20
79.406700000000001
 30
0.0
 10
16.024899999999999
 20
79.406700000000001
 30
0.0
 10
16.024899999999999
 20
79.406700000000001
 30
0.0
 10
16.024899999999999
 20
79.406700000000001
 30
0.0
 10
18.487300000000001
 20
76.959299999999999
 30
0.0
 10
18.487300000000001
 20
76.959299999999999
 30
0.0
 10
18.487300000000001
 20
76.959299999999999
 30
0.0
 10
18.487300000000001
 20
76.959299999999999
 30
0.0
 10
16.348700000000001
 20
75.184200000000004
 30
0.0
 10
16.348700000000001
 20
75.184200000000004
 30
0.0
 10
16.348700000000001
 20
75.184200000000004
 30
0.0
 10
16.348700000000001
 20
75.184200000000004
 30
0.0
 10
16.0487
 20
75.460400000000007
 30
0.0
 10
16.0487
 20
75.460400000000007
 30
0.0
 10
16.0487
 20
75.460400000000007
 30
0.0
 10
16.0487
 20
75.460400000000007
 30
0.0
 10
16.159400000000002
 20
75.027100000000004
 30
0.0
 10
16.159400000000002
 20
75.027100000000004
 30
0.0
 10
16.159400000000002
 20
75.027100000000004
 30
0.0
 10
16.159400000000002
 20
75.027100000000004
 30
0.0
 10
15.815899999999999
 20
74.742199999999997
 30
0.0
 10
15.815899999999999
 20
74.742199999999997
 30
0.0
 10
15.815899999999999
 20
74.742199999999997
 30
0.0
 10
15.815899999999999
 20
74.742199999999997
 30
0.0
 10
16.220400000000001
 20
74.788499999999999
 30
0.0
 10
16.220400000000001
 20
74.788499999999999
 30
0.0
 10
16.220400000000001
 20
74.788499999999999
 30
0.0
 10
16.220400000000001
 20
74.788499999999999
 30
0.0
 10
16.907
 20
72.096000000000004
 30
0.0
 10
16.907
 20
72.096000000000004
 30
0.0
 10
16.907
 20
72.096000000000004
 30
0.0
 10
16.907
 20
72.096000000000004
 30
0.0
 10
13.476100000000001
 20
71.562700000000007
 30
0.0
 10
13.476100000000001
 20
71.562700000000007
 30
0.0
 10
13.476100000000001
 20
71.562700000000007
 30
0.0
 10
13.476100000000001
 20
71.562700000000007
 30
0.0
 10
15.773899999999999
 20
70.527500000000003
 30
0.0
 10
15.773899999999999
 20
70.527500000000003
 30
0.0
 10
15.773899999999999
 20
70.527500000000003
 30
0.0
 10
15.773899999999999
 20
70.527500000000003
 30
0.0
 10
13.3935
 20
70.466999999999999
 30
0.0
 10
13.3935
 20
70.466999999999999
 30
0.0
 10
13.3935
 20
70.466999999999999
 30
0.0
 10
13.3935
 20
70.466999999999999
 30
0.0
 10
13.7181
 20
75.084500000000006
 30
0.0
 10
13.7181
 20
75.084500000000006
 30
0.0
 10
13.7181
 20
75.084500000000006
 30
0.0
 10
13.7181
 20
75.084500000000006
 30
0.0
 10
10.9252
 20
71.393199999999993
 30
0.0
 10
10.9252
 20
71.393199999999993
 30
0.0
 10
10.9252
 20
71.393199999999993
 30
0.0
 10
10.9252
 20
71.393199999999993
 30
0.0
 10
7.5172999999999996
 20
74.526600000000002
 30
0.0
 10
7.5172999999999996
 20
74.526600000000002
 30
0.0
 10
7.5172999999999996
 20
74.526600000000002
 30
0.0
 10
7.5172999999999996
 20
74.526600000000002
 30
0.0
 10
8.6615000000000002
 20
70.040899999999993
 30
0.0
 10
8.6615000000000002
 20
70.040899999999993
 30
0.0
 10
8.6615000000000002
 20
70.040899999999993
 30
0.0
 10
8.6615000000000002
 20
70.040899999999993
 30
0.0
 10
4.5301999999999998
 20
69.399199999999993
 30
0.0
 10
4.5301999999999998
 20
69.399199999999993
 30
0.0
 10
4.5301999999999998
 20
69.399199999999993
 30
0.0
 10
4.5301999999999998
 20
69.399199999999993
 30
0.0
 10
4.8661000000000003
 20
74.174599999999998
 30
0.0
 10
4.8661000000000003
 20
74.174599999999998
 30
0.0
 10
4.8661000000000003
 20
74.174599999999998
 30
0.0
 10
4.8661000000000003
 20
74.174599999999998
 30
0.0
 10
1.1415999999999999
 20
69.252799999999993
 30
0.0
 10
1.1415999999999999
 20
69.252799999999993
 30
0.0
 10
1.1415999999999999
 20
69.252799999999993
 30
0.0
 10
1.1415999999999999
 20
69.252799999999993
 30
0.0
 10
-3.4018999999999999
 20
73.430400000000006
 30
0.0
 10
-3.4018999999999999
 20
73.430400000000006
 30
0.0
 10
-3.4018999999999999
 20
73.430400000000006
 30
0.0
 10
-3.4018999999999999
 20
73.430400000000006
 30
0.0
 10
-1.8756999999999999
 20
67.449799999999996
 30
0.0
 10
-1.8756999999999999
 20
67.449799999999996
 30
0.0
 10
-1.8756999999999999
 20
67.449799999999996
 30
0.0
 10
-1.8756999999999999
 20
67.449799999999996
 30
0.0
 10
-7.4221000000000004
 20
66.587999999999994
 30
0.0
 10
-7.4221000000000004
 20
66.587999999999994
 30
0.0
  0
SPLINE
  5
3E
100
AcDbEntity
  8
RÚteg 1
 62
     7
100
AcDbSpline
210
0.0
220
0.0
230
1.0
 70
     1
 71
     3
 72
    16
 73
    12
 74
     0
 42
0.0000000001
 43
0.0000000001
 40
0.0
 40
0.0
 40
0.0
 40
0.0
 40
0.3333333333333333
 40
0.3333333333333333
 40
0.3333333333333333
 40
0.3333333333333333
 40
0.6666666666666666
 40
0.6666666666666666
 40
0.6666666666666666
 40
0.6666666666666666
 40
1.0
 40
1.0
 40
1.0
 40
1.0
 10
2.9209000000000001
 20
95.844700000000003
 30
0.0
 10
4.5434000000000001
 20
97.235600000000005
 30
0.0
 10
6.3109999999999999
 20
98.461799999999997
 30
0.0
 10
8.1974999999999998
 20
99.498000000000005
 30
0.0
 10
8.1974999999999998
 20
99.498000000000005
 30
0.0
 10
8.1974999999999998
 20
99.498000000000005
 30
0.0
 10
7.6882999999999999
 20
94.853999999999999
 30
0.0
 10
7.6882999999999999
 20
94.853999999999999
 30
0.0
 10
7.6882999999999999
 20
94.853999999999999
 30
0.0
 10
7.6882999999999999
 20
94.853999999999999
 30
0.0
 10
2.9209000000000001
 20
95.844700000000003
 30
0.0
 10
2.9209000000000001
 20
95.844700000000003
 30
0.0
  0
SPLINE
  5
3F
100
AcDbEntity
  8
RÚteg 1
 62
     7
100
AcDbSpline
210
0.0
220
0.0
230
1.0
 70
     1
 71
     3
 72
    16
 73
    12
 74
     0
 42
0.0000000001
 43
0.0000000001
 40
0.0
 40
0.0
 40
0.0
 40
0.0
 40
0.3333333333333333
 40
0.3333333333333333
 40
0.3333333333333333
 40
0.3333333333333333
 40
0.6666666666666666
 40
0.6666666666666666
 40
0.6666666666666666
 40
0.6666666666666666
 40
1.0
 40
1.0
 40
1.0
 40
1.0
 10
7.5220000000000002
 20
66.052800000000005
 30
0.0
 10
7.5220000000000002
 20
66.052800000000005
 30
0.0
 10
5.5189000000000004
 20
64.674400000000006
 30
0.0
 10
5.5189000000000004
 20
64.674400000000006
 30
0.0
 10
5.5189000000000004
 20
64.674400000000006
 30
0.0
 10
5.5189000000000004
 20
64.674400000000006
 30
0.0
 10
6.2422000000000004
 20
63.813400000000001
 30
0.0
 10
6.2422000000000004
 20
63.813400000000001
 30
0.0
 10
6.2422000000000004
 20
63.813400000000001
 30
0.0
 10
6.2422000000000004
 20
63.813400000000001
 30
0.0
 10
7.5220000000000002
 20
66.052800000000005
 30
0.0
 10
7.5220000000000002
 20
66.052800000000005
 30
0.0
  0
SPLINE
  5
40
100
AcDbEntity
  8
RÚteg 1
 62
     7
100
AcDbSpline
210
0.0
220
0.0
230
1.0
 70
     1
 71
     3
 72
    20
 73
    16
 74
     0
 42
0.0000000001
 43
0.0000000001
 40
0.0
 40
0.0
 40
0.0
 40
0.0
 40
0.25
 40
0.25
 40
0.25
 40
0.25
 40
0.5
 40
0.5
 40
0.5
 40
0.5
 40
0.75
 40
0.75
 40
0.75
 40
0.75
 40
1.0
 40
1.0
 40
1.0
 40
1.0
 10
21.059200000000001
 20
68.555999999999997
 30
0.0
 10
21.059200000000001
 20
68.555999999999997
 30
0.0
 10
19.977499999999999
 20
68.884699999999995
 30
0.0
 10
19.977499999999999
 20
68.884699999999995
 30
0.0
 10
19.977499999999999
 20
68.884699999999995
 30
0.0
 10
19.977499999999999
 20
68.884699999999995
 30
0.0
 10
19.470700000000001
 20
66.370599999999996
 30
0.0
 10
19.470700000000001
 20
66.370599999999996
 30
0.0
 10
19.470700000000001
 20
66.370599999999996
 30
0.0
 10
19.470700000000001
 20
66.370599999999996
 30
0.0
 10
21.705300000000001
 20
67.629400000000004
 30
0.0
 10
21.705300000000001
 20
67.629400000000004
 30
0.0
 10
21.705300000000001
 20
67.629400000000004
 30
0.0
 10
21.705300000000001
 20
67.629400000000004
 30
0.0
 10
21.059200000000001
 20
68.555999999999997
 30
0.0
 10
21.059200000000001
 20
68.555999999999997
 30
0.0
  0
SPLINE
  5
41
100
AcDbEntity
  8
RÚteg 1
 62
     7
100
AcDbSpline
210
0.0
220
0.0
230
1.0
 70
     1
 71
     3
 72
    20
 73
    16
 74
     0
 42
0.0000000001
 43
0.0000000001
 40
0.0
 40
0.0
 40
0.0
 40
0.0
 40
0.25
 40
0.25
 40
0.25
 40
0.25
 40
0.5
 40
0.5
 40
0.5
 40
0.5
 40
0.75
 40
0.75
 40
0.75
 40
0.75
 40
1.0
 40
1.0
 40
1.0
 40
1.0
 10
16.716899999999999
 20
74.846100000000007
 30
0.0
 10
16.716899999999999
 20
74.846100000000007
 30
0.0
 10
18.604399999999998
 20
73.110100000000003
 30
0.0
 10
18.604399999999998
 20
73.110100000000003
 30
0.0
 10
18.604399999999998
 20
73.110100000000003
 30
0.0
 10
18.604399999999998
 20
73.110100000000003
 30
0.0
 10
19.2864
 20
74.010900000000007
 30
0.0
 10
19.2864
 20
74.010900000000007
 30
0.0
 10
19.2864
 20
74.010900000000007
 30
0.0
 10
19.2864
 20
74.010900000000007
 30
0.0
 10
19.264700000000001
 20
75.140699999999995
 30
0.0
 10
19.264700000000001
 20
75.140699999999995
 30
0.0
 10
19.264700000000001
 20
75.140699999999995
 30
0.0
 10
19.264700000000001
 20
75.140699999999995
 30
0.0
 10
16.716899999999999
 20
74.846100000000007
 30
0.0
 10
16.716899999999999
 20
74.846100000000007
 30
0.0
  0
SPLINE
  5
42
100
AcDbEntity
  8
RÚteg 1
 62
     7
100
AcDbSpline
210
0.0
220
0.0
230
1.0
 70
     1
 71
     3
 72
    16
 73
    12
 74
     0
 42
0.0000000001
 43
0.0000000001
 40
0.0
 40
0.0
 40
0.0
 40
0.0
 40
0.3333333333333333
 40
0.3333333333333333
 40
0.3333333333333333
 40
0.3333333333333333
 40
0.6666666666666666
 40
0.6666666666666666
 40
0.6666666666666666
 40
0.6666666666666666
 40
1.0
 40
1.0
 40
1.0
 40
1.0
 10
4.5118999999999998
 20
69.138999999999996
 30
0.0
 10
4.5118999999999998
 20
69.138999999999996
 30
0.0
 10
4.4329000000000001
 20
68.017399999999995
 30
0.0
 10
4.4329000000000001
 20
68.017399999999995
 30
0.0
 10
4.4329000000000001
 20
68.017399999999995
 30
0.0
 10
4.4329000000000001
 20
68.017399999999995
 30
0.0
 10
6.8635999999999999
 20
68.0792
 30
0.0
 10
6.8635999999999999
 20
68.0792
 30
0.0
 10
6.8635999999999999
 20
68.0792
 30
0.0
 10
6.8635999999999999
 20
68.0792
 30
0.0
 10
4.5118999999999998
 20
69.138999999999996
 30
0.0
 10
4.5118999999999998
 20
69.138999999999996
 30
0.0
  0
SPLINE
  5
43
100
AcDbEntity
  8
RÚteg 1
 62
     7
100
AcDbSpline
210
0.0
220
0.0
230
1.0
 70
     1
 71
     3
 72
    16
 73
    12
 74
     0
 42
0.0000000001
 43
0.0000000001
 40
0.0
 40
0.0
 40
0.0
 40
0.0
 40
0.3333333333333333
 40
0.3333333333333333
 40
0.3333333333333333
 40
0.3333333333333333
 40
0.6666666666666666
 40
0.6666666666666666
 40
0.6666666666666666
 40
0.6666666666666666
 40
1.0
 40
1.0
 40
1.0
 40
1.0
 10
12.723000000000001
 20
86.111900000000006
 30
0.0
 10
12.723000000000001
 20
86.111900000000006
 30
0.0
 10
10.7927
 20
87.590599999999995
 30
0.0
 10
10.7927
 20
87.590599999999995
 30
0.0
 10
10.7927
 20
87.590599999999995
 30
0.0
 10
10.7927
 20
87.590599999999995
 30
0.0
 10
10.1972
 20
86.636700000000005
 30
0.0
 10
10.1972
 20
86.636700000000005
 30
0.0
 10
10.1972
 20
86.636700000000005
 30
0.0
 10
10.1972
 20
86.636700000000005
 30
0.0
 10
12.723000000000001
 20
86.111900000000006
 30
0.0
 10
12.723000000000001
 20
86.111900000000006
 30
0.0
  0
SPLINE
  5
44
100
AcDbEntity
  8
RÚteg 1
 62
     7
100
AcDbSpline
210
0.0
220
0.0
230
1.0
 70
     1
 71
     3
 72
    20
 73
    16
 74
     0
 42
0.0000000001
 43
0.0000000001
 40
0.0
 40
0.0
 40
0.0
 40
0.0
 40
0.25
 40
0.25
 40
0.25
 40
0.25
 40
0.5
 40
0.5
 40
0.5
 40
0.5
 40
0.75
 40
0.75
 40
0.75
 40
0.75
 40
1.0
 40
1.0
 40
1.0
 40
1.0
 10
23.926500000000001
 20
80.084500000000006
 30
0.0
 10
23.926500000000001
 20
80.084500000000006
 30
0.0
 10
22.859200000000001
 20
77.751999999999995
 30
0.0
 10
22.859200000000001
 20
77.751999999999995
 30
0.0
 10
22.859200000000001
 20
77.751999999999995
 30
0.0
 10
22.859200000000001
 20
77.751999999999995
 30
0.0
 10
23.9268
 20
77.382099999999994
 30
0.0
 10
23.9268
 20
77.382099999999994
 30
0.0
 10
23.9268
 20
77.382099999999994
 30
0.0
 10
23.9268
 20
77.382099999999994
 30
0.0
 10
24.994299999999999
 20
77.751999999999995
 30
0.0
 10
24.994299999999999
 20
77.751999999999995
 30
0.0
 10
24.994299999999999
 20
77.751999999999995
 30
0.0
 10
24.994299999999999
 20
77.751999999999995
 30
0.0
 10
23.926500000000001
 20
80.084500000000006
 30
0.0
 10
23.926500000000001
 20
80.084500000000006
 30
0.0
  0
SPLINE
  5
45
100
AcDbEntity
  8
RÚteg 1
 62
     7
100
AcDbSpline
210
0.0
220
0.0
230
1.0
 70
     1
 71
     3
 72
    16
 73
    12
 74
     0
 42
0.0000000001
 43
0.0000000001
 40
0.0
 40
0.0
 40
0.0
 40
0.0
 40
0.3333333333333333
 40
0.3333333333333333
 40
0.3333333333333333
 40
0.3333333333333333
 40
0.6666666666666666
 40
0.6666666666666666
 40
0.6666666666666666
 40
0.6666666666666666
 40
1.0
 40
1.0
 40
1.0
 40
1.0
 10
14.727399999999999
 20
89.928600000000003
 30
0.0
 10
14.727399999999999
 20
89.928600000000003
 30
0.0
 10
13.6366
 20
89.656999999999996
 30
0.0
 10
13.6366
 20
89.656999999999996
 30
0.0
 10
13.6366
 20
89.656999999999996
 30
0.0
 10
13.6366
 20
89.656999999999996
 30
0.0
 10
14.446400000000001
 20
87.363799999999998
 30
0.0
 10
14.446400000000001
 20
87.363799999999998
 30
0.0
 10
14.446400000000001
 20
87.363799999999998
 30
0.0
 10
14.446400000000001
 20
87.363799999999998
 30
0.0
 10
14.727399999999999
 20
89.928600000000003
 30
0.0
 10
14.727399999999999
 20
89.928600000000003
 30
0.0
  0
SPLINE
  5
46
100
AcDbEntity
  8
RÚteg 1
 62
     7
100
AcDbSpline
210
0.0
220
0.0
230
1.0
 70
     1
 71
     3
 72
    16
 73
    12
 74
     0
 42
0.0000000001
 43
0.0000000001
 40
0.0
 40
0.0
 40
0.0
 40
0.0
 40
0.3333333333333333
 40
0.3333333333333333
 40
0.3333333333333333
 40
0.3333333333333333
 40
0.6666666666666666
 40
0.6666666666666666
 40
0.6666666666666666
 40
0.6666666666666666
 40
1.0
 40
1.0
 40
1.0
 40
1.0
 10
33.406999999999996
 20
87.363799999999998
 30
0.0
 10
33.406999999999996
 20
87.363799999999998
 30
0.0
 10
34.2166
 20
89.656999999999996
 30
0.0
 10
34.2166
 20
89.656999999999996
 30
0.0
 10
34.2166
 20
89.656999999999996
 30
0.0
 10
34.2166
 20
89.656999999999996
 30
0.0
 10
33.126100000000001
 20
89.928600000000003
 30
0.0
 10
33.126100000000001
 20
89.928600000000003
 30
0.0
 10
33.126100000000001
 20
89.928600000000003
 30
0.0
 10
33.126100000000001
 20
89.928600000000003
 30
0.0
 10
33.406999999999996
 20
87.363799999999998
 30
0.0
 10
33.406999999999996
 20
87.363799999999998
 30
0.0
  0
SPLINE
  5
47
100
AcDbEntity
  8
RÚteg 1
 62
     7
100
AcDbSpline
210
0.0
220
0.0
230
1.0
 70
     1
 71
     3
 72
    20
 73
    16
 74
     0
 42
0.0000000001
 43
0.0000000001
 40
0.0
 40
0.0
 40
0.0
 40
0.0
 40
0.25
 40
0.25
 40
0.25
 40
0.25
 40
0.5
 40
0.5
 40
0.5
 40
0.5
 40
0.75
 40
0.75
 40
0.75
 40
0.75
 40
1.0
 40
1.0
 40
1.0
 40
1.0
 10
31.136700000000001
 20
74.846100000000007
 30
0.0
 10
31.136700000000001
 20
74.846100000000007
 30
0.0
 10
28.5885
 20
75.140699999999995
 30
0.0
 10
28.5885
 20
75.140699999999995
 30
0.0
 10
28.5885
 20
75.140699999999995
 30
0.0
 10
28.5885
 20
75.140699999999995
 30
0.0
 10
28.5671
 20
74.0107
 30
0.0
 10
28.5671
 20
74.0107
 30
0.0
 10
28.5671
 20
74.0107
 30
0.0
 10
28.5671
 20
74.0107
 30
0.0
 10
29.248699999999999
 20
73.110100000000003
 30
0.0
 10
29.248699999999999
 20
73.110100000000003
 30
0.0
 10
29.248699999999999
 20
73.110100000000003
 30
0.0
 10
29.248699999999999
 20
73.110100000000003
 30
0.0
 10
31.136700000000001
 20
74.846100000000007
 30
0.0
 10
31.136700000000001
 20
74.846100000000007
 30
0.0
  0
SPLINE
  5
48
100
AcDbEntity
  8
RÚteg 1
 62
     7
100
AcDbSpline
210
0.0
220
0.0
230
1.0
 70
     1
 71
     3
 72
    16
 73
    12
 74
     0
 42
0.0000000001
 43
0.0000000001
 40
0.0
 40
0.0
 40
0.0
 40
0.0
 40
0.3333333333333333
 40
0.3333333333333333
 40
0.3333333333333333
 40
0.3333333333333333
 40
0.6666666666666666
 40
0.6666666666666666
 40
0.6666666666666666
 40
0.6666666666666666
 40
1.0
 40
1.0
 40
1.0
 40
1.0
 10
37.656100000000002
 20
86.636700000000005
 30
0.0
 10
37.656100000000002
 20
86.636700000000005
 30
0.0
 10
37.060499999999998
 20
87.590599999999995
 30
0.0
 10
37.060499999999998
 20
87.590599999999995
 30
0.0
 10
37.060499999999998
 20
87.590599999999995
 30
0.0
 10
37.060499999999998
 20
87.590599999999995
 30
0.0
 10
35.130499999999998
 20
86.111900000000006
 30
0.0
 10
35.130499999999998
 20
86.111900000000006
 30
0.0
 10
35.130499999999998
 20
86.111900000000006
 30
0.0
 10
35.130499999999998
 20
86.111900000000006
 30
0.0
 10
37.656100000000002
 20
86.636700000000005
 30
0.0
 10
37.656100000000002
 20
86.636700000000005
 30
0.0
  0
SPLINE
  5
49
100
AcDbEntity
  8
RÚteg 1
 62
     7
100
AcDbSpline
210
0.0
220
0.0
230
1.0
 70
     1
 71
     3
 72
    16
 73
    12
 74
     0
 42
0.0000000001
 43
0.0000000001
 40
0.0
 40
0.0
 40
0.0
 40
0.0
 40
0.3333333333333333
 40
0.3333333333333333
 40
0.3333333333333333
 40
0.3333333333333333
 40
0.6666666666666666
 40
0.6666666666666666
 40
0.6666666666666666
 40
0.6666666666666666
 40
1.0
 40
1.0
 40
1.0
 40
1.0
 10
40.989699999999999
 20
68.0792
 30
0.0
 10
40.989699999999999
 20
68.0792
 30
0.0
 10
43.420200000000001
 20
68.016999999999996
 30
0.0
 10
43.420200000000001
 20
68.016999999999996
 30
0.0
 10
43.420200000000001
 20
68.016999999999996
 30
0.0
 10
43.420200000000001
 20
68.016999999999996
 30
0.0
 10
43.341500000000003
 20
69.138999999999996
 30
0.0
 10
43.341500000000003
 20
69.138999999999996
 30
0.0
 10
43.341500000000003
 20
69.138999999999996
 30
0.0
 10
43.341500000000003
 20
69.138999999999996
 30
0.0
 10
40.989699999999999
 20
68.0792
 30
0.0
 10
40.989699999999999
 20
68.0792
 30
0.0
  0
SPLINE
  5
4A
100
AcDbEntity
  8
RÚteg 1
 62
     7
100
AcDbSpline
210
0.0
220
0.0
230
1.0
 70
     1
 71
     3
 72
    20
 73
    16
 74
     0
 42
0.0000000001
 43
0.0000000001
 40
0.0
 40
0.0
 40
0.0
 40
0.0
 40
0.25
 40
0.25
 40
0.25
 40
0.25
 40
0.5
 40
0.5
 40
0.5
 40
0.5
 40
0.75
 40
0.75
 40
0.75
 40
0.75
 40
1.0
 40
1.0
 40
1.0
 40
1.0
 10
28.3828
 20
66.370599999999996
 30
0.0
 10
28.3828
 20
66.370599999999996
 30
0.0
 10
27.875699999999998
 20
68.884699999999995
 30
0.0
 10
27.875699999999998
 20
68.884699999999995
 30
0.0
 10
27.875699999999998
 20
68.884699999999995
 30
0.0
 10
27.875699999999998
 20
68.884699999999995
 30
0.0
 10
26.794
 20
68.555999999999997
 30
0.0
 10
26.794
 20
68.555999999999997
 30
0.0
 10
26.794
 20
68.555999999999997
 30
0.0
 10
26.794
 20
68.555999999999997
 30
0.0
 10
26.1479
 20
67.629400000000004
 30
0.0
 10
26.1479
 20
67.629400000000004
 30
0.0
 10
26.1479
 20
67.629400000000004
 30
0.0
 10
26.1479
 20
67.629400000000004
 30
0.0
 10
28.3828
 20
66.370599999999996
 30
0.0
 10
28.3828
 20
66.370599999999996
 30
0.0
  0
SPLINE
  5
4B
100
AcDbEntity
  8
RÚteg 1
 62
     7
100
AcDbSpline
210
0.0
220
0.0
230
1.0
 70
     1
 71
     3
 72
    16
 73
    12
 74
     0
 42
0.0000000001
 43
0.0000000001
 40
0.0
 40
0.0
 40
0.0
 40
0.0
 40
0.3333333333333333
 40
0.3333333333333333
 40
0.3333333333333333
 40
0.3333333333333333
 40
0.6666666666666666
 40
0.6666666666666666
 40
0.6666666666666666
 40
0.6666666666666666
 40
1.0
 40
1.0
 40
1.0
 40
1.0
 10
41.6111
 20
63.813400000000001
 30
0.0
 10
41.6111
 20
63.813400000000001
 30
0.0
 10
42.334299999999999
 20
64.674400000000006
 30
0.0
 10
42.334299999999999
 20
64.674400000000006
 30
0.0
 10
42.334299999999999
 20
64.674400000000006
 30
0.0
 10
42.334299999999999
 20
64.674400000000006
 30
0.0
 10
40.331499999999998
 20
66.052800000000005
 30
0.0
 10
40.331499999999998
 20
66.052800000000005
 30
0.0
 10
40.331499999999998
 20
66.052800000000005
 30
0.0
 10
40.331499999999998
 20
66.052800000000005
 30
0.0
 10
41.6111
 20
63.813400000000001
 30
0.0
 10
41.6111
 20
63.813400000000001
 30
0.0
  0
SPLINE
  5
4C
100
AcDbEntity
  8
RÚteg 1
 62
     7
100
AcDbSpline
210
0.0
220
0.0
230
1.0
 70
     1
 71
     3
 72
    16
 73
    12
 74
     0
 42
0.0000000001
 43
0.0000000001
 40
0.0
 40
0.0
 40
0.0
 40
0.0
 40
0.3333333333333333
 40
0.3333333333333333
 40
0.3333333333333333
 40
0.3333333333333333
 40
0.6666666666666666
 40
0.6666666666666666
 40
0.6666666666666666
 40
0.6666666666666666
 40
1.0
 40
1.0
 40
1.0
 40
1.0
 10
21.1265
 20
52.999299999999998
 30
0.0
 10
21.1265
 20
52.999299999999998
 30
0.0
 10
22.1694
 20
52.577399999999997
 30
0.0
 10
22.1694
 20
52.577399999999997
 30
0.0
 10
22.1694
 20
52.577399999999997
 30
0.0
 10
22.1694
 20
52.577399999999997
 30
0.0
 10
22.861699999999999
 20
54.908200000000001
 30
0.0
 10
22.861699999999999
 20
54.908200000000001
 30
0.0
 10
22.861699999999999
 20
54.908200000000001
 30
0.0
 10
22.861699999999999
 20
54.908200000000001
 30
0.0
 10
21.1265
 20
52.999299999999998
 30
0.0
 10
21.1265
 20
52.999299999999998
 30
0.0
  0
ENDSEC
  0
SECTION
  2
OBJECTS
  0
DICTIONARY
  5
19
100
AcDbDictionary
280
     0
281
     1
  3
ACAD_GROUP
350
1A
  3
ACAD_MLINESTYLE
350
1B
  3
ACAD_LAYOUT
350
1E
  3
ACAD_PLOTSETTINGS
350
22
  3
ACAD_PLOTSTYLENAME
350
1F
  3
ACAD_WIPEOUT_VARS
350
23
  0
DICTIONARY
  5
1A
102
{ACAD_REACTORS
330
19
102
}
100
AcDbDictionary
280
     0
281
     1
  0
DICTIONARY
  5
1B
102
{ACAD_REACTORS
330
19
102
}
100
AcDbDictionary
280
     0
281
     1
  3
Standard
350
1C
  0
MLINESTYLE
  5
1C
102
{ACAD_REACTORS
330
1B
102
}
100
AcDbMlineStyle
  2
Standard
 70
     0
  3

 62
     0
 51
90.0
 52
90.0
 71
     2
 49
0.5
 62
   256
  6
BYLAYER
 49
-0.5
 62
   256
  6
BYLAYER
  0
ACDBDICTIONARYWDFLT
  5
1F
102
{ACAD_REACTORS
330
19
102
}
100
AcDbDictionary
281
     1
  3
Normal
350
1D
100
AcDbDictionaryWithDefault
340
1D
  0
ACDBPLACEHOLDER
  5
1D
102
{ACAD_REACTORS
330
1F
102
}
  0
LAYOUT
  5
20
102
{ACAD_REACTORS
330
1E
102
}
100
AcDbPlotSettings
  1

  2

  4

  6

 40
0.0
 41
0.0
 42
0.0
 43
0.0
 44
0.0
 45
0.0
 46
0.0
 47
0.0
 48
0.0
 49
0.0
140
0.0
141
0.0
142
1.0
143
1.0
 70
  1024
 72
     0
 73
     0
 74
     0
  7

 75
     0
147
1.0
148
0.0
149
0.0
100
AcDbLayout
  1
Model
 70
     0
 71
     0
 10
0.0
 20
0.0
 11
0.0
 21
0.0
 12
0.0
 22
0.0
 32
0.0
 14
0.0
 24
0.0
 34
0.0
 15
0.0
 25
0.0
 35
0.0
146
0.0
 13
0.0
 23
0.0
 33
0.0
 16
0.0
 26
0.0
 36
0.0
 17
0.0
 27
0.0
 37
0.0
 76
     0
330
A
331
0
345
0
346
0
  0
LAYOUT
  5
21
102
{ACAD_REACTORS
330
1E
102
}
100
AcDbPlotSettings
  1

  2

  4

  6

 40
0.0
 41
0.0
 42
0.0
 43
0.0
 44
0.0
 45
0.0
 46
0.0
 47
0.0
 48
0.0
 49
0.0
140
0.0
141
0.0
142
1.0
143
1.0
 70
     0
 72
     0
 73
     0
 74
     0
  7

 75
     0
147
1.0
148
0.0
149
0.0
100
AcDbLayout
  1
Layout1
 70
     0
 71
     0
 10
0.0
 20
0.0
 11
0.0
 21
0.0
 12
0.0
 22
0.0
 32
0.0
 14
0.0
 24
0.0
 34
0.0
 15
0.0
 25
0.0
 35
0.0
146
0.0
 13
0.0
 23
0.0
 33
0.0
 16
0.0
 26
0.0
 36
0.0
 17
0.0
 27
0.0
 37
0.0
 76
     0
330
B
331
0
345
0
346
0
  0
DICTIONARY
  5
1E
102
{ACAD_REACTORS
330
19
102
}
100
AcDbDictionary
280
     0
281
     1
  3
Layout1
350
21
  3
Model
350
20
  0
DICTIONARY
  5
22
102
{ACAD_REACTORS
330
19
102
}
100
AcDbDictionary
280
     0
281
     1
  0
WIPEOUTVARIABLES
  5
23
100
AcDbWipeoutVariables
 70
     1
  0
ENDSEC
  0
EOF
