  0
SECTION
  2
HEADER
  9
$ACADVER
  1
AC1015
  9
$ACADMAINTVER
 70
     6
  9
$DWGCODEPAGE
  3
DOS850
  9
$INSBASE
 10
0.0
 20
0.0
 30
0.0
  9
$EXTMIN
 10
-92.9656
 20
15.2958
 30
1.000000E+20
  9
$EXTMAX
 10
57.0881
 20
100.3381
 30
-1.000000E+20
  9
$LIMMIN
 10
0.0
 20
0.0
  9
$LIMMAX
 10
0.0
 20
0.0
  9
$ORTHOMODE
 70
     0
  9
$REGENMODE
 70
     1
  9
$FILLMODE
 70
     1
  9
$QTEXTMODE
 70
     0
  9
$MIRRTEXT
 70
     1
  9
$LTSCALE
 40
1.0
  9
$ATTMODE
 70
     1
  9
$TEXTSIZE
 40
0.2
  9
$TRACEWID
 40
0.05
  9
$TEXTSTYLE
  7
Standard
  9
$CLAYER
  8
0
  9
$CELTYPE
  6
Continuous
  9
$CECOLOR
 62
   256
  9
$CELTSCALE
 40
1.0
  9
$DISPSILH
 70
     0
  9
$DIMSCALE
 40
1.0
  9
$DIMASZ
 40
0.18
  9
$DIMEXO
 40
0.0625
  9
$DIMDLI
 40
0.38
  9
$DIMRND
 40
0.0
  9
$DIMDLE
 40
0.0
  9
$DIMEXE
 40
0.18
  9
$DIMTP
 40
0.0
  9
$DIMTM
 40
0.0
  9
$DIMTXT
 40
0.18
  9
$DIMCEN
 40
0.09
  9
$DIMTSZ
 40
0.0
  9
$DIMTOL
 70
     0
  9
$DIMLIM
 70
     0
  9
$DIMTIH
 70
     1
  9
$DIMTOH
 70
     1
  9
$DIMSE1
 70
     0
  9
$DIMSE2
 70
     0
  9
$DIMTAD
 70
     0
  9
$DIMZIN
 70
     0
  9
$DIMBLK
  1

  9
$DIMASO
 70
     1
  9
$DIMSHO
 70
     1
  9
$DIMPOST
  1

  9
$DIMAPOST
  1

  9
$DIMALT
 70
     0
  9
$DIMALTD
 70
     2
  9
$DIMALTF
 40
25.4
  9
$DIMLFAC
 40
1.0
  9
$DIMTOFL
 70
     0
  9
$DIMTVP
 40
0.0
  9
$DIMTIX
 70
     0
  9
$DIMSOXD
 70
     0
  9
$DIMSAH
 70
     0
  9
$DIMBLK1
  1

  9
$DIMBLK2
  1

  9
$DIMSTYLE
  2
Standard
  9
$DIMCLRD
 70
     0
  9
$DIMCLRE
 70
     0
  9
$DIMCLRT
 70
     0
  9
$DIMTFAC
 40
1.0
  9
$DIMGAP
 40
0.09
  9
$DIMJUST
 70
     0
  9
$DIMSD1
 70
     0
  9
$DIMSD2
 70
     0
  9
$DIMTOLJ
 70
     1
  9
$DIMTZIN
 70
     0
  9
$DIMALTZ
 70
     0
  9
$DIMALTTZ
 70
     0
  9
$DIMUPT
 70
     0
  9
$DIMDEC
 70
     4
  9
$DIMTDEC
 70
     4
  9
$DIMALTU
 70
     2
  9
$DIMALTTD
 70
     2
  9
$DIMTXSTY
  7
Standard
  9
$DIMAUNIT
 70
     0
  9
$DIMADEC
 70
     0
  9
$DIMALTRND
 40
0.0
  9
$DIMAZIN
 70
     0
  9
$DIMDSEP
 70
     0
  9
$DIMATFIT
 70
     3
  9
$DIMFRAC
 70
     0
  9
$DIMLDRBLK
  1

  9
$DIMLUNIT
 70
     2
  9
$DIMLWD
 70
     0
  9
$DIMLWE
 70
     0
  9
$DIMTMOVE
 70
     0
  9
$LUNITS
 70
     2
  9
$LUPREC
 70
     4
  9
$SKETCHINC
 40
0.1
  9
$FILLETRAD
 40
0.0
  9
$AUNITS
 70
     0
  9
$AUPREC
 70
     0
  9
$MENU
  1
acad
  9
$ELEVATION
 40
0.0
  9
$PELEVATION
 40
0.0
  9
$THICKNESS
 40
0.0
  9
$LIMCHECK
 70
     0
  9
$CHAMFERA
 40
0.0
  9
$CHAMFERB
 40
0.0
  9
$CHAMFERC
 40
0.0
  9
$CHAMFERD
 40
0.0
  9
$SKPOLY
 70
     0
  9
$TDCREATE
 40
0.000000000
  9
$TDUCREATE
 40
0.000000000
  9
$TDUPDATE
 40
0.000000000
  9
$TDUUPDATE
 40
0.000000000
  9
$TDINDWG
 40
0.0000000000
  9
$TDUSRTIMER
 40
0.0000000000
  9
$USRTIMER
 70
     1
  9
$ANGBASE
 50
0.0
  9
$ANGDIR
 70
     0
  9
$PDMODE
 70
     0
  9
$PDSIZE
 40
0.0
  9
$PLINEWID
 40
0.0
  9
$SPLFRAME
 70
     0
  9
$SPLINETYPE
 70
     6
  9
$SPLINESEGS
 70
     8
  9
$HANDSEED
  5
54
  9
$SURFTAB1
 70
     6
  9
$SURFTAB2
 70
     6
  9
$SURFTYPE
 70
     6
  9
$SURFU
 70
     6
  9
$SURFV
 70
     6
  9
$UCSBASE
  2

  9
$UCSNAME
  2

  9
$UCSORG
 10
0.0
 20
0.0
 30
0.0
  9
$UCSXDIR
 10
1.0
 20
0.0
 30
0.0
  9
$UCSYDIR
 10
0.0
 20
1.0
 30
0.0
  9
$UCSORTHOREF
  2

  9
$UCSORTHOVIEW
 70
     0
  9
$UCSORGTOP
 10
0.0
 20
0.0
 30
0.0
  9
$UCSORGBOTTOM
 10
0.0
 20
0.0
 30
0.0
  9
$UCSORGLEFT
 10
0.0
 20
0.0
 30
0.0
  9
$UCSORGRIGHT
 10
0.0
 20
0.0
 30
0.0
  9
$UCSORGFRONT
 10
0.0
 20
0.0
 30
0.0
  9
$UCSORGBACK
 10
0.0
 20
0.0
 30
0.0
  9
$PUCSBASE
  2

  9
$PUCSNAME
  2

  9
$PUCSORG
 10
0.0
 20
0.0
 30
0.0
  9
$PUCSXDIR
 10
1.0
 20
0.0
 30
0.0
  9
$PUCSYDIR
 10
0.0
 20
1.0
 30
0.0
  9
$PUCSORTHOREF
  2

  9
$PUCSORTHOVIEW
 70
     0
  9
$PUCSORGTOP
 10
0.0
 20
0.0
 30
0.0
  9
$PUCSORGBOTTOM
 10
0.0
 20
0.0
 30
0.0
  9
$PUCSORGLEFT
 10
0.0
 20
0.0
 30
0.0
  9
$PUCSORGRIGHT
 10
0.0
 20
0.0
 30
0.0
  9
$PUCSORGFRONT
 10
0.0
 20
0.0
 30
0.0
  9
$PUCSORGBACK
 10
0.0
 20
0.0
 30
0.0
  9
$USERI1
 70
     0
  9
$USERI2
 70
     0
  9
$USERI3
 70
     0
  9
$USERI4
 70
     0
  9
$USERI5
 70
     0
  9
$USERR1
 40
0.0
  9
$USERR2
 40
0.0
  9
$USERR3
 40
0.0
  9
$USERR4
 40
0.0
  9
$USERR5
 40
0.0
  9
$WORLDVIEW
 70
     1
  9
$SHADEDGE
 70
     3
  9
$SHADEDIF
 70
    70
  9
$TILEMODE
 70
     1
  9
$MAXACTVP
 70
    16
  9
$PINSBASE
 10
0.0
 20
0.0
 30
0.0
  9
$PLIMCHECK
 70
     0
  9
$PEXTMIN
 10
1.000000E+20
 20
1.000000E+20
 30
1.000000E+20
  9
$PEXTMAX
 10
-1.000000E+20
 20
-1.000000E+20
 30
-1.000000E+20
  9
$PLIMMIN
 10
0.0
 20
0.0
  9
$PLIMMAX
 10
12.0
 20
9.0
  9
$UNITMODE
 70
     0
  9
$VISRETAIN
 70
     0
  9
$PLINEGEN
 70
     1
  9
$PSLTSCALE
 70
     0
  9
$TREEDEPTH
 70
  3020
  9
$CMLSTYLE
  2
Standard
  9
$CMLJUST
 70
     0
  9
$CMLSCALE
 40
1.0
  9
$PROXYGRAPHICS
 70
     0
  9
$MEASUREMENT
 70
     0
  9
$CELWEIGHT
370
     0
  9
$ENDCAPS
280
     0
  9
$JOINSTYLE
280
     0
  9
$LWDISPLAY
290
     0
  9
$INSUNITS
 70
     4
  9
$HYPERLINKBASE
  1

  9
$XEDIT
290
     1
  9
$CEPSNTYPE
380
     0
  9
$PSTYLEMODE
290
     1
  9
$FINGERPRINTGUID
  2

  9
$VERSIONGUID
  2

  9
$EXTNAMES
290
     1
  9
$PSVPSCALE
 40
0.0
  0
ENDSEC
  0
SECTION
  2
CLASSES
  0
CLASS
  1
LWPOLYLINE
  2
AcDbPolyline
  3
AutoCAD 2000
 90
    32768
280
     0
281
     1
  0
CLASS
  1
IMAGE
  2
AcDbRasterImage
  3
ISM
 90
    32895
280
     0
281
     1
  0
CLASS
  1
OLE2FRAME
  2
AcDbOle2Frame
  3
AutoCAD 2000
 90
    32768
280
     0
281
     1
  0
CLASS
  1
HATCH
  2
AcDbHatch
  3
AutoCAD 2000
 90
    32768
280
     0
281
     1
  0
CLASS
  1
DICTIONARYVAR
  2
AcDbDictionaryVar
  3
AutoCAD 2000
 90
    32768
280
     0
281
     0
  0
CLASS
  1
RASTERVARIABLES
  2
AcDbRasterVariables
  3
ISM
 90
    32768
280
     0
281
     0
  0
CLASS
  1
IMAGEDEF
  2
AcDbRasterImageDef
  3
ISM
 90
    32768
280
     0
281
     0
  0
CLASS
  1
IMAGEDEF_REACTOR
  2
AcDbRasterImageDefReactor
  3
ISM
 90
    32769
280
     0
281
     0
  0
CLASS
  1
IDBUFFER
  2
AcDbIdBuffer
  3
AutoCAD 2000
 90
    32768
280
     0
281
     0
  0
CLASS
  1
SPATIAL_FILTER
  2
AcDbSpatialFilter
  3
AutoCAD 2000
 90
    32768
280
     0
281
     0
  0
CLASS
  1
XRECORD
  2
AcDbXrecord
  3
AutoCAD 2000
 90
    32768
280
     0
281
     0
  0
CLASS
  1
SORTENTSTABLE
  2
AcDbSortentsTable
  3
AutoCAD 2000
 90
    32768
280
     0
281
     0
  0
CLASS
  1
LAYER_INDEX
  2
AcDbLayerIndex
  3
AutoCAD 2000
 90
    32768
280
     0
281
     0
  0
CLASS
  1
SPATIAL_INDEX
  2
AcDbSpatialIndex
  3
AutoCAD 2000
 90
    32768
280
     0
281
     0
  0
CLASS
  1
OBJECT_PTR
  2
CAseDLPNTableRecord
  3
"ASE-LPNTableRecord"
 90
    32769
280
     0
281
     0
  0
CLASS
  1
LAYOUT
  2
AcDbLayout
  3
AutoCAD 2000
 90
        0
280
     0
281
     0
  0
CLASS
  1
PLOTSETTINGS
  2
AcDbPlotSettings
  3
AutoCAD 2000
 90
    32768
280
     0
281
     0
  0
CLASS
  1
ACDBDICTIONARYWDFLT
  2
AcDbDictionaryWithDefault
  3
AutoCAD 2000
 90
        0
280
     0
281
     0
  0
CLASS
  1
ACDBPLACEHOLDER
  2
AcDbPlaceHolder
  3
AutoCAD 2000
 90
        0
280
     0
281
     0
  0
CLASS
  1
VBA_PROJECT
  2
AcDbVbaProject
  3
acadvba
 90
    32768
280
     0
281
     0
  0
CLASS
  1
WIPEOUT
  2
AcDbWipeout
  3
WipeOut|AutoCAD Express Tool|expresstools@autodesk.com
 90
    32895
280
     0
281
     1
  0
CLASS
  1
WIPEOUTVARIABLES
  2
AcDbWipeoutVariables
  3
WipeOut|AutoCAD Express Tool|expresstools@autodesk.com
 90
        0
280
     0
281
     0
  0
CLASS
  1
RTEXT
  2
RText
  3
RText|AutoCAD Express Tool|expresstools@autodesk.com
 90
    32768
280
     0
281
     1
  0
CLASS
  1
ARCALIGNEDTEXT
  2
AcDbArcAlignedText
  3
ATEXT|AutoCAD Express Tool|expresstools@autodesk.com
 90
    32768
280
     0
281
     1
  0
ENDSEC
  0
SECTION
  2
TABLES
  0
TABLE
  2
VPORT
  5
7
100
AcDbSymbolTable
 70
     1
  0
VPORT
  5
15
100
AcDbSymbolTableRecord
100
AcDbViewportTableRecord
  2
*ACTIVE
 70
     0
 10
0.0
 20
0.0
 11
1.0
 21
1.0
 12
6.591288
 22
4.579184
 13
0.0
 23
0.0
 14
1.0
 24
1.0
 15
0.0
 25
0.0
 16
0.0
 26
0.0
 36
1.0
 17
0.0
 27
0.0
 37
0.0
 40
9.158369
 41
0.688564
 42
50.0
 43
0.0
 44
0.0
 50
0.0
 51
0.0
 71
     0
 72
   100
 73
     1
 74
     1
 75
     0
 76
     0
 77
     0
 78
     0
281
     0
 65
     0
110
0.0
120
0.0
130
0.0
111
1.0
121
0.0
131
0.0
112
0.0
122
1.0
132
0.0
345
0
346
0
 79
     0
146
0.0
  0
ENDTAB
  0
TABLE
  2
LTYPE
  5
4
100
AcDbSymbolTable
 70
     3
  0
LTYPE
  5
11
100
AcDbSymbolTableRecord
100
AcDbLinetypeTableRecord
  2
ByBlock
 70
    64
  3

 72
    65
 73
     0
 40
0.0
  0
LTYPE
  5
12
100
AcDbSymbolTableRecord
100
AcDbLinetypeTableRecord
  2
ByLayer
 70
    64
  3

 72
    65
 73
     0
 40
0.0
  0
LTYPE
  5
13
100
AcDbSymbolTableRecord
100
AcDbLinetypeTableRecord
  2
Continuous
 70
    64
  3
Solid line
 72
    65
 73
     0
 40
0.0
  0
ENDTAB
  0
TABLE
  2
LAYER
  5
2
100
AcDbSymbolTable
 70
     2
  0
LAYER
  5
14
100
AcDbSymbolTableRecord
100
AcDbLayerTableRecord
  2
0
 70
     0
 62
     7
  6
Continuous
290
     1
370
    -3
390
1D
  0
LAYER
  5
24
100
AcDbSymbolTableRecord
100
AcDbLayerTableRecord
  2
RÚteg 1
 70
     0
 62
     7
  6
Continuous
290
     1
370
    -3
390
1F
  0
ENDTAB
  0
TABLE
  2
STYLE
  5
3
100
AcDbSymbolTable
 70
     1
  0
STYLE
  5
17
100
AcDbSymbolTableRecord
100
AcDbTextStyleTableRecord
  2
Standard
 70
     0
 40
0.0
 41
1.0
 50
0.0
 71
     0
 42
0.0
  3
txt
  4

  0
ENDTAB
  0
TABLE
  2
VIEW
  5
5
100
AcDbSymbolTable
 70
     0
  0
ENDTAB
  0
TABLE
  2
UCS
  5
6
100
AcDbSymbolTable
 70
     0
  0
ENDTAB
  0
TABLE
  2
APPID
  5
8
100
AcDbSymbolTable
 70
     1
  0
APPID
  5
16
100
AcDbSymbolTableRecord
100
AcDbRegAppTableRecord
  2
ACAD
 70
     0
  0
ENDTAB
  0
TABLE
  2
DIMSTYLE
  5
9
100
AcDbSymbolTable
 70
     1
100
AcDbDimStyleTable
 71
     0
  0
DIMSTYLE
105
18
100
AcDbSymbolTableRecord
100
AcDbDimStyleTableRecord
  2
Standard
 70
     0
  3

  4

 40
1.0
 41
0.18
 42
0.0625
 43
0.38
 44
0.18
 45
0.0
 46
0.0
 47
0.0
 48
0.0
 71
     0
 72
     0
 73
     1
 74
     1
 75
     0
 76
     0
 77
     0
 78
     0
 79
     0
140
0.18
141
0.09
142
0.0
143
25.4
144
1.0
145
0.0
146
1.0
147
0.09
148
0.0
170
     0
171
     2
172
     0
173
     0
174
     0
175
     0
176
     0
177
     0
178
     0
179
     0
271
     4
272
     4
273
     2
274
     2
275
     0
276
     0
277
     2
278
    46
279
     0
280
     0
281
     0
282
     0
283
     1
284
     0
285
     0
286
     0
288
     0
340
17
341
0
342
0
343
0
344
0
371
    -2
372
    -2
  0
ENDTAB
  0
TABLE
  2
BLOCK_RECORD
  5
1
100
AcDbSymbolTable
 70
     0
  0
BLOCK_RECORD
  5
A
100
AcDbSymbolTableRecord
100
AcDbBlockTableRecord
  2
*MODEL_SPACE
340
20
  0
BLOCK_RECORD
  5
B
100
AcDbSymbolTableRecord
100
AcDbBlockTableRecord
  2
*PAPER_SPACE
340
21
  0
ENDTAB
  0
ENDSEC
  0
SECTION
  2
BLOCKS
  0
BLOCK
  5
D
100
AcDbEntity
  8
0
100
AcDbBlockBegin
  2
*MODEL_SPACE
 70
     0
 10
0.0
 20
0.0
 30
0.0
  3
*MODEL_SPACE
  1

  0
ENDBLK
  5
E
100
AcDbEntity
  8
0
100
AcDbBlockEnd
  0
BLOCK
  5
F
100
AcDbEntity
 67
     1
  8
0
100
AcDbBlockBegin
  2
*PAPER_SPACE
 70
     0
 10
0.0
 20
0.0
 30
0.0
  3
*PAPER_SPACE
  1

  0
ENDBLK
  5
10
100
AcDbEntity
 67
     1
  8
0
100
AcDbBlockEnd
  0
ENDSEC
  0
SECTION
  2
ENTITIES
  0
SPLINE
  5
25
100
AcDbEntity
  8
RÚteg 1
 62
     7
100
AcDbSpline
210
0.0
220
0.0
230
1.0
 70
     1
 71
     3
 72
   140
 73
   136
 74
     0
 42
0.0000000001
 43
0.0000000001
 40
0.0
 40
0.0
 40
0.0
 40
0.0
 40
0.0294117647058824
 40
0.0294117647058824
 40
0.0294117647058824
 40
0.0294117647058824
 40
0.0588235294117647
 40
0.0588235294117647
 40
0.0588235294117647
 40
0.0588235294117647
 40
0.0882352941176471
 40
0.0882352941176471
 40
0.0882352941176471
 40
0.0882352941176471
 40
0.1176470588235294
 40
0.1176470588235294
 40
0.1176470588235294
 40
0.1176470588235294
 40
0.1470588235294118
 40
0.1470588235294118
 40
0.1470588235294118
 40
0.1470588235294118
 40
0.1764705882352941
 40
0.1764705882352941
 40
0.1764705882352941
 40
0.1764705882352941
 40
0.2058823529411765
 40
0.2058823529411765
 40
0.2058823529411765
 40
0.2058823529411765
 40
0.2352941176470589
 40
0.2352941176470589
 40
0.2352941176470589
 40
0.2352941176470589
 40
0.2647058823529412
 40
0.2647058823529412
 40
0.2647058823529412
 40
0.2647058823529412
 40
0.2941176470588235
 40
0.2941176470588235
 40
0.2941176470588235
 40
0.2941176470588235
 40
0.3235294117647059
 40
0.3235294117647059
 40
0.3235294117647059
 40
0.3235294117647059
 40
0.3529411764705883
 40
0.3529411764705883
 40
0.3529411764705883
 40
0.3529411764705883
 40
0.3823529411764706
 40
0.3823529411764706
 40
0.3823529411764706
 40
0.3823529411764706
 40
0.411764705882353
 40
0.411764705882353
 40
0.411764705882353
 40
0.411764705882353
 40
0.4411764705882353
 40
0.4411764705882353
 40
0.4411764705882353
 40
0.4411764705882353
 40
0.4705882352941177
 40
0.4705882352941177
 40
0.4705882352941177
 40
0.4705882352941177
 40
0.5
 40
0.5
 40
0.5
 40
0.5
 40
0.5294117647058824
 40
0.5294117647058824
 40
0.5294117647058824
 40
0.5294117647058824
 40
0.5588235294117647
 40
0.5588235294117647
 40
0.5588235294117647
 40
0.5588235294117647
 40
0.5882352941176471
 40
0.5882352941176471
 40
0.5882352941176471
 40
0.5882352941176471
 40
0.6176470588235294
 40
0.6176470588235294
 40
0.6176470588235294
 40
0.6176470588235294
 40
0.6470588235294118
 40
0.6470588235294118
 40
0.6470588235294118
 40
0.6470588235294118
 40
0.6764705882352942
 40
0.6764705882352942
 40
0.6764705882352942
 40
0.6764705882352942
 40
0.7058823529411765
 40
0.7058823529411765
 40
0.7058823529411765
 40
0.7058823529411765
 40
0.7352941176470589
 40
0.7352941176470589
 40
0.7352941176470589
 40
0.7352941176470589
 40
0.7647058823529412
 40
0.7647058823529412
 40
0.7647058823529412
 40
0.7647058823529412
 40
0.7941176470588236
 40
0.7941176470588236
 40
0.7941176470588236
 40
0.7941176470588236
 40
0.823529411764706
 40
0.823529411764706
 40
0.823529411764706
 40
0.823529411764706
 40
0.8529411764705883
 40
0.8529411764705883
 40
0.8529411764705883
 40
0.8529411764705883
 40
0.8823529411764707
 40
0.8823529411764707
 40
0.8823529411764707
 40
0.8823529411764707
 40
0.911764705882353
 40
0.911764705882353
 40
0.911764705882353
 40
0.911764705882353
 40
0.9411764705882354
 40
0.9411764705882354
 40
0.9411764705882354
 40
0.9411764705882354
 40
0.9705882352941178
 40
0.9705882352941178
 40
0.9705882352941178
 40
0.9705882352941178
 40
1.0
 40
1.0
 40
1.0
 40
1.0
 10
-55.463099999999997
 20
100.3
 30
0.0
 10
-51.735599999999998
 20
100.3
 30
0.0
 10
-48.712800000000001
 20
97.277100000000004
 30
0.0
 10
-48.712800000000001
 20
93.549599999999998
 30
0.0
 10
-48.712800000000001
 20
93.549599999999998
 30
0.0
 10
-48.712800000000001
 20
91.389399999999995
 30
0.0
 10
-49.728099999999998
 20
89.466300000000004
 30
0.0
 10
-51.307200000000002
 20
88.230599999999995
 30
0.0
 10
-51.307200000000002
 20
88.230599999999995
 30
0.0
 10
-45.790500000000002
 20
87.552800000000005
 30
0.0
 10
-40.685499999999998
 20
85.543400000000005
 30
0.0
 10
-36.322099999999999
 20
82.534599999999998
 30
0.0
 10
-36.322099999999999
 20
82.534599999999998
 30
0.0
 10
-35.020600000000002
 20
83.746099999999998
 30
0.0
 10
-33.675699999999999
 20
85.090599999999995
 30
0.0
 10
-32.294899999999998
 20
86.604500000000002
 30
0.0
 10
-32.294899999999998
 20
86.604500000000002
 30
0.0
 10
-33.308900000000001
 20
84.822699999999998
 30
0.0
 10
-34.171900000000001
 20
83.128200000000007
 30
0.0
 10
-34.922199999999997
 20
81.515500000000003
 30
0.0
 10
-34.922199999999997
 20
81.515500000000003
 30
0.0
 10
-29.787700000000001
 20
77.573999999999998
 30
0.0
 10
-25.819199999999999
 20
72.190299999999993
 30
0.0
 10
-23.619700000000002
 20
65.971400000000003
 30
0.0
 10
-23.619700000000002
 20
65.971400000000003
 30
0.0
 10
-21.8565
 20
66.186899999999994
 30
0.0
 10
-19.980799999999999
 20
66.483599999999996
 30
0.0
 10
-17.976299999999998
 20
66.8964
 30
0.0
 10
-17.976299999999998
 20
66.8964
 30
0.0
 10
-19.840399999999999
 20
66.052099999999996
 30
0.0
 10
-21.533000000000001
 20
65.189899999999994
 30
0.0
 10
-23.085899999999999
 20
64.327699999999993
 30
0.0
 10
-23.085899999999999
 20
64.327699999999993
 30
0.0
 10
-22.181799999999999
 20
61.281399999999998
 30
0.0
 10
-21.694900000000001
 20
58.055399999999999
 30
0.0
 10
-21.694900000000001
 20
54.716099999999997
 30
0.0
 10
-21.694900000000001
 20
54.716099999999997
 30
0.0
 10
-21.694900000000001
 20
51.3767
 30
0.0
 10
-22.182400000000001
 20
48.151600000000002
 30
0.0
 10
-23.085899999999999
 20
45.104900000000001
 30
0.0
 10
-23.085899999999999
 20
45.104900000000001
 30
0.0
 10
-21.533000000000001
 20
44.242800000000003
 30
0.0
 10
-19.840399999999999
 20
43.380099999999999
 30
0.0
 10
-17.976199999999999
 20
42.535899999999998
 30
0.0
 10
-17.976199999999999
 20
42.535899999999998
 30
0.0
 10
-19.980399999999999
 20
42.948599999999999
 30
0.0
 10
-21.8566
 20
43.245699999999999
 30
0.0
 10
-23.619900000000001
 20
43.460999999999999
 30
0.0
 10
-23.619900000000001
 20
43.460999999999999
 30
0.0
 10
-25.8187
 20
37.241500000000002
 30
0.0
 10
-29.7883
 20
31.858899999999998
 30
0.0
 10
-34.922199999999997
 20
27.916799999999999
 30
0.0
 10
-34.922199999999997
 20
27.916799999999999
 30
0.0
 10
-34.171500000000002
 20
26.304400000000001
 30
0.0
 10
-33.308399999999999
 20
24.609300000000001
 30
0.0
 10
-32.294899999999998
 20
22.8277
 30
0.0
 10
-32.294899999999998
 20
22.8277
 30
0.0
 10
-33.675600000000003
 20
24.341799999999999
 30
0.0
 10
-35.020299999999999
 20
25.686399999999999
 30
0.0
 10
-36.321899999999999
 20
26.8979
 30
0.0
 10
-36.321899999999999
 20
26.8979
 30
0.0
 10
-41.540799999999997
 20
23.2989
 30
0.0
 10
-47.821100000000001
 20
21.1295
 30
0.0
 10
-54.597900000000003
 20
20.959
 30
0.0
 10
-54.597900000000003
 20
20.959
 30
0.0
 10
-54.938499999999998
 20
19.213899999999999
 30
0.0
 10
-55.235900000000001
 20
17.335799999999999
 30
0.0
 10
-55.462800000000001
 20
15.300000000000001
 30
0.0
 10
-55.462800000000001
 20
15.300000000000001
 30
0.0
 10
-55.689999999999998
 20
17.335799999999999
 30
0.0
 10
-55.987400000000001
 20
19.213899999999999
 30
0.0
 10
-56.328099999999999
 20
20.959
 30
0.0
 10
-56.328099999999999
 20
20.959
 30
0.0
 10
-63.104700000000001
 20
21.1294
 30
0.0
 10
-69.384900000000002
 20
23.299399999999999
 30
0.0
 10
-74.604100000000003
 20
26.8978
 30
0.0
 10
-74.604100000000003
 20
26.8978
 30
0.0
 10
-75.905600000000007
 20
25.6861
 30
0.0
 10
-77.250600000000006
 20
24.3416
 30
0.0
 10
-78.631299999999996
 20
22.8276
 30
0.0
 10
-78.631299999999996
 20
22.8276
 30
0.0
 10
-77.6173
 20
24.608899999999998
 30
0.0
 10
-76.754099999999994
 20
26.304099999999998
 30
0.0
 10
-76.003699999999995
 20
27.916799999999999
 30
0.0
 10
-76.003699999999995
 20
27.916799999999999
 30
0.0
 10
-81.138400000000004
 20
31.8584
 30
0.0
 10
-85.106999999999999
 20
37.241799999999998
 30
0.0
 10
-87.3065
 20
43.460799999999999
 30
0.0
 10
-87.3065
 20
43.460799999999999
 30
0.0
 10
-89.069699999999997
 20
43.245600000000003
 30
0.0
 10
-90.945800000000006
 20
42.948599999999999
 30
0.0
 10
-92.9499
 20
42.535600000000002
 30
0.0
 10
-92.9499
 20
42.535600000000002
 30
0.0
 10
-91.085800000000006
 20
43.379899999999999
 30
0.0
 10
-89.3934
 20
44.242400000000004
 30
0.0
 10
-87.840500000000006
 20
45.104599999999998
 30
0.0
 10
-87.840500000000006
 20
45.104599999999998
 30
0.0
 10
-88.744699999999995
 20
48.1509
 30
0.0
 10
-89.231399999999994
 20
51.3767
 30
0.0
 10
-89.231399999999994
 20
54.716099999999997
 30
0.0
 10
-89.231399999999994
 20
54.716099999999997
 30
0.0
 10
-89.231399999999994
 20
58.055399999999999
 30
0.0
 10
-88.744
 20
61.280999999999999
 30
0.0
 10
-87.840599999999995
 20
64.327500000000001
 30
0.0
 10
-87.840599999999995
 20
64.327500000000001
 30
0.0
 10
-89.3934
 20
65.189700000000002
 30
0.0
 10
-91.085800000000006
 20
66.051599999999993
 30
0.0
 10
-92.950000000000003
 20
66.896100000000004
 30
0.0
 10
-92.950000000000003
 20
66.896100000000004
 30
0.0
 10
-90.945999999999998
 20
66.483400000000003
 30
0.0
 10
-89.069699999999997
 20
66.186400000000006
 30
0.0
 10
-87.306700000000006
 20
65.971400000000003
 30
0.0
 10
-87.306700000000006
 20
65.971400000000003
 30
0.0
 10
-85.107699999999994
 20
72.191000000000003
 30
0.0
 10
-81.138099999999994
 20
77.573599999999999
 30
0.0
 10
-76.004199999999997
 20
81.515500000000003
 30
0.0
 10
-76.004199999999997
 20
81.515500000000003
 30
0.0
 10
-76.7547
 20
83.128200000000007
 30
0.0
 10
-77.617800000000003
 20
84.822699999999998
 30
0.0
 10
-78.631299999999996
 20
86.604100000000003
 30
0.0
 10
-78.631299999999996
 20
86.604100000000003
 30
0.0
 10
-77.250600000000006
 20
85.090500000000006
 30
0.0
 10
-75.905900000000003
 20
83.746099999999998
 30
0.0
 10
-74.604299999999995
 20
82.534599999999998
 30
0.0
 10
-74.604299999999995
 20
82.534599999999998
 30
0.0
 10
-70.241699999999994
 20
85.543499999999995
 30
0.0
 10
-65.1357
 20
87.552800000000005
 30
0.0
 10
-59.619
 20
88.230599999999995
 30
0.0
 10
-59.619
 20
88.230599999999995
 30
0.0
 10
-61.198300000000003
 20
89.466300000000004
 30
0.0
 10
-62.213500000000003
 20
91.389399999999995
 30
0.0
 10
-62.213500000000003
 20
93.549599999999998
 30
0.0
 10
-62.213500000000003
 20
93.549599999999998
 30
0.0
 10
-62.213500000000003
 20
97.277100000000004
 30
0.0
 10
-59.190600000000003
 20
100.3
 30
0.0
 10
-55.463099999999997
 20
100.3
 30
0.0
  0
SPLINE
  5
26
100
AcDbEntity
  8
RÚteg 1
 62
     7
100
AcDbSpline
210
0.0
220
0.0
230
1.0
 70
     1
 71
     3
 72
    28
 73
    24
 74
     0
 42
0.0000000001
 43
0.0000000001
 40
0.0
 40
0.0
 40
0.0
 40
0.0
 40
0.1666666666666667
 40
0.1666666666666667
 40
0.1666666666666667
 40
0.1666666666666667
 40
0.3333333333333333
 40
0.3333333333333333
 40
0.3333333333333333
 40
0.3333333333333333
 40
0.5
 40
0.5
 40
0.5
 40
0.5
 40
0.6666666666666666
 40
0.6666666666666666
 40
0.6666666666666666
 40
0.6666666666666666
 40
0.8333333333333333
 40
0.8333333333333333
 40
0.8333333333333333
 40
0.8333333333333333
 40
1.0
 40
1.0
 40
1.0
 40
1.0
 10
-55.463200000000001
 20
94.132099999999994
 30
0.0
 10
-55.275100000000002
 20
92.446200000000005
 30
0.0
 10
-55.038899999999998
 20
90.868899999999996
 30
0.0
 10
-54.7699
 20
89.3857
 30
0.0
 10
-54.7699
 20
89.3857
 30
0.0
 10
-52.769100000000002
 20
89.716499999999996
 30
0.0
 10
-51.242199999999997
 20
91.455100000000002
 30
0.0
 10
-51.242199999999997
 20
93.549599999999998
 30
0.0
 10
-51.242199999999997
 20
93.549599999999998
 30
0.0
 10
-51.242199999999997
 20
95.880499999999998
 30
0.0
 10
-53.132599999999996
 20
97.770499999999998
 30
0.0
 10
-55.463200000000001
 20
97.770499999999998
 30
0.0
 10
-55.463200000000001
 20
97.770499999999998
 30
0.0
 10
-57.793999999999997
 20
97.770499999999998
 30
0.0
 10
-59.684199999999997
 20
95.880499999999998
 30
0.0
 10
-59.684199999999997
 20
93.549599999999998
 30
0.0
 10
-59.684199999999997
 20
93.549599999999998
 30
0.0
 10
-59.684199999999997
 20
91.454800000000006
 30
0.0
 10
-58.1571
 20
89.716499999999996
 30
0.0
 10
-56.156500000000001
 20
89.3857
 30
0.0
 10
-56.156500000000001
 20
89.3857
 30
0.0
 10
-55.887300000000003
 20
90.869100000000003
 30
0.0
 10
-55.651200000000003
 20
92.446200000000005
 30
0.0
 10
-55.463200000000001
 20
94.132099999999994
 30
0.0
  0
SPLINE
  5
27
100
AcDbEntity
  8
RÚteg 1
 62
     7
100
AcDbSpline
210
0.0
220
0.0
230
1.0
 70
     1
 71
     3
 72
    16
 73
    12
 74
     0
 42
0.0000000001
 43
0.0000000001
 40
0.0
 40
0.0
 40
0.0
 40
0.0
 40
0.3333333333333333
 40
0.3333333333333333
 40
0.3333333333333333
 40
0.3333333333333333
 40
0.6666666666666666
 40
0.6666666666666666
 40
0.6666666666666666
 40
0.6666666666666666
 40
1.0
 40
1.0
 40
1.0
 40
1.0
 10
-53.802399999999999
 20
84.889700000000005
 30
0.0
 10
-52.4255
 20
79.345200000000006
 30
0.0
 10
-50.754399999999997
 20
75.251999999999995
 30
0.0
 10
-50.002499999999998
 20
71.523300000000006
 30
0.0
 10
-50.002499999999998
 20
71.523300000000006
 30
0.0
 10
-47.201799999999999
 20
74.097999999999999
 30
0.0
 10
-43.444000000000003
 20
76.427599999999998
 30
0.0
 10
-39.070300000000003
 20
80.104500000000002
 30
0.0
 10
-39.070300000000003
 20
80.104500000000002
 30
0.0
 10
-43.356999999999999
 20
82.878699999999995
 30
0.0
 10
-48.390099999999997
 20
84.596500000000006
 30
0.0
 10
-53.802399999999999
 20
84.889700000000005
 30
0.0
  0
SPLINE
  5
28
100
AcDbEntity
  8
RÚteg 1
 62
     7
100
AcDbSpline
210
0.0
220
0.0
230
1.0
 70
     1
 71
     3
 72
    16
 73
    12
 74
     0
 42
0.0000000001
 43
0.0000000001
 40
0.0
 40
0.0
 40
0.0
 40
0.0
 40
0.3333333333333333
 40
0.3333333333333333
 40
0.3333333333333333
 40
0.3333333333333333
 40
0.6666666666666666
 40
0.6666666666666666
 40
0.6666666666666666
 40
0.6666666666666666
 40
1.0
 40
1.0
 40
1.0
 40
1.0
 10
-36.385100000000001
 20
78.149500000000003
 30
0.0
 10
-38.529499999999999
 20
72.854799999999997
 30
0.0
 10
-39.583100000000002
 20
68.561800000000005
 30
0.0
 10
-41.1661
 20
65.103300000000004
 30
0.0
 10
-41.1661
 20
65.103300000000004
 30
0.0
 10
-37.386099999999999
 20
65.540400000000005
 30
0.0
 10
-32.975099999999998
 20
65.215999999999994
 30
0.0
 10
-27.273199999999999
 20
65.620400000000004
 30
0.0
 10
-27.273199999999999
 20
65.620400000000004
 30
0.0
 10
-29.184100000000001
 20
70.554100000000005
 30
0.0
 10
-32.351799999999997
 20
74.862099999999998
 30
0.0
 10
-36.385100000000001
 20
78.149500000000003
 30
0.0
  0
SPLINE
  5
29
100
AcDbEntity
  8
RÚteg 1
 62
     7
100
AcDbSpline
210
0.0
220
0.0
230
1.0
 70
     1
 71
     3
 72
    20
 73
    16
 74
     0
 42
0.0000000001
 43
0.0000000001
 40
0.0
 40
0.0
 40
0.0
 40
0.0
 40
0.25
 40
0.25
 40
0.25
 40
0.25
 40
0.5
 40
0.5
 40
0.5
 40
0.5
 40
0.75
 40
0.75
 40
0.75
 40
0.75
 40
1.0
 40
1.0
 40
1.0
 40
1.0
 10
-26.2483
 20
62.463900000000002
 30
0.0
 10
-31.098700000000001
 20
59.439799999999998
 30
0.0
 10
-34.476300000000002
 20
56.584499999999998
 30
0.0
 10
-37.7911
 20
54.716099999999997
 30
0.0
 10
-37.7911
 20
54.716099999999997
 30
0.0
 10
-34.476300000000002
 20
52.847799999999999
 30
0.0
 10
-31.098700000000001
 20
49.993000000000002
 30
0.0
 10
-26.2483
 20
46.968899999999998
 30
0.0
 10
-26.2483
 20
46.968899999999998
 30
0.0
 10
-25.594100000000001
 20
49.441499999999998
 30
0.0
 10
-25.243600000000001
 20
52.037799999999997
 30
0.0
 10
-25.243600000000001
 20
54.716099999999997
 30
0.0
 10
-25.243600000000001
 20
54.716099999999997
 30
0.0
 10
-25.243600000000001
 20
57.394300000000001
 30
0.0
 10
-25.593599999999999
 20
59.991300000000003
 30
0.0
 10
-26.2483
 20
62.463900000000002
 30
0.0
  0
SPLINE
  5
2A
100
AcDbEntity
  8
RÚteg 1
 62
     7
100
AcDbSpline
210
0.0
220
0.0
230
1.0
 70
     1
 71
     3
 72
    16
 73
    12
 74
     0
 42
0.0000000001
 43
0.0000000001
 40
0.0
 40
0.0
 40
0.0
 40
0.0
 40
0.3333333333333333
 40
0.3333333333333333
 40
0.3333333333333333
 40
0.3333333333333333
 40
0.6666666666666666
 40
0.6666666666666666
 40
0.6666666666666666
 40
0.6666666666666666
 40
1.0
 40
1.0
 40
1.0
 40
1.0
 10
-27.273199999999999
 20
43.812100000000001
 30
0.0
 10
-32.975099999999998
 20
44.2164
 30
0.0
 10
-37.386099999999999
 20
43.891599999999997
 30
0.0
 10
-41.1661
 20
44.328800000000001
 30
0.0
 10
-41.1661
 20
44.328800000000001
 30
0.0
 10
-39.583100000000002
 20
40.8705
 30
0.0
 10
-38.529299999999999
 20
36.577300000000001
 30
0.0
 10
-36.384599999999999
 20
31.283200000000001
 30
0.0
 10
-36.384599999999999
 20
31.283200000000001
 30
0.0
 10
-32.351900000000001
 20
34.571100000000001
 30
0.0
 10
-29.183800000000002
 20
38.8782
 30
0.0
 10
-27.273199999999999
 20
43.812100000000001
 30
0.0
  0
SPLINE
  5
2B
100
AcDbEntity
  8
RÚteg 1
 62
     7
100
AcDbSpline
210
0.0
220
0.0
230
1.0
 70
     1
 71
     3
 72
    16
 73
    12
 74
     0
 42
0.0000000001
 43
0.0000000001
 40
0.0
 40
0.0
 40
0.0
 40
0.0
 40
0.3333333333333333
 40
0.3333333333333333
 40
0.3333333333333333
 40
0.3333333333333333
 40
0.6666666666666666
 40
0.6666666666666666
 40
0.6666666666666666
 40
0.6666666666666666
 40
1.0
 40
1.0
 40
1.0
 40
1.0
 10
-39.070300000000003
 20
29.327999999999999
 30
0.0
 10
-43.444000000000003
 20
33.004899999999999
 30
0.0
 10
-47.201799999999999
 20
35.334200000000003
 30
0.0
 10
-50.002499999999998
 20
37.908999999999999
 30
0.0
 10
-50.002499999999998
 20
37.908999999999999
 30
0.0
 10
-50.754399999999997
 20
34.180199999999999
 30
0.0
 10
-52.4255
 20
30.087299999999999
 30
0.0
 10
-53.802199999999999
 20
24.5428
 30
0.0
 10
-53.802199999999999
 20
24.5428
 30
0.0
 10
-48.390099999999997
 20
24.836300000000001
 30
0.0
 10
-43.3568
 20
26.5535
 30
0.0
 10
-39.070300000000003
 20
29.327999999999999
 30
0.0
  0
SPLINE
  5
2C
100
AcDbEntity
  8
RÚteg 1
 62
     7
100
AcDbSpline
210
0.0
220
0.0
230
1.0
 70
     1
 71
     3
 72
    16
 73
    12
 74
     0
 42
0.0000000001
 43
0.0000000001
 40
0.0
 40
0.0
 40
0.0
 40
0.0
 40
0.3333333333333333
 40
0.3333333333333333
 40
0.3333333333333333
 40
0.3333333333333333
 40
0.6666666666666666
 40
0.6666666666666666
 40
0.6666666666666666
 40
0.6666666666666666
 40
1.0
 40
1.0
 40
1.0
 40
1.0
 10
-57.123600000000003
 20
24.5428
 30
0.0
 10
-58.500700000000002
 20
30.087299999999999
 30
0.0
 10
-60.171799999999998
 20
34.180199999999999
 30
0.0
 10
-60.923699999999997
 20
37.908999999999999
 30
0.0
 10
-60.923699999999997
 20
37.908999999999999
 30
0.0
 10
-63.724400000000003
 20
35.334200000000003
 30
0.0
 10
-67.482399999999998
 20
33.004800000000003
 30
0.0
 10
-71.855900000000005
 20
29.3278
 30
0.0
 10
-71.855900000000005
 20
29.3278
 30
0.0
 10
-67.569199999999995
 20
26.553899999999999
 30
0.0
 10
-62.535899999999998
 20
24.835999999999999
 30
0.0
 10
-57.123600000000003
 20
24.5428
 30
0.0
  0
SPLINE
  5
2D
100
AcDbEntity
  8
RÚteg 1
 62
     7
100
AcDbSpline
210
0.0
220
0.0
230
1.0
 70
     1
 71
     3
 72
    16
 73
    12
 74
     0
 42
0.0000000001
 43
0.0000000001
 40
0.0
 40
0.0
 40
0.0
 40
0.0
 40
0.3333333333333333
 40
0.3333333333333333
 40
0.3333333333333333
 40
0.3333333333333333
 40
0.6666666666666666
 40
0.6666666666666666
 40
0.6666666666666666
 40
0.6666666666666666
 40
1.0
 40
1.0
 40
1.0
 40
1.0
 10
-74.5411
 20
31.283100000000001
 30
0.0
 10
-72.396799999999999
 20
36.577300000000001
 30
0.0
 10
-71.343100000000007
 20
40.8705
 30
0.0
 10
-69.760000000000005
 20
44.328800000000001
 30
0.0
 10
-69.760000000000005
 20
44.328800000000001
 30
0.0
 10
-73.540099999999995
 20
43.891599999999997
 30
0.0
 10
-77.951099999999997
 20
44.2164
 30
0.0
 10
-83.653000000000006
 20
43.811900000000001
 30
0.0
 10
-83.653000000000006
 20
43.811900000000001
 30
0.0
 10
-81.742199999999997
 20
38.878300000000003
 30
0.0
 10
-78.574399999999997
 20
34.570300000000003
 30
0.0
 10
-74.5411
 20
31.283100000000001
 30
0.0
  0
SPLINE
  5
2E
100
AcDbEntity
  8
RÚteg 1
 62
     7
100
AcDbSpline
210
0.0
220
0.0
230
1.0
 70
     1
 71
     3
 72
    20
 73
    16
 74
     0
 42
0.0000000001
 43
0.0000000001
 40
0.0
 40
0.0
 40
0.0
 40
0.0
 40
0.25
 40
0.25
 40
0.25
 40
0.25
 40
0.5
 40
0.5
 40
0.5
 40
0.5
 40
0.75
 40
0.75
 40
0.75
 40
0.75
 40
1.0
 40
1.0
 40
1.0
 40
1.0
 10
-84.677899999999994
 20
46.968699999999998
 30
0.0
 10
-79.827500000000001
 20
49.992800000000003
 30
0.0
 10
-76.4499
 20
52.847799999999999
 30
0.0
 10
-73.135099999999994
 20
54.716099999999997
 30
0.0
 10
-73.135099999999994
 20
54.716099999999997
 30
0.0
 10
-76.4499
 20
56.584499999999998
 30
0.0
 10
-79.827500000000001
 20
59.439799999999998
 30
0.0
 10
-84.678100000000001
 20
62.463700000000003
 30
0.0
 10
-84.678100000000001
 20
62.463700000000003
 30
0.0
 10
-85.332400000000007
 20
59.990900000000003
 30
0.0
 10
-85.6828
 20
57.394300000000001
 30
0.0
 10
-85.6828
 20
54.716099999999997
 30
0.0
 10
-85.6828
 20
54.716099999999997
 30
0.0
 10
-85.6828
 20
52.037599999999998
 30
0.0
 10
-85.332999999999998
 20
49.441299999999998
 30
0.0
 10
-84.677899999999994
 20
46.968699999999998
 30
0.0
  0
SPLINE
  5
2F
100
AcDbEntity
  8
RÚteg 1
 62
     7
100
AcDbSpline
210
0.0
220
0.0
230
1.0
 70
     1
 71
     3
 72
    16
 73
    12
 74
     0
 42
0.0000000001
 43
0.0000000001
 40
0.0
 40
0.0
 40
0.0
 40
0.0
 40
0.3333333333333333
 40
0.3333333333333333
 40
0.3333333333333333
 40
0.3333333333333333
 40
0.6666666666666666
 40
0.6666666666666666
 40
0.6666666666666666
 40
0.6666666666666666
 40
1.0
 40
1.0
 40
1.0
 40
1.0
 10
-83.653000000000006
 20
65.620400000000004
 30
0.0
 10
-77.951099999999997
 20
65.215999999999994
 30
0.0
 10
-73.540099999999995
 20
65.540400000000005
 30
0.0
 10
-69.760000000000005
 20
65.103300000000004
 30
0.0
 10
-69.760000000000005
 20
65.103300000000004
 30
0.0
 10
-71.343100000000007
 20
68.561800000000005
 30
0.0
 10
-72.396900000000002
 20
72.854799999999997
 30
0.0
 10
-74.541600000000003
 20
78.149500000000003
 30
0.0
 10
-74.541600000000003
 20
78.149500000000003
 30
0.0
 10
-78.574200000000005
 20
74.861900000000006
 30
0.0
 10
-81.742699999999999
 20
70.554599999999994
 30
0.0
 10
-83.653000000000006
 20
65.620400000000004
 30
0.0
  0
SPLINE
  5
30
100
AcDbEntity
  8
RÚteg 1
 62
     7
100
AcDbSpline
210
0.0
220
0.0
230
1.0
 70
     1
 71
     3
 72
    16
 73
    12
 74
     0
 42
0.0000000001
 43
0.0000000001
 40
0.0
 40
0.0
 40
0.0
 40
0.0
 40
0.3333333333333333
 40
0.3333333333333333
 40
0.3333333333333333
 40
0.3333333333333333
 40
0.6666666666666666
 40
0.6666666666666666
 40
0.6666666666666666
 40
0.6666666666666666
 40
1.0
 40
1.0
 40
1.0
 40
1.0
 10
-71.855900000000005
 20
80.104500000000002
 30
0.0
 10
-67.482399999999998
 20
76.427599999999998
 30
0.0
 10
-63.724400000000003
 20
74.097999999999999
 30
0.0
 10
-60.923699999999997
 20
71.523300000000006
 30
0.0
 10
-60.923699999999997
 20
71.523300000000006
 30
0.0
 10
-60.171799999999998
 20
75.251999999999995
 30
0.0
 10
-58.500700000000002
 20
79.345200000000006
 30
0.0
 10
-57.124000000000002
 20
84.889700000000005
 30
0.0
 10
-57.124000000000002
 20
84.889700000000005
 30
0.0
 10
-62.535899999999998
 20
84.596500000000006
 30
0.0
 10
-67.569599999999994
 20
82.878900000000002
 30
0.0
 10
-71.855900000000005
 20
80.104500000000002
 30
0.0
  0
SPLINE
  5
31
100
AcDbEntity
  8
RÚteg 1
 62
     7
100
AcDbSpline
210
0.0
220
0.0
230
1.0
 70
     1
 71
     3
 72
    84
 73
    80
 74
     0
 42
0.0000000001
 43
0.0000000001
 40
0.0
 40
0.0
 40
0.0
 40
0.0
 40
0.05
 40
0.05
 40
0.05
 40
0.05
 40
0.1
 40
0.1
 40
0.1
 40
0.1
 40
0.15
 40
0.15
 40
0.15
 40
0.15
 40
0.2
 40
0.2
 40
0.2
 40
0.2
 40
0.25
 40
0.25
 40
0.25
 40
0.25
 40
0.3
 40
0.3
 40
0.3
 40
0.3
 40
0.35
 40
0.35
 40
0.35
 40
0.35
 40
0.4
 40
0.4
 40
0.4
 40
0.4
 40
0.45
 40
0.45
 40
0.45
 40
0.45
 40
0.4999999999999999
 40
0.4999999999999999
 40
0.4999999999999999
 40
0.4999999999999999
 40
0.5499999999999999
 40
0.5499999999999999
 40
0.5499999999999999
 40
0.5499999999999999
 40
0.6
 40
0.6
 40
0.6
 40
0.6
 40
0.65
 40
0.65
 40
0.65
 40
0.65
 40
0.7000000000000001
 40
0.7000000000000001
 40
0.7000000000000001
 40
0.7000000000000001
 40
0.7500000000000001
 40
0.7500000000000001
 40
0.7500000000000001
 40
0.7500000000000001
 40
0.8000000000000002
 40
0.8000000000000002
 40
0.8000000000000002
 40
0.8000000000000002
 40
0.8500000000000002
 40
0.8500000000000002
 40
0.8500000000000002
 40
0.8500000000000002
 40
0.9000000000000002
 40
0.9000000000000002
 40
0.9000000000000002
 40
0.9000000000000002
 40
0.9500000000000003
 40
0.9500000000000003
 40
0.9500000000000003
 40
0.9500000000000003
 40
1.0
 40
1.0
 40
1.0
 40
1.0
 10
-55.463200000000001
 20
84.278099999999995
 30
0.0
 10
-54.566299999999998
 20
76.237700000000004
 30
0.0
 10
-52.206099999999999
 20
71.477900000000005
 30
0.0
 10
-51.3673
 20
67.3215
 30
0.0
 10
-51.3673
 20
67.3215
 30
0.0
 10
-48.246000000000002
 20
70.191199999999995
 30
0.0
 10
-43.538499999999999
 20
72.654700000000005
 30
0.0
 10
-38.087000000000003
 20
78.632300000000001
 30
0.0
 10
-38.087000000000003
 20
78.632300000000001
 30
0.0
 10
-42.087499999999999
 20
71.600399999999993
 30
0.0
 10
-42.9758
 20
66.362099999999998
 30
0.0
 10
-44.740499999999997
 20
62.506900000000002
 30
0.0
 10
-44.740499999999997
 20
62.506900000000002
 30
0.0
 10
-40.528399999999998
 20
62.993400000000001
 30
0.0
 10
-35.271900000000002
 20
62.219700000000003
 30
0.0
 10
-27.348099999999999
 20
63.851500000000001
 30
0.0
 10
-27.348099999999999
 20
63.851500000000001
 30
0.0
 10
-34.717599999999997
 20
60.5137
 30
0.0
 10
-38.515300000000003
 20
56.798200000000001
 30
0.0
 10
-42.209200000000003
 20
54.716099999999997
 30
0.0
 10
-42.209200000000003
 20
54.716099999999997
 30
0.0
 10
-38.515300000000003
 20
52.634099999999997
 30
0.0
 10
-34.717500000000001
 20
48.918399999999998
 30
0.0
 10
-27.347999999999999
 20
45.5809
 30
0.0
 10
-27.347999999999999
 20
45.5809
 30
0.0
 10
-35.271900000000002
 20
47.212400000000002
 30
0.0
 10
-40.528399999999998
 20
46.438600000000001
 30
0.0
 10
-44.740400000000001
 20
46.925400000000003
 30
0.0
 10
-44.740400000000001
 20
46.925400000000003
 30
0.0
 10
-42.9758
 20
43.07
 30
0.0
 10
-42.087200000000003
 20
37.831600000000002
 30
0.0
 10
-38.087000000000003
 20
30.800000000000001
 30
0.0
 10
-38.087000000000003
 20
30.800000000000001
 30
0.0
 10
-43.538499999999999
 20
36.7774
 30
0.0
 10
-48.246000000000002
 20
39.241
 30
0.0
 10
-51.3673
 20
42.110999999999997
 30
0.0
 10
-51.3673
 20
42.110999999999997
 30
0.0
 10
-52.205800000000004
 20
37.9542
 30
0.0
 10
-54.565899999999999
 20
33.194299999999998
 30
0.0
 10
-55.462800000000001
 20
25.154
 30
0.0
 10
-55.462800000000001
 20
25.154
 30
0.0
 10
-56.359900000000003
 20
33.194299999999998
 30
0.0
 10
-58.720100000000002
 20
37.9542
 30
0.0
 10
-59.558900000000001
 20
42.110999999999997
 30
0.0
 10
-59.558900000000001
 20
42.110999999999997
 30
0.0
 10
-62.680199999999999
 20
39.241
 30
0.0
 10
-67.387699999999995
 20
36.7774
 30
0.0
 10
-72.839200000000005
 20
30.800000000000001
 30
0.0
 10
-72.839200000000005
 20
30.800000000000001
 30
0.0
 10
-68.838700000000003
 20
37.831600000000002
 30
0.0
 10
-67.950400000000002
 20
43.07
 30
0.0
 10
-66.185699999999997
 20
46.925400000000003
 30
0.0
 10
-66.185699999999997
 20
46.925400000000003
 30
0.0
 10
-70.397900000000007
 20
46.438600000000001
 30
0.0
 10
-75.654300000000006
 20
47.212200000000003
 30
0.0
 10
-83.578100000000006
 20
45.580800000000004
 30
0.0
 10
-83.578100000000006
 20
45.580800000000004
 30
0.0
 10
-76.208600000000004
 20
48.918399999999998
 30
0.0
 10
-72.410700000000006
 20
52.634099999999997
 30
0.0
 10
-68.716999999999999
 20
54.716099999999997
 30
0.0
 10
-68.716999999999999
 20
54.716099999999997
 30
0.0
 10
-72.410899999999998
 20
56.798000000000002
 30
0.0
 10
-76.208600000000004
 20
60.513300000000001
 30
0.0
 10
-83.578199999999995
 20
63.851300000000002
 30
0.0
 10
-83.578199999999995
 20
63.851300000000002
 30
0.0
 10
-75.654300000000006
 20
62.2194
 30
0.0
 10
-70.397900000000007
 20
62.993400000000001
 30
0.0
 10
-66.1858
 20
62.506900000000002
 30
0.0
 10
-66.1858
 20
62.506900000000002
 30
0.0
 10
-67.950400000000002
 20
66.362099999999998
 30
0.0
 10
-68.838700000000003
 20
71.600399999999993
 30
0.0
 10
-72.839200000000005
 20
78.632300000000001
 30
0.0
 10
-72.839200000000005
 20
78.632300000000001
 30
0.0
 10
-67.387699999999995
 20
72.654499999999999
 30
0.0
 10
-62.680300000000003
 20
70.191000000000003
 30
0.0
 10
-59.558900000000001
 20
67.321299999999994
 30
0.0
 10
-59.558900000000001
 20
67.321299999999994
 30
0.0
 10
-58.720399999999998
 20
71.477900000000005
 30
0.0
 10
-56.360300000000002
 20
76.237700000000004
 30
0.0
 10
-55.463200000000001
 20
84.278099999999995
 30
0.0
  0
SPLINE
  5
32
100
AcDbEntity
  8
RÚteg 1
 62
     7
100
AcDbSpline
210
0.0
220
0.0
230
1.0
 70
     1
 71
     3
 72
    28
 73
    24
 74
     0
 42
0.0000000001
 43
0.0000000001
 40
0.0
 40
0.0
 40
0.0
 40
0.0
 40
0.1666666666666667
 40
0.1666666666666667
 40
0.1666666666666667
 40
0.1666666666666667
 40
0.3333333333333333
 40
0.3333333333333333
 40
0.3333333333333333
 40
0.3333333333333333
 40
0.5
 40
0.5
 40
0.5
 40
0.5
 40
0.6666666666666666
 40
0.6666666666666666
 40
0.6666666666666666
 40
0.6666666666666666
 40
0.8333333333333333
 40
0.8333333333333333
 40
0.8333333333333333
 40
0.8333333333333333
 40
1.0
 40
1.0
 40
1.0
 40
1.0
 10
23.141200000000001
 20
85.9786
 30
0.0
 10
23.956
 20
85.9786
 30
0.0
 10
24.7636
 20
85.948800000000006
 30
0.0
 10
25.563800000000001
 20
85.892099999999999
 30
0.0
 10
25.563800000000001
 20
85.892099999999999
 30
0.0
 10
26.661300000000001
 20
86.657899999999998
 30
0.0
 10
27.379799999999999
 20
87.929900000000004
 30
0.0
 10
27.379799999999999
 20
89.369500000000002
 30
0.0
 10
27.379799999999999
 20
89.369500000000002
 30
0.0
 10
27.379799999999999
 20
91.710300000000004
 30
0.0
 10
25.4819
 20
93.6083
 30
0.0
 10
23.141200000000001
 20
93.6083
 30
0.0
 10
23.141200000000001
 20
93.6083
 30
0.0
 10
20.800899999999999
 20
93.6083
 30
0.0
 10
18.902699999999999
 20
91.710300000000004
 30
0.0
 10
18.902699999999999
 20
89.369500000000002
 30
0.0
 10
18.902699999999999
 20
89.369500000000002
 30
0.0
 10
18.902699999999999
 20
87.929900000000004
 30
0.0
 10
19.621200000000002
 20
86.657899999999998
 30
0.0
 10
20.718599999999999
 20
85.892099999999999
 30
0.0
 10
20.718599999999999
 20
85.892099999999999
 30
0.0
 10
21.518799999999999
 20
85.948800000000006
 30
0.0
 10
22.326499999999999
 20
85.9786
 30
0.0
 10
23.141200000000001
 20
85.9786
 30
0.0
  0
SPLINE
  5
33
100
AcDbEntity
  8
RÚteg 1
 62
     7
100
AcDbSpline
210
0.0
220
0.0
230
1.0
 70
     1
 71
     3
 72
    24
 73
    20
 74
     0
 42
0.0000000001
 43
0.0000000001
 40
0.0
 40
0.0
 40
0.0
 40
0.0
 40
0.2
 40
0.2
 40
0.2
 40
0.2
 40
0.4
 40
0.4
 40
0.4
 40
0.4
 40
0.6000000000000001
 40
0.6000000000000001
 40
0.6000000000000001
 40
0.6000000000000001
 40
0.8
 40
0.8
 40
0.8
 40
0.8
 40
1.0
 40
1.0
 40
1.0
 40
1.0
 10
24.2895
 20
64.310699999999997
 30
0.0
 10
26.821999999999999
 20
64.075699999999998
 30
0.0
 10
29.132000000000001
 20
63.0732
 30
0.0
 10
30.984400000000001
 20
61.536900000000003
 30
0.0
 10
30.984400000000001
 20
61.536900000000003
 30
0.0
 10
30.984400000000001
 20
61.536900000000003
 30
0.0
 10
33.2211
 20
63.773800000000001
 30
0.0
 10
33.2211
 20
63.773800000000001
 30
0.0
 10
33.2211
 20
63.773800000000001
 30
0.0
 10
33.2211
 20
63.773800000000001
 30
0.0
 10
32.506
 20
74.452299999999994
 30
0.0
 10
32.506
 20
74.452299999999994
 30
0.0
 10
32.506
 20
74.452299999999994
 30
0.0
 10
32.506
 20
74.452299999999994
 30
0.0
 10
24.2895
 20
67.267300000000006
 30
0.0
 10
24.2895
 20
67.267300000000006
 30
0.0
 10
24.2895
 20
67.267300000000006
 30
0.0
 10
24.2895
 20
67.267300000000006
 30
0.0
 10
24.2895
 20
64.310699999999997
 30
0.0
 10
24.2895
 20
64.310699999999997
 30
0.0
  0
SPLINE
  5
34
100
AcDbEntity
  8
RÚteg 1
 62
     7
100
AcDbSpline
210
0.0
220
0.0
230
1.0
 70
     1
 71
     3
 72
    24
 73
    20
 74
     0
 42
0.0000000001
 43
0.0000000001
 40
0.0
 40
0.0
 40
0.0
 40
0.0
 40
0.2
 40
0.2
 40
0.2
 40
0.2
 40
0.4
 40
0.4
 40
0.4
 40
0.4
 40
0.6000000000000001
 40
0.6000000000000001
 40
0.6000000000000001
 40
0.6000000000000001
 40
0.8
 40
0.8
 40
0.8
 40
0.8
 40
1.0
 40
1.0
 40
1.0
 40
1.0
 10
32.608199999999997
 20
59.912999999999997
 30
0.0
 10
34.144199999999998
 20
58.061100000000003
 30
0.0
 10
35.146799999999999
 20
55.750599999999999
 30
0.0
 10
35.381599999999999
 20
53.218200000000003
 30
0.0
 10
35.381599999999999
 20
53.218200000000003
 30
0.0
 10
35.381599999999999
 20
53.218200000000003
 30
0.0
 10
38.544600000000003
 20
53.218200000000003
 30
0.0
 10
38.544600000000003
 20
53.218200000000003
 30
0.0
 10
38.544600000000003
 20
53.218200000000003
 30
0.0
 10
38.544600000000003
 20
53.218200000000003
 30
0.0
 10
45.589700000000001
 20
61.274799999999999
 30
0.0
 10
45.589700000000001
 20
61.274799999999999
 30
0.0
 10
45.589700000000001
 20
61.274799999999999
 30
0.0
 10
45.589700000000001
 20
61.274799999999999
 30
0.0
 10
34.698999999999998
 20
62.004100000000001
 30
0.0
 10
34.698999999999998
 20
62.004100000000001
 30
0.0
 10
34.698999999999998
 20
62.004100000000001
 30
0.0
 10
34.698999999999998
 20
62.004100000000001
 30
0.0
 10
32.608199999999997
 20
59.912999999999997
 30
0.0
 10
32.608199999999997
 20
59.912999999999997
 30
0.0
  0
SPLINE
  5
35
100
AcDbEntity
  8
RÚteg 1
 62
     7
100
AcDbSpline
210
0.0
220
0.0
230
1.0
 70
     1
 71
     3
 72
    24
 73
    20
 74
     0
 42
0.0000000001
 43
0.0000000001
 40
0.0
 40
0.0
 40
0.0
 40
0.0
 40
0.2
 40
0.2
 40
0.2
 40
0.2
 40
0.4
 40
0.4
 40
0.4
 40
0.4
 40
0.6000000000000001
 40
0.6000000000000001
 40
0.6000000000000001
 40
0.6000000000000001
 40
0.8
 40
0.8
 40
0.8
 40
0.8
 40
1.0
 40
1.0
 40
1.0
 40
1.0
 10
35.381599999999999
 20
50.9221
 30
0.0
 10
35.146799999999999
 20
48.389499999999998
 30
0.0
 10
34.144199999999998
 20
46.079300000000003
 30
0.0
 10
32.608199999999997
 20
44.226900000000001
 30
0.0
 10
32.608199999999997
 20
44.226900000000001
 30
0.0
 10
32.608199999999997
 20
44.226900000000001
 30
0.0
 10
34.844999999999999
 20
41.990200000000002
 30
0.0
 10
34.844999999999999
 20
41.990200000000002
 30
0.0
 10
34.844999999999999
 20
41.990200000000002
 30
0.0
 10
34.844999999999999
 20
41.990200000000002
 30
0.0
 10
45.523499999999999
 20
42.705199999999998
 30
0.0
 10
45.523499999999999
 20
42.705199999999998
 30
0.0
 10
45.523499999999999
 20
42.705199999999998
 30
0.0
 10
45.523499999999999
 20
42.705199999999998
 30
0.0
 10
38.3386
 20
50.9221
 30
0.0
 10
38.3386
 20
50.9221
 30
0.0
 10
38.3386
 20
50.9221
 30
0.0
 10
38.3386
 20
50.9221
 30
0.0
 10
35.381599999999999
 20
50.9221
 30
0.0
 10
35.381599999999999
 20
50.9221
 30
0.0
  0
SPLINE
  5
36
100
AcDbEntity
  8
RÚteg 1
 62
     7
100
AcDbSpline
210
0.0
220
0.0
230
1.0
 70
     1
 71
     3
 72
    24
 73
    20
 74
     0
 42
0.0000000001
 43
0.0000000001
 40
0.0
 40
0.0
 40
0.0
 40
0.0
 40
0.2
 40
0.2
 40
0.2
 40
0.2
 40
0.4
 40
0.4
 40
0.4
 40
0.4
 40
0.6000000000000001
 40
0.6000000000000001
 40
0.6000000000000001
 40
0.6000000000000001
 40
0.8
 40
0.8
 40
0.8
 40
0.8
 40
1.0
 40
1.0
 40
1.0
 40
1.0
 10
30.983899999999998
 20
42.603299999999997
 30
0.0
 10
29.132000000000001
 20
41.067100000000003
 30
0.0
 10
26.821999999999999
 20
40.064300000000003
 30
0.0
 10
24.2895
 20
39.829599999999999
 30
0.0
 10
24.2895
 20
39.829599999999999
 30
0.0
 10
24.2895
 20
39.829599999999999
 30
0.0
 10
24.2895
 20
36.666600000000003
 30
0.0
 10
24.2895
 20
36.666600000000003
 30
0.0
 10
24.2895
 20
36.666600000000003
 30
0.0
 10
24.2895
 20
36.666600000000003
 30
0.0
 10
32.345799999999997
 20
29.621500000000001
 30
0.0
 10
32.345799999999997
 20
29.621500000000001
 30
0.0
 10
32.345799999999997
 20
29.621500000000001
 30
0.0
 10
32.345799999999997
 20
29.621500000000001
 30
0.0
 10
33.075299999999999
 20
40.512099999999997
 30
0.0
 10
33.075299999999999
 20
40.512099999999997
 30
0.0
 10
33.075299999999999
 20
40.512099999999997
 30
0.0
 10
33.075299999999999
 20
40.512099999999997
 30
0.0
 10
30.983899999999998
 20
42.603299999999997
 30
0.0
 10
30.983899999999998
 20
42.603299999999997
 30
0.0
  0
SPLINE
  5
37
100
AcDbEntity
  8
RÚteg 1
 62
     7
100
AcDbSpline
210
0.0
220
0.0
230
1.0
 70
     1
 71
     3
 72
    24
 73
    20
 74
     0
 42
0.0000000001
 43
0.0000000001
 40
0.0
 40
0.0
 40
0.0
 40
0.0
 40
0.2
 40
0.2
 40
0.2
 40
0.2
 40
0.4
 40
0.4
 40
0.4
 40
0.4
 40
0.6000000000000001
 40
0.6000000000000001
 40
0.6000000000000001
 40
0.6000000000000001
 40
0.8
 40
0.8
 40
0.8
 40
0.8
 40
1.0
 40
1.0
 40
1.0
 40
1.0
 10
21.993300000000001
 20
39.829599999999999
 30
0.0
 10
19.4605
 20
40.064300000000003
 30
0.0
 10
17.150400000000001
 20
41.066899999999997
 30
0.0
 10
15.298299999999999
 20
42.603099999999998
 30
0.0
 10
15.298299999999999
 20
42.603099999999998
 30
0.0
 10
15.298299999999999
 20
42.603099999999998
 30
0.0
 10
13.0611
 20
40.366199999999999
 30
0.0
 10
13.0611
 20
40.366199999999999
 30
0.0
 10
13.0611
 20
40.366199999999999
 30
0.0
 10
13.0611
 20
40.366199999999999
 30
0.0
 10
13.7765
 20
29.6877
 30
0.0
 10
13.7765
 20
29.6877
 30
0.0
 10
13.7765
 20
29.6877
 30
0.0
 10
13.7765
 20
29.6877
 30
0.0
 10
21.993300000000001
 20
36.872700000000002
 30
0.0
 10
21.993300000000001
 20
36.872700000000002
 30
0.0
 10
21.993300000000001
 20
36.872700000000002
 30
0.0
 10
21.993300000000001
 20
36.872700000000002
 30
0.0
 10
21.993300000000001
 20
39.829599999999999
 30
0.0
 10
21.993300000000001
 20
39.829599999999999
 30
0.0
  0
SPLINE
  5
38
100
AcDbEntity
  8
RÚteg 1
 62
     7
100
AcDbSpline
210
0.0
220
0.0
230
1.0
 70
     1
 71
     3
 72
    24
 73
    20
 74
     0
 42
0.0000000001
 43
0.0000000001
 40
0.0
 40
0.0
 40
0.0
 40
0.0
 40
0.2
 40
0.2
 40
0.2
 40
0.2
 40
0.4
 40
0.4
 40
0.4
 40
0.4
 40
0.6000000000000001
 40
0.6000000000000001
 40
0.6000000000000001
 40
0.6000000000000001
 40
0.8
 40
0.8
 40
0.8
 40
0.8
 40
1.0
 40
1.0
 40
1.0
 40
1.0
 10
13.6744
 20
44.226900000000001
 30
0.0
 10
12.138400000000001
 20
46.079300000000003
 30
0.0
 10
11.1357
 20
48.389400000000002
 30
0.0
 10
10.9011
 20
50.9221
 30
0.0
 10
10.9011
 20
50.9221
 30
0.0
 10
10.9011
 20
50.9221
 30
0.0
 10
7.7378999999999998
 20
50.9221
 30
0.0
 10
7.7378999999999998
 20
50.9221
 30
0.0
 10
7.7378999999999998
 20
50.9221
 30
0.0
 10
7.7378999999999998
 20
50.9221
 30
0.0
 10
0.6928
 20
42.865299999999998
 30
0.0
 10
0.6928
 20
42.865299999999998
 30
0.0
 10
0.6928
 20
42.865299999999998
 30
0.0
 10
0.6928
 20
42.865299999999998
 30
0.0
 10
11.583500000000001
 20
42.136000000000003
 30
0.0
 10
11.583500000000001
 20
42.136000000000003
 30
0.0
 10
11.583500000000001
 20
42.136000000000003
 30
0.0
 10
11.583500000000001
 20
42.136000000000003
 30
0.0
 10
13.6744
 20
44.226900000000001
 30
0.0
 10
13.6744
 20
44.226900000000001
 30
0.0
  0
SPLINE
  5
39
100
AcDbEntity
  8
RÚteg 1
 62
     7
100
AcDbSpline
210
0.0
220
0.0
230
1.0
 70
     1
 71
     3
 72
    24
 73
    20
 74
     0
 42
0.0000000001
 43
0.0000000001
 40
0.0
 40
0.0
 40
0.0
 40
0.0
 40
0.2
 40
0.2
 40
0.2
 40
0.2
 40
0.4
 40
0.4
 40
0.4
 40
0.4
 40
0.6000000000000001
 40
0.6000000000000001
 40
0.6000000000000001
 40
0.6000000000000001
 40
0.8
 40
0.8
 40
0.8
 40
0.8
 40
1.0
 40
1.0
 40
1.0
 40
1.0
 10
10.9011
 20
53.218200000000003
 30
0.0
 10
11.1357
 20
55.750599999999999
 30
0.0
 10
12.1381
 20
58.061
 30
0.0
 10
13.674300000000001
 20
59.912999999999997
 30
0.0
 10
13.674300000000001
 20
59.912999999999997
 30
0.0
 10
13.674300000000001
 20
59.912999999999997
 30
0.0
 10
11.4376
 20
62.149900000000002
 30
0.0
 10
11.4376
 20
62.149900000000002
 30
0.0
 10
11.4376
 20
62.149900000000002
 30
0.0
 10
11.4376
 20
62.149900000000002
 30
0.0
 10
0.759
 20
61.435000000000002
 30
0.0
 10
0.759
 20
61.435000000000002
 30
0.0
 10
0.759
 20
61.435000000000002
 30
0.0
 10
0.759
 20
61.435000000000002
 30
0.0
 10
7.9439000000000002
 20
53.218200000000003
 30
0.0
 10
7.9439000000000002
 20
53.218200000000003
 30
0.0
 10
7.9439000000000002
 20
53.218200000000003
 30
0.0
 10
7.9439000000000002
 20
53.218200000000003
 30
0.0
 10
10.9011
 20
53.218200000000003
 30
0.0
 10
10.9011
 20
53.218200000000003
 30
0.0
  0
SPLINE
  5
3A
100
AcDbEntity
  8
RÚteg 1
 62
     7
100
AcDbSpline
210
0.0
220
0.0
230
1.0
 70
     1
 71
     3
 72
    24
 73
    20
 74
     0
 42
0.0000000001
 43
0.0000000001
 40
0.0
 40
0.0
 40
0.0
 40
0.0
 40
0.2
 40
0.2
 40
0.2
 40
0.2
 40
0.4
 40
0.4
 40
0.4
 40
0.4
 40
0.6000000000000001
 40
0.6000000000000001
 40
0.6000000000000001
 40
0.6000000000000001
 40
0.8
 40
0.8
 40
0.8
 40
0.8
 40
1.0
 40
1.0
 40
1.0
 40
1.0
 10
15.2981
 20
61.536900000000003
 30
0.0
 10
17.150400000000001
 20
63.073
 30
0.0
 10
19.4605
 20
64.075699999999998
 30
0.0
 10
21.993300000000001
 20
64.310699999999997
 30
0.0
 10
21.993300000000001
 20
64.310699999999997
 30
0.0
 10
21.993300000000001
 20
64.310699999999997
 30
0.0
 10
21.993300000000001
 20
67.473399999999998
 30
0.0
 10
21.993300000000001
 20
67.473399999999998
 30
0.0
 10
21.993300000000001
 20
67.473399999999998
 30
0.0
 10
21.993300000000001
 20
67.473399999999998
 30
0.0
 10
13.9367
 20
74.518600000000006
 30
0.0
 10
13.9367
 20
74.518600000000006
 30
0.0
 10
13.9367
 20
74.518600000000006
 30
0.0
 10
13.9367
 20
74.518600000000006
 30
0.0
 10
13.207100000000001
 20
63.627899999999997
 30
0.0
 10
13.207100000000001
 20
63.627899999999997
 30
0.0
 10
13.207100000000001
 20
63.627899999999997
 30
0.0
 10
13.207100000000001
 20
63.627899999999997
 30
0.0
 10
15.2981
 20
61.536900000000003
 30
0.0
 10
15.2981
 20
61.536900000000003
 30
0.0
  0
SPLINE
  5
3B
100
AcDbEntity
  8
RÚteg 1
 62
     7
100
AcDbSpline
210
0.0
220
0.0
230
1.0
 70
     1
 71
     3
 72
    16
 73
    12
 74
     0
 42
0.0000000001
 43
0.0000000001
 40
0.0
 40
0.0
 40
0.0
 40
0.0
 40
0.3333333333333333
 40
0.3333333333333333
 40
0.3333333333333333
 40
0.3333333333333333
 40
0.6666666666666666
 40
0.6666666666666666
 40
0.6666666666666666
 40
0.6666666666666666
 40
1.0
 40
1.0
 40
1.0
 40
1.0
 10
24.2895
 20
60.782800000000002
 30
0.0
 10
25.8568
 20
60.578000000000003
 30
0.0
 10
27.294
 20
59.959899999999998
 30
0.0
 10
28.489100000000001
 20
59.041800000000002
 30
0.0
 10
28.489100000000001
 20
59.041800000000002
 30
0.0
 10
28.489100000000001
 20
59.041800000000002
 30
0.0
 10
24.2895
 20
54.842500000000001
 30
0.0
 10
24.2895
 20
54.842500000000001
 30
0.0
 10
24.2895
 20
54.842500000000001
 30
0.0
 10
24.2895
 20
54.842500000000001
 30
0.0
 10
24.2895
 20
60.782800000000002
 30
0.0
 10
24.2895
 20
60.782800000000002
 30
0.0
  0
SPLINE
  5
3C
100
AcDbEntity
  8
RÚteg 1
 62
     7
100
AcDbSpline
210
0.0
220
0.0
230
1.0
 70
     1
 71
     3
 72
    16
 73
    12
 74
     0
 42
0.0000000001
 43
0.0000000001
 40
0.0
 40
0.0
 40
0.0
 40
0.0
 40
0.3333333333333333
 40
0.3333333333333333
 40
0.3333333333333333
 40
0.3333333333333333
 40
0.6666666666666666
 40
0.6666666666666666
 40
0.6666666666666666
 40
0.6666666666666666
 40
1.0
 40
1.0
 40
1.0
 40
1.0
 10
30.113
 20
57.417700000000004
 30
0.0
 10
31.031099999999999
 20
56.222999999999999
 30
0.0
 10
31.6492
 20
54.785699999999999
 30
0.0
 10
31.8537
 20
53.218200000000003
 30
0.0
 10
31.8537
 20
53.218200000000003
 30
0.0
 10
31.8537
 20
53.218200000000003
 30
0.0
 10
25.913399999999999
 20
53.218200000000003
 30
0.0
 10
25.913399999999999
 20
53.218200000000003
 30
0.0
 10
25.913399999999999
 20
53.218200000000003
 30
0.0
 10
25.913399999999999
 20
53.218200000000003
 30
0.0
 10
30.113
 20
57.417700000000004
 30
0.0
 10
30.113
 20
57.417700000000004
 30
0.0
  0
SPLINE
  5
3D
100
AcDbEntity
  8
RÚteg 1
 62
     7
100
AcDbSpline
210
0.0
220
0.0
230
1.0
 70
     1
 71
     3
 72
    16
 73
    12
 74
     0
 42
0.0000000001
 43
0.0000000001
 40
0.0
 40
0.0
 40
0.0
 40
0.0
 40
0.3333333333333333
 40
0.3333333333333333
 40
0.3333333333333333
 40
0.3333333333333333
 40
0.6666666666666666
 40
0.6666666666666666
 40
0.6666666666666666
 40
0.6666666666666666
 40
1.0
 40
1.0
 40
1.0
 40
1.0
 10
31.8537
 20
50.9221
 30
0.0
 10
31.648700000000002
 20
49.354799999999997
 30
0.0
 10
31.031099999999999
 20
47.917200000000001
 30
0.0
 10
30.113
 20
46.722200000000001
 30
0.0
 10
30.113
 20
46.722200000000001
 30
0.0
 10
30.113
 20
46.722200000000001
 30
0.0
 10
25.913399999999999
 20
50.9221
 30
0.0
 10
25.913399999999999
 20
50.9221
 30
0.0
 10
25.913399999999999
 20
50.9221
 30
0.0
 10
25.913399999999999
 20
50.9221
 30
0.0
 10
31.8537
 20
50.9221
 30
0.0
 10
31.8537
 20
50.9221
 30
0.0
  0
SPLINE
  5
3E
100
AcDbEntity
  8
RÚteg 1
 62
     7
100
AcDbSpline
210
0.0
220
0.0
230
1.0
 70
     1
 71
     3
 72
    16
 73
    12
 74
     0
 42
0.0000000001
 43
0.0000000001
 40
0.0
 40
0.0
 40
0.0
 40
0.0
 40
0.3333333333333333
 40
0.3333333333333333
 40
0.3333333333333333
 40
0.3333333333333333
 40
0.6666666666666666
 40
0.6666666666666666
 40
0.6666666666666666
 40
0.6666666666666666
 40
1.0
 40
1.0
 40
1.0
 40
1.0
 10
28.489100000000001
 20
45.098500000000001
 30
0.0
 10
27.294
 20
44.180399999999999
 30
0.0
 10
25.8567
 20
43.562399999999997
 30
0.0
 10
24.2895
 20
43.357900000000001
 30
0.0
 10
24.2895
 20
43.357900000000001
 30
0.0
 10
24.2895
 20
43.357900000000001
 30
0.0
 10
24.2895
 20
49.297899999999998
 30
0.0
 10
24.2895
 20
49.297899999999998
 30
0.0
 10
24.2895
 20
49.297899999999998
 30
0.0
 10
24.2895
 20
49.297899999999998
 30
0.0
 10
28.489100000000001
 20
45.098500000000001
 30
0.0
 10
28.489100000000001
 20
45.098500000000001
 30
0.0
  0
SPLINE
  5
3F
100
AcDbEntity
  8
RÚteg 1
 62
     7
100
AcDbSpline
210
0.0
220
0.0
230
1.0
 70
     1
 71
     3
 72
    16
 73
    12
 74
     0
 42
0.0000000001
 43
0.0000000001
 40
0.0
 40
0.0
 40
0.0
 40
0.0
 40
0.3333333333333333
 40
0.3333333333333333
 40
0.3333333333333333
 40
0.3333333333333333
 40
0.6666666666666666
 40
0.6666666666666666
 40
0.6666666666666666
 40
0.6666666666666666
 40
1.0
 40
1.0
 40
1.0
 40
1.0
 10
21.993300000000001
 20
43.357900000000001
 30
0.0
 10
20.425999999999998
 20
43.562399999999997
 30
0.0
 10
18.988499999999998
 20
44.180199999999999
 30
0.0
 10
17.793399999999998
 20
45.098500000000001
 30
0.0
 10
17.793399999999998
 20
45.098500000000001
 30
0.0
 10
17.793399999999998
 20
45.098500000000001
 30
0.0
 10
21.993300000000001
 20
49.297899999999998
 30
0.0
 10
21.993300000000001
 20
49.297899999999998
 30
0.0
 10
21.993300000000001
 20
49.297899999999998
 30
0.0
 10
21.993300000000001
 20
49.297899999999998
 30
0.0
 10
21.993300000000001
 20
43.357900000000001
 30
0.0
 10
21.993300000000001
 20
43.357900000000001
 30
0.0
  0
SPLINE
  5
40
100
AcDbEntity
  8
RÚteg 1
 62
     7
100
AcDbSpline
210
0.0
220
0.0
230
1.0
 70
     1
 71
     3
 72
    16
 73
    12
 74
     0
 42
0.0000000001
 43
0.0000000001
 40
0.0
 40
0.0
 40
0.0
 40
0.0
 40
0.3333333333333333
 40
0.3333333333333333
 40
0.3333333333333333
 40
0.3333333333333333
 40
0.6666666666666666
 40
0.6666666666666666
 40
0.6666666666666666
 40
0.6666666666666666
 40
1.0
 40
1.0
 40
1.0
 40
1.0
 10
16.169699999999999
 20
46.722200000000001
 30
0.0
 10
15.2516
 20
47.917200000000001
 30
0.0
 10
14.6333
 20
49.354799999999997
 30
0.0
 10
14.428800000000001
 20
50.9221
 30
0.0
 10
14.428800000000001
 20
50.9221
 30
0.0
 10
14.428800000000001
 20
50.9221
 30
0.0
 10
20.3691
 20
50.9221
 30
0.0
 10
20.3691
 20
50.9221
 30
0.0
 10
20.3691
 20
50.9221
 30
0.0
 10
20.3691
 20
50.9221
 30
0.0
 10
16.169699999999999
 20
46.722200000000001
 30
0.0
 10
16.169699999999999
 20
46.722200000000001
 30
0.0
  0
SPLINE
  5
41
100
AcDbEntity
  8
RÚteg 1
 62
     7
100
AcDbSpline
210
0.0
220
0.0
230
1.0
 70
     1
 71
     3
 72
    16
 73
    12
 74
     0
 42
0.0000000001
 43
0.0000000001
 40
0.0
 40
0.0
 40
0.0
 40
0.0
 40
0.3333333333333333
 40
0.3333333333333333
 40
0.3333333333333333
 40
0.3333333333333333
 40
0.6666666666666666
 40
0.6666666666666666
 40
0.6666666666666666
 40
0.6666666666666666
 40
1.0
 40
1.0
 40
1.0
 40
1.0
 10
14.428800000000001
 20
53.218200000000003
 30
0.0
 10
14.633800000000001
 20
54.785499999999999
 30
0.0
 10
15.2516
 20
56.222700000000003
 30
0.0
 10
16.169499999999999
 20
57.417700000000004
 30
0.0
 10
16.169499999999999
 20
57.417700000000004
 30
0.0
 10
16.169499999999999
 20
57.417700000000004
 30
0.0
 10
20.3691
 20
53.218200000000003
 30
0.0
 10
20.3691
 20
53.218200000000003
 30
0.0
 10
20.3691
 20
53.218200000000003
 30
0.0
 10
20.3691
 20
53.218200000000003
 30
0.0
 10
14.428800000000001
 20
53.218200000000003
 30
0.0
 10
14.428800000000001
 20
53.218200000000003
 30
0.0
  0
SPLINE
  5
42
100
AcDbEntity
  8
RÚteg 1
 62
     7
100
AcDbSpline
210
0.0
220
0.0
230
1.0
 70
     1
 71
     3
 72
    16
 73
    12
 74
     0
 42
0.0000000001
 43
0.0000000001
 40
0.0
 40
0.0
 40
0.0
 40
0.0
 40
0.3333333333333333
 40
0.3333333333333333
 40
0.3333333333333333
 40
0.3333333333333333
 40
0.6666666666666666
 40
0.6666666666666666
 40
0.6666666666666666
 40
0.6666666666666666
 40
1.0
 40
1.0
 40
1.0
 40
1.0
 10
17.793399999999998
 20
59.041800000000002
 30
0.0
 10
18.988299999999999
 20
59.959899999999998
 30
0.0
 10
20.425699999999999
 20
60.578000000000003
 30
0.0
 10
21.993300000000001
 20
60.782800000000002
 30
0.0
 10
21.993300000000001
 20
60.782800000000002
 30
0.0
 10
21.993300000000001
 20
60.782800000000002
 30
0.0
 10
21.993300000000001
 20
54.842500000000001
 30
0.0
 10
21.993300000000001
 20
54.842500000000001
 30
0.0
 10
21.993300000000001
 20
54.842500000000001
 30
0.0
 10
21.993300000000001
 20
54.842500000000001
 30
0.0
 10
17.793399999999998
 20
59.041800000000002
 30
0.0
 10
17.793399999999998
 20
59.041800000000002
 30
0.0
  0
SPLINE
  5
43
100
AcDbEntity
  8
RÚteg 1
 62
     7
100
AcDbSpline
210
0.0
220
0.0
230
1.0
 70
     1
 71
     3
 72
    36
 73
    32
 74
     0
 42
0.0000000001
 43
0.0000000001
 40
0.0
 40
0.0
 40
0.0
 40
0.0
 40
0.125
 40
0.125
 40
0.125
 40
0.125
 40
0.25
 40
0.25
 40
0.25
 40
0.25
 40
0.375
 40
0.375
 40
0.375
 40
0.375
 40
0.5
 40
0.5
 40
0.5
 40
0.5
 40
0.625
 40
0.625
 40
0.625
 40
0.625
 40
0.75
 40
0.75
 40
0.75
 40
0.75
 40
0.875
 40
0.875
 40
0.875
 40
0.875
 40
1.0
 40
1.0
 40
1.0
 40
1.0
 10
27.769500000000001
 20
85.662700000000001
 30
0.0
 10
44.304600000000001
 20
83.404799999999994
 30
0.0
 10
57.049999999999997
 20
69.223699999999994
 30
0.0
 10
57.049999999999997
 20
52.069899999999997
 30
0.0
 10
57.049999999999997
 20
52.069899999999997
 30
0.0
 10
57.049999999999997
 20
33.3459
 30
0.0
 10
41.865400000000001
 20
18.161100000000001
 30
0.0
 10
23.141200000000001
 20
18.161100000000001
 30
0.0
 10
23.141200000000001
 20
18.161100000000001
 30
0.0
 10
4.4173999999999998
 20
18.161100000000001
 30
0.0
 10
-10.7675
 20
33.3459
 30
0.0
 10
-10.7675
 20
52.069899999999997
 30
0.0
 10
-10.7675
 20
52.069899999999997
 30
0.0
 10
-10.7675
 20
69.223699999999994
 30
0.0
 10
1.9781
 20
83.404799999999994
 30
0.0
 10
18.513100000000001
 20
85.662700000000001
 30
0.0
 10
18.513100000000001
 20
85.662700000000001
 30
0.0
 10
17.698499999999999
 20
86.678399999999996
 30
0.0
 10
17.210999999999999
 20
87.967100000000002
 30
0.0
 10
17.210999999999999
 20
89.369500000000002
 30
0.0
 10
17.210999999999999
 20
89.369500000000002
 30
0.0
 10
17.210999999999999
 20
92.644499999999994
 30
0.0
 10
19.866800000000001
 20
95.299999999999997
 30
0.0
 10
23.141200000000001
 20
95.299999999999997
 30
0.0
 10
23.141200000000001
 20
95.299999999999997
 30
0.0
 10
26.416
 20
95.299999999999997
 30
0.0
 10
29.0715
 20
92.644499999999994
 30
0.0
 10
29.0715
 20
89.369500000000002
 30
0.0
 10
29.0715
 20
89.369500000000002
 30
0.0
 10
29.0715
 20
87.967100000000002
 30
0.0
 10
28.584
 20
86.678399999999996
 30
0.0
 10
27.769500000000001
 20
85.662700000000001
 30
0.0
  0
SPLINE
  5
44
100
AcDbEntity
  8
RÚteg 1
 62
     7
100
AcDbSpline
210
0.0
220
0.0
230
1.0
 70
     1
 71
     3
 72
    32
 73
    28
 74
     0
 42
0.0000000001
 43
0.0000000001
 40
0.0
 40
0.0
 40
0.0
 40
0.0
 40
0.1428571428571429
 40
0.1428571428571429
 40
0.1428571428571429
 40
0.1428571428571429
 40
0.2857142857142857
 40
0.2857142857142857
 40
0.2857142857142857
 40
0.2857142857142857
 40
0.4285714285714286
 40
0.4285714285714286
 40
0.4285714285714286
 40
0.4285714285714286
 40
0.5714285714285714
 40
0.5714285714285714
 40
0.5714285714285714
 40
0.5714285714285714
 40
0.7142857142857142
 40
0.7142857142857142
 40
0.7142857142857142
 40
0.7142857142857142
 40
0.857142857142857
 40
0.857142857142857
 40
0.857142857142857
 40
0.857142857142857
 40
1.0
 40
1.0
 40
1.0
 40
1.0
 10
21.993300000000001
 20
80.994699999999995
 30
0.0
 10
21.993300000000001
 20
80.994699999999995
 30
0.0
 10
24.2895
 20
80.994699999999995
 30
0.0
 10
24.2895
 20
80.994699999999995
 30
0.0
 10
24.2895
 20
80.994699999999995
 30
0.0
 10
24.2895
 20
80.994699999999995
 30
0.0
 10
24.2895
 20
79.340900000000005
 30
0.0
 10
24.2895
 20
79.340900000000005
 30
0.0
 10
24.2895
 20
79.340900000000005
 30
0.0
 10
24.2895
 20
79.340900000000005
 30
0.0
 10
27.0931
 20
81.792400000000001
 30
0.0
 10
27.0931
 20
81.792400000000001
 30
0.0
 10
27.0931
 20
81.792400000000001
 30
0.0
 10
25.799700000000001
 20
81.963099999999997
 30
0.0
 10
24.481100000000001
 20
82.052099999999996
 30
0.0
 10
23.141200000000001
 20
82.052099999999996
 30
0.0
 10
23.141200000000001
 20
82.052099999999996
 30
0.0
 10
21.751999999999999
 20
82.052099999999996
 30
0.0
 10
20.3855
 20
81.956100000000006
 30
0.0
 10
19.046700000000001
 20
81.772599999999997
 30
0.0
 10
19.046700000000001
 20
81.772599999999997
 30
0.0
 10
19.046700000000001
 20
81.772599999999997
 30
0.0
 10
21.993300000000001
 20
79.196399999999997
 30
0.0
 10
21.993300000000001
 20
79.196399999999997
 30
0.0
 10
21.993300000000001
 20
79.196399999999997
 30
0.0
 10
21.993300000000001
 20
79.196399999999997
 30
0.0
 10
21.993300000000001
 20
80.994699999999995
 30
0.0
 10
21.993300000000001
 20
80.994699999999995
 30
0.0
  0
SPLINE
  5
45
100
AcDbEntity
  8
RÚteg 1
 62
     7
100
AcDbSpline
210
0.0
220
0.0
230
1.0
 70
     1
 71
     3
 72
    72
 73
    68
 74
     0
 42
0.0000000001
 43
0.0000000001
 40
0.0
 40
0.0
 40
0.0
 40
0.0
 40
0.0588235294117647
 40
0.0588235294117647
 40
0.0588235294117647
 40
0.0588235294117647
 40
0.1176470588235294
 40
0.1176470588235294
 40
0.1176470588235294
 40
0.1176470588235294
 40
0.1764705882352941
 40
0.1764705882352941
 40
0.1764705882352941
 40
0.1764705882352941
 40
0.2352941176470588
 40
0.2352941176470588
 40
0.2352941176470588
 40
0.2352941176470588
 40
0.2941176470588235
 40
0.2941176470588235
 40
0.2941176470588235
 40
0.2941176470588235
 40
0.3529411764705883
 40
0.3529411764705883
 40
0.3529411764705883
 40
0.3529411764705883
 40
0.411764705882353
 40
0.411764705882353
 40
0.411764705882353
 40
0.411764705882353
 40
0.4705882352941177
 40
0.4705882352941177
 40
0.4705882352941177
 40
0.4705882352941177
 40
0.5294117647058824
 40
0.5294117647058824
 40
0.5294117647058824
 40
0.5294117647058824
 40
0.5882352941176471
 40
0.5882352941176471
 40
0.5882352941176471
 40
0.5882352941176471
 40
0.6470588235294118
 40
0.6470588235294118
 40
0.6470588235294118
 40
0.6470588235294118
 40
0.7058823529411765
 40
0.7058823529411765
 40
0.7058823529411765
 40
0.7058823529411765
 40
0.7647058823529412
 40
0.7647058823529412
 40
0.7647058823529412
 40
0.7647058823529412
 40
0.823529411764706
 40
0.823529411764706
 40
0.823529411764706
 40
0.823529411764706
 40
0.8823529411764707
 40
0.8823529411764707
 40
0.8823529411764707
 40
0.8823529411764707
 40
0.9411764705882354
 40
0.9411764705882354
 40
0.9411764705882354
 40
0.9411764705882354
 40
1.0
 40
1.0
 40
1.0
 40
1.0
 10
28.7501
 20
81.525800000000004
 30
0.0
 10
28.7501
 20
81.525800000000004
 30
0.0
 10
24.2895
 20
77.624499999999998
 30
0.0
 10
24.2895
 20
77.624499999999998
 30
0.0
 10
24.2895
 20
77.624499999999998
 30
0.0
 10
24.2895
 20
77.624499999999998
 30
0.0
 10
24.2895
 20
74.990399999999994
 30
0.0
 10
24.2895
 20
74.990399999999994
 30
0.0
 10
24.2895
 20
74.990399999999994
 30
0.0
 10
24.2895
 20
74.990399999999994
 30
0.0
 10
30.3431
 20
80.284099999999995
 30
0.0
 10
30.3431
 20
80.284099999999995
 30
0.0
 10
30.3431
 20
80.284099999999995
 30
0.0
 10
30.3431
 20
80.284099999999995
 30
0.0
 10
31.476500000000001
 20
78.987799999999993
 30
0.0
 10
31.476500000000001
 20
78.987799999999993
 30
0.0
 10
31.476500000000001
 20
78.987799999999993
 30
0.0
 10
31.476500000000001
 20
78.987799999999993
 30
0.0
 10
24.2895
 20
72.7029
 30
0.0
 10
24.2895
 20
72.7029
 30
0.0
 10
24.2895
 20
72.7029
 30
0.0
 10
24.2895
 20
72.7029
 30
0.0
 10
24.2895
 20
70.317999999999998
 30
0.0
 10
24.2895
 20
70.317999999999998
 30
0.0
 10
24.2895
 20
70.317999999999998
 30
0.0
 10
24.2895
 20
70.317999999999998
 30
0.0
 10
33.107100000000003
 20
78.028899999999993
 30
0.0
 10
33.107100000000003
 20
78.028899999999993
 30
0.0
 10
33.107100000000003
 20
78.028899999999993
 30
0.0
 10
33.107100000000003
 20
78.028899999999993
 30
0.0
 10
33.787799999999997
 20
77.250699999999995
 30
0.0
 10
33.787799999999997
 20
77.250699999999995
 30
0.0
 10
33.787799999999997
 20
77.250699999999995
 30
0.0
 10
33.787799999999997
 20
77.250699999999995
 30
0.0
 10
34.616199999999999
 20
77.305599999999998
 30
0.0
 10
34.616199999999999
 20
77.305599999999998
 30
0.0
 10
34.616199999999999
 20
77.305599999999998
 30
0.0
 10
34.616199999999999
 20
77.305599999999998
 30
0.0
 10
35.378100000000003
 20
65.930899999999994
 30
0.0
 10
35.378100000000003
 20
65.930899999999994
 30
0.0
 10
35.378100000000003
 20
65.930899999999994
 30
0.0
 10
35.378100000000003
 20
65.930899999999994
 30
0.0
 10
36.761800000000001
 20
67.314800000000005
 30
0.0
 10
36.761800000000001
 20
67.314800000000005
 30
0.0
 10
36.761800000000001
 20
67.314800000000005
 30
0.0
 10
36.761800000000001
 20
67.314800000000005
 30
0.0
 10
36.101399999999998
 20
77.177499999999995
 30
0.0
 10
36.101399999999998
 20
77.177499999999995
 30
0.0
 10
36.101399999999998
 20
77.177499999999995
 30
0.0
 10
36.101399999999998
 20
77.177499999999995
 30
0.0
 10
37.819600000000001
 20
77.292400000000001
 30
0.0
 10
37.819600000000001
 20
77.292400000000001
 30
0.0
 10
37.819600000000001
 20
77.292400000000001
 30
0.0
 10
37.819600000000001
 20
77.292400000000001
 30
0.0
 10
38.379600000000003
 20
68.932400000000001
 30
0.0
 10
38.379600000000003
 20
68.932400000000001
 30
0.0
 10
38.379600000000003
 20
68.932400000000001
 30
0.0
 10
38.379600000000003
 20
68.932400000000001
 30
0.0
 10
40.297199999999997
 20
70.849999999999994
 30
0.0
 10
40.297199999999997
 20
70.849999999999994
 30
0.0
 10
40.297199999999997
 20
70.849999999999994
 30
0.0
 10
40.297199999999997
 20
70.849999999999994
 30
0.0
 10
39.889299999999999
 20
76.940200000000004
 30
0.0
 10
39.889299999999999
 20
76.940200000000004
 30
0.0
 10
39.889299999999999
 20
76.940200000000004
 30
0.0
 10
36.585099999999997
 20
79.169700000000006
 30
0.0
 10
32.811999999999998
 20
80.756900000000002
 30
0.0
 10
28.7501
 20
81.525800000000004
 30
0.0
  0
SPLINE
  5
46
100
AcDbEntity
  8
RÚteg 1
 62
     7
100
AcDbSpline
210
0.0
220
0.0
230
1.0
 70
     1
 71
     3
 72
    28
 73
    24
 74
     0
 42
0.0000000001
 43
0.0000000001
 40
0.0
 40
0.0
 40
0.0
 40
0.0
 40
0.1666666666666667
 40
0.1666666666666667
 40
0.1666666666666667
 40
0.1666666666666667
 40
0.3333333333333333
 40
0.3333333333333333
 40
0.3333333333333333
 40
0.3333333333333333
 40
0.5
 40
0.5
 40
0.5
 40
0.5
 40
0.6666666666666666
 40
0.6666666666666666
 40
0.6666666666666666
 40
0.6666666666666666
 40
0.8333333333333333
 40
0.8333333333333333
 40
0.8333333333333333
 40
0.8333333333333333
 40
1.0
 40
1.0
 40
1.0
 40
1.0
 10
41.249200000000002
 20
75.964100000000002
 30
0.0
 10
41.249200000000002
 20
75.964100000000002
 30
0.0
 10
41.510800000000003
 20
72.063199999999995
 30
0.0
 10
41.510800000000003
 20
72.063199999999995
 30
0.0
 10
41.510800000000003
 20
72.063199999999995
 30
0.0
 10
41.510800000000003
 20
72.063199999999995
 30
0.0
 10
42.782200000000003
 20
73.334999999999994
 30
0.0
 10
42.782200000000003
 20
73.334999999999994
 30
0.0
 10
42.782200000000003
 20
73.334999999999994
 30
0.0
 10
42.782200000000003
 20
73.334999999999994
 30
0.0
 10
44.405999999999999
 20
71.711200000000005
 30
0.0
 10
44.405999999999999
 20
71.711200000000005
 30
0.0
 10
44.405999999999999
 20
71.711200000000005
 30
0.0
 10
44.405999999999999
 20
71.711200000000005
 30
0.0
 10
43.236499999999999
 20
70.541700000000006
 30
0.0
 10
43.236499999999999
 20
70.541700000000006
 30
0.0
 10
43.236499999999999
 20
70.541700000000006
 30
0.0
 10
43.236499999999999
 20
70.541700000000006
 30
0.0
 10
46.946800000000003
 20
70.293099999999995
 30
0.0
 10
46.946800000000003
 20
70.293099999999995
 30
0.0
 10
46.946800000000003
 20
70.293099999999995
 30
0.0
 10
45.309699999999999
 20
72.428200000000004
 30
0.0
 10
43.392699999999998
 20
74.337199999999996
 30
0.0
 10
41.249200000000002
 20
75.964100000000002
 30
0.0
  0
SPLINE
  5
47
100
AcDbEntity
  8
RÚteg 1
 62
     7
100
AcDbSpline
210
0.0
220
0.0
230
1.0
 70
     1
 71
     3
 72
    72
 73
    68
 74
     0
 42
0.0000000001
 43
0.0000000001
 40
0.0
 40
0.0
 40
0.0
 40
0.0
 40
0.0588235294117647
 40
0.0588235294117647
 40
0.0588235294117647
 40
0.0588235294117647
 40
0.1176470588235294
 40
0.1176470588235294
 40
0.1176470588235294
 40
0.1176470588235294
 40
0.1764705882352941
 40
0.1764705882352941
 40
0.1764705882352941
 40
0.1764705882352941
 40
0.2352941176470588
 40
0.2352941176470588
 40
0.2352941176470588
 40
0.2352941176470588
 40
0.2941176470588235
 40
0.2941176470588235
 40
0.2941176470588235
 40
0.2941176470588235
 40
0.3529411764705883
 40
0.3529411764705883
 40
0.3529411764705883
 40
0.3529411764705883
 40
0.411764705882353
 40
0.411764705882353
 40
0.411764705882353
 40
0.411764705882353
 40
0.4705882352941177
 40
0.4705882352941177
 40
0.4705882352941177
 40
0.4705882352941177
 40
0.5294117647058824
 40
0.5294117647058824
 40
0.5294117647058824
 40
0.5294117647058824
 40
0.5882352941176471
 40
0.5882352941176471
 40
0.5882352941176471
 40
0.5882352941176471
 40
0.6470588235294118
 40
0.6470588235294118
 40
0.6470588235294118
 40
0.6470588235294118
 40
0.7058823529411765
 40
0.7058823529411765
 40
0.7058823529411765
 40
0.7058823529411765
 40
0.7647058823529412
 40
0.7647058823529412
 40
0.7647058823529412
 40
0.7647058823529412
 40
0.823529411764706
 40
0.823529411764706
 40
0.823529411764706
 40
0.823529411764706
 40
0.8823529411764707
 40
0.8823529411764707
 40
0.8823529411764707
 40
0.8823529411764707
 40
0.9411764705882354
 40
0.9411764705882354
 40
0.9411764705882354
 40
0.9411764705882354
 40
1.0
 40
1.0
 40
1.0
 40
1.0
 10
47.932499999999997
 20
68.932400000000001
 30
0.0
 10
47.932499999999997
 20
68.932400000000001
 30
0.0
 10
42.023200000000003
 20
69.328100000000006
 30
0.0
 10
42.023200000000003
 20
69.328100000000006
 30
0.0
 10
42.023200000000003
 20
69.328100000000006
 30
0.0
 10
42.023200000000003
 20
69.328100000000006
 30
0.0
 10
40.160600000000002
 20
67.465500000000006
 30
0.0
 10
40.160600000000002
 20
67.465500000000006
 30
0.0
 10
40.160600000000002
 20
67.465500000000006
 30
0.0
 10
40.160600000000002
 20
67.465500000000006
 30
0.0
 10
48.183999999999997
 20
66.928100000000001
 30
0.0
 10
48.183999999999997
 20
66.928100000000001
 30
0.0
 10
48.183999999999997
 20
66.928100000000001
 30
0.0
 10
48.183999999999997
 20
66.928100000000001
 30
0.0
 10
48.069099999999999
 20
65.209599999999995
 30
0.0
 10
48.069099999999999
 20
65.209599999999995
 30
0.0
 10
48.069099999999999
 20
65.209599999999995
 30
0.0
 10
48.069099999999999
 20
65.209599999999995
 30
0.0
 10
38.542499999999997
 20
65.8476
 30
0.0
 10
38.542499999999997
 20
65.8476
 30
0.0
 10
38.542499999999997
 20
65.8476
 30
0.0
 10
38.542499999999997
 20
65.8476
 30
0.0
 10
36.856400000000001
 20
64.161199999999994
 30
0.0
 10
36.856400000000001
 20
64.161199999999994
 30
0.0
 10
36.856400000000001
 20
64.161199999999994
 30
0.0
 10
36.856400000000001
 20
64.161199999999994
 30
0.0
 10
48.543500000000002
 20
63.378599999999999
 30
0.0
 10
48.543500000000002
 20
63.378599999999999
 30
0.0
 10
48.543500000000002
 20
63.378599999999999
 30
0.0
 10
48.543500000000002
 20
63.378599999999999
 30
0.0
 10
48.474899999999998
 20
62.347099999999998
 30
0.0
 10
48.474899999999998
 20
62.347099999999998
 30
0.0
 10
48.474899999999998
 20
62.347099999999998
 30
0.0
 10
48.474899999999998
 20
62.347099999999998
 30
0.0
 10
49.099800000000002
 20
61.800400000000003
 30
0.0
 10
49.099800000000002
 20
61.800400000000003
 30
0.0
 10
49.099800000000002
 20
61.800400000000003
 30
0.0
 10
49.099800000000002
 20
61.800400000000003
 30
0.0
 10
41.594900000000003
 20
53.218200000000003
 30
0.0
 10
41.594900000000003
 20
53.218200000000003
 30
0.0
 10
41.594900000000003
 20
53.218200000000003
 30
0.0
 10
41.594900000000003
 20
53.218200000000003
 30
0.0
 10
43.551900000000003
 20
53.218200000000003
 30
0.0
 10
43.551900000000003
 20
53.218200000000003
 30
0.0
 10
43.551900000000003
 20
53.218200000000003
 30
0.0
 10
43.551900000000003
 20
53.218200000000003
 30
0.0
 10
50.059199999999997
 20
60.659500000000001
 30
0.0
 10
50.059199999999997
 20
60.659500000000001
 30
0.0
 10
50.059199999999997
 20
60.659500000000001
 30
0.0
 10
50.059199999999997
 20
60.659500000000001
 30
0.0
 10
51.354999999999997
 20
59.5259
 30
0.0
 10
51.354999999999997
 20
59.5259
 30
0.0
 10
51.354999999999997
 20
59.5259
 30
0.0
 10
51.354999999999997
 20
59.5259
 30
0.0
 10
45.8399
 20
53.218200000000003
 30
0.0
 10
45.8399
 20
53.218200000000003
 30
0.0
 10
45.8399
 20
53.218200000000003
 30
0.0
 10
45.8399
 20
53.218200000000003
 30
0.0
 10
48.551600000000001
 20
53.218200000000003
 30
0.0
 10
48.551600000000001
 20
53.218200000000003
 30
0.0
 10
48.551600000000001
 20
53.218200000000003
 30
0.0
 10
48.551600000000001
 20
53.218200000000003
 30
0.0
 10
52.571100000000001
 20
57.814500000000002
 30
0.0
 10
52.571100000000001
 20
57.814500000000002
 30
0.0
 10
52.571100000000001
 20
57.814500000000002
 30
0.0
 10
51.783099999999997
 20
61.871899999999997
 30
0.0
 10
50.178800000000003
 20
65.637799999999999
 30
0.0
 10
47.932499999999997
 20
68.932400000000001
 30
0.0
  0
SPLINE
  5
48
100
AcDbEntity
  8
RÚteg 1
 62
     7
100
AcDbSpline
210
0.0
220
0.0
230
1.0
 70
     1
 71
     3
 72
    32
 73
    28
 74
     0
 42
0.0000000001
 43
0.0000000001
 40
0.0
 40
0.0
 40
0.0
 40
0.0
 40
0.1428571428571429
 40
0.1428571428571429
 40
0.1428571428571429
 40
0.1428571428571429
 40
0.2857142857142857
 40
0.2857142857142857
 40
0.2857142857142857
 40
0.2857142857142857
 40
0.4285714285714286
 40
0.4285714285714286
 40
0.4285714285714286
 40
0.4285714285714286
 40
0.5714285714285714
 40
0.5714285714285714
 40
0.5714285714285714
 40
0.5714285714285714
 40
0.7142857142857142
 40
0.7142857142857142
 40
0.7142857142857142
 40
0.7142857142857142
 40
0.857142857142857
 40
0.857142857142857
 40
0.857142857142857
 40
0.857142857142857
 40
1.0
 40
1.0
 40
1.0
 40
1.0
 10
52.843499999999999
 20
56.164499999999997
 30
0.0
 10
52.843499999999999
 20
56.164499999999997
 30
0.0
 10
50.267299999999999
 20
53.218200000000003
 30
0.0
 10
50.267299999999999
 20
53.218200000000003
 30
0.0
 10
50.267299999999999
 20
53.218200000000003
 30
0.0
 10
50.267299999999999
 20
53.218200000000003
 30
0.0
 10
52.066000000000003
 20
53.218299999999999
 30
0.0
 10
52.066000000000003
 20
53.218299999999999
 30
0.0
 10
52.066000000000003
 20
53.218299999999999
 30
0.0
 10
52.066000000000003
 20
53.218299999999999
 30
0.0
 10
52.066000000000003
 20
50.921900000000001
 30
0.0
 10
52.066000000000003
 20
50.921900000000001
 30
0.0
 10
52.066000000000003
 20
50.921900000000001
 30
0.0
 10
52.066000000000003
 20
50.921900000000001
 30
0.0
 10
50.411900000000003
 20
50.9221
 30
0.0
 10
50.411900000000003
 20
50.9221
 30
0.0
 10
50.411900000000003
 20
50.9221
 30
0.0
 10
50.411900000000003
 20
50.9221
 30
0.0
 10
52.863500000000002
 20
48.118299999999998
 30
0.0
 10
52.863500000000002
 20
48.118299999999998
 30
0.0
 10
52.863500000000002
 20
48.118299999999998
 30
0.0
 10
53.034100000000002
 20
49.4116
 30
0.0
 10
53.123199999999997
 20
50.730499999999999
 30
0.0
 10
53.123199999999997
 20
52.069899999999997
 30
0.0
 10
53.123199999999997
 20
52.069899999999997
 30
0.0
 10
53.123199999999997
 20
53.459099999999999
 30
0.0
 10
53.026899999999998
 20
54.825600000000001
 30
0.0
 10
52.843499999999999
 20
56.164499999999997
 30
0.0
  0
SPLINE
  5
49
100
AcDbEntity
  8
RÚteg 1
 62
     7
100
AcDbSpline
210
0.0
220
0.0
230
1.0
 70
     1
 71
     3
 72
    72
 73
    68
 74
     0
 42
0.0000000001
 43
0.0000000001
 40
0.0
 40
0.0
 40
0.0
 40
0.0
 40
0.0588235294117647
 40
0.0588235294117647
 40
0.0588235294117647
 40
0.0588235294117647
 40
0.1176470588235294
 40
0.1176470588235294
 40
0.1176470588235294
 40
0.1176470588235294
 40
0.1764705882352941
 40
0.1764705882352941
 40
0.1764705882352941
 40
0.1764705882352941
 40
0.2352941176470588
 40
0.2352941176470588
 40
0.2352941176470588
 40
0.2352941176470588
 40
0.2941176470588235
 40
0.2941176470588235
 40
0.2941176470588235
 40
0.2941176470588235
 40
0.3529411764705883
 40
0.3529411764705883
 40
0.3529411764705883
 40
0.3529411764705883
 40
0.411764705882353
 40
0.411764705882353
 40
0.411764705882353
 40
0.411764705882353
 40
0.4705882352941177
 40
0.4705882352941177
 40
0.4705882352941177
 40
0.4705882352941177
 40
0.5294117647058824
 40
0.5294117647058824
 40
0.5294117647058824
 40
0.5294117647058824
 40
0.5882352941176471
 40
0.5882352941176471
 40
0.5882352941176471
 40
0.5882352941176471
 40
0.6470588235294118
 40
0.6470588235294118
 40
0.6470588235294118
 40
0.6470588235294118
 40
0.7058823529411765
 40
0.7058823529411765
 40
0.7058823529411765
 40
0.7058823529411765
 40
0.7647058823529412
 40
0.7647058823529412
 40
0.7647058823529412
 40
0.7647058823529412
 40
0.823529411764706
 40
0.823529411764706
 40
0.823529411764706
 40
0.823529411764706
 40
0.8823529411764707
 40
0.8823529411764707
 40
0.8823529411764707
 40
0.8823529411764707
 40
0.9411764705882354
 40
0.9411764705882354
 40
0.9411764705882354
 40
0.9411764705882354
 40
1.0
 40
1.0
 40
1.0
 40
1.0
 10
52.596899999999998
 20
46.460999999999999
 30
0.0
 10
52.596899999999998
 20
46.460999999999999
 30
0.0
 10
48.695999999999998
 20
50.9221
 30
0.0
 10
48.695999999999998
 20
50.9221
 30
0.0
 10
48.695999999999998
 20
50.9221
 30
0.0
 10
48.695999999999998
 20
50.9221
 30
0.0
 10
46.061799999999998
 20
50.9221
 30
0.0
 10
46.061799999999998
 20
50.9221
 30
0.0
 10
46.061799999999998
 20
50.9221
 30
0.0
 10
46.061799999999998
 20
50.9221
 30
0.0
 10
51.355499999999999
 20
44.868499999999997
 30
0.0
 10
51.355499999999999
 20
44.868499999999997
 30
0.0
 10
51.355499999999999
 20
44.868499999999997
 30
0.0
 10
51.355499999999999
 20
44.868499999999997
 30
0.0
 10
50.059199999999997
 20
43.734499999999997
 30
0.0
 10
50.059199999999997
 20
43.734499999999997
 30
0.0
 10
50.059199999999997
 20
43.734499999999997
 30
0.0
 10
50.059199999999997
 20
43.734499999999997
 30
0.0
 10
43.773899999999998
 20
50.9221
 30
0.0
 10
43.773899999999998
 20
50.9221
 30
0.0
 10
43.773899999999998
 20
50.9221
 30
0.0
 10
43.773899999999998
 20
50.9221
 30
0.0
 10
41.389299999999999
 20
50.9221
 30
0.0
 10
41.389299999999999
 20
50.9221
 30
0.0
 10
41.389299999999999
 20
50.9221
 30
0.0
 10
41.389299999999999
 20
50.9221
 30
0.0
 10
49.100200000000001
 20
42.104199999999999
 30
0.0
 10
49.100200000000001
 20
42.104199999999999
 30
0.0
 10
49.100200000000001
 20
42.104199999999999
 30
0.0
 10
49.100200000000001
 20
42.104199999999999
 30
0.0
 10
48.321599999999997
 20
41.423200000000001
 30
0.0
 10
48.321599999999997
 20
41.423200000000001
 30
0.0
 10
48.321599999999997
 20
41.423200000000001
 30
0.0
 10
48.321599999999997
 20
41.423200000000001
 30
0.0
 10
48.376899999999999
 20
40.594799999999999
 30
0.0
 10
48.376899999999999
 20
40.594799999999999
 30
0.0
 10
48.376899999999999
 20
40.594799999999999
 30
0.0
 10
48.376899999999999
 20
40.594799999999999
 30
0.0
 10
37.002200000000002
 20
39.833100000000002
 30
0.0
 10
37.002200000000002
 20
39.833100000000002
 30
0.0
 10
37.002200000000002
 20
39.833100000000002
 30
0.0
 10
37.002200000000002
 20
39.833100000000002
 30
0.0
 10
38.385800000000003
 20
38.4495
 30
0.0
 10
38.385800000000003
 20
38.4495
 30
0.0
 10
38.385800000000003
 20
38.4495
 30
0.0
 10
38.385800000000003
 20
38.4495
 30
0.0
 10
48.2485
 20
39.109699999999997
 30
0.0
 10
48.2485
 20
39.109699999999997
 30
0.0
 10
48.2485
 20
39.109699999999997
 30
0.0
 10
48.2485
 20
39.109699999999997
 30
0.0
 10
48.363599999999998
 20
37.391599999999997
 30
0.0
 10
48.363599999999998
 20
37.391599999999997
 30
0.0
 10
48.363599999999998
 20
37.391599999999997
 30
0.0
 10
48.363599999999998
 20
37.391599999999997
 30
0.0
 10
40.003700000000002
 20
36.831699999999998
 30
0.0
 10
40.003700000000002
 20
36.831699999999998
 30
0.0
 10
40.003700000000002
 20
36.831699999999998
 30
0.0
 10
40.003700000000002
 20
36.831699999999998
 30
0.0
 10
41.920999999999999
 20
34.914200000000001
 30
0.0
 10
41.920999999999999
 20
34.914200000000001
 30
0.0
 10
41.920999999999999
 20
34.914200000000001
 30
0.0
 10
41.920999999999999
 20
34.914200000000001
 30
0.0
 10
48.011099999999999
 20
35.322099999999999
 30
0.0
 10
48.011099999999999
 20
35.322099999999999
 30
0.0
 10
48.011099999999999
 20
35.322099999999999
 30
0.0
 10
50.240900000000003
 20
38.626399999999997
 30
0.0
 10
51.827599999999997
 20
42.3992
 30
0.0
 10
52.596899999999998
 20
46.460999999999999
 30
0.0
  0
SPLINE
  5
4A
100
AcDbEntity
  8
RÚteg 1
 62
     7
100
AcDbSpline
210
0.0
220
0.0
230
1.0
 70
     1
 71
     3
 72
    28
 73
    24
 74
     0
 42
0.0000000001
 43
0.0000000001
 40
0.0
 40
0.0
 40
0.0
 40
0.0
 40
0.1666666666666667
 40
0.1666666666666667
 40
0.1666666666666667
 40
0.1666666666666667
 40
0.3333333333333333
 40
0.3333333333333333
 40
0.3333333333333333
 40
0.3333333333333333
 40
0.5
 40
0.5
 40
0.5
 40
0.5
 40
0.6666666666666666
 40
0.6666666666666666
 40
0.6666666666666666
 40
0.6666666666666666
 40
0.8333333333333333
 40
0.8333333333333333
 40
0.8333333333333333
 40
0.8333333333333333
 40
1.0
 40
1.0
 40
1.0
 40
1.0
 10
47.034999999999997
 20
33.9619
 30
0.0
 10
47.034999999999997
 20
33.9619
 30
0.0
 10
43.134399999999999
 20
33.700800000000001
 30
0.0
 10
43.134399999999999
 20
33.700800000000001
 30
0.0
 10
43.134399999999999
 20
33.700800000000001
 30
0.0
 10
43.134399999999999
 20
33.700800000000001
 30
0.0
 10
44.405999999999999
 20
32.429400000000001
 30
0.0
 10
44.405999999999999
 20
32.429400000000001
 30
0.0
 10
44.405999999999999
 20
32.429400000000001
 30
0.0
 10
44.405999999999999
 20
32.429400000000001
 30
0.0
 10
42.782200000000003
 20
30.805199999999999
 30
0.0
 10
42.782200000000003
 20
30.805199999999999
 30
0.0
 10
42.782200000000003
 20
30.805199999999999
 30
0.0
 10
42.782200000000003
 20
30.805199999999999
 30
0.0
 10
41.6128
 20
31.974699999999999
 30
0.0
 10
41.6128
 20
31.974699999999999
 30
0.0
 10
41.6128
 20
31.974699999999999
 30
0.0
 10
41.6128
 20
31.974699999999999
 30
0.0
 10
41.363999999999997
 20
28.264299999999999
 30
0.0
 10
41.363999999999997
 20
28.264299999999999
 30
0.0
 10
41.363999999999997
 20
28.264299999999999
 30
0.0
 10
43.499200000000002
 20
29.901900000000001
 30
0.0
 10
45.408299999999997
 20
31.8186
 30
0.0
 10
47.034999999999997
 20
33.9619
 30
0.0
  0
SPLINE
  5
4B
100
AcDbEntity
  8
RÚteg 1
 62
     7
100
AcDbSpline
210
0.0
220
0.0
230
1.0
 70
     1
 71
     3
 72
    72
 73
    68
 74
     0
 42
0.0000000001
 43
0.0000000001
 40
0.0
 40
0.0
 40
0.0
 40
0.0
 40
0.0588235294117647
 40
0.0588235294117647
 40
0.0588235294117647
 40
0.0588235294117647
 40
0.1176470588235294
 40
0.1176470588235294
 40
0.1176470588235294
 40
0.1176470588235294
 40
0.1764705882352941
 40
0.1764705882352941
 40
0.1764705882352941
 40
0.1764705882352941
 40
0.2352941176470588
 40
0.2352941176470588
 40
0.2352941176470588
 40
0.2352941176470588
 40
0.2941176470588235
 40
0.2941176470588235
 40
0.2941176470588235
 40
0.2941176470588235
 40
0.3529411764705883
 40
0.3529411764705883
 40
0.3529411764705883
 40
0.3529411764705883
 40
0.411764705882353
 40
0.411764705882353
 40
0.411764705882353
 40
0.411764705882353
 40
0.4705882352941177
 40
0.4705882352941177
 40
0.4705882352941177
 40
0.4705882352941177
 40
0.5294117647058824
 40
0.5294117647058824
 40
0.5294117647058824
 40
0.5294117647058824
 40
0.5882352941176471
 40
0.5882352941176471
 40
0.5882352941176471
 40
0.5882352941176471
 40
0.6470588235294118
 40
0.6470588235294118
 40
0.6470588235294118
 40
0.6470588235294118
 40
0.7058823529411765
 40
0.7058823529411765
 40
0.7058823529411765
 40
0.7058823529411765
 40
0.7647058823529412
 40
0.7647058823529412
 40
0.7647058823529412
 40
0.7647058823529412
 40
0.823529411764706
 40
0.823529411764706
 40
0.823529411764706
 40
0.823529411764706
 40
0.8823529411764707
 40
0.8823529411764707
 40
0.8823529411764707
 40
0.8823529411764707
 40
0.9411764705882354
 40
0.9411764705882354
 40
0.9411764705882354
 40
0.9411764705882354
 40
1.0
 40
1.0
 40
1.0
 40
1.0
 10
40.003700000000002
 20
27.278700000000001
 30
0.0
 10
40.003700000000002
 20
27.278700000000001
 30
0.0
 10
40.399299999999997
 20
33.188000000000002
 30
0.0
 10
40.399299999999997
 20
33.188000000000002
 30
0.0
 10
40.399299999999997
 20
33.188000000000002
 30
0.0
 10
40.399299999999997
 20
33.188000000000002
 30
0.0
 10
38.536200000000001
 20
35.050699999999999
 30
0.0
 10
38.536200000000001
 20
35.050699999999999
 30
0.0
 10
38.536200000000001
 20
35.050699999999999
 30
0.0
 10
38.536200000000001
 20
35.050699999999999
 30
0.0
 10
37.9998
 20
27.0273
 30
0.0
 10
37.9998
 20
27.0273
 30
0.0
 10
37.9998
 20
27.0273
 30
0.0
 10
37.9998
 20
27.0273
 30
0.0
 10
36.280700000000003
 20
27.142499999999998
 30
0.0
 10
36.280700000000003
 20
27.142499999999998
 30
0.0
 10
36.280700000000003
 20
27.142499999999998
 30
0.0
 10
36.280700000000003
 20
27.142499999999998
 30
0.0
 10
36.918900000000001
 20
36.668700000000001
 30
0.0
 10
36.918900000000001
 20
36.668700000000001
 30
0.0
 10
36.918900000000001
 20
36.668700000000001
 30
0.0
 10
36.918900000000001
 20
36.668700000000001
 30
0.0
 10
35.232700000000001
 20
38.3551
 30
0.0
 10
35.232700000000001
 20
38.3551
 30
0.0
 10
35.232700000000001
 20
38.3551
 30
0.0
 10
35.232700000000001
 20
38.3551
 30
0.0
 10
34.4499
 20
26.6676
 30
0.0
 10
34.4499
 20
26.6676
 30
0.0
 10
34.4499
 20
26.6676
 30
0.0
 10
34.4499
 20
26.6676
 30
0.0
 10
33.418100000000003
 20
26.736499999999999
 30
0.0
 10
33.418100000000003
 20
26.736499999999999
 30
0.0
 10
33.418100000000003
 20
26.736499999999999
 30
0.0
 10
33.418100000000003
 20
26.736499999999999
 30
0.0
 10
32.871499999999997
 20
26.111599999999999
 30
0.0
 10
32.871499999999997
 20
26.111599999999999
 30
0.0
 10
32.871499999999997
 20
26.111599999999999
 30
0.0
 10
32.871499999999997
 20
26.111599999999999
 30
0.0
 10
24.2895
 20
33.616199999999999
 30
0.0
 10
24.2895
 20
33.616199999999999
 30
0.0
 10
24.2895
 20
33.616199999999999
 30
0.0
 10
24.2895
 20
33.616199999999999
 30
0.0
 10
24.2895
 20
31.659199999999998
 30
0.0
 10
24.2895
 20
31.659199999999998
 30
0.0
 10
24.2895
 20
31.659199999999998
 30
0.0
 10
24.2895
 20
31.659199999999998
 30
0.0
 10
31.730699999999999
 20
25.1524
 30
0.0
 10
31.730699999999999
 20
25.1524
 30
0.0
 10
31.730699999999999
 20
25.1524
 30
0.0
 10
31.730699999999999
 20
25.1524
 30
0.0
 10
30.597100000000001
 20
23.856100000000001
 30
0.0
 10
30.597100000000001
 20
23.856100000000001
 30
0.0
 10
30.597100000000001
 20
23.856100000000001
 30
0.0
 10
30.597100000000001
 20
23.856100000000001
 30
0.0
 10
24.2895
 20
29.371300000000002
 30
0.0
 10
24.2895
 20
29.371300000000002
 30
0.0
 10
24.2895
 20
29.371300000000002
 30
0.0
 10
24.2895
 20
29.371300000000002
 30
0.0
 10
24.2895
 20
26.659500000000001
 30
0.0
 10
24.2895
 20
26.659500000000001
 30
0.0
 10
24.2895
 20
26.659500000000001
 30
0.0
 10
24.2895
 20
26.659500000000001
 30
0.0
 10
28.8856
 20
22.6404
 30
0.0
 10
28.8856
 20
22.6404
 30
0.0
 10
28.8856
 20
22.6404
 30
0.0
 10
32.943100000000001
 20
23.4282
 30
0.0
 10
36.709200000000003
 20
25.032699999999998
 30
0.0
 10
40.003700000000002
 20
27.278700000000001
 30
0.0
  0
SPLINE
  5
4C
100
AcDbEntity
  8
RÚteg 1
 62
     7
100
AcDbSpline
210
0.0
220
0.0
230
1.0
 70
     1
 71
     3
 72
    32
 73
    28
 74
     0
 42
0.0000000001
 43
0.0000000001
 40
0.0
 40
0.0
 40
0.0
 40
0.0
 40
0.1428571428571429
 40
0.1428571428571429
 40
0.1428571428571429
 40
0.1428571428571429
 40
0.2857142857142857
 40
0.2857142857142857
 40
0.2857142857142857
 40
0.2857142857142857
 40
0.4285714285714286
 40
0.4285714285714286
 40
0.4285714285714286
 40
0.4285714285714286
 40
0.5714285714285714
 40
0.5714285714285714
 40
0.5714285714285714
 40
0.5714285714285714
 40
0.7142857142857142
 40
0.7142857142857142
 40
0.7142857142857142
 40
0.7142857142857142
 40
0.857142857142857
 40
0.857142857142857
 40
0.857142857142857
 40
0.857142857142857
 40
1.0
 40
1.0
 40
1.0
 40
1.0
 10
27.235800000000001
 20
22.367599999999999
 30
0.0
 10
27.235800000000001
 20
22.367599999999999
 30
0.0
 10
24.2895
 20
24.943999999999999
 30
0.0
 10
24.2895
 20
24.943999999999999
 30
0.0
 10
24.2895
 20
24.943999999999999
 30
0.0
 10
24.2895
 20
24.943999999999999
 30
0.0
 10
24.2897
 20
23.145199999999999
 30
0.0
 10
24.2897
 20
23.145199999999999
 30
0.0
 10
24.2897
 20
23.145199999999999
 30
0.0
 10
24.2897
 20
23.145199999999999
 30
0.0
 10
21.992999999999999
 20
23.145199999999999
 30
0.0
 10
21.992999999999999
 20
23.145199999999999
 30
0.0
 10
21.992999999999999
 20
23.145199999999999
 30
0.0
 10
21.992999999999999
 20
23.145199999999999
 30
0.0
 10
21.993300000000001
 20
24.799499999999998
 30
0.0
 10
21.993300000000001
 20
24.799499999999998
 30
0.0
 10
21.993300000000001
 20
24.799499999999998
 30
0.0
 10
21.993300000000001
 20
24.799499999999998
 30
0.0
 10
19.189599999999999
 20
22.3477
 30
0.0
 10
19.189599999999999
 20
22.3477
 30
0.0
 10
19.189599999999999
 20
22.3477
 30
0.0
 10
20.482900000000001
 20
22.177499999999998
 30
0.0
 10
21.801500000000001
 20
22.088100000000001
 30
0.0
 10
23.141200000000001
 20
22.088100000000001
 30
0.0
 10
23.141200000000001
 20
22.088100000000001
 30
0.0
 10
24.5304
 20
22.088100000000001
 30
0.0
 10
25.896999999999998
 20
22.184000000000001
 30
0.0
 10
27.235800000000001
 20
22.367599999999999
 30
0.0
  0
SPLINE
  5
4D
100
AcDbEntity
  8
RÚteg 1
 62
     7
100
AcDbSpline
210
0.0
220
0.0
230
1.0
 70
     1
 71
     3
 72
    72
 73
    68
 74
     0
 42
0.0000000001
 43
0.0000000001
 40
0.0
 40
0.0
 40
0.0
 40
0.0
 40
0.0588235294117647
 40
0.0588235294117647
 40
0.0588235294117647
 40
0.0588235294117647
 40
0.1176470588235294
 40
0.1176470588235294
 40
0.1176470588235294
 40
0.1176470588235294
 40
0.1764705882352941
 40
0.1764705882352941
 40
0.1764705882352941
 40
0.1764705882352941
 40
0.2352941176470588
 40
0.2352941176470588
 40
0.2352941176470588
 40
0.2352941176470588
 40
0.2941176470588235
 40
0.2941176470588235
 40
0.2941176470588235
 40
0.2941176470588235
 40
0.3529411764705883
 40
0.3529411764705883
 40
0.3529411764705883
 40
0.3529411764705883
 40
0.411764705882353
 40
0.411764705882353
 40
0.411764705882353
 40
0.411764705882353
 40
0.4705882352941177
 40
0.4705882352941177
 40
0.4705882352941177
 40
0.4705882352941177
 40
0.5294117647058824
 40
0.5294117647058824
 40
0.5294117647058824
 40
0.5294117647058824
 40
0.5882352941176471
 40
0.5882352941176471
 40
0.5882352941176471
 40
0.5882352941176471
 40
0.6470588235294118
 40
0.6470588235294118
 40
0.6470588235294118
 40
0.6470588235294118
 40
0.7058823529411765
 40
0.7058823529411765
 40
0.7058823529411765
 40
0.7058823529411765
 40
0.7647058823529412
 40
0.7647058823529412
 40
0.7647058823529412
 40
0.7647058823529412
 40
0.823529411764706
 40
0.823529411764706
 40
0.823529411764706
 40
0.823529411764706
 40
0.8823529411764707
 40
0.8823529411764707
 40
0.8823529411764707
 40
0.8823529411764707
 40
0.9411764705882354
 40
0.9411764705882354
 40
0.9411764705882354
 40
0.9411764705882354
 40
1.0
 40
1.0
 40
1.0
 40
1.0
 10
17.532399999999999
 20
22.6144
 30
0.0
 10
17.532399999999999
 20
22.6144
 30
0.0
 10
21.993300000000001
 20
26.5152
 30
0.0
 10
21.993300000000001
 20
26.5152
 30
0.0
 10
21.993300000000001
 20
26.5152
 30
0.0
 10
21.993300000000001
 20
26.5152
 30
0.0
 10
21.993300000000001
 20
29.1495
 30
0.0
 10
21.993300000000001
 20
29.1495
 30
0.0
 10
21.993300000000001
 20
29.1495
 30
0.0
 10
21.993300000000001
 20
29.1495
 30
0.0
 10
15.939399999999999
 20
23.856100000000001
 30
0.0
 10
15.939399999999999
 20
23.856100000000001
 30
0.0
 10
15.939399999999999
 20
23.856100000000001
 30
0.0
 10
15.939399999999999
 20
23.856100000000001
 30
0.0
 10
14.805999999999999
 20
25.1524
 30
0.0
 10
14.805999999999999
 20
25.1524
 30
0.0
 10
14.805999999999999
 20
25.1524
 30
0.0
 10
14.805999999999999
 20
25.1524
 30
0.0
 10
21.993300000000001
 20
31.437000000000001
 30
0.0
 10
21.993300000000001
 20
31.437000000000001
 30
0.0
 10
21.993300000000001
 20
31.437000000000001
 30
0.0
 10
21.993300000000001
 20
31.437000000000001
 30
0.0
 10
21.993300000000001
 20
33.822200000000002
 30
0.0
 10
21.993300000000001
 20
33.822200000000002
 30
0.0
 10
21.993300000000001
 20
33.822200000000002
 30
0.0
 10
21.993300000000001
 20
33.822200000000002
 30
0.0
 10
13.1754
 20
26.111000000000001
 30
0.0
 10
13.1754
 20
26.111000000000001
 30
0.0
 10
13.1754
 20
26.111000000000001
 30
0.0
 10
13.1754
 20
26.111000000000001
 30
0.0
 10
12.4947
 20
26.889800000000001
 30
0.0
 10
12.4947
 20
26.889800000000001
 30
0.0
 10
12.4947
 20
26.889800000000001
 30
0.0
 10
12.4947
 20
26.889800000000001
 30
0.0
 10
11.6663
 20
26.834299999999999
 30
0.0
 10
11.6663
 20
26.834299999999999
 30
0.0
 10
11.6663
 20
26.834299999999999
 30
0.0
 10
11.6663
 20
26.834299999999999
 30
0.0
 10
10.904400000000001
 20
38.2089
 30
0.0
 10
10.904400000000001
 20
38.2089
 30
0.0
 10
10.904400000000001
 20
38.2089
 30
0.0
 10
10.904400000000001
 20
38.2089
 30
0.0
 10
9.5206
 20
36.825600000000001
 30
0.0
 10
9.5206
 20
36.825600000000001
 30
0.0
 10
9.5206
 20
36.825600000000001
 30
0.0
 10
9.5206
 20
36.825600000000001
 30
0.0
 10
10.1808
 20
26.962900000000001
 30
0.0
 10
10.1808
 20
26.962900000000001
 30
0.0
 10
10.1808
 20
26.962900000000001
 30
0.0
 10
10.1808
 20
26.962900000000001
 30
0.0
 10
8.4627999999999997
 20
26.847799999999999
 30
0.0
 10
8.4627999999999997
 20
26.847799999999999
 30
0.0
 10
8.4627999999999997
 20
26.847799999999999
 30
0.0
 10
8.4627999999999997
 20
26.847799999999999
 30
0.0
 10
7.9028
 20
35.207599999999999
 30
0.0
 10
7.9028
 20
35.207599999999999
 30
0.0
 10
7.9028
 20
35.207599999999999
 30
0.0
 10
7.9028
 20
35.207599999999999
 30
0.0
 10
5.9852999999999996
 20
33.290199999999999
 30
0.0
 10
5.9852999999999996
 20
33.290199999999999
 30
0.0
 10
5.9852999999999996
 20
33.290199999999999
 30
0.0
 10
5.9852999999999996
 20
33.290199999999999
 30
0.0
 10
6.3932000000000002
 20
27.200099999999999
 30
0.0
 10
6.3932000000000002
 20
27.200099999999999
 30
0.0
 10
6.3932000000000002
 20
27.200099999999999
 30
0.0
 10
9.6974
 20
24.970600000000001
 30
0.0
 10
13.4704
 20
23.383400000000002
 30
0.0
 10
17.532399999999999
 20
22.6144
 30
0.0
  0
SPLINE
  5
4E
100
AcDbEntity
  8
RÚteg 1
 62
     7
100
AcDbSpline
210
0.0
220
0.0
230
1.0
 70
     1
 71
     3
 72
    28
 73
    24
 74
     0
 42
0.0000000001
 43
0.0000000001
 40
0.0
 40
0.0
 40
0.0
 40
0.0
 40
0.1666666666666667
 40
0.1666666666666667
 40
0.1666666666666667
 40
0.1666666666666667
 40
0.3333333333333333
 40
0.3333333333333333
 40
0.3333333333333333
 40
0.3333333333333333
 40
0.5
 40
0.5
 40
0.5
 40
0.5
 40
0.6666666666666666
 40
0.6666666666666666
 40
0.6666666666666666
 40
0.6666666666666666
 40
0.8333333333333333
 40
0.8333333333333333
 40
0.8333333333333333
 40
0.8333333333333333
 40
1.0
 40
1.0
 40
1.0
 40
1.0
 10
5.0332999999999997
 20
28.176100000000002
 30
0.0
 10
5.0332999999999997
 20
28.176100000000002
 30
0.0
 10
4.7717000000000001
 20
32.076900000000002
 30
0.0
 10
4.7717000000000001
 20
32.076900000000002
 30
0.0
 10
4.7717000000000001
 20
32.076900000000002
 30
0.0
 10
4.7717000000000001
 20
32.076900000000002
 30
0.0
 10
3.5002
 20
30.805199999999999
 30
0.0
 10
3.5002
 20
30.805199999999999
 30
0.0
 10
3.5002
 20
30.805199999999999
 30
0.0
 10
3.5002
 20
30.805199999999999
 30
0.0
 10
1.8766
 20
32.429400000000001
 30
0.0
 10
1.8766
 20
32.429400000000001
 30
0.0
 10
1.8766
 20
32.429400000000001
 30
0.0
 10
1.8766
 20
32.429400000000001
 30
0.0
 10
3.0459999999999998
 20
33.598500000000001
 30
0.0
 10
3.0459999999999998
 20
33.598500000000001
 30
0.0
 10
3.0459999999999998
 20
33.598500000000001
 30
0.0
 10
3.0459999999999998
 20
33.598500000000001
 30
0.0
 10
-0.6645
 20
33.846899999999998
 30
0.0
 10
-0.6645
 20
33.846899999999998
 30
0.0
 10
-0.6645
 20
33.846899999999998
 30
0.0
 10
0.9728
 20
31.7119
 30
0.0
 10
2.8898000000000001
 20
29.803000000000001
 30
0.0
 10
5.0332999999999997
 20
28.176100000000002
 30
0.0
  0
SPLINE
  5
4F
100
AcDbEntity
  8
RÚteg 1
 62
     7
100
AcDbSpline
210
0.0
220
0.0
230
1.0
 70
     1
 71
     3
 72
    72
 73
    68
 74
     0
 42
0.0000000001
 43
0.0000000001
 40
0.0
 40
0.0
 40
0.0
 40
0.0
 40
0.0588235294117647
 40
0.0588235294117647
 40
0.0588235294117647
 40
0.0588235294117647
 40
0.1176470588235294
 40
0.1176470588235294
 40
0.1176470588235294
 40
0.1176470588235294
 40
0.1764705882352941
 40
0.1764705882352941
 40
0.1764705882352941
 40
0.1764705882352941
 40
0.2352941176470588
 40
0.2352941176470588
 40
0.2352941176470588
 40
0.2352941176470588
 40
0.2941176470588235
 40
0.2941176470588235
 40
0.2941176470588235
 40
0.2941176470588235
 40
0.3529411764705883
 40
0.3529411764705883
 40
0.3529411764705883
 40
0.3529411764705883
 40
0.411764705882353
 40
0.411764705882353
 40
0.411764705882353
 40
0.411764705882353
 40
0.4705882352941177
 40
0.4705882352941177
 40
0.4705882352941177
 40
0.4705882352941177
 40
0.5294117647058824
 40
0.5294117647058824
 40
0.5294117647058824
 40
0.5294117647058824
 40
0.5882352941176471
 40
0.5882352941176471
 40
0.5882352941176471
 40
0.5882352941176471
 40
0.6470588235294118
 40
0.6470588235294118
 40
0.6470588235294118
 40
0.6470588235294118
 40
0.7058823529411765
 40
0.7058823529411765
 40
0.7058823529411765
 40
0.7058823529411765
 40
0.7647058823529412
 40
0.7647058823529412
 40
0.7647058823529412
 40
0.7647058823529412
 40
0.823529411764706
 40
0.823529411764706
 40
0.823529411764706
 40
0.823529411764706
 40
0.8823529411764707
 40
0.8823529411764707
 40
0.8823529411764707
 40
0.8823529411764707
 40
0.9411764705882354
 40
0.9411764705882354
 40
0.9411764705882354
 40
0.9411764705882354
 40
1.0
 40
1.0
 40
1.0
 40
1.0
 10
-1.6498999999999999
 20
35.207599999999999
 30
0.0
 10
-1.6498999999999999
 20
35.207599999999999
 30
0.0
 10
4.2591000000000001
 20
34.812100000000001
 30
0.0
 10
4.2591000000000001
 20
34.812100000000001
 30
0.0
 10
4.2591000000000001
 20
34.812100000000001
 30
0.0
 10
4.2591000000000001
 20
34.812100000000001
 30
0.0
 10
6.1219000000000001
 20
36.674900000000001
 30
0.0
 10
6.1219000000000001
 20
36.674900000000001
 30
0.0
 10
6.1219000000000001
 20
36.674900000000001
 30
0.0
 10
6.1219000000000001
 20
36.674900000000001
 30
0.0
 10
-1.9015
 20
37.211799999999997
 30
0.0
 10
-1.9015
 20
37.211799999999997
 30
0.0
 10
-1.9015
 20
37.211799999999997
 30
0.0
 10
-1.9015
 20
37.211799999999997
 30
0.0
 10
-1.7863
 20
38.930399999999999
 30
0.0
 10
-1.7863
 20
38.930399999999999
 30
0.0
 10
-1.7863
 20
38.930399999999999
 30
0.0
 10
-1.7863
 20
38.930399999999999
 30
0.0
 10
7.7398999999999996
 20
38.292400000000001
 30
0.0
 10
7.7398999999999996
 20
38.292400000000001
 30
0.0
 10
7.7398999999999996
 20
38.292400000000001
 30
0.0
 10
7.7398999999999996
 20
38.292400000000001
 30
0.0
 10
9.4260999999999999
 20
39.978700000000003
 30
0.0
 10
9.4260999999999999
 20
39.978700000000003
 30
0.0
 10
9.4260999999999999
 20
39.978700000000003
 30
0.0
 10
9.4260999999999999
 20
39.978700000000003
 30
0.0
 10
-2.2612999999999999
 20
40.761699999999998
 30
0.0
 10
-2.2612999999999999
 20
40.761699999999998
 30
0.0
 10
-2.2612999999999999
 20
40.761699999999998
 30
0.0
 10
-2.2612999999999999
 20
40.761699999999998
 30
0.0
 10
-2.1924000000000001
 20
41.793300000000002
 30
0.0
 10
-2.1924000000000001
 20
41.793300000000002
 30
0.0
 10
-2.1924000000000001
 20
41.793300000000002
 30
0.0
 10
-2.1924000000000001
 20
41.793300000000002
 30
0.0
 10
-2.8172999999999999
 20
42.339700000000001
 30
0.0
 10
-2.8172999999999999
 20
42.339700000000001
 30
0.0
 10
-2.8172999999999999
 20
42.339700000000001
 30
0.0
 10
-2.8172999999999999
 20
42.339700000000001
 30
0.0
 10
4.6875999999999998
 20
50.9221
 30
0.0
 10
4.6875999999999998
 20
50.9221
 30
0.0
 10
4.6875999999999998
 20
50.9221
 30
0.0
 10
4.6875999999999998
 20
50.9221
 30
0.0
 10
2.7305999999999999
 20
50.9221
 30
0.0
 10
2.7305999999999999
 20
50.9221
 30
0.0
 10
2.7305999999999999
 20
50.9221
 30
0.0
 10
2.7305999999999999
 20
50.9221
 30
0.0
 10
-3.7766000000000002
 20
43.480699999999999
 30
0.0
 10
-3.7766000000000002
 20
43.480699999999999
 30
0.0
 10
-3.7766000000000002
 20
43.480699999999999
 30
0.0
 10
-3.7766000000000002
 20
43.480699999999999
 30
0.0
 10
-5.0724999999999998
 20
44.614199999999997
 30
0.0
 10
-5.0724999999999998
 20
44.614199999999997
 30
0.0
 10
-5.0724999999999998
 20
44.614199999999997
 30
0.0
 10
-5.0724999999999998
 20
44.614199999999997
 30
0.0
 10
0.4426
 20
50.9221
 30
0.0
 10
0.4426
 20
50.9221
 30
0.0
 10
0.4426
 20
50.9221
 30
0.0
 10
0.4426
 20
50.9221
 30
0.0
 10
-2.2690999999999999
 20
50.9221
 30
0.0
 10
-2.2690999999999999
 20
50.9221
 30
0.0
 10
-2.2690999999999999
 20
50.9221
 30
0.0
 10
-2.2690999999999999
 20
50.9221
 30
0.0
 10
-6.2885999999999997
 20
46.325800000000001
 30
0.0
 10
-6.2885999999999997
 20
46.325800000000001
 30
0.0
 10
-6.2885999999999997
 20
46.325800000000001
 30
0.0
 10
-5.5006000000000004
 20
42.268500000000003
 30
0.0
 10
-3.8959000000000001
 20
38.502200000000002
 30
0.0
 10
-1.6498999999999999
 20
35.207599999999999
 30
0.0
  0
SPLINE
  5
50
100
AcDbEntity
  8
RÚteg 1
 62
     7
100
AcDbSpline
210
0.0
220
0.0
230
1.0
 70
     1
 71
     3
 72
    32
 73
    28
 74
     0
 42
0.0000000001
 43
0.0000000001
 40
0.0
 40
0.0
 40
0.0
 40
0.0
 40
0.1428571428571429
 40
0.1428571428571429
 40
0.1428571428571429
 40
0.1428571428571429
 40
0.2857142857142857
 40
0.2857142857142857
 40
0.2857142857142857
 40
0.2857142857142857
 40
0.4285714285714286
 40
0.4285714285714286
 40
0.4285714285714286
 40
0.4285714285714286
 40
0.5714285714285714
 40
0.5714285714285714
 40
0.5714285714285714
 40
0.5714285714285714
 40
0.7142857142857142
 40
0.7142857142857142
 40
0.7142857142857142
 40
0.7142857142857142
 40
0.857142857142857
 40
0.857142857142857
 40
0.857142857142857
 40
0.857142857142857
 40
1.0
 40
1.0
 40
1.0
 40
1.0
 10
-6.5609999999999999
 20
47.9758
 30
0.0
 10
-6.5609999999999999
 20
47.9758
 30
0.0
 10
-3.9847999999999999
 20
50.9221
 30
0.0
 10
-3.9847999999999999
 20
50.9221
 30
0.0
 10
-3.9847999999999999
 20
50.9221
 30
0.0
 10
-3.9847999999999999
 20
50.9221
 30
0.0
 10
-5.7835000000000001
 20
50.921900000000001
 30
0.0
 10
-5.7835000000000001
 20
50.921900000000001
 30
0.0
 10
-5.7835000000000001
 20
50.921900000000001
 30
0.0
 10
-5.7835000000000001
 20
50.921900000000001
 30
0.0
 10
-5.7835000000000001
 20
53.218299999999999
 30
0.0
 10
-5.7835000000000001
 20
53.218299999999999
 30
0.0
 10
-5.7835000000000001
 20
53.218299999999999
 30
0.0
 10
-5.7835000000000001
 20
53.218299999999999
 30
0.0
 10
-4.1291000000000002
 20
53.218200000000003
 30
0.0
 10
-4.1291000000000002
 20
53.218200000000003
 30
0.0
 10
-4.1291000000000002
 20
53.218200000000003
 30
0.0
 10
-4.1291000000000002
 20
53.218200000000003
 30
0.0
 10
-6.5810000000000004
 20
56.021700000000003
 30
0.0
 10
-6.5810000000000004
 20
56.021700000000003
 30
0.0
 10
-6.5810000000000004
 20
56.021700000000003
 30
0.0
 10
-6.7514000000000003
 20
54.7286
 30
0.0
 10
-6.8407999999999998
 20
53.409799999999997
 30
0.0
 10
-6.8407999999999998
 20
52.069899999999997
 30
0.0
 10
-6.8407999999999998
 20
52.069899999999997
 30
0.0
 10
-6.8407999999999998
 20
50.681100000000001
 30
0.0
 10
-6.7445000000000004
 20
49.314599999999999
 30
0.0
 10
-6.5609999999999999
 20
47.9758
 30
0.0
  0
SPLINE
  5
51
100
AcDbEntity
  8
RÚteg 1
 62
     7
100
AcDbSpline
210
0.0
220
0.0
230
1.0
 70
     1
 71
     3
 72
    72
 73
    68
 74
     0
 42
0.0000000001
 43
0.0000000001
 40
0.0
 40
0.0
 40
0.0
 40
0.0
 40
0.0588235294117647
 40
0.0588235294117647
 40
0.0588235294117647
 40
0.0588235294117647
 40
0.1176470588235294
 40
0.1176470588235294
 40
0.1176470588235294
 40
0.1176470588235294
 40
0.1764705882352941
 40
0.1764705882352941
 40
0.1764705882352941
 40
0.1764705882352941
 40
0.2352941176470588
 40
0.2352941176470588
 40
0.2352941176470588
 40
0.2352941176470588
 40
0.2941176470588235
 40
0.2941176470588235
 40
0.2941176470588235
 40
0.2941176470588235
 40
0.3529411764705883
 40
0.3529411764705883
 40
0.3529411764705883
 40
0.3529411764705883
 40
0.411764705882353
 40
0.411764705882353
 40
0.411764705882353
 40
0.411764705882353
 40
0.4705882352941177
 40
0.4705882352941177
 40
0.4705882352941177
 40
0.4705882352941177
 40
0.5294117647058824
 40
0.5294117647058824
 40
0.5294117647058824
 40
0.5294117647058824
 40
0.5882352941176471
 40
0.5882352941176471
 40
0.5882352941176471
 40
0.5882352941176471
 40
0.6470588235294118
 40
0.6470588235294118
 40
0.6470588235294118
 40
0.6470588235294118
 40
0.7058823529411765
 40
0.7058823529411765
 40
0.7058823529411765
 40
0.7058823529411765
 40
0.7647058823529412
 40
0.7647058823529412
 40
0.7647058823529412
 40
0.7647058823529412
 40
0.823529411764706
 40
0.823529411764706
 40
0.823529411764706
 40
0.823529411764706
 40
0.8823529411764707
 40
0.8823529411764707
 40
0.8823529411764707
 40
0.8823529411764707
 40
0.9411764705882354
 40
0.9411764705882354
 40
0.9411764705882354
 40
0.9411764705882354
 40
1.0
 40
1.0
 40
1.0
 40
1.0
 10
-6.3144999999999998
 20
57.678899999999999
 30
0.0
 10
-6.3144999999999998
 20
57.678899999999999
 30
0.0
 10
-2.4135
 20
53.218200000000003
 30
0.0
 10
-2.4135
 20
53.218200000000003
 30
0.0
 10
-2.4135
 20
53.218200000000003
 30
0.0
 10
-2.4135
 20
53.218200000000003
 30
0.0
 10
0.2207
 20
53.218200000000003
 30
0.0
 10
0.2207
 20
53.218200000000003
 30
0.0
 10
0.2207
 20
53.218200000000003
 30
0.0
 10
0.2207
 20
53.218200000000003
 30
0.0
 10
-5.0730000000000004
 20
59.271900000000002
 30
0.0
 10
-5.0730000000000004
 20
59.271900000000002
 30
0.0
 10
-5.0730000000000004
 20
59.271900000000002
 30
0.0
 10
-5.0730000000000004
 20
59.271900000000002
 30
0.0
 10
-3.7766000000000002
 20
60.4056
 30
0.0
 10
-3.7766000000000002
 20
60.4056
 30
0.0
 10
-3.7766000000000002
 20
60.4056
 30
0.0
 10
-3.7766000000000002
 20
60.4056
 30
0.0
 10
2.5085999999999999
 20
53.218200000000003
 30
0.0
 10
2.5085999999999999
 20
53.218200000000003
 30
0.0
 10
2.5085999999999999
 20
53.218200000000003
 30
0.0
 10
2.5085999999999999
 20
53.218200000000003
 30
0.0
 10
4.8933
 20
53.218200000000003
 30
0.0
 10
4.8933
 20
53.218200000000003
 30
0.0
 10
4.8933
 20
53.218200000000003
 30
0.0
 10
4.8933
 20
53.218200000000003
 30
0.0
 10
-2.8176999999999999
 20
62.035899999999998
 30
0.0
 10
-2.8176999999999999
 20
62.035899999999998
 30
0.0
 10
-2.8176999999999999
 20
62.035899999999998
 30
0.0
 10
-2.8176999999999999
 20
62.035899999999998
 30
0.0
 10
-2.0392000000000001
 20
62.716900000000003
 30
0.0
 10
-2.0392000000000001
 20
62.716900000000003
 30
0.0
 10
-2.0392000000000001
 20
62.716900000000003
 30
0.0
 10
-2.0392000000000001
 20
62.716900000000003
 30
0.0
 10
-2.0943999999999998
 20
63.545200000000001
 30
0.0
 10
-2.0943999999999998
 20
63.545200000000001
 30
0.0
 10
-2.0943999999999998
 20
63.545200000000001
 30
0.0
 10
-2.0943999999999998
 20
63.545200000000001
 30
0.0
 10
9.2803000000000004
 20
64.306899999999999
 30
0.0
 10
9.2803000000000004
 20
64.306899999999999
 30
0.0
 10
9.2803000000000004
 20
64.306899999999999
 30
0.0
 10
9.2803000000000004
 20
64.306899999999999
 30
0.0
 10
7.8967000000000001
 20
65.690700000000007
 30
0.0
 10
7.8967000000000001
 20
65.690700000000007
 30
0.0
 10
7.8967000000000001
 20
65.690700000000007
 30
0.0
 10
7.8967000000000001
 20
65.690700000000007
 30
0.0
 10
-1.9659
 20
65.030199999999994
 30
0.0
 10
-1.9659
 20
65.030199999999994
 30
0.0
 10
-1.9659
 20
65.030199999999994
 30
0.0
 10
-1.9659
 20
65.030199999999994
 30
0.0
 10
-2.0811000000000002
 20
66.748500000000007
 30
0.0
 10
-2.0811000000000002
 20
66.748500000000007
 30
0.0
 10
-2.0811000000000002
 20
66.748500000000007
 30
0.0
 10
-2.0811000000000002
 20
66.748500000000007
 30
0.0
 10
6.2788000000000004
 20
67.308700000000002
 30
0.0
 10
6.2788000000000004
 20
67.308700000000002
 30
0.0
 10
6.2788000000000004
 20
67.308700000000002
 30
0.0
 10
6.2788000000000004
 20
67.308700000000002
 30
0.0
 10
4.3615000000000004
 20
69.225800000000007
 30
0.0
 10
4.3615000000000004
 20
69.225800000000007
 30
0.0
 10
4.3615000000000004
 20
69.225800000000007
 30
0.0
 10
4.3615000000000004
 20
69.225800000000007
 30
0.0
 10
-1.7287999999999999
 20
68.818100000000001
 30
0.0
 10
-1.7287999999999999
 20
68.818100000000001
 30
0.0
 10
-1.7287999999999999
 20
68.818100000000001
 30
0.0
 10
-3.9584000000000001
 20
65.513800000000003
 30
0.0
 10
-5.5450999999999997
 20
61.740900000000003
 30
0.0
 10
-6.3144999999999998
 20
57.678899999999999
 30
0.0
  0
SPLINE
  5
52
100
AcDbEntity
  8
RÚteg 1
 62
     7
100
AcDbSpline
210
0.0
220
0.0
230
1.0
 70
     1
 71
     3
 72
    28
 73
    24
 74
     0
 42
0.0000000001
 43
0.0000000001
 40
0.0
 40
0.0
 40
0.0
 40
0.0
 40
0.1666666666666667
 40
0.1666666666666667
 40
0.1666666666666667
 40
0.1666666666666667
 40
0.3333333333333333
 40
0.3333333333333333
 40
0.3333333333333333
 40
0.3333333333333333
 40
0.5
 40
0.5
 40
0.5
 40
0.5
 40
0.6666666666666666
 40
0.6666666666666666
 40
0.6666666666666666
 40
0.6666666666666666
 40
0.8333333333333333
 40
0.8333333333333333
 40
0.8333333333333333
 40
0.8333333333333333
 40
1.0
 40
1.0
 40
1.0
 40
1.0
 10
-0.7525
 20
70.178299999999993
 30
0.0
 10
-0.7525
 20
70.178299999999993
 30
0.0
 10
3.1480999999999999
 20
70.439400000000006
 30
0.0
 10
3.1480999999999999
 20
70.439400000000006
 30
0.0
 10
3.1480999999999999
 20
70.439400000000006
 30
0.0
 10
3.1480999999999999
 20
70.439400000000006
 30
0.0
 10
1.8766
 20
71.711200000000005
 30
0.0
 10
1.8766
 20
71.711200000000005
 30
0.0
 10
1.8766
 20
71.711200000000005
 30
0.0
 10
1.8766
 20
71.711200000000005
 30
0.0
 10
3.5002
 20
73.334999999999994
 30
0.0
 10
3.5002
 20
73.334999999999994
 30
0.0
 10
3.5002
 20
73.334999999999994
 30
0.0
 10
3.5002
 20
73.334999999999994
 30
0.0
 10
4.6699000000000002
 20
72.165300000000002
 30
0.0
 10
4.6699000000000002
 20
72.165300000000002
 30
0.0
 10
4.6699000000000002
 20
72.165300000000002
 30
0.0
 10
4.6699000000000002
 20
72.165300000000002
 30
0.0
 10
4.9184999999999999
 20
75.876099999999994
 30
0.0
 10
4.9184999999999999
 20
75.876099999999994
 30
0.0
 10
4.9184999999999999
 20
75.876099999999994
 30
0.0
 10
2.7833000000000001
 20
74.238900000000001
 30
0.0
 10
0.874
 20
72.3215
 30
0.0
 10
-0.7525
 20
70.178299999999993
 30
0.0
  0
SPLINE
  5
53
100
AcDbEntity
  8
RÚteg 1
 62
     7
100
AcDbSpline
210
0.0
220
0.0
230
1.0
 70
     1
 71
     3
 72
    72
 73
    68
 74
     0
 42
0.0000000001
 43
0.0000000001
 40
0.0
 40
0.0
 40
0.0
 40
0.0
 40
0.0588235294117647
 40
0.0588235294117647
 40
0.0588235294117647
 40
0.0588235294117647
 40
0.1176470588235294
 40
0.1176470588235294
 40
0.1176470588235294
 40
0.1176470588235294
 40
0.1764705882352941
 40
0.1764705882352941
 40
0.1764705882352941
 40
0.1764705882352941
 40
0.2352941176470588
 40
0.2352941176470588
 40
0.2352941176470588
 40
0.2352941176470588
 40
0.2941176470588235
 40
0.2941176470588235
 40
0.2941176470588235
 40
0.2941176470588235
 40
0.3529411764705883
 40
0.3529411764705883
 40
0.3529411764705883
 40
0.3529411764705883
 40
0.411764705882353
 40
0.411764705882353
 40
0.411764705882353
 40
0.411764705882353
 40
0.4705882352941177
 40
0.4705882352941177
 40
0.4705882352941177
 40
0.4705882352941177
 40
0.5294117647058824
 40
0.5294117647058824
 40
0.5294117647058824
 40
0.5294117647058824
 40
0.5882352941176471
 40
0.5882352941176471
 40
0.5882352941176471
 40
0.5882352941176471
 40
0.6470588235294118
 40
0.6470588235294118
 40
0.6470588235294118
 40
0.6470588235294118
 40
0.7058823529411765
 40
0.7058823529411765
 40
0.7058823529411765
 40
0.7058823529411765
 40
0.7647058823529412
 40
0.7647058823529412
 40
0.7647058823529412
 40
0.7647058823529412
 40
0.823529411764706
 40
0.823529411764706
 40
0.823529411764706
 40
0.823529411764706
 40
0.8823529411764707
 40
0.8823529411764707
 40
0.8823529411764707
 40
0.8823529411764707
 40
0.9411764705882354
 40
0.9411764705882354
 40
0.9411764705882354
 40
0.9411764705882354
 40
1.0
 40
1.0
 40
1.0
 40
1.0
 10
6.2788000000000004
 20
76.8613
 30
0.0
 10
6.2788000000000004
 20
76.8613
 30
0.0
 10
5.8833000000000002
 20
70.951899999999995
 30
0.0
 10
5.8833000000000002
 20
70.951899999999995
 30
0.0
 10
5.8833000000000002
 20
70.951899999999995
 30
0.0
 10
5.8833000000000002
 20
70.951899999999995
 30
0.0
 10
7.7460000000000004
 20
69.089500000000001
 30
0.0
 10
7.7460000000000004
 20
69.089500000000001
 30
0.0
 10
7.7460000000000004
 20
69.089500000000001
 30
0.0
 10
7.7460000000000004
 20
69.089500000000001
 30
0.0
 10
8.2829999999999995
 20
77.112799999999993
 30
0.0
 10
8.2829999999999995
 20
77.112799999999993
 30
0.0
 10
8.2829999999999995
 20
77.112799999999993
 30
0.0
 10
8.2829999999999995
 20
77.112799999999993
 30
0.0
 10
10.001799999999999
 20
76.997799999999998
 30
0.0
 10
10.001799999999999
 20
76.997799999999998
 30
0.0
 10
10.001799999999999
 20
76.997799999999998
 30
0.0
 10
10.001799999999999
 20
76.997799999999998
 30
0.0
 10
9.3635999999999999
 20
67.471400000000003
 30
0.0
 10
9.3635999999999999
 20
67.471400000000003
 30
0.0
 10
9.3635999999999999
 20
67.471400000000003
 30
0.0
 10
9.3635999999999999
 20
67.471400000000003
 30
0.0
 10
11.0504
 20
65.7851
 30
0.0
 10
11.0504
 20
65.7851
 30
0.0
 10
11.0504
 20
65.7851
 30
0.0
 10
11.0504
 20
65.7851
 30
0.0
 10
11.8329
 20
77.4726
 30
0.0
 10
11.8329
 20
77.4726
 30
0.0
 10
11.8329
 20
77.4726
 30
0.0
 10
11.8329
 20
77.4726
 30
0.0
 10
12.8644
 20
77.403700000000001
 30
0.0
 10
12.8644
 20
77.403700000000001
 30
0.0
 10
12.8644
 20
77.403700000000001
 30
0.0
 10
12.8644
 20
77.403700000000001
 30
0.0
 10
13.4109
 20
78.028599999999997
 30
0.0
 10
13.4109
 20
78.028599999999997
 30
0.0
 10
13.4109
 20
78.028599999999997
 30
0.0
 10
13.4109
 20
78.028599999999997
 30
0.0
 10
21.993300000000001
 20
70.523799999999994
 30
0.0
 10
21.993300000000001
 20
70.523799999999994
 30
0.0
 10
21.993300000000001
 20
70.523799999999994
 30
0.0
 10
21.993300000000001
 20
70.523799999999994
 30
0.0
 10
21.993300000000001
 20
72.480900000000005
 30
0.0
 10
21.993300000000001
 20
72.480900000000005
 30
0.0
 10
21.993300000000001
 20
72.480900000000005
 30
0.0
 10
21.993300000000001
 20
72.480900000000005
 30
0.0
 10
14.5518
 20
78.987799999999993
 30
0.0
 10
14.5518
 20
78.987799999999993
 30
0.0
 10
14.5518
 20
78.987799999999993
 30
0.0
 10
14.5518
 20
78.987799999999993
 30
0.0
 10
15.6854
 20
80.284000000000006
 30
0.0
 10
15.6854
 20
80.284000000000006
 30
0.0
 10
15.6854
 20
80.284000000000006
 30
0.0
 10
15.6854
 20
80.284000000000006
 30
0.0
 10
21.993300000000001
 20
74.768600000000006
 30
0.0
 10
21.993300000000001
 20
74.768600000000006
 30
0.0
 10
21.993300000000001
 20
74.768600000000006
 30
0.0
 10
21.993300000000001
 20
74.768600000000006
 30
0.0
 10
21.993300000000001
 20
77.480099999999993
 30
0.0
 10
21.993300000000001
 20
77.480099999999993
 30
0.0
 10
21.993300000000001
 20
77.480099999999993
 30
0.0
 10
21.993300000000001
 20
77.480099999999993
 30
0.0
 10
17.3965
 20
81.500100000000003
 30
0.0
 10
17.3965
 20
81.500100000000003
 30
0.0
 10
17.3965
 20
81.500100000000003
 30
0.0
 10
13.3393
 20
80.712199999999996
 30
0.0
 10
9.5731000000000002
 20
79.107500000000002
 30
0.0
 10
6.2788000000000004
 20
76.8613
 30
0.0
  0
ENDSEC
  0
SECTION
  2
OBJECTS
  0
DICTIONARY
  5
19
100
AcDbDictionary
280
     0
281
     1
  3
ACAD_GROUP
350
1A
  3
ACAD_MLINESTYLE
350
1B
  3
ACAD_LAYOUT
350
1E
  3
ACAD_PLOTSETTINGS
350
22
  3
ACAD_PLOTSTYLENAME
350
1F
  3
ACAD_WIPEOUT_VARS
350
23
  0
DICTIONARY
  5
1A
102
{ACAD_REACTORS
330
19
102
}
100
AcDbDictionary
280
     0
281
     1
  0
DICTIONARY
  5
1B
102
{ACAD_REACTORS
330
19
102
}
100
AcDbDictionary
280
     0
281
     1
  3
Standard
350
1C
  0
MLINESTYLE
  5
1C
102
{ACAD_REACTORS
330
1B
102
}
100
AcDbMlineStyle
  2
Standard
 70
     0
  3

 62
     0
 51
90.0
 52
90.0
 71
     2
 49
0.5
 62
   256
  6
BYLAYER
 49
-0.5
 62
   256
  6
BYLAYER
  0
ACDBDICTIONARYWDFLT
  5
1F
102
{ACAD_REACTORS
330
19
102
}
100
AcDbDictionary
281
     1
  3
Normal
350
1D
100
AcDbDictionaryWithDefault
340
1D
  0
ACDBPLACEHOLDER
  5
1D
102
{ACAD_REACTORS
330
1F
102
}
  0
LAYOUT
  5
20
102
{ACAD_REACTORS
330
1E
102
}
100
AcDbPlotSettings
  1

  2

  4

  6

 40
0.0
 41
0.0
 42
0.0
 43
0.0
 44
0.0
 45
0.0
 46
0.0
 47
0.0
 48
0.0
 49
0.0
140
0.0
141
0.0
142
1.0
143
1.0
 70
  1024
 72
     0
 73
     0
 74
     0
  7

 75
     0
147
1.0
148
0.0
149
0.0
100
AcDbLayout
  1
Model
 70
     0
 71
     0
 10
0.0
 20
0.0
 11
0.0
 21
0.0
 12
0.0
 22
0.0
 32
0.0
 14
0.0
 24
0.0
 34
0.0
 15
0.0
 25
0.0
 35
0.0
146
0.0
 13
0.0
 23
0.0
 33
0.0
 16
0.0
 26
0.0
 36
0.0
 17
0.0
 27
0.0
 37
0.0
 76
     0
330
A
331
0
345
0
346
0
  0
LAYOUT
  5
21
102
{ACAD_REACTORS
330
1E
102
}
100
AcDbPlotSettings
  1

  2

  4

  6

 40
0.0
 41
0.0
 42
0.0
 43
0.0
 44
0.0
 45
0.0
 46
0.0
 47
0.0
 48
0.0
 49
0.0
140
0.0
141
0.0
142
1.0
143
1.0
 70
     0
 72
     0
 73
     0
 74
     0
  7

 75
     0
147
1.0
148
0.0
149
0.0
100
AcDbLayout
  1
Layout1
 70
     0
 71
     0
 10
0.0
 20
0.0
 11
0.0
 21
0.0
 12
0.0
 22
0.0
 32
0.0
 14
0.0
 24
0.0
 34
0.0
 15
0.0
 25
0.0
 35
0.0
146
0.0
 13
0.0
 23
0.0
 33
0.0
 16
0.0
 26
0.0
 36
0.0
 17
0.0
 27
0.0
 37
0.0
 76
     0
330
B
331
0
345
0
346
0
  0
DICTIONARY
  5
1E
102
{ACAD_REACTORS
330
19
102
}
100
AcDbDictionary
280
     0
281
     1
  3
Layout1
350
21
  3
Model
350
20
  0
DICTIONARY
  5
22
102
{ACAD_REACTORS
330
19
102
}
100
AcDbDictionary
280
     0
281
     1
  0
WIPEOUTVARIABLES
  5
23
100
AcDbWipeoutVariables
 70
     1
  0
ENDSEC
  0
EOF
