  0
SECTION
  2
HEADER
  9
$ACADVER
  1
AC1015
  9
$ACADMAINTVER
 70
     6
  9
$DWGCODEPAGE
  3
DOS850
  9
$INSBASE
 10
0.0
 20
0.0
 30
0.0
  9
$EXTMIN
 10
-97.9881
 20
42.3145
 30
1.000000E+20
  9
$EXTMAX
 10
42.0881
 20
120.3381
 30
-1.000000E+20
  9
$LIMMIN
 10
0.0
 20
0.0
  9
$LIMMAX
 10
0.0
 20
0.0
  9
$ORTHOMODE
 70
     0
  9
$REGENMODE
 70
     1
  9
$FILLMODE
 70
     1
  9
$QTEXTMODE
 70
     0
  9
$MIRRTEXT
 70
     1
  9
$LTSCALE
 40
1.0
  9
$ATTMODE
 70
     1
  9
$TEXTSIZE
 40
0.2
  9
$TRACEWID
 40
0.05
  9
$TEXTSTYLE
  7
Standard
  9
$CLAYER
  8
0
  9
$CELTYPE
  6
Continuous
  9
$CECOLOR
 62
   256
  9
$CELTSCALE
 40
1.0
  9
$DISPSILH
 70
     0
  9
$DIMSCALE
 40
1.0
  9
$DIMASZ
 40
0.18
  9
$DIMEXO
 40
0.0625
  9
$DIMDLI
 40
0.38
  9
$DIMRND
 40
0.0
  9
$DIMDLE
 40
0.0
  9
$DIMEXE
 40
0.18
  9
$DIMTP
 40
0.0
  9
$DIMTM
 40
0.0
  9
$DIMTXT
 40
0.18
  9
$DIMCEN
 40
0.09
  9
$DIMTSZ
 40
0.0
  9
$DIMTOL
 70
     0
  9
$DIMLIM
 70
     0
  9
$DIMTIH
 70
     1
  9
$DIMTOH
 70
     1
  9
$DIMSE1
 70
     0
  9
$DIMSE2
 70
     0
  9
$DIMTAD
 70
     0
  9
$DIMZIN
 70
     0
  9
$DIMBLK
  1

  9
$DIMASO
 70
     1
  9
$DIMSHO
 70
     1
  9
$DIMPOST
  1

  9
$DIMAPOST
  1

  9
$DIMALT
 70
     0
  9
$DIMALTD
 70
     2
  9
$DIMALTF
 40
25.4
  9
$DIMLFAC
 40
1.0
  9
$DIMTOFL
 70
     0
  9
$DIMTVP
 40
0.0
  9
$DIMTIX
 70
     0
  9
$DIMSOXD
 70
     0
  9
$DIMSAH
 70
     0
  9
$DIMBLK1
  1

  9
$DIMBLK2
  1

  9
$DIMSTYLE
  2
Standard
  9
$DIMCLRD
 70
     0
  9
$DIMCLRE
 70
     0
  9
$DIMCLRT
 70
     0
  9
$DIMTFAC
 40
1.0
  9
$DIMGAP
 40
0.09
  9
$DIMJUST
 70
     0
  9
$DIMSD1
 70
     0
  9
$DIMSD2
 70
     0
  9
$DIMTOLJ
 70
     1
  9
$DIMTZIN
 70
     0
  9
$DIMALTZ
 70
     0
  9
$DIMALTTZ
 70
     0
  9
$DIMUPT
 70
     0
  9
$DIMDEC
 70
     4
  9
$DIMTDEC
 70
     4
  9
$DIMALTU
 70
     2
  9
$DIMALTTD
 70
     2
  9
$DIMTXSTY
  7
Standard
  9
$DIMAUNIT
 70
     0
  9
$DIMADEC
 70
     0
  9
$DIMALTRND
 40
0.0
  9
$DIMAZIN
 70
     0
  9
$DIMDSEP
 70
     0
  9
$DIMATFIT
 70
     3
  9
$DIMFRAC
 70
     0
  9
$DIMLDRBLK
  1

  9
$DIMLUNIT
 70
     2
  9
$DIMLWD
 70
     0
  9
$DIMLWE
 70
     0
  9
$DIMTMOVE
 70
     0
  9
$LUNITS
 70
     2
  9
$LUPREC
 70
     4
  9
$SKETCHINC
 40
0.1
  9
$FILLETRAD
 40
0.0
  9
$AUNITS
 70
     0
  9
$AUPREC
 70
     0
  9
$MENU
  1
acad
  9
$ELEVATION
 40
0.0
  9
$PELEVATION
 40
0.0
  9
$THICKNESS
 40
0.0
  9
$LIMCHECK
 70
     0
  9
$CHAMFERA
 40
0.0
  9
$CHAMFERB
 40
0.0
  9
$CHAMFERC
 40
0.0
  9
$CHAMFERD
 40
0.0
  9
$SKPOLY
 70
     0
  9
$TDCREATE
 40
0.000000000
  9
$TDUCREATE
 40
0.000000000
  9
$TDUPDATE
 40
0.000000000
  9
$TDUUPDATE
 40
0.000000000
  9
$TDINDWG
 40
0.0000000000
  9
$TDUSRTIMER
 40
0.0000000000
  9
$USRTIMER
 70
     1
  9
$ANGBASE
 50
0.0
  9
$ANGDIR
 70
     0
  9
$PDMODE
 70
     0
  9
$PDSIZE
 40
0.0
  9
$PLINEWID
 40
0.0
  9
$SPLFRAME
 70
     0
  9
$SPLINETYPE
 70
     6
  9
$SPLINESEGS
 70
     8
  9
$HANDSEED
  5
48
  9
$SURFTAB1
 70
     6
  9
$SURFTAB2
 70
     6
  9
$SURFTYPE
 70
     6
  9
$SURFU
 70
     6
  9
$SURFV
 70
     6
  9
$UCSBASE
  2

  9
$UCSNAME
  2

  9
$UCSORG
 10
0.0
 20
0.0
 30
0.0
  9
$UCSXDIR
 10
1.0
 20
0.0
 30
0.0
  9
$UCSYDIR
 10
0.0
 20
1.0
 30
0.0
  9
$UCSORTHOREF
  2

  9
$UCSORTHOVIEW
 70
     0
  9
$UCSORGTOP
 10
0.0
 20
0.0
 30
0.0
  9
$UCSORGBOTTOM
 10
0.0
 20
0.0
 30
0.0
  9
$UCSORGLEFT
 10
0.0
 20
0.0
 30
0.0
  9
$UCSORGRIGHT
 10
0.0
 20
0.0
 30
0.0
  9
$UCSORGFRONT
 10
0.0
 20
0.0
 30
0.0
  9
$UCSORGBACK
 10
0.0
 20
0.0
 30
0.0
  9
$PUCSBASE
  2

  9
$PUCSNAME
  2

  9
$PUCSORG
 10
0.0
 20
0.0
 30
0.0
  9
$PUCSXDIR
 10
1.0
 20
0.0
 30
0.0
  9
$PUCSYDIR
 10
0.0
 20
1.0
 30
0.0
  9
$PUCSORTHOREF
  2

  9
$PUCSORTHOVIEW
 70
     0
  9
$PUCSORGTOP
 10
0.0
 20
0.0
 30
0.0
  9
$PUCSORGBOTTOM
 10
0.0
 20
0.0
 30
0.0
  9
$PUCSORGLEFT
 10
0.0
 20
0.0
 30
0.0
  9
$PUCSORGRIGHT
 10
0.0
 20
0.0
 30
0.0
  9
$PUCSORGFRONT
 10
0.0
 20
0.0
 30
0.0
  9
$PUCSORGBACK
 10
0.0
 20
0.0
 30
0.0
  9
$USERI1
 70
     0
  9
$USERI2
 70
     0
  9
$USERI3
 70
     0
  9
$USERI4
 70
     0
  9
$USERI5
 70
     0
  9
$USERR1
 40
0.0
  9
$USERR2
 40
0.0
  9
$USERR3
 40
0.0
  9
$USERR4
 40
0.0
  9
$USERR5
 40
0.0
  9
$WORLDVIEW
 70
     1
  9
$SHADEDGE
 70
     3
  9
$SHADEDIF
 70
    70
  9
$TILEMODE
 70
     1
  9
$MAXACTVP
 70
    16
  9
$PINSBASE
 10
0.0
 20
0.0
 30
0.0
  9
$PLIMCHECK
 70
     0
  9
$PEXTMIN
 10
1.000000E+20
 20
1.000000E+20
 30
1.000000E+20
  9
$PEXTMAX
 10
-1.000000E+20
 20
-1.000000E+20
 30
-1.000000E+20
  9
$PLIMMIN
 10
0.0
 20
0.0
  9
$PLIMMAX
 10
12.0
 20
9.0
  9
$UNITMODE
 70
     0
  9
$VISRETAIN
 70
     0
  9
$PLINEGEN
 70
     1
  9
$PSLTSCALE
 70
     0
  9
$TREEDEPTH
 70
  3020
  9
$CMLSTYLE
  2
Standard
  9
$CMLJUST
 70
     0
  9
$CMLSCALE
 40
1.0
  9
$PROXYGRAPHICS
 70
     0
  9
$MEASUREMENT
 70
     0
  9
$CELWEIGHT
370
     0
  9
$ENDCAPS
280
     0
  9
$JOINSTYLE
280
     0
  9
$LWDISPLAY
290
     0
  9
$INSUNITS
 70
     4
  9
$HYPERLINKBASE
  1

  9
$XEDIT
290
     1
  9
$CEPSNTYPE
380
     0
  9
$PSTYLEMODE
290
     1
  9
$FINGERPRINTGUID
  2

  9
$VERSIONGUID
  2

  9
$EXTNAMES
290
     1
  9
$PSVPSCALE
 40
0.0
  0
ENDSEC
  0
SECTION
  2
CLASSES
  0
CLASS
  1
LWPOLYLINE
  2
AcDbPolyline
  3
AutoCAD 2000
 90
    32768
280
     0
281
     1
  0
CLASS
  1
IMAGE
  2
AcDbRasterImage
  3
ISM
 90
    32895
280
     0
281
     1
  0
CLASS
  1
OLE2FRAME
  2
AcDbOle2Frame
  3
AutoCAD 2000
 90
    32768
280
     0
281
     1
  0
CLASS
  1
HATCH
  2
AcDbHatch
  3
AutoCAD 2000
 90
    32768
280
     0
281
     1
  0
CLASS
  1
DICTIONARYVAR
  2
AcDbDictionaryVar
  3
AutoCAD 2000
 90
    32768
280
     0
281
     0
  0
CLASS
  1
RASTERVARIABLES
  2
AcDbRasterVariables
  3
ISM
 90
    32768
280
     0
281
     0
  0
CLASS
  1
IMAGEDEF
  2
AcDbRasterImageDef
  3
ISM
 90
    32768
280
     0
281
     0
  0
CLASS
  1
IMAGEDEF_REACTOR
  2
AcDbRasterImageDefReactor
  3
ISM
 90
    32769
280
     0
281
     0
  0
CLASS
  1
IDBUFFER
  2
AcDbIdBuffer
  3
AutoCAD 2000
 90
    32768
280
     0
281
     0
  0
CLASS
  1
SPATIAL_FILTER
  2
AcDbSpatialFilter
  3
AutoCAD 2000
 90
    32768
280
     0
281
     0
  0
CLASS
  1
XRECORD
  2
AcDbXrecord
  3
AutoCAD 2000
 90
    32768
280
     0
281
     0
  0
CLASS
  1
SORTENTSTABLE
  2
AcDbSortentsTable
  3
AutoCAD 2000
 90
    32768
280
     0
281
     0
  0
CLASS
  1
LAYER_INDEX
  2
AcDbLayerIndex
  3
AutoCAD 2000
 90
    32768
280
     0
281
     0
  0
CLASS
  1
SPATIAL_INDEX
  2
AcDbSpatialIndex
  3
AutoCAD 2000
 90
    32768
280
     0
281
     0
  0
CLASS
  1
OBJECT_PTR
  2
CAseDLPNTableRecord
  3
"ASE-LPNTableRecord"
 90
    32769
280
     0
281
     0
  0
CLASS
  1
LAYOUT
  2
AcDbLayout
  3
AutoCAD 2000
 90
        0
280
     0
281
     0
  0
CLASS
  1
PLOTSETTINGS
  2
AcDbPlotSettings
  3
AutoCAD 2000
 90
    32768
280
     0
281
     0
  0
CLASS
  1
ACDBDICTIONARYWDFLT
  2
AcDbDictionaryWithDefault
  3
AutoCAD 2000
 90
        0
280
     0
281
     0
  0
CLASS
  1
ACDBPLACEHOLDER
  2
AcDbPlaceHolder
  3
AutoCAD 2000
 90
        0
280
     0
281
     0
  0
CLASS
  1
VBA_PROJECT
  2
AcDbVbaProject
  3
acadvba
 90
    32768
280
     0
281
     0
  0
CLASS
  1
WIPEOUT
  2
AcDbWipeout
  3
WipeOut|AutoCAD Express Tool|expresstools@autodesk.com
 90
    32895
280
     0
281
     1
  0
CLASS
  1
WIPEOUTVARIABLES
  2
AcDbWipeoutVariables
  3
WipeOut|AutoCAD Express Tool|expresstools@autodesk.com
 90
        0
280
     0
281
     0
  0
CLASS
  1
RTEXT
  2
RText
  3
RText|AutoCAD Express Tool|expresstools@autodesk.com
 90
    32768
280
     0
281
     1
  0
CLASS
  1
ARCALIGNEDTEXT
  2
AcDbArcAlignedText
  3
ATEXT|AutoCAD Express Tool|expresstools@autodesk.com
 90
    32768
280
     0
281
     1
  0
ENDSEC
  0
SECTION
  2
TABLES
  0
TABLE
  2
VPORT
  5
7
100
AcDbSymbolTable
 70
     1
  0
VPORT
  5
15
100
AcDbSymbolTableRecord
100
AcDbViewportTableRecord
  2
*ACTIVE
 70
     0
 10
0.0
 20
0.0
 11
1.0
 21
1.0
 12
6.591288
 22
4.579184
 13
0.0
 23
0.0
 14
1.0
 24
1.0
 15
0.0
 25
0.0
 16
0.0
 26
0.0
 36
1.0
 17
0.0
 27
0.0
 37
0.0
 40
9.158369
 41
0.688564
 42
50.0
 43
0.0
 44
0.0
 50
0.0
 51
0.0
 71
     0
 72
   100
 73
     1
 74
     1
 75
     0
 76
     0
 77
     0
 78
     0
281
     0
 65
     0
110
0.0
120
0.0
130
0.0
111
1.0
121
0.0
131
0.0
112
0.0
122
1.0
132
0.0
345
0
346
0
 79
     0
146
0.0
  0
ENDTAB
  0
TABLE
  2
LTYPE
  5
4
100
AcDbSymbolTable
 70
     3
  0
LTYPE
  5
11
100
AcDbSymbolTableRecord
100
AcDbLinetypeTableRecord
  2
ByBlock
 70
    64
  3

 72
    65
 73
     0
 40
0.0
  0
LTYPE
  5
12
100
AcDbSymbolTableRecord
100
AcDbLinetypeTableRecord
  2
ByLayer
 70
    64
  3

 72
    65
 73
     0
 40
0.0
  0
LTYPE
  5
13
100
AcDbSymbolTableRecord
100
AcDbLinetypeTableRecord
  2
Continuous
 70
    64
  3
Solid line
 72
    65
 73
     0
 40
0.0
  0
ENDTAB
  0
TABLE
  2
LAYER
  5
2
100
AcDbSymbolTable
 70
     2
  0
LAYER
  5
14
100
AcDbSymbolTableRecord
100
AcDbLayerTableRecord
  2
0
 70
     0
 62
     7
  6
Continuous
290
     1
370
    -3
390
1D
  0
LAYER
  5
24
100
AcDbSymbolTableRecord
100
AcDbLayerTableRecord
  2
RÚteg 1
 70
     0
 62
     7
  6
Continuous
290
     1
370
    -3
390
1F
  0
ENDTAB
  0
TABLE
  2
STYLE
  5
3
100
AcDbSymbolTable
 70
     1
  0
STYLE
  5
17
100
AcDbSymbolTableRecord
100
AcDbTextStyleTableRecord
  2
Standard
 70
     0
 40
0.0
 41
1.0
 50
0.0
 71
     0
 42
0.0
  3
txt
  4

  0
ENDTAB
  0
TABLE
  2
VIEW
  5
5
100
AcDbSymbolTable
 70
     0
  0
ENDTAB
  0
TABLE
  2
UCS
  5
6
100
AcDbSymbolTable
 70
     0
  0
ENDTAB
  0
TABLE
  2
APPID
  5
8
100
AcDbSymbolTable
 70
     1
  0
APPID
  5
16
100
AcDbSymbolTableRecord
100
AcDbRegAppTableRecord
  2
ACAD
 70
     0
  0
ENDTAB
  0
TABLE
  2
DIMSTYLE
  5
9
100
AcDbSymbolTable
 70
     1
100
AcDbDimStyleTable
 71
     0
  0
DIMSTYLE
105
18
100
AcDbSymbolTableRecord
100
AcDbDimStyleTableRecord
  2
Standard
 70
     0
  3

  4

 40
1.0
 41
0.18
 42
0.0625
 43
0.38
 44
0.18
 45
0.0
 46
0.0
 47
0.0
 48
0.0
 71
     0
 72
     0
 73
     1
 74
     1
 75
     0
 76
     0
 77
     0
 78
     0
 79
     0
140
0.18
141
0.09
142
0.0
143
25.4
144
1.0
145
0.0
146
1.0
147
0.09
148
0.0
170
     0
171
     2
172
     0
173
     0
174
     0
175
     0
176
     0
177
     0
178
     0
179
     0
271
     4
272
     4
273
     2
274
     2
275
     0
276
     0
277
     2
278
    46
279
     0
280
     0
281
     0
282
     0
283
     1
284
     0
285
     0
286
     0
288
     0
340
17
341
0
342
0
343
0
344
0
371
    -2
372
    -2
  0
ENDTAB
  0
TABLE
  2
BLOCK_RECORD
  5
1
100
AcDbSymbolTable
 70
     0
  0
BLOCK_RECORD
  5
A
100
AcDbSymbolTableRecord
100
AcDbBlockTableRecord
  2
*MODEL_SPACE
340
20
  0
BLOCK_RECORD
  5
B
100
AcDbSymbolTableRecord
100
AcDbBlockTableRecord
  2
*PAPER_SPACE
340
21
  0
ENDTAB
  0
ENDSEC
  0
SECTION
  2
BLOCKS
  0
BLOCK
  5
D
100
AcDbEntity
  8
0
100
AcDbBlockBegin
  2
*MODEL_SPACE
 70
     0
 10
0.0
 20
0.0
 30
0.0
  3
*MODEL_SPACE
  1

  0
ENDBLK
  5
E
100
AcDbEntity
  8
0
100
AcDbBlockEnd
  0
BLOCK
  5
F
100
AcDbEntity
 67
     1
  8
0
100
AcDbBlockBegin
  2
*PAPER_SPACE
 70
     0
 10
0.0
 20
0.0
 30
0.0
  3
*PAPER_SPACE
  1

  0
ENDBLK
  5
10
100
AcDbEntity
 67
     1
  8
0
100
AcDbBlockEnd
  0
ENDSEC
  0
SECTION
  2
ENTITIES
  0
SPLINE
  5
25
100
AcDbEntity
  8
RÚteg 1
 62
     7
100
AcDbSpline
210
0.0
220
0.0
230
1.0
 70
     1
 71
     3
 72
    28
 73
    24
 74
     0
 42
0.0000000001
 43
0.0000000001
 40
0.0
 40
0.0
 40
0.0
 40
0.0
 40
0.1666666666666667
 40
0.1666666666666667
 40
0.1666666666666667
 40
0.1666666666666667
 40
0.3333333333333333
 40
0.3333333333333333
 40
0.3333333333333333
 40
0.3333333333333333
 40
0.5
 40
0.5
 40
0.5
 40
0.5
 40
0.6666666666666666
 40
0.6666666666666666
 40
0.6666666666666666
 40
0.6666666666666666
 40
0.8333333333333333
 40
0.8333333333333333
 40
0.8333333333333333
 40
0.8333333333333333
 40
1.0
 40
1.0
 40
1.0
 40
1.0
 10
8.2294999999999998
 20
111.00239999999999
 30
0.0
 10
9.0422999999999991
 20
111.00239999999999
 30
0.0
 10
9.8475999999999999
 20
110.9726
 30
0.0
 10
10.6457
 20
110.9157
 30
0.0
 10
10.6457
 20
110.9157
 30
0.0
 10
11.7403
 20
111.6797
 30
0.0
 10
12.457100000000001
 20
112.94840000000001
 30
0.0
 10
12.457100000000001
 20
114.3843
 30
0.0
 10
12.457100000000001
 20
114.3843
 30
0.0
 10
12.457100000000001
 20
116.7189
 30
0.0
 10
10.563700000000001
 20
118.61199999999999
 30
0.0
 10
8.2294999999999998
 20
118.61199999999999
 30
0.0
 10
8.2294999999999998
 20
118.61199999999999
 30
0.0
 10
5.8952999999999998
 20
118.61199999999999
 30
0.0
 10
4.0019
 20
116.7189
 30
0.0
 10
4.0019
 20
114.3843
 30
0.0
 10
4.0019
 20
114.3843
 30
0.0
 10
4.0019
 20
112.94840000000001
 30
0.0
 10
4.7187000000000001
 20
111.6797
 30
0.0
 10
5.8132999999999999
 20
110.9157
 30
0.0
 10
5.8132999999999999
 20
110.9157
 30
0.0
 10
6.6113999999999997
 20
110.9726
 30
0.0
 10
7.4166999999999996
 20
111.00239999999999
 30
0.0
 10
8.2294999999999998
 20
111.00239999999999
 30
0.0
  0
SPLINE
  5
26
100
AcDbEntity
  8
RÚteg 1
 62
     7
100
AcDbSpline
210
0.0
220
0.0
230
1.0
 70
     1
 71
     3
 72
    36
 73
    32
 74
     0
 42
0.0000000001
 43
0.0000000001
 40
0.0
 40
0.0
 40
0.0
 40
0.0
 40
0.125
 40
0.125
 40
0.125
 40
0.125
 40
0.25
 40
0.25
 40
0.25
 40
0.25
 40
0.375
 40
0.375
 40
0.375
 40
0.375
 40
0.5
 40
0.5
 40
0.5
 40
0.5
 40
0.625
 40
0.625
 40
0.625
 40
0.625
 40
0.75
 40
0.75
 40
0.75
 40
0.75
 40
0.875
 40
0.875
 40
0.875
 40
0.875
 40
1.0
 40
1.0
 40
1.0
 40
1.0
 10
12.846500000000001
 20
110.6872
 30
0.0
 10
29.338000000000001
 20
108.4346
 30
0.0
 10
42.049999999999997
 20
94.290800000000004
 30
0.0
 10
42.049999999999997
 20
77.181700000000006
 30
0.0
 10
42.049999999999997
 20
77.181700000000006
 30
0.0
 10
42.049999999999997
 20
58.506399999999999
 30
0.0
 10
26.905100000000001
 20
43.361199999999997
 30
0.0
 10
8.2294999999999998
 20
43.361199999999997
 30
0.0
 10
8.2294999999999998
 20
43.361199999999997
 30
0.0
 10
-10.446099999999999
 20
43.361199999999997
 30
0.0
 10
-25.591000000000001
 20
58.506399999999999
 30
0.0
 10
-25.591000000000001
 20
77.181700000000006
 30
0.0
 10
-25.591000000000001
 20
77.181700000000006
 30
0.0
 10
-25.591000000000001
 20
94.290800000000004
 30
0.0
 10
-12.879
 20
108.4346
 30
0.0
 10
3.6124999999999998
 20
110.6872
 30
0.0
 10
3.6124999999999998
 20
110.6872
 30
0.0
 10
2.8003999999999998
 20
111.7
 30
0.0
 10
2.3140000000000001
 20
112.9854
 30
0.0
 10
2.3140000000000001
 20
114.3843
 30
0.0
 10
2.3140000000000001
 20
114.3843
 30
0.0
 10
2.3140000000000001
 20
117.6508
 30
0.0
 10
4.9630000000000001
 20
120.3
 30
0.0
 10
8.2294999999999998
 20
120.3
 30
0.0
 10
8.2294999999999998
 20
120.3
 30
0.0
 10
11.496
 20
120.3
 30
0.0
 10
14.145
 20
117.6508
 30
0.0
 10
14.145
 20
114.3843
 30
0.0
 10
14.145
 20
114.3843
 30
0.0
 10
14.145
 20
112.9854
 30
0.0
 10
13.6586
 20
111.7
 30
0.0
 10
12.846500000000001
 20
110.6872
 30
0.0
  0
SPLINE
  5
27
100
AcDbEntity
  8
RÚteg 1
 62
     7
100
AcDbSpline
210
0.0
220
0.0
230
1.0
 70
     1
 71
     3
 72
    92
 73
    88
 74
     0
 42
0.0000000001
 43
0.0000000001
 40
0.0
 40
0.0
 40
0.0
 40
0.0
 40
0.0454545454545455
 40
0.0454545454545455
 40
0.0454545454545455
 40
0.0454545454545455
 40
0.0909090909090909
 40
0.0909090909090909
 40
0.0909090909090909
 40
0.0909090909090909
 40
0.1363636363636364
 40
0.1363636363636364
 40
0.1363636363636364
 40
0.1363636363636364
 40
0.1818181818181818
 40
0.1818181818181818
 40
0.1818181818181818
 40
0.1818181818181818
 40
0.2272727272727273
 40
0.2272727272727273
 40
0.2272727272727273
 40
0.2272727272727273
 40
0.2727272727272728
 40
0.2727272727272728
 40
0.2727272727272728
 40
0.2727272727272728
 40
0.3181818181818182
 40
0.3181818181818182
 40
0.3181818181818182
 40
0.3181818181818182
 40
0.3636363636363637
 40
0.3636363636363637
 40
0.3636363636363637
 40
0.3636363636363637
 40
0.4090909090909092
 40
0.4090909090909092
 40
0.4090909090909092
 40
0.4090909090909092
 40
0.4545454545454546
 40
0.4545454545454546
 40
0.4545454545454546
 40
0.4545454545454546
 40
0.5000000000000001
 40
0.5000000000000001
 40
0.5000000000000001
 40
0.5000000000000001
 40
0.5454545454545455
 40
0.5454545454545455
 40
0.5454545454545455
 40
0.5454545454545455
 40
0.5909090909090909
 40
0.5909090909090909
 40
0.5909090909090909
 40
0.5909090909090909
 40
0.6363636363636364
 40
0.6363636363636364
 40
0.6363636363636364
 40
0.6363636363636364
 40
0.6818181818181818
 40
0.6818181818181818
 40
0.6818181818181818
 40
0.6818181818181818
 40
0.7272727272727272
 40
0.7272727272727272
 40
0.7272727272727272
 40
0.7272727272727272
 40
0.7727272727272726
 40
0.7727272727272726
 40
0.7727272727272726
 40
0.7727272727272726
 40
0.818181818181818
 40
0.818181818181818
 40
0.818181818181818
 40
0.818181818181818
 40
0.8636363636363634
 40
0.8636363636363634
 40
0.8636363636363634
 40
0.8636363636363634
 40
0.9090909090909088
 40
0.9090909090909088
 40
0.9090909090909088
 40
0.9090909090909088
 40
0.9545454545454543
 40
0.9545454545454543
 40
0.9545454545454543
 40
0.9545454545454543
 40
1.0
 40
1.0
 40
1.0
 40
1.0
 10
9.2446000000000002
 20
98.445599999999999
 30
0.0
 10
9.2446000000000002
 20
98.445599999999999
 30
0.0
 10
9.8889999999999993
 20
96.009399999999999
 30
0.0
 10
9.8889999999999993
 20
96.009399999999999
 30
0.0
 10
9.8889999999999993
 20
96.009399999999999
 30
0.0
 10
9.8889999999999993
 20
96.009399999999999
 30
0.0
 10
11.547800000000001
 20
89.733599999999996
 30
0.0
 10
11.547800000000001
 20
89.733599999999996
 30
0.0
 10
11.547800000000001
 20
89.733599999999996
 30
0.0
 10
11.547800000000001
 20
89.733599999999996
 30
0.0
 10
10.627000000000001
 20
86.249799999999993
 30
0.0
 10
10.627000000000001
 20
86.249799999999993
 30
0.0
 10
10.627000000000001
 20
86.249799999999993
 30
0.0
 10
10.9659
 20
86.160300000000007
 30
0.0
 10
11.297499999999999
 20
86.052400000000006
 30
0.0
 10
11.620100000000001
 20
85.927199999999999
 30
0.0
 10
11.620100000000001
 20
85.927199999999999
 30
0.0
 10
11.620100000000001
 20
85.927199999999999
 30
0.0
 10
12.922700000000001
 20
89.286699999999996
 30
0.0
 10
12.922700000000001
 20
89.286699999999996
 30
0.0
 10
12.922700000000001
 20
89.286699999999996
 30
0.0
 10
12.922700000000001
 20
89.286699999999996
 30
0.0
 10
17.953700000000001
 20
93.3887
 30
0.0
 10
17.953700000000001
 20
93.3887
 30
0.0
 10
17.953700000000001
 20
93.3887
 30
0.0
 10
17.953700000000001
 20
93.3887
 30
0.0
 10
19.9069
 20
94.981200000000001
 30
0.0
 10
19.9069
 20
94.981200000000001
 30
0.0
 10
19.9069
 20
94.981200000000001
 30
0.0
 10
19.9069
 20
94.981200000000001
 30
0.0
 10
19.9603
 20
95.2911
 30
0.0
 10
19.9603
 20
95.2911
 30
0.0
 10
19.9603
 20
95.2911
 30
0.0
 10
19.9603
 20
95.2911
 30
0.0
 10
20.404599999999999
 20
97.866299999999995
 30
0.0
 10
20.404599999999999
 20
97.866299999999995
 30
0.0
 10
20.404599999999999
 20
97.866299999999995
 30
0.0
 10
20.404599999999999
 20
97.866299999999995
 30
0.0
 10
22.716200000000001
 20
99.084500000000006
 30
0.0
 10
22.716200000000001
 20
99.084500000000006
 30
0.0
 10
22.716200000000001
 20
99.084500000000006
 30
0.0
 10
22.716200000000001
 20
99.084500000000006
 30
0.0
 10
23.089600000000001
 20
99.281499999999994
 30
0.0
 10
23.089600000000001
 20
99.281499999999994
 30
0.0
 10
23.089600000000001
 20
99.281499999999994
 30
0.0
 10
23.089600000000001
 20
99.281499999999994
 30
0.0
 10
23.415900000000001
 20
100.7752
 30
0.0
 10
23.415900000000001
 20
100.7752
 30
0.0
 10
23.415900000000001
 20
100.7752
 30
0.0
 10
23.415900000000001
 20
100.7752
 30
0.0
 10
25.115600000000001
 20
101.7694
 30
0.0
 10
25.115600000000001
 20
101.7694
 30
0.0
 10
25.115600000000001
 20
101.7694
 30
0.0
 10
25.115600000000001
 20
101.7694
 30
0.0
 10
25.9741
 20
102.2711
 30
0.0
 10
25.9741
 20
102.2711
 30
0.0
 10
25.9741
 20
102.2711
 30
0.0
 10
21.061199999999999
 20
105.7526
 30
0.0
 10
15.0814
 20
107.82550000000001
 30
0.0
 10
8.6224000000000007
 20
107.90649999999999
 30
0.0
 10
8.6224000000000007
 20
107.90649999999999
 30
0.0
 10
8.6224000000000007
 20
107.90649999999999
 30
0.0
 10
9.0206999999999997
 20
106.99890000000001
 30
0.0
 10
9.0206999999999997
 20
106.99890000000001
 30
0.0
 10
9.0206999999999997
 20
106.99890000000001
 30
0.0
 10
9.0206999999999997
 20
106.99890000000001
 30
0.0
 10
9.8116000000000003
 20
105.1955
 30
0.0
 10
9.8116000000000003
 20
105.1955
 30
0.0
 10
9.8116000000000003
 20
105.1955
 30
0.0
 10
9.8116000000000003
 20
105.1955
 30
0.0
 10
9.1974
 20
103.7953
 30
0.0
 10
9.1974
 20
103.7953
 30
0.0
 10
9.1974
 20
103.7953
 30
0.0
 10
9.1974
 20
103.7953
 30
0.0
 10
9.3838000000000008
 20
103.41670000000001
 30
0.0
 10
9.3838000000000008
 20
103.41670000000001
 30
0.0
 10
9.3838000000000008
 20
103.41670000000001
 30
0.0
 10
9.3838000000000008
 20
103.41670000000001
 30
0.0
 10
10.537800000000001
 20
101.07250000000001
 30
0.0
 10
10.537800000000001
 20
101.07250000000001
 30
0.0
 10
10.537800000000001
 20
101.07250000000001
 30
0.0
 10
10.537800000000001
 20
101.07250000000001
 30
0.0
 10
9.3838000000000008
 20
98.727900000000005
 30
0.0
 10
9.3838000000000008
 20
98.727900000000005
 30
0.0
 10
9.3838000000000008
 20
98.727900000000005
 30
0.0
 10
9.3838000000000008
 20
98.727900000000005
 30
0.0
 10
9.2446000000000002
 20
98.445599999999999
 30
0.0
 10
9.2446000000000002
 20
98.445599999999999
 30
0.0
  0
SPLINE
  5
28
100
AcDbEntity
  8
RÚteg 1
 62
     7
100
AcDbSpline
210
0.0
220
0.0
230
1.0
 70
     1
 71
     3
 72
    92
 73
    88
 74
     0
 42
0.0000000001
 43
0.0000000001
 40
0.0
 40
0.0
 40
0.0
 40
0.0
 40
0.0454545454545455
 40
0.0454545454545455
 40
0.0454545454545455
 40
0.0454545454545455
 40
0.0909090909090909
 40
0.0909090909090909
 40
0.0909090909090909
 40
0.0909090909090909
 40
0.1363636363636364
 40
0.1363636363636364
 40
0.1363636363636364
 40
0.1363636363636364
 40
0.1818181818181818
 40
0.1818181818181818
 40
0.1818181818181818
 40
0.1818181818181818
 40
0.2272727272727273
 40
0.2272727272727273
 40
0.2272727272727273
 40
0.2272727272727273
 40
0.2727272727272728
 40
0.2727272727272728
 40
0.2727272727272728
 40
0.2727272727272728
 40
0.3181818181818182
 40
0.3181818181818182
 40
0.3181818181818182
 40
0.3181818181818182
 40
0.3636363636363637
 40
0.3636363636363637
 40
0.3636363636363637
 40
0.3636363636363637
 40
0.4090909090909092
 40
0.4090909090909092
 40
0.4090909090909092
 40
0.4090909090909092
 40
0.4545454545454546
 40
0.4545454545454546
 40
0.4545454545454546
 40
0.4545454545454546
 40
0.5000000000000001
 40
0.5000000000000001
 40
0.5000000000000001
 40
0.5000000000000001
 40
0.5454545454545455
 40
0.5454545454545455
 40
0.5454545454545455
 40
0.5454545454545455
 40
0.5909090909090909
 40
0.5909090909090909
 40
0.5909090909090909
 40
0.5909090909090909
 40
0.6363636363636364
 40
0.6363636363636364
 40
0.6363636363636364
 40
0.6363636363636364
 40
0.6818181818181818
 40
0.6818181818181818
 40
0.6818181818181818
 40
0.6818181818181818
 40
0.7272727272727272
 40
0.7272727272727272
 40
0.7272727272727272
 40
0.7272727272727272
 40
0.7727272727272726
 40
0.7727272727272726
 40
0.7727272727272726
 40
0.7727272727272726
 40
0.818181818181818
 40
0.818181818181818
 40
0.818181818181818
 40
0.818181818181818
 40
0.8636363636363634
 40
0.8636363636363634
 40
0.8636363636363634
 40
0.8636363636363634
 40
0.9090909090909088
 40
0.9090909090909088
 40
0.9090909090909088
 40
0.9090909090909088
 40
0.9545454545454543
 40
0.9545454545454543
 40
0.9545454545454543
 40
0.9545454545454543
 40
1.0
 40
1.0
 40
1.0
 40
1.0
 10
26.607600000000001
 20
101.8108
 30
0.0
 10
26.607600000000001
 20
101.8108
 30
0.0
 10
26.395600000000002
 20
100.8394
 30
0.0
 10
26.395600000000002
 20
100.8394
 30
0.0
 10
26.395600000000002
 20
100.8394
 30
0.0
 10
26.395600000000002
 20
100.8394
 30
0.0
 10
25.9755
 20
98.915499999999994
 30
0.0
 10
25.9755
 20
98.915499999999994
 30
0.0
 10
25.9755
 20
98.915499999999994
 30
0.0
 10
25.9755
 20
98.915499999999994
 30
0.0
 10
24.6554
 20
98.143699999999995
 30
0.0
 10
24.6554
 20
98.143699999999995
 30
0.0
 10
24.6554
 20
98.143699999999995
 30
0.0
 10
24.6554
 20
98.143699999999995
 30
0.0
 10
24.5838
 20
97.727999999999994
 30
0.0
 10
24.5838
 20
97.727999999999994
 30
0.0
 10
24.5838
 20
97.727999999999994
 30
0.0
 10
24.5838
 20
97.727999999999994
 30
0.0
 10
24.139700000000001
 20
95.153000000000006
 30
0.0
 10
24.139700000000001
 20
95.153000000000006
 30
0.0
 10
24.139700000000001
 20
95.153000000000006
 30
0.0
 10
24.139700000000001
 20
95.153000000000006
 30
0.0
 10
21.827999999999999
 20
93.9345
 30
0.0
 10
21.827999999999999
 20
93.9345
 30
0.0
 10
21.827999999999999
 20
93.9345
 30
0.0
 10
21.827999999999999
 20
93.9345
 30
0.0
 10
21.549299999999999
 20
93.787800000000004
 30
0.0
 10
21.549299999999999
 20
93.787800000000004
 30
0.0
 10
21.549299999999999
 20
93.787800000000004
 30
0.0
 10
21.549299999999999
 20
93.787800000000004
 30
0.0
 10
20.638400000000001
 20
91.438299999999998
 30
0.0
 10
20.638400000000001
 20
91.438299999999998
 30
0.0
 10
20.638400000000001
 20
91.438299999999998
 30
0.0
 10
20.638400000000001
 20
91.438299999999998
 30
0.0
 10
18.291799999999999
 20
85.385900000000007
 30
0.0
 10
18.291799999999999
 20
85.385900000000007
 30
0.0
 10
18.291799999999999
 20
85.385900000000007
 30
0.0
 10
18.291799999999999
 20
85.385900000000007
 30
0.0
 10
15.4971
 20
83.107299999999995
 30
0.0
 10
15.4971
 20
83.107299999999995
 30
0.0
 10
15.4971
 20
83.107299999999995
 30
0.0
 10
15.7172
 20
82.837900000000005
 30
0.0
 10
15.9223
 20
82.555999999999997
 30
0.0
 10
16.111799999999999
 20
82.263099999999994
 30
0.0
 10
16.111799999999999
 20
82.263099999999994
 30
0.0
 10
16.111799999999999
 20
82.263099999999994
 30
0.0
 10
19.1416
 20
84.216399999999993
 30
0.0
 10
19.1416
 20
84.216399999999993
 30
0.0
 10
19.1416
 20
84.216399999999993
 30
0.0
 10
19.1416
 20
84.216399999999993
 30
0.0
 10
25.622800000000002
 20
84.577799999999996
 30
0.0
 10
25.622800000000002
 20
84.577799999999996
 30
0.0
 10
25.622800000000002
 20
84.577799999999996
 30
0.0
 10
25.622800000000002
 20
84.577799999999996
 30
0.0
 10
28.1389
 20
84.718100000000007
 30
0.0
 10
28.1389
 20
84.718100000000007
 30
0.0
 10
28.1389
 20
84.718100000000007
 30
0.0
 10
28.1389
 20
84.718100000000007
 30
0.0
 10
28.3643
 20
84.937600000000003
 30
0.0
 10
28.3643
 20
84.937600000000003
 30
0.0
 10
28.3643
 20
84.937600000000003
 30
0.0
 10
28.3643
 20
84.937600000000003
 30
0.0
 10
30.237400000000001
 20
86.759500000000003
 30
0.0
 10
30.237400000000001
 20
86.759500000000003
 30
0.0
 10
30.237400000000001
 20
86.759500000000003
 30
0.0
 10
30.237400000000001
 20
86.759500000000003
 30
0.0
 10
32.823799999999999
 20
86.386399999999995
 30
0.0
 10
32.823799999999999
 20
86.386399999999995
 30
0.0
 10
32.823799999999999
 20
86.386399999999995
 30
0.0
 10
32.823799999999999
 20
86.386399999999995
 30
0.0
 10
33.241500000000002
 20
86.3262
 30
0.0
 10
33.241500000000002
 20
86.3262
 30
0.0
 10
33.241500000000002
 20
86.3262
 30
0.0
 10
33.241500000000002
 20
86.3262
 30
0.0
 10
34.383299999999998
 20
87.3429
 30
0.0
 10
34.383299999999998
 20
87.3429
 30
0.0
 10
34.383299999999998
 20
87.3429
 30
0.0
 10
34.383299999999998
 20
87.3429
 30
0.0
 10
36.3429
 20
87.147999999999996
 30
0.0
 10
36.3429
 20
87.147999999999996
 30
0.0
 10
36.3429
 20
87.147999999999996
 30
0.0
 10
36.3429
 20
87.147999999999996
 30
0.0
 10
37.340200000000003
 20
87.0488
 30
0.0
 10
37.340200000000003
 20
87.0488
 30
0.0
 10
37.340200000000003
 20
87.0488
 30
0.0
 10
35.3245
 20
92.995500000000007
 30
0.0
 10
31.537500000000001
 20
98.125600000000006
 30
0.0
 10
26.607600000000001
 20
101.8108
 30
0.0
  0
SPLINE
  5
29
100
AcDbEntity
  8
RÚteg 1
 62
     7
100
AcDbSpline
210
0.0
220
0.0
230
1.0
 70
     1
 71
     3
 72
   100
 73
    96
 74
     0
 42
0.0000000001
 43
0.0000000001
 40
0.0
 40
0.0
 40
0.0
 40
0.0
 40
0.0416666666666667
 40
0.0416666666666667
 40
0.0416666666666667
 40
0.0416666666666667
 40
0.0833333333333333
 40
0.0833333333333333
 40
0.0833333333333333
 40
0.0833333333333333
 40
0.125
 40
0.125
 40
0.125
 40
0.125
 40
0.1666666666666667
 40
0.1666666666666667
 40
0.1666666666666667
 40
0.1666666666666667
 40
0.2083333333333333
 40
0.2083333333333333
 40
0.2083333333333333
 40
0.2083333333333333
 40
0.25
 40
0.25
 40
0.25
 40
0.25
 40
0.2916666666666666
 40
0.2916666666666666
 40
0.2916666666666666
 40
0.2916666666666666
 40
0.3333333333333333
 40
0.3333333333333333
 40
0.3333333333333333
 40
0.3333333333333333
 40
0.375
 40
0.375
 40
0.375
 40
0.375
 40
0.4166666666666667
 40
0.4166666666666667
 40
0.4166666666666667
 40
0.4166666666666667
 40
0.4583333333333334
 40
0.4583333333333334
 40
0.4583333333333334
 40
0.4583333333333334
 40
0.5
 40
0.5
 40
0.5
 40
0.5
 40
0.5416666666666666
 40
0.5416666666666666
 40
0.5416666666666666
 40
0.5416666666666666
 40
0.5833333333333333
 40
0.5833333333333333
 40
0.5833333333333333
 40
0.5833333333333333
 40
0.6249999999999999
 40
0.6249999999999999
 40
0.6249999999999999
 40
0.6249999999999999
 40
0.6666666666666665
 40
0.6666666666666665
 40
0.6666666666666665
 40
0.6666666666666665
 40
0.7083333333333332
 40
0.7083333333333332
 40
0.7083333333333332
 40
0.7083333333333332
 40
0.7499999999999998
 40
0.7499999999999998
 40
0.7499999999999998
 40
0.7499999999999998
 40
0.7916666666666664
 40
0.7916666666666664
 40
0.7916666666666664
 40
0.7916666666666664
 40
0.833333333333333
 40
0.833333333333333
 40
0.833333333333333
 40
0.833333333333333
 40
0.8749999999999997
 40
0.8749999999999997
 40
0.8749999999999997
 40
0.8749999999999997
 40
0.9166666666666663
 40
0.9166666666666663
 40
0.9166666666666663
 40
0.9166666666666663
 40
0.9583333333333329
 40
0.9583333333333329
 40
0.9583333333333329
 40
0.9583333333333329
 40
1.0
 40
1.0
 40
1.0
 40
1.0
 10
37.580199999999998
 20
86.310000000000002
 30
0.0
 10
37.580199999999998
 20
86.310000000000002
 30
0.0
 10
36.831899999999997
 20
85.643600000000006
 30
0.0
 10
36.831899999999997
 20
85.643600000000006
 30
0.0
 10
36.831899999999997
 20
85.643600000000006
 30
0.0
 10
36.831899999999997
 20
85.643600000000006
 30
0.0
 10
35.3611
 20
84.334000000000003
 30
0.0
 10
35.3611
 20
84.334000000000003
 30
0.0
 10
35.3611
 20
84.334000000000003
 30
0.0
 10
35.3611
 20
84.334000000000003
 30
0.0
 10
33.839500000000001
 20
84.485299999999995
 30
0.0
 10
33.839500000000001
 20
84.485299999999995
 30
0.0
 10
33.839500000000001
 20
84.485299999999995
 30
0.0
 10
33.839500000000001
 20
84.485299999999995
 30
0.0
 10
33.537100000000002
 20
84.191199999999995
 30
0.0
 10
33.537100000000002
 20
84.191199999999995
 30
0.0
 10
33.537100000000002
 20
84.191199999999995
 30
0.0
 10
33.537100000000002
 20
84.191199999999995
 30
0.0
 10
31.664100000000001
 20
82.369
 30
0.0
 10
31.664100000000001
 20
82.369
 30
0.0
 10
31.664100000000001
 20
82.369
 30
0.0
 10
31.664100000000001
 20
82.369
 30
0.0
 10
29.0777
 20
82.742199999999997
 30
0.0
 10
29.0777
 20
82.742199999999997
 30
0.0
 10
29.0777
 20
82.742199999999997
 30
0.0
 10
29.0777
 20
82.742199999999997
 30
0.0
 10
28.766400000000001
 20
82.787099999999995
 30
0.0
 10
28.766400000000001
 20
82.787099999999995
 30
0.0
 10
28.766400000000001
 20
82.787099999999995
 30
0.0
 10
28.766400000000001
 20
82.787099999999995
 30
0.0
 10
26.648199999999999
 20
81.421800000000005
 30
0.0
 10
26.648199999999999
 20
81.421800000000005
 30
0.0
 10
26.648199999999999
 20
81.421800000000005
 30
0.0
 10
26.648199999999999
 20
81.421800000000005
 30
0.0
 10
21.192399999999999
 20
77.904499999999999
 30
0.0
 10
21.192399999999999
 20
77.904499999999999
 30
0.0
 10
21.192399999999999
 20
77.904499999999999
 30
0.0
 10
21.192399999999999
 20
77.904499999999999
 30
0.0
 10
17.5929
 20
77.703699999999998
 30
0.0
 10
17.5929
 20
77.703699999999998
 30
0.0
 10
17.5929
 20
77.703699999999998
 30
0.0
 10
17.602599999999999
 20
77.531000000000006
 30
0.0
 10
17.607199999999999
 20
77.356999999999999
 30
0.0
 10
17.607199999999999
 20
77.181700000000006
 30
0.0
 10
17.607199999999999
 20
77.181700000000006
 30
0.0
 10
17.607199999999999
 20
77.006600000000006
 30
0.0
 10
17.601900000000001
 20
76.832499999999996
 30
0.0
 10
17.592500000000001
 20
76.659700000000001
 30
0.0
 10
17.592500000000001
 20
76.659700000000001
 30
0.0
 10
17.592500000000001
 20
76.659700000000001
 30
0.0
 10
21.192299999999999
 20
76.458799999999997
 30
0.0
 10
21.192299999999999
 20
76.458799999999997
 30
0.0
 10
21.192299999999999
 20
76.458799999999997
 30
0.0
 10
21.192299999999999
 20
76.458799999999997
 30
0.0
 10
26.648199999999999
 20
72.941800000000001
 30
0.0
 10
26.648199999999999
 20
72.941800000000001
 30
0.0
 10
26.648199999999999
 20
72.941800000000001
 30
0.0
 10
26.648199999999999
 20
72.941800000000001
 30
0.0
 10
28.766400000000001
 20
71.576499999999996
 30
0.0
 10
28.766400000000001
 20
71.576499999999996
 30
0.0
 10
28.766400000000001
 20
71.576499999999996
 30
0.0
 10
28.766400000000001
 20
71.576499999999996
 30
0.0
 10
29.0776
 20
71.621399999999994
 30
0.0
 10
29.0776
 20
71.621399999999994
 30
0.0
 10
29.0776
 20
71.621399999999994
 30
0.0
 10
29.0776
 20
71.621399999999994
 30
0.0
 10
31.663799999999998
 20
71.994500000000002
 30
0.0
 10
31.663799999999998
 20
71.994500000000002
 30
0.0
 10
31.663799999999998
 20
71.994500000000002
 30
0.0
 10
31.663799999999998
 20
71.994500000000002
 30
0.0
 10
33.536999999999999
 20
70.172200000000004
 30
0.0
 10
33.536999999999999
 20
70.172200000000004
 30
0.0
 10
33.536999999999999
 20
70.172200000000004
 30
0.0
 10
33.536999999999999
 20
70.172200000000004
 30
0.0
 10
33.839500000000001
 20
69.878100000000003
 30
0.0
 10
33.839500000000001
 20
69.878100000000003
 30
0.0
 10
33.839500000000001
 20
69.878100000000003
 30
0.0
 10
33.839500000000001
 20
69.878100000000003
 30
0.0
 10
35.3611
 20
70.029600000000002
 30
0.0
 10
35.3611
 20
70.029600000000002
 30
0.0
 10
35.3611
 20
70.029600000000002
 30
0.0
 10
35.3611
 20
70.029600000000002
 30
0.0
 10
36.831600000000002
 20
68.720100000000002
 30
0.0
 10
36.831600000000002
 20
68.720100000000002
 30
0.0
 10
36.831600000000002
 20
68.720100000000002
 30
0.0
 10
36.831600000000002
 20
68.720100000000002
 30
0.0
 10
37.579999999999998
 20
68.053600000000003
 30
0.0
 10
37.579999999999998
 20
68.053600000000003
 30
0.0
 10
37.579999999999998
 20
68.053600000000003
 30
0.0
 10
38.476300000000002
 20
70.937600000000003
 30
0.0
 10
38.959299999999999
 20
74.003399999999999
 30
0.0
 10
38.959299999999999
 20
77.181700000000006
 30
0.0
 10
38.959299999999999
 20
77.181700000000006
 30
0.0
 10
38.959299999999999
 20
80.360200000000006
 30
0.0
 10
38.476300000000002
 20
83.426100000000005
 30
0.0
 10
37.580199999999998
 20
86.310000000000002
 30
0.0
  0
SPLINE
  5
2A
100
AcDbEntity
  8
RÚteg 1
 62
     7
100
AcDbSpline
210
0.0
220
0.0
230
1.0
 70
     1
 71
     3
 72
    92
 73
    88
 74
     0
 42
0.0000000001
 43
0.0000000001
 40
0.0
 40
0.0
 40
0.0
 40
0.0
 40
0.0454545454545455
 40
0.0454545454545455
 40
0.0454545454545455
 40
0.0454545454545455
 40
0.0909090909090909
 40
0.0909090909090909
 40
0.0909090909090909
 40
0.0909090909090909
 40
0.1363636363636364
 40
0.1363636363636364
 40
0.1363636363636364
 40
0.1363636363636364
 40
0.1818181818181818
 40
0.1818181818181818
 40
0.1818181818181818
 40
0.1818181818181818
 40
0.2272727272727273
 40
0.2272727272727273
 40
0.2272727272727273
 40
0.2272727272727273
 40
0.2727272727272728
 40
0.2727272727272728
 40
0.2727272727272728
 40
0.2727272727272728
 40
0.3181818181818182
 40
0.3181818181818182
 40
0.3181818181818182
 40
0.3181818181818182
 40
0.3636363636363637
 40
0.3636363636363637
 40
0.3636363636363637
 40
0.3636363636363637
 40
0.4090909090909092
 40
0.4090909090909092
 40
0.4090909090909092
 40
0.4090909090909092
 40
0.4545454545454546
 40
0.4545454545454546
 40
0.4545454545454546
 40
0.4545454545454546
 40
0.5000000000000001
 40
0.5000000000000001
 40
0.5000000000000001
 40
0.5000000000000001
 40
0.5454545454545455
 40
0.5454545454545455
 40
0.5454545454545455
 40
0.5454545454545455
 40
0.5909090909090909
 40
0.5909090909090909
 40
0.5909090909090909
 40
0.5909090909090909
 40
0.6363636363636364
 40
0.6363636363636364
 40
0.6363636363636364
 40
0.6363636363636364
 40
0.6818181818181818
 40
0.6818181818181818
 40
0.6818181818181818
 40
0.6818181818181818
 40
0.7272727272727272
 40
0.7272727272727272
 40
0.7272727272727272
 40
0.7272727272727272
 40
0.7727272727272726
 40
0.7727272727272726
 40
0.7727272727272726
 40
0.7727272727272726
 40
0.818181818181818
 40
0.818181818181818
 40
0.818181818181818
 40
0.818181818181818
 40
0.8636363636363634
 40
0.8636363636363634
 40
0.8636363636363634
 40
0.8636363636363634
 40
0.9090909090909088
 40
0.9090909090909088
 40
0.9090909090909088
 40
0.9090909090909088
 40
0.9545454545454543
 40
0.9545454545454543
 40
0.9545454545454543
 40
0.9545454545454543
 40
1.0
 40
1.0
 40
1.0
 40
1.0
 10
37.340200000000003
 20
67.314700000000002
 30
0.0
 10
37.340200000000003
 20
67.314700000000002
 30
0.0
 10
36.3429
 20
67.215599999999995
 30
0.0
 10
36.3429
 20
67.215599999999995
 30
0.0
 10
36.3429
 20
67.215599999999995
 30
0.0
 10
36.3429
 20
67.215599999999995
 30
0.0
 10
34.383200000000002
 20
67.020499999999998
 30
0.0
 10
34.383200000000002
 20
67.020499999999998
 30
0.0
 10
34.383200000000002
 20
67.020499999999998
 30
0.0
 10
34.383200000000002
 20
67.020499999999998
 30
0.0
 10
33.241399999999999
 20
68.037400000000005
 30
0.0
 10
33.241399999999999
 20
68.037400000000005
 30
0.0
 10
33.241399999999999
 20
68.037400000000005
 30
0.0
 10
33.241399999999999
 20
68.037400000000005
 30
0.0
 10
32.823799999999999
 20
67.977199999999996
 30
0.0
 10
32.823799999999999
 20
67.977199999999996
 30
0.0
 10
32.823799999999999
 20
67.977199999999996
 30
0.0
 10
32.823799999999999
 20
67.977199999999996
 30
0.0
 10
30.237400000000001
 20
67.603800000000007
 30
0.0
 10
30.237400000000001
 20
67.603800000000007
 30
0.0
 10
30.237400000000001
 20
67.603800000000007
 30
0.0
 10
30.237400000000001
 20
67.603800000000007
 30
0.0
 10
28.3643
 20
69.425799999999995
 30
0.0
 10
28.3643
 20
69.425799999999995
 30
0.0
 10
28.3643
 20
69.425799999999995
 30
0.0
 10
28.3643
 20
69.425799999999995
 30
0.0
 10
28.1386
 20
69.645499999999998
 30
0.0
 10
28.1386
 20
69.645499999999998
 30
0.0
 10
28.1386
 20
69.645499999999998
 30
0.0
 10
28.1386
 20
69.645499999999998
 30
0.0
 10
25.622800000000002
 20
69.785799999999995
 30
0.0
 10
25.622800000000002
 20
69.785799999999995
 30
0.0
 10
25.622800000000002
 20
69.785799999999995
 30
0.0
 10
25.622800000000002
 20
69.785799999999995
 30
0.0
 10
19.1416
 20
70.147199999999998
 30
0.0
 10
19.1416
 20
70.147199999999998
 30
0.0
 10
19.1416
 20
70.147199999999998
 30
0.0
 10
19.1416
 20
70.147199999999998
 30
0.0
 10
16.111699999999999
 20
72.100300000000004
 30
0.0
 10
16.111699999999999
 20
72.100300000000004
 30
0.0
 10
16.111699999999999
 20
72.100300000000004
 30
0.0
 10
15.9223
 20
71.807299999999998
 30
0.0
 10
15.717000000000001
 20
71.525599999999997
 30
0.0
 10
15.4971
 20
71.256200000000007
 30
0.0
 10
15.4971
 20
71.256200000000007
 30
0.0
 10
15.4971
 20
71.256200000000007
 30
0.0
 10
18.291399999999999
 20
68.977699999999999
 30
0.0
 10
18.291399999999999
 20
68.977699999999999
 30
0.0
 10
18.291399999999999
 20
68.977699999999999
 30
0.0
 10
18.291399999999999
 20
68.977699999999999
 30
0.0
 10
20.638400000000001
 20
62.925400000000003
 30
0.0
 10
20.638400000000001
 20
62.925400000000003
 30
0.0
 10
20.638400000000001
 20
62.925400000000003
 30
0.0
 10
20.638400000000001
 20
62.925400000000003
 30
0.0
 10
21.549199999999999
 20
60.575899999999997
 30
0.0
 10
21.549199999999999
 20
60.575899999999997
 30
0.0
 10
21.549199999999999
 20
60.575899999999997
 30
0.0
 10
21.549199999999999
 20
60.575899999999997
 30
0.0
 10
21.8276
 20
60.429000000000002
 30
0.0
 10
21.8276
 20
60.429000000000002
 30
0.0
 10
21.8276
 20
60.429000000000002
 30
0.0
 10
21.8276
 20
60.429000000000002
 30
0.0
 10
24.139199999999999
 20
59.210700000000003
 30
0.0
 10
24.139199999999999
 20
59.210700000000003
 30
0.0
 10
24.139199999999999
 20
59.210700000000003
 30
0.0
 10
24.139199999999999
 20
59.210700000000003
 30
0.0
 10
24.583600000000001
 20
56.6357
 30
0.0
 10
24.583600000000001
 20
56.6357
 30
0.0
 10
24.583600000000001
 20
56.6357
 30
0.0
 10
24.583600000000001
 20
56.6357
 30
0.0
 10
24.6554
 20
56.219799999999999
 30
0.0
 10
24.6554
 20
56.219799999999999
 30
0.0
 10
24.6554
 20
56.219799999999999
 30
0.0
 10
24.6554
 20
56.219799999999999
 30
0.0
 10
25.975200000000001
 20
55.448099999999997
 30
0.0
 10
25.975200000000001
 20
55.448099999999997
 30
0.0
 10
25.975200000000001
 20
55.448099999999997
 30
0.0
 10
25.975200000000001
 20
55.448099999999997
 30
0.0
 10
26.395600000000002
 20
53.5242
 30
0.0
 10
26.395600000000002
 20
53.5242
 30
0.0
 10
26.395600000000002
 20
53.5242
 30
0.0
 10
26.395600000000002
 20
53.5242
 30
0.0
 10
26.607399999999998
 20
52.552999999999997
 30
0.0
 10
26.607399999999998
 20
52.552999999999997
 30
0.0
 10
26.607399999999998
 20
52.552999999999997
 30
0.0
 10
31.537299999999998
 20
56.238100000000003
 30
0.0
 10
35.324399999999997
 20
61.367899999999999
 30
0.0
 10
37.340200000000003
 20
67.314700000000002
 30
0.0
  0
SPLINE
  5
2B
100
AcDbEntity
  8
RÚteg 1
 62
     7
100
AcDbSpline
210
0.0
220
0.0
230
1.0
 70
     1
 71
     3
 72
    92
 73
    88
 74
     0
 42
0.0000000001
 43
0.0000000001
 40
0.0
 40
0.0
 40
0.0
 40
0.0
 40
0.0454545454545455
 40
0.0454545454545455
 40
0.0454545454545455
 40
0.0454545454545455
 40
0.0909090909090909
 40
0.0909090909090909
 40
0.0909090909090909
 40
0.0909090909090909
 40
0.1363636363636364
 40
0.1363636363636364
 40
0.1363636363636364
 40
0.1363636363636364
 40
0.1818181818181818
 40
0.1818181818181818
 40
0.1818181818181818
 40
0.1818181818181818
 40
0.2272727272727273
 40
0.2272727272727273
 40
0.2272727272727273
 40
0.2272727272727273
 40
0.2727272727272728
 40
0.2727272727272728
 40
0.2727272727272728
 40
0.2727272727272728
 40
0.3181818181818182
 40
0.3181818181818182
 40
0.3181818181818182
 40
0.3181818181818182
 40
0.3636363636363637
 40
0.3636363636363637
 40
0.3636363636363637
 40
0.3636363636363637
 40
0.4090909090909092
 40
0.4090909090909092
 40
0.4090909090909092
 40
0.4090909090909092
 40
0.4545454545454546
 40
0.4545454545454546
 40
0.4545454545454546
 40
0.4545454545454546
 40
0.5000000000000001
 40
0.5000000000000001
 40
0.5000000000000001
 40
0.5000000000000001
 40
0.5454545454545455
 40
0.5454545454545455
 40
0.5454545454545455
 40
0.5454545454545455
 40
0.5909090909090909
 40
0.5909090909090909
 40
0.5909090909090909
 40
0.5909090909090909
 40
0.6363636363636364
 40
0.6363636363636364
 40
0.6363636363636364
 40
0.6363636363636364
 40
0.6818181818181818
 40
0.6818181818181818
 40
0.6818181818181818
 40
0.6818181818181818
 40
0.7272727272727272
 40
0.7272727272727272
 40
0.7272727272727272
 40
0.7272727272727272
 40
0.7727272727272726
 40
0.7727272727272726
 40
0.7727272727272726
 40
0.7727272727272726
 40
0.818181818181818
 40
0.818181818181818
 40
0.818181818181818
 40
0.818181818181818
 40
0.8636363636363634
 40
0.8636363636363634
 40
0.8636363636363634
 40
0.8636363636363634
 40
0.9090909090909088
 40
0.9090909090909088
 40
0.9090909090909088
 40
0.9090909090909088
 40
0.9545454545454543
 40
0.9545454545454543
 40
0.9545454545454543
 40
0.9545454545454543
 40
1.0
 40
1.0
 40
1.0
 40
1.0
 10
25.9739
 20
52.092599999999997
 30
0.0
 10
25.9739
 20
52.092599999999997
 30
0.0
 10
25.115600000000001
 20
52.594299999999997
 30
0.0
 10
25.115600000000001
 20
52.594299999999997
 30
0.0
 10
25.115600000000001
 20
52.594299999999997
 30
0.0
 10
25.115600000000001
 20
52.594299999999997
 30
0.0
 10
23.415600000000001
 20
53.588299999999997
 30
0.0
 10
23.415600000000001
 20
53.588299999999997
 30
0.0
 10
23.415600000000001
 20
53.588299999999997
 30
0.0
 10
23.415600000000001
 20
53.588299999999997
 30
0.0
 10
23.089500000000001
 20
55.082099999999997
 30
0.0
 10
23.089500000000001
 20
55.082099999999997
 30
0.0
 10
23.089500000000001
 20
55.082099999999997
 30
0.0
 10
23.089500000000001
 20
55.082099999999997
 30
0.0
 10
22.716100000000001
 20
55.2789
 30
0.0
 10
22.716100000000001
 20
55.2789
 30
0.0
 10
22.716100000000001
 20
55.2789
 30
0.0
 10
22.716100000000001
 20
55.2789
 30
0.0
 10
20.404399999999999
 20
56.497199999999999
 30
0.0
 10
20.404399999999999
 20
56.497199999999999
 30
0.0
 10
20.404399999999999
 20
56.497199999999999
 30
0.0
 10
20.404399999999999
 20
56.497199999999999
 30
0.0
 10
19.960100000000001
 20
59.072200000000002
 30
0.0
 10
19.960100000000001
 20
59.072200000000002
 30
0.0
 10
19.960100000000001
 20
59.072200000000002
 30
0.0
 10
19.960100000000001
 20
59.072200000000002
 30
0.0
 10
19.906600000000001
 20
59.3825
 30
0.0
 10
19.906600000000001
 20
59.3825
 30
0.0
 10
19.906600000000001
 20
59.3825
 30
0.0
 10
19.906600000000001
 20
59.3825
 30
0.0
 10
17.953600000000002
 20
60.974699999999999
 30
0.0
 10
17.953600000000002
 20
60.974699999999999
 30
0.0
 10
17.953600000000002
 20
60.974699999999999
 30
0.0
 10
17.953600000000002
 20
60.974699999999999
 30
0.0
 10
12.922700000000001
 20
65.076800000000006
 30
0.0
 10
12.922700000000001
 20
65.076800000000006
 30
0.0
 10
12.922700000000001
 20
65.076800000000006
 30
0.0
 10
12.922700000000001
 20
65.076800000000006
 30
0.0
 10
11.620100000000001
 20
68.436000000000007
 30
0.0
 10
11.620100000000001
 20
68.436000000000007
 30
0.0
 10
11.620100000000001
 20
68.436000000000007
 30
0.0
 10
11.2972
 20
68.3108
 30
0.0
 10
10.9657
 20
68.202799999999996
 30
0.0
 10
10.626799999999999
 20
68.113500000000002
 30
0.0
 10
10.626799999999999
 20
68.113500000000002
 30
0.0
 10
10.626799999999999
 20
68.113500000000002
 30
0.0
 10
11.547800000000001
 20
64.630099999999999
 30
0.0
 10
11.547800000000001
 20
64.630099999999999
 30
0.0
 10
11.547800000000001
 20
64.630099999999999
 30
0.0
 10
11.547800000000001
 20
64.630099999999999
 30
0.0
 10
9.8885000000000005
 20
58.354399999999998
 30
0.0
 10
9.8885000000000005
 20
58.354399999999998
 30
0.0
 10
9.8885000000000005
 20
58.354399999999998
 30
0.0
 10
9.8885000000000005
 20
58.354399999999998
 30
0.0
 10
9.2446000000000002
 20
55.918199999999999
 30
0.0
 10
9.2446000000000002
 20
55.918199999999999
 30
0.0
 10
9.2446000000000002
 20
55.918199999999999
 30
0.0
 10
9.2446000000000002
 20
55.918199999999999
 30
0.0
 10
9.3835999999999995
 20
55.635899999999999
 30
0.0
 10
9.3835999999999995
 20
55.635899999999999
 30
0.0
 10
9.3835999999999995
 20
55.635899999999999
 30
0.0
 10
9.3835999999999995
 20
55.635899999999999
 30
0.0
 10
10.537599999999999
 20
53.2913
 30
0.0
 10
10.537599999999999
 20
53.2913
 30
0.0
 10
10.537599999999999
 20
53.2913
 30
0.0
 10
10.537599999999999
 20
53.2913
 30
0.0
 10
9.3835999999999995
 20
50.947200000000002
 30
0.0
 10
9.3835999999999995
 20
50.947200000000002
 30
0.0
 10
9.3835999999999995
 20
50.947200000000002
 30
0.0
 10
9.3835999999999995
 20
50.947200000000002
 30
0.0
 10
9.1972000000000005
 20
50.568100000000001
 30
0.0
 10
9.1972000000000005
 20
50.568100000000001
 30
0.0
 10
9.1972000000000005
 20
50.568100000000001
 30
0.0
 10
9.1972000000000005
 20
50.568100000000001
 30
0.0
 10
9.8112999999999992
 20
49.168100000000003
 30
0.0
 10
9.8112999999999992
 20
49.168100000000003
 30
0.0
 10
9.8112999999999992
 20
49.168100000000003
 30
0.0
 10
9.8112999999999992
 20
49.168100000000003
 30
0.0
 10
9.0202000000000009
 20
47.364600000000003
 30
0.0
 10
9.0202000000000009
 20
47.364600000000003
 30
0.0
 10
9.0202000000000009
 20
47.364600000000003
 30
0.0
 10
9.0202000000000009
 20
47.364600000000003
 30
0.0
 10
8.6222999999999992
 20
46.457000000000001
 30
0.0
 10
8.6222999999999992
 20
46.457000000000001
 30
0.0
 10
8.6222999999999992
 20
46.457000000000001
 30
0.0
 10
15.081300000000001
 20
46.5381
 30
0.0
 10
21.061
 20
48.610900000000001
 30
0.0
 10
25.9739
 20
52.092599999999997
 30
0.0
  0
SPLINE
  5
2C
100
AcDbEntity
  8
RÚteg 1
 62
     7
100
AcDbSpline
210
0.0
220
0.0
230
1.0
 70
     1
 71
     3
 72
    92
 73
    88
 74
     0
 42
0.0000000001
 43
0.0000000001
 40
0.0
 40
0.0
 40
0.0
 40
0.0
 40
0.0454545454545455
 40
0.0454545454545455
 40
0.0454545454545455
 40
0.0454545454545455
 40
0.0909090909090909
 40
0.0909090909090909
 40
0.0909090909090909
 40
0.0909090909090909
 40
0.1363636363636364
 40
0.1363636363636364
 40
0.1363636363636364
 40
0.1363636363636364
 40
0.1818181818181818
 40
0.1818181818181818
 40
0.1818181818181818
 40
0.1818181818181818
 40
0.2272727272727273
 40
0.2272727272727273
 40
0.2272727272727273
 40
0.2272727272727273
 40
0.2727272727272728
 40
0.2727272727272728
 40
0.2727272727272728
 40
0.2727272727272728
 40
0.3181818181818182
 40
0.3181818181818182
 40
0.3181818181818182
 40
0.3181818181818182
 40
0.3636363636363637
 40
0.3636363636363637
 40
0.3636363636363637
 40
0.3636363636363637
 40
0.4090909090909092
 40
0.4090909090909092
 40
0.4090909090909092
 40
0.4090909090909092
 40
0.4545454545454546
 40
0.4545454545454546
 40
0.4545454545454546
 40
0.4545454545454546
 40
0.5000000000000001
 40
0.5000000000000001
 40
0.5000000000000001
 40
0.5000000000000001
 40
0.5454545454545455
 40
0.5454545454545455
 40
0.5454545454545455
 40
0.5454545454545455
 40
0.5909090909090909
 40
0.5909090909090909
 40
0.5909090909090909
 40
0.5909090909090909
 40
0.6363636363636364
 40
0.6363636363636364
 40
0.6363636363636364
 40
0.6363636363636364
 40
0.6818181818181818
 40
0.6818181818181818
 40
0.6818181818181818
 40
0.6818181818181818
 40
0.7272727272727272
 40
0.7272727272727272
 40
0.7272727272727272
 40
0.7272727272727272
 40
0.7727272727272726
 40
0.7727272727272726
 40
0.7727272727272726
 40
0.7727272727272726
 40
0.818181818181818
 40
0.818181818181818
 40
0.818181818181818
 40
0.818181818181818
 40
0.8636363636363634
 40
0.8636363636363634
 40
0.8636363636363634
 40
0.8636363636363634
 40
0.9090909090909088
 40
0.9090909090909088
 40
0.9090909090909088
 40
0.9090909090909088
 40
0.9545454545454543
 40
0.9545454545454543
 40
0.9545454545454543
 40
0.9545454545454543
 40
1.0
 40
1.0
 40
1.0
 40
1.0
 10
7.8365999999999998
 20
46.457000000000001
 30
0.0
 10
7.8365999999999998
 20
46.457000000000001
 30
0.0
 10
7.4382999999999999
 20
47.364600000000003
 30
0.0
 10
7.4382999999999999
 20
47.364600000000003
 30
0.0
 10
7.4382999999999999
 20
47.364600000000003
 30
0.0
 10
7.4382999999999999
 20
47.364600000000003
 30
0.0
 10
6.6474000000000002
 20
49.168100000000003
 30
0.0
 10
6.6474000000000002
 20
49.168100000000003
 30
0.0
 10
6.6474000000000002
 20
49.168100000000003
 30
0.0
 10
6.6474000000000002
 20
49.168100000000003
 30
0.0
 10
7.2615999999999996
 20
50.5685
 30
0.0
 10
7.2615999999999996
 20
50.5685
 30
0.0
 10
7.2615999999999996
 20
50.5685
 30
0.0
 10
7.2615999999999996
 20
50.5685
 30
0.0
 10
7.0751999999999997
 20
50.947200000000002
 30
0.0
 10
7.0751999999999997
 20
50.947200000000002
 30
0.0
 10
7.0751999999999997
 20
50.947200000000002
 30
0.0
 10
7.0751999999999997
 20
50.947200000000002
 30
0.0
 10
5.9208999999999996
 20
53.2913
 30
0.0
 10
5.9208999999999996
 20
53.2913
 30
0.0
 10
5.9208999999999996
 20
53.2913
 30
0.0
 10
5.9208999999999996
 20
53.2913
 30
0.0
 10
7.0751999999999997
 20
55.635899999999999
 30
0.0
 10
7.0751999999999997
 20
55.635899999999999
 30
0.0
 10
7.0751999999999997
 20
55.635899999999999
 30
0.0
 10
7.0751999999999997
 20
55.635899999999999
 30
0.0
 10
7.2144000000000004
 20
55.918199999999999
 30
0.0
 10
7.2144000000000004
 20
55.918199999999999
 30
0.0
 10
7.2144000000000004
 20
55.918199999999999
 30
0.0
 10
7.2144000000000004
 20
55.918199999999999
 30
0.0
 10
6.5700000000000003
 20
58.354399999999998
 30
0.0
 10
6.5700000000000003
 20
58.354399999999998
 30
0.0
 10
6.5700000000000003
 20
58.354399999999998
 30
0.0
 10
6.5700000000000003
 20
58.354399999999998
 30
0.0
 10
4.9111000000000002
 20
64.630099999999999
 30
0.0
 10
4.9111000000000002
 20
64.630099999999999
 30
0.0
 10
4.9111000000000002
 20
64.630099999999999
 30
0.0
 10
4.9111000000000002
 20
64.630099999999999
 30
0.0
 10
5.8322000000000003
 20
68.114099999999993
 30
0.0
 10
5.8322000000000003
 20
68.114099999999993
 30
0.0
 10
5.8322000000000003
 20
68.114099999999993
 30
0.0
 10
5.4931000000000001
 20
68.203500000000005
 30
0.0
 10
5.1619999999999999
 20
68.311700000000002
 30
0.0
 10
4.8388999999999998
 20
68.436899999999994
 30
0.0
 10
4.8388999999999998
 20
68.436899999999994
 30
0.0
 10
4.8388999999999998
 20
68.436899999999994
 30
0.0
 10
3.5363000000000002
 20
65.076999999999998
 30
0.0
 10
3.5363000000000002
 20
65.076999999999998
 30
0.0
 10
3.5363000000000002
 20
65.076999999999998
 30
0.0
 10
3.5363000000000002
 20
65.076999999999998
 30
0.0
 10
-1.4946999999999999
 20
60.974899999999998
 30
0.0
 10
-1.4946999999999999
 20
60.974899999999998
 30
0.0
 10
-1.4946999999999999
 20
60.974899999999998
 30
0.0
 10
-1.4946999999999999
 20
60.974899999999998
 30
0.0
 10
-3.4479000000000002
 20
59.3825
 30
0.0
 10
-3.4479000000000002
 20
59.3825
 30
0.0
 10
-3.4479000000000002
 20
59.3825
 30
0.0
 10
-3.4479000000000002
 20
59.3825
 30
0.0
 10
-3.5013999999999998
 20
59.072400000000002
 30
0.0
 10
-3.5013999999999998
 20
59.072400000000002
 30
0.0
 10
-3.5013999999999998
 20
59.072400000000002
 30
0.0
 10
-3.5013999999999998
 20
59.072400000000002
 30
0.0
 10
-3.9456000000000002
 20
56.497300000000003
 30
0.0
 10
-3.9456000000000002
 20
56.497300000000003
 30
0.0
 10
-3.9456000000000002
 20
56.497300000000003
 30
0.0
 10
-3.9456000000000002
 20
56.497300000000003
 30
0.0
 10
-6.2572000000000001
 20
55.279000000000003
 30
0.0
 10
-6.2572000000000001
 20
55.279000000000003
 30
0.0
 10
-6.2572000000000001
 20
55.279000000000003
 30
0.0
 10
-6.2572000000000001
 20
55.279000000000003
 30
0.0
 10
-6.6306000000000003
 20
55.0824
 30
0.0
 10
-6.6306000000000003
 20
55.0824
 30
0.0
 10
-6.6306000000000003
 20
55.0824
 30
0.0
 10
-6.6306000000000003
 20
55.0824
 30
0.0
 10
-6.9569000000000001
 20
53.588500000000003
 30
0.0
 10
-6.9569000000000001
 20
53.588500000000003
 30
0.0
 10
-6.9569000000000001
 20
53.588500000000003
 30
0.0
 10
-6.9569000000000001
 20
53.588500000000003
 30
0.0
 10
-8.6565999999999992
 20
52.594499999999996
 30
0.0
 10
-8.6565999999999992
 20
52.594499999999996
 30
0.0
 10
-8.6565999999999992
 20
52.594499999999996
 30
0.0
 10
-8.6565999999999992
 20
52.594499999999996
 30
0.0
 10
-9.5151000000000003
 20
52.092599999999997
 30
0.0
 10
-9.5151000000000003
 20
52.092599999999997
 30
0.0
 10
-9.5151000000000003
 20
52.092599999999997
 30
0.0
 10
-4.6020000000000003
 20
48.611600000000003
 30
0.0
 10
1.3775999999999999
 20
46.5381
 30
0.0
 10
7.8365999999999998
 20
46.457000000000001
 30
0.0
  0
SPLINE
  5
2D
100
AcDbEntity
  8
RÚteg 1
 62
     7
100
AcDbSpline
210
0.0
220
0.0
230
1.0
 70
     1
 71
     3
 72
    92
 73
    88
 74
     0
 42
0.0000000001
 43
0.0000000001
 40
0.0
 40
0.0
 40
0.0
 40
0.0
 40
0.0454545454545455
 40
0.0454545454545455
 40
0.0454545454545455
 40
0.0454545454545455
 40
0.0909090909090909
 40
0.0909090909090909
 40
0.0909090909090909
 40
0.0909090909090909
 40
0.1363636363636364
 40
0.1363636363636364
 40
0.1363636363636364
 40
0.1363636363636364
 40
0.1818181818181818
 40
0.1818181818181818
 40
0.1818181818181818
 40
0.1818181818181818
 40
0.2272727272727273
 40
0.2272727272727273
 40
0.2272727272727273
 40
0.2272727272727273
 40
0.2727272727272728
 40
0.2727272727272728
 40
0.2727272727272728
 40
0.2727272727272728
 40
0.3181818181818182
 40
0.3181818181818182
 40
0.3181818181818182
 40
0.3181818181818182
 40
0.3636363636363637
 40
0.3636363636363637
 40
0.3636363636363637
 40
0.3636363636363637
 40
0.4090909090909092
 40
0.4090909090909092
 40
0.4090909090909092
 40
0.4090909090909092
 40
0.4545454545454546
 40
0.4545454545454546
 40
0.4545454545454546
 40
0.4545454545454546
 40
0.5000000000000001
 40
0.5000000000000001
 40
0.5000000000000001
 40
0.5000000000000001
 40
0.5454545454545455
 40
0.5454545454545455
 40
0.5454545454545455
 40
0.5454545454545455
 40
0.5909090909090909
 40
0.5909090909090909
 40
0.5909090909090909
 40
0.5909090909090909
 40
0.6363636363636364
 40
0.6363636363636364
 40
0.6363636363636364
 40
0.6363636363636364
 40
0.6818181818181818
 40
0.6818181818181818
 40
0.6818181818181818
 40
0.6818181818181818
 40
0.7272727272727272
 40
0.7272727272727272
 40
0.7272727272727272
 40
0.7272727272727272
 40
0.7727272727272726
 40
0.7727272727272726
 40
0.7727272727272726
 40
0.7727272727272726
 40
0.818181818181818
 40
0.818181818181818
 40
0.818181818181818
 40
0.818181818181818
 40
0.8636363636363634
 40
0.8636363636363634
 40
0.8636363636363634
 40
0.8636363636363634
 40
0.9090909090909088
 40
0.9090909090909088
 40
0.9090909090909088
 40
0.9090909090909088
 40
0.9545454545454543
 40
0.9545454545454543
 40
0.9545454545454543
 40
0.9545454545454543
 40
1.0
 40
1.0
 40
1.0
 40
1.0
 10
-10.1486
 20
52.552999999999997
 30
0.0
 10
-10.1486
 20
52.552999999999997
 30
0.0
 10
-9.9366000000000003
 20
53.5242
 30
0.0
 10
-9.9366000000000003
 20
53.5242
 30
0.0
 10
-9.9366000000000003
 20
53.5242
 30
0.0
 10
-9.9366000000000003
 20
53.5242
 30
0.0
 10
-9.5164000000000009
 20
55.4482
 30
0.0
 10
-9.5164000000000009
 20
55.4482
 30
0.0
 10
-9.5164000000000009
 20
55.4482
 30
0.0
 10
-9.5164000000000009
 20
55.4482
 30
0.0
 10
-8.1967999999999996
 20
56.220199999999998
 30
0.0
 10
-8.1967999999999996
 20
56.220199999999998
 30
0.0
 10
-8.1967999999999996
 20
56.220199999999998
 30
0.0
 10
-8.1967999999999996
 20
56.220199999999998
 30
0.0
 10
-8.1248000000000005
 20
56.6357
 30
0.0
 10
-8.1248000000000005
 20
56.6357
 30
0.0
 10
-8.1248000000000005
 20
56.6357
 30
0.0
 10
-8.1248000000000005
 20
56.6357
 30
0.0
 10
-7.6806999999999999
 20
59.210999999999999
 30
0.0
 10
-7.6806999999999999
 20
59.210999999999999
 30
0.0
 10
-7.6806999999999999
 20
59.210999999999999
 30
0.0
 10
-7.6806999999999999
 20
59.210999999999999
 30
0.0
 10
-5.3689999999999998
 20
60.429299999999998
 30
0.0
 10
-5.3689999999999998
 20
60.429299999999998
 30
0.0
 10
-5.3689999999999998
 20
60.429299999999998
 30
0.0
 10
-5.3689999999999998
 20
60.429299999999998
 30
0.0
 10
-5.0903
 20
60.576000000000001
 30
0.0
 10
-5.0903
 20
60.576000000000001
 30
0.0
 10
-5.0903
 20
60.576000000000001
 30
0.0
 10
-5.0903
 20
60.576000000000001
 30
0.0
 10
-4.1794000000000002
 20
62.925600000000003
 30
0.0
 10
-4.1794000000000002
 20
62.925600000000003
 30
0.0
 10
-4.1794000000000002
 20
62.925600000000003
 30
0.0
 10
-4.1794000000000002
 20
62.925600000000003
 30
0.0
 10
-1.8328
 20
68.977999999999994
 30
0.0
 10
-1.8328
 20
68.977999999999994
 30
0.0
 10
-1.8328
 20
68.977999999999994
 30
0.0
 10
-1.8328
 20
68.977999999999994
 30
0.0
 10
0.9617
 20
71.256399999999999
 30
0.0
 10
0.9617
 20
71.256399999999999
 30
0.0
 10
0.9617
 20
71.256399999999999
 30
0.0
 10
0.7418
 20
71.525899999999993
 30
0.0
 10
0.5366
 20
71.807400000000001
 30
0.0
 10
0.3471
 20
72.100499999999997
 30
0.0
 10
0.3471
 20
72.100499999999997
 30
0.0
 10
0.3471
 20
72.100499999999997
 30
0.0
 10
-2.6825999999999999
 20
70.147300000000001
 30
0.0
 10
-2.6825999999999999
 20
70.147300000000001
 30
0.0
 10
-2.6825999999999999
 20
70.147300000000001
 30
0.0
 10
-2.6825999999999999
 20
70.147300000000001
 30
0.0
 10
-9.1638000000000002
 20
69.785899999999998
 30
0.0
 10
-9.1638000000000002
 20
69.785899999999998
 30
0.0
 10
-9.1638000000000002
 20
69.785899999999998
 30
0.0
 10
-9.1638000000000002
 20
69.785899999999998
 30
0.0
 10
-11.6799
 20
69.645600000000002
 30
0.0
 10
-11.6799
 20
69.645600000000002
 30
0.0
 10
-11.6799
 20
69.645600000000002
 30
0.0
 10
-11.6799
 20
69.645600000000002
 30
0.0
 10
-11.9053
 20
69.426299999999998
 30
0.0
 10
-11.9053
 20
69.426299999999998
 30
0.0
 10
-11.9053
 20
69.426299999999998
 30
0.0
 10
-11.9053
 20
69.426299999999998
 30
0.0
 10
-13.7784
 20
67.604100000000003
 30
0.0
 10
-13.7784
 20
67.604100000000003
 30
0.0
 10
-13.7784
 20
67.604100000000003
 30
0.0
 10
-13.7784
 20
67.604100000000003
 30
0.0
 10
-16.364799999999999
 20
67.977400000000003
 30
0.0
 10
-16.364799999999999
 20
67.977400000000003
 30
0.0
 10
-16.364799999999999
 20
67.977400000000003
 30
0.0
 10
-16.364799999999999
 20
67.977400000000003
 30
0.0
 10
-16.782499999999999
 20
68.037400000000005
 30
0.0
 10
-16.782499999999999
 20
68.037400000000005
 30
0.0
 10
-16.782499999999999
 20
68.037400000000005
 30
0.0
 10
-16.782499999999999
 20
68.037400000000005
 30
0.0
 10
-17.924199999999999
 20
67.020700000000005
 30
0.0
 10
-17.924199999999999
 20
67.020700000000005
 30
0.0
 10
-17.924199999999999
 20
67.020700000000005
 30
0.0
 10
-17.924199999999999
 20
67.020700000000005
 30
0.0
 10
-19.883900000000001
 20
67.215599999999995
 30
0.0
 10
-19.883900000000001
 20
67.215599999999995
 30
0.0
 10
-19.883900000000001
 20
67.215599999999995
 30
0.0
 10
-19.883900000000001
 20
67.215599999999995
 30
0.0
 10
-20.8812
 20
67.314899999999994
 30
0.0
 10
-20.8812
 20
67.314899999999994
 30
0.0
 10
-20.8812
 20
67.314899999999994
 30
0.0
 10
-18.865500000000001
 20
61.368099999999998
 30
0.0
 10
-15.0787
 20
56.2376
 30
0.0
 10
-10.1486
 20
52.552999999999997
 30
0.0
  0
SPLINE
  5
2E
100
AcDbEntity
  8
RÚteg 1
 62
     7
100
AcDbSpline
210
0.0
220
0.0
230
1.0
 70
     1
 71
     3
 72
   100
 73
    96
 74
     0
 42
0.0000000001
 43
0.0000000001
 40
0.0
 40
0.0
 40
0.0
 40
0.0
 40
0.0416666666666667
 40
0.0416666666666667
 40
0.0416666666666667
 40
0.0416666666666667
 40
0.0833333333333333
 40
0.0833333333333333
 40
0.0833333333333333
 40
0.0833333333333333
 40
0.125
 40
0.125
 40
0.125
 40
0.125
 40
0.1666666666666667
 40
0.1666666666666667
 40
0.1666666666666667
 40
0.1666666666666667
 40
0.2083333333333333
 40
0.2083333333333333
 40
0.2083333333333333
 40
0.2083333333333333
 40
0.25
 40
0.25
 40
0.25
 40
0.25
 40
0.2916666666666666
 40
0.2916666666666666
 40
0.2916666666666666
 40
0.2916666666666666
 40
0.3333333333333333
 40
0.3333333333333333
 40
0.3333333333333333
 40
0.3333333333333333
 40
0.375
 40
0.375
 40
0.375
 40
0.375
 40
0.4166666666666667
 40
0.4166666666666667
 40
0.4166666666666667
 40
0.4166666666666667
 40
0.4583333333333334
 40
0.4583333333333334
 40
0.4583333333333334
 40
0.4583333333333334
 40
0.5
 40
0.5
 40
0.5
 40
0.5
 40
0.5416666666666666
 40
0.5416666666666666
 40
0.5416666666666666
 40
0.5416666666666666
 40
0.5833333333333333
 40
0.5833333333333333
 40
0.5833333333333333
 40
0.5833333333333333
 40
0.6249999999999999
 40
0.6249999999999999
 40
0.6249999999999999
 40
0.6249999999999999
 40
0.6666666666666665
 40
0.6666666666666665
 40
0.6666666666666665
 40
0.6666666666666665
 40
0.7083333333333332
 40
0.7083333333333332
 40
0.7083333333333332
 40
0.7083333333333332
 40
0.7499999999999998
 40
0.7499999999999998
 40
0.7499999999999998
 40
0.7499999999999998
 40
0.7916666666666664
 40
0.7916666666666664
 40
0.7916666666666664
 40
0.7916666666666664
 40
0.833333333333333
 40
0.833333333333333
 40
0.833333333333333
 40
0.833333333333333
 40
0.8749999999999997
 40
0.8749999999999997
 40
0.8749999999999997
 40
0.8749999999999997
 40
0.9166666666666663
 40
0.9166666666666663
 40
0.9166666666666663
 40
0.9166666666666663
 40
0.9583333333333329
 40
0.9583333333333329
 40
0.9583333333333329
 40
0.9583333333333329
 40
1.0
 40
1.0
 40
1.0
 40
1.0
 10
-21.121099999999998
 20
68.053899999999999
 30
0.0
 10
-21.121099999999998
 20
68.053899999999999
 30
0.0
 10
-20.372900000000001
 20
68.720200000000006
 30
0.0
 10
-20.372900000000001
 20
68.720200000000006
 30
0.0
 10
-20.372900000000001
 20
68.720200000000006
 30
0.0
 10
-20.372900000000001
 20
68.720200000000006
 30
0.0
 10
-18.902100000000001
 20
70.029700000000005
 30
0.0
 10
-18.902100000000001
 20
70.029700000000005
 30
0.0
 10
-18.902100000000001
 20
70.029700000000005
 30
0.0
 10
-18.902100000000001
 20
70.029700000000005
 30
0.0
 10
-17.380500000000001
 20
69.878299999999996
 30
0.0
 10
-17.380500000000001
 20
69.878299999999996
 30
0.0
 10
-17.380500000000001
 20
69.878299999999996
 30
0.0
 10
-17.380500000000001
 20
69.878299999999996
 30
0.0
 10
-17.078099999999999
 20
70.172499999999999
 30
0.0
 10
-17.078099999999999
 20
70.172499999999999
 30
0.0
 10
-17.078099999999999
 20
70.172499999999999
 30
0.0
 10
-17.078099999999999
 20
70.172499999999999
 30
0.0
 10
-15.204800000000001
 20
71.994799999999998
 30
0.0
 10
-15.204800000000001
 20
71.994799999999998
 30
0.0
 10
-15.204800000000001
 20
71.994799999999998
 30
0.0
 10
-15.204800000000001
 20
71.994799999999998
 30
0.0
 10
-12.6187
 20
71.621700000000004
 30
0.0
 10
-12.6187
 20
71.621700000000004
 30
0.0
 10
-12.6187
 20
71.621700000000004
 30
0.0
 10
-12.6187
 20
71.621700000000004
 30
0.0
 10
-12.307399999999999
 20
71.576599999999999
 30
0.0
 10
-12.307399999999999
 20
71.576599999999999
 30
0.0
 10
-12.307399999999999
 20
71.576599999999999
 30
0.0
 10
-12.307399999999999
 20
71.576599999999999
 30
0.0
 10
-10.1892
 20
72.941800000000001
 30
0.0
 10
-10.1892
 20
72.941800000000001
 30
0.0
 10
-10.1892
 20
72.941800000000001
 30
0.0
 10
-10.1892
 20
72.941800000000001
 30
0.0
 10
-4.7332999999999998
 20
76.459299999999999
 30
0.0
 10
-4.7332999999999998
 20
76.459299999999999
 30
0.0
 10
-4.7332999999999998
 20
76.459299999999999
 30
0.0
 10
-4.7332999999999998
 20
76.459299999999999
 30
0.0
 10
-1.1342000000000001
 20
76.659999999999997
 30
0.0
 10
-1.1342000000000001
 20
76.659999999999997
 30
0.0
 10
-1.1342000000000001
 20
76.659999999999997
 30
0.0
 10
-1.1435999999999999
 20
76.832700000000003
 30
0.0
 10
-1.1482000000000001
 20
77.006600000000006
 30
0.0
 10
-1.1482000000000001
 20
77.181700000000006
 30
0.0
 10
-1.1482000000000001
 20
77.181700000000006
 30
0.0
 10
-1.1482000000000001
 20
77.356999999999999
 30
0.0
 10
-1.1429
 20
77.531199999999998
 30
0.0
 10
-1.1335
 20
77.7042
 30
0.0
 10
-1.1335
 20
77.7042
 30
0.0
 10
-1.1335
 20
77.7042
 30
0.0
 10
-4.7332999999999998
 20
77.904700000000005
 30
0.0
 10
-4.7332999999999998
 20
77.904700000000005
 30
0.0
 10
-4.7332999999999998
 20
77.904700000000005
 30
0.0
 10
-4.7332999999999998
 20
77.904700000000005
 30
0.0
 10
-10.1892
 20
81.421999999999997
 30
0.0
 10
-10.1892
 20
81.421999999999997
 30
0.0
 10
-10.1892
 20
81.421999999999997
 30
0.0
 10
-10.1892
 20
81.421999999999997
 30
0.0
 10
-12.307399999999999
 20
82.787400000000005
 30
0.0
 10
-12.307399999999999
 20
82.787400000000005
 30
0.0
 10
-12.307399999999999
 20
82.787400000000005
 30
0.0
 10
-12.307399999999999
 20
82.787400000000005
 30
0.0
 10
-12.618600000000001
 20
82.7423
 30
0.0
 10
-12.618600000000001
 20
82.7423
 30
0.0
 10
-12.618600000000001
 20
82.7423
 30
0.0
 10
-12.618600000000001
 20
82.7423
 30
0.0
 10
-15.204800000000001
 20
82.369100000000003
 30
0.0
 10
-15.204800000000001
 20
82.369100000000003
 30
0.0
 10
-15.204800000000001
 20
82.369100000000003
 30
0.0
 10
-15.204800000000001
 20
82.369100000000003
 30
0.0
 10
-17.077999999999999
 20
84.191299999999998
 30
0.0
 10
-17.077999999999999
 20
84.191299999999998
 30
0.0
 10
-17.077999999999999
 20
84.191299999999998
 30
0.0
 10
-17.077999999999999
 20
84.191299999999998
 30
0.0
 10
-17.380500000000001
 20
84.485500000000002
 30
0.0
 10
-17.380500000000001
 20
84.485500000000002
 30
0.0
 10
-17.380500000000001
 20
84.485500000000002
 30
0.0
 10
-17.380500000000001
 20
84.485500000000002
 30
0.0
 10
-18.902100000000001
 20
84.334299999999999
 30
0.0
 10
-18.902100000000001
 20
84.334299999999999
 30
0.0
 10
-18.902100000000001
 20
84.334299999999999
 30
0.0
 10
-18.902100000000001
 20
84.334299999999999
 30
0.0
 10
-20.372599999999998
 20
85.643600000000006
 30
0.0
 10
-20.372599999999998
 20
85.643600000000006
 30
0.0
 10
-20.372599999999998
 20
85.643600000000006
 30
0.0
 10
-20.372599999999998
 20
85.643600000000006
 30
0.0
 10
-21.121099999999998
 20
86.310100000000006
 30
0.0
 10
-21.121099999999998
 20
86.310100000000006
 30
0.0
 10
-21.121099999999998
 20
86.310100000000006
 30
0.0
 10
-22.017299999999999
 20
83.426100000000005
 30
0.0
 10
-22.500299999999999
 20
80.360299999999995
 30
0.0
 10
-22.500299999999999
 20
77.181700000000006
 30
0.0
 10
-22.500299999999999
 20
77.181700000000006
 30
0.0
 10
-22.500299999999999
 20
74.003399999999999
 30
0.0
 10
-22.017299999999999
 20
70.937700000000007
 30
0.0
 10
-21.121099999999998
 20
68.053899999999999
 30
0.0
  0
SPLINE
  5
2F
100
AcDbEntity
  8
RÚteg 1
 62
     7
100
AcDbSpline
210
0.0
220
0.0
230
1.0
 70
     1
 71
     3
 72
    92
 73
    88
 74
     0
 42
0.0000000001
 43
0.0000000001
 40
0.0
 40
0.0
 40
0.0
 40
0.0
 40
0.0454545454545455
 40
0.0454545454545455
 40
0.0454545454545455
 40
0.0454545454545455
 40
0.0909090909090909
 40
0.0909090909090909
 40
0.0909090909090909
 40
0.0909090909090909
 40
0.1363636363636364
 40
0.1363636363636364
 40
0.1363636363636364
 40
0.1363636363636364
 40
0.1818181818181818
 40
0.1818181818181818
 40
0.1818181818181818
 40
0.1818181818181818
 40
0.2272727272727273
 40
0.2272727272727273
 40
0.2272727272727273
 40
0.2272727272727273
 40
0.2727272727272728
 40
0.2727272727272728
 40
0.2727272727272728
 40
0.2727272727272728
 40
0.3181818181818182
 40
0.3181818181818182
 40
0.3181818181818182
 40
0.3181818181818182
 40
0.3636363636363637
 40
0.3636363636363637
 40
0.3636363636363637
 40
0.3636363636363637
 40
0.4090909090909092
 40
0.4090909090909092
 40
0.4090909090909092
 40
0.4090909090909092
 40
0.4545454545454546
 40
0.4545454545454546
 40
0.4545454545454546
 40
0.4545454545454546
 40
0.5000000000000001
 40
0.5000000000000001
 40
0.5000000000000001
 40
0.5000000000000001
 40
0.5454545454545455
 40
0.5454545454545455
 40
0.5454545454545455
 40
0.5454545454545455
 40
0.5909090909090909
 40
0.5909090909090909
 40
0.5909090909090909
 40
0.5909090909090909
 40
0.6363636363636364
 40
0.6363636363636364
 40
0.6363636363636364
 40
0.6363636363636364
 40
0.6818181818181818
 40
0.6818181818181818
 40
0.6818181818181818
 40
0.6818181818181818
 40
0.7272727272727272
 40
0.7272727272727272
 40
0.7272727272727272
 40
0.7272727272727272
 40
0.7727272727272726
 40
0.7727272727272726
 40
0.7727272727272726
 40
0.7727272727272726
 40
0.818181818181818
 40
0.818181818181818
 40
0.818181818181818
 40
0.818181818181818
 40
0.8636363636363634
 40
0.8636363636363634
 40
0.8636363636363634
 40
0.8636363636363634
 40
0.9090909090909088
 40
0.9090909090909088
 40
0.9090909090909088
 40
0.9090909090909088
 40
0.9545454545454543
 40
0.9545454545454543
 40
0.9545454545454543
 40
0.9545454545454543
 40
1.0
 40
1.0
 40
1.0
 40
1.0
 10
-20.8812
 20
87.049000000000007
 30
0.0
 10
-20.8812
 20
87.049000000000007
 30
0.0
 10
-19.883900000000001
 20
87.148200000000003
 30
0.0
 10
-19.883900000000001
 20
87.148200000000003
 30
0.0
 10
-19.883900000000001
 20
87.148200000000003
 30
0.0
 10
-19.883900000000001
 20
87.148200000000003
 30
0.0
 10
-17.924199999999999
 20
87.343100000000007
 30
0.0
 10
-17.924199999999999
 20
87.343100000000007
 30
0.0
 10
-17.924199999999999
 20
87.343100000000007
 30
0.0
 10
-17.924199999999999
 20
87.343100000000007
 30
0.0
 10
-16.782399999999999
 20
86.326400000000007
 30
0.0
 10
-16.782399999999999
 20
86.326400000000007
 30
0.0
 10
-16.782399999999999
 20
86.326400000000007
 30
0.0
 10
-16.782399999999999
 20
86.326400000000007
 30
0.0
 10
-16.364799999999999
 20
86.386700000000005
 30
0.0
 10
-16.364799999999999
 20
86.386700000000005
 30
0.0
 10
-16.364799999999999
 20
86.386700000000005
 30
0.0
 10
-16.364799999999999
 20
86.386700000000005
 30
0.0
 10
-13.7784
 20
86.759799999999998
 30
0.0
 10
-13.7784
 20
86.759799999999998
 30
0.0
 10
-13.7784
 20
86.759799999999998
 30
0.0
 10
-13.7784
 20
86.759799999999998
 30
0.0
 10
-11.9053
 20
84.937700000000007
 30
0.0
 10
-11.9053
 20
84.937700000000007
 30
0.0
 10
-11.9053
 20
84.937700000000007
 30
0.0
 10
-11.9053
 20
84.937700000000007
 30
0.0
 10
-11.679600000000001
 20
84.718199999999996
 30
0.0
 10
-11.679600000000001
 20
84.718199999999996
 30
0.0
 10
-11.679600000000001
 20
84.718199999999996
 30
0.0
 10
-11.679600000000001
 20
84.718199999999996
 30
0.0
 10
-9.1635000000000009
 20
84.578100000000006
 30
0.0
 10
-9.1635000000000009
 20
84.578100000000006
 30
0.0
 10
-9.1635000000000009
 20
84.578100000000006
 30
0.0
 10
-9.1635000000000009
 20
84.578100000000006
 30
0.0
 10
-2.6825999999999999
 20
84.2166
 30
0.0
 10
-2.6825999999999999
 20
84.2166
 30
0.0
 10
-2.6825999999999999
 20
84.2166
 30
0.0
 10
-2.6825999999999999
 20
84.2166
 30
0.0
 10
0.3473
 20
82.263400000000004
 30
0.0
 10
0.3473
 20
82.263400000000004
 30
0.0
 10
0.3473
 20
82.263400000000004
 30
0.0
 10
0.5367
 20
82.556600000000003
 30
0.0
 10
0.742
 20
82.838099999999997
 30
0.0
 10
0.9619
 20
83.107500000000002
 30
0.0
 10
0.9619
 20
83.107500000000002
 30
0.0
 10
0.9619
 20
83.107500000000002
 30
0.0
 10
-1.8324
 20
85.385900000000007
 30
0.0
 10
-1.8324
 20
85.385900000000007
 30
0.0
 10
-1.8324
 20
85.385900000000007
 30
0.0
 10
-1.8324
 20
85.385900000000007
 30
0.0
 10
-4.1794000000000002
 20
91.438599999999994
 30
0.0
 10
-4.1794000000000002
 20
91.438599999999994
 30
0.0
 10
-4.1794000000000002
 20
91.438599999999994
 30
0.0
 10
-4.1794000000000002
 20
91.438599999999994
 30
0.0
 10
-5.0902000000000003
 20
93.787999999999997
 30
0.0
 10
-5.0902000000000003
 20
93.787999999999997
 30
0.0
 10
-5.0902000000000003
 20
93.787999999999997
 30
0.0
 10
-5.0902000000000003
 20
93.787999999999997
 30
0.0
 10
-5.3685999999999998
 20
93.934700000000007
 30
0.0
 10
-5.3685999999999998
 20
93.934700000000007
 30
0.0
 10
-5.3685999999999998
 20
93.934700000000007
 30
0.0
 10
-5.3685999999999998
 20
93.934700000000007
 30
0.0
 10
-7.6802000000000001
 20
95.153000000000006
 30
0.0
 10
-7.6802000000000001
 20
95.153000000000006
 30
0.0
 10
-7.6802000000000001
 20
95.153000000000006
 30
0.0
 10
-7.6802000000000001
 20
95.153000000000006
 30
0.0
 10
-8.1245999999999992
 20
97.727999999999994
 30
0.0
 10
-8.1245999999999992
 20
97.727999999999994
 30
0.0
 10
-8.1245999999999992
 20
97.727999999999994
 30
0.0
 10
-8.1245999999999992
 20
97.727999999999994
 30
0.0
 10
-8.1964000000000006
 20
98.143699999999995
 30
0.0
 10
-8.1964000000000006
 20
98.143699999999995
 30
0.0
 10
-8.1964000000000006
 20
98.143699999999995
 30
0.0
 10
-8.1964000000000006
 20
98.143699999999995
 30
0.0
 10
-9.5160999999999998
 20
98.915599999999998
 30
0.0
 10
-9.5160999999999998
 20
98.915599999999998
 30
0.0
 10
-9.5160999999999998
 20
98.915599999999998
 30
0.0
 10
-9.5160999999999998
 20
98.915599999999998
 30
0.0
 10
-9.9366000000000003
 20
100.8394
 30
0.0
 10
-9.9366000000000003
 20
100.8394
 30
0.0
 10
-9.9366000000000003
 20
100.8394
 30
0.0
 10
-9.9366000000000003
 20
100.8394
 30
0.0
 10
-10.148400000000001
 20
101.8108
 30
0.0
 10
-10.148400000000001
 20
101.8108
 30
0.0
 10
-10.148400000000001
 20
101.8108
 30
0.0
 10
-15.0783
 20
98.125600000000006
 30
0.0
 10
-18.865500000000001
 20
92.995699999999999
 30
0.0
 10
-20.8812
 20
87.049000000000007
 30
0.0
  0
SPLINE
  5
30
100
AcDbEntity
  8
RÚteg 1
 62
     7
100
AcDbSpline
210
0.0
220
0.0
230
1.0
 70
     1
 71
     3
 72
    92
 73
    88
 74
     0
 42
0.0000000001
 43
0.0000000001
 40
0.0
 40
0.0
 40
0.0
 40
0.0
 40
0.0454545454545455
 40
0.0454545454545455
 40
0.0454545454545455
 40
0.0454545454545455
 40
0.0909090909090909
 40
0.0909090909090909
 40
0.0909090909090909
 40
0.0909090909090909
 40
0.1363636363636364
 40
0.1363636363636364
 40
0.1363636363636364
 40
0.1363636363636364
 40
0.1818181818181818
 40
0.1818181818181818
 40
0.1818181818181818
 40
0.1818181818181818
 40
0.2272727272727273
 40
0.2272727272727273
 40
0.2272727272727273
 40
0.2272727272727273
 40
0.2727272727272728
 40
0.2727272727272728
 40
0.2727272727272728
 40
0.2727272727272728
 40
0.3181818181818182
 40
0.3181818181818182
 40
0.3181818181818182
 40
0.3181818181818182
 40
0.3636363636363637
 40
0.3636363636363637
 40
0.3636363636363637
 40
0.3636363636363637
 40
0.4090909090909092
 40
0.4090909090909092
 40
0.4090909090909092
 40
0.4090909090909092
 40
0.4545454545454546
 40
0.4545454545454546
 40
0.4545454545454546
 40
0.4545454545454546
 40
0.5000000000000001
 40
0.5000000000000001
 40
0.5000000000000001
 40
0.5000000000000001
 40
0.5454545454545455
 40
0.5454545454545455
 40
0.5454545454545455
 40
0.5454545454545455
 40
0.5909090909090909
 40
0.5909090909090909
 40
0.5909090909090909
 40
0.5909090909090909
 40
0.6363636363636364
 40
0.6363636363636364
 40
0.6363636363636364
 40
0.6363636363636364
 40
0.6818181818181818
 40
0.6818181818181818
 40
0.6818181818181818
 40
0.6818181818181818
 40
0.7272727272727272
 40
0.7272727272727272
 40
0.7272727272727272
 40
0.7272727272727272
 40
0.7727272727272726
 40
0.7727272727272726
 40
0.7727272727272726
 40
0.7727272727272726
 40
0.818181818181818
 40
0.818181818181818
 40
0.818181818181818
 40
0.818181818181818
 40
0.8636363636363634
 40
0.8636363636363634
 40
0.8636363636363634
 40
0.8636363636363634
 40
0.9090909090909088
 40
0.9090909090909088
 40
0.9090909090909088
 40
0.9090909090909088
 40
0.9545454545454543
 40
0.9545454545454543
 40
0.9545454545454543
 40
0.9545454545454543
 40
1.0
 40
1.0
 40
1.0
 40
1.0
 10
-9.5149000000000008
 20
102.2713
 30
0.0
 10
-9.5149000000000008
 20
102.2713
 30
0.0
 10
-8.6565999999999992
 20
101.7694
 30
0.0
 10
-8.6565999999999992
 20
101.7694
 30
0.0
 10
-8.6565999999999992
 20
101.7694
 30
0.0
 10
-8.6565999999999992
 20
101.7694
 30
0.0
 10
-6.9565999999999999
 20
100.7753
 30
0.0
 10
-6.9565999999999999
 20
100.7753
 30
0.0
 10
-6.9565999999999999
 20
100.7753
 30
0.0
 10
-6.9565999999999999
 20
100.7753
 30
0.0
 10
-6.6304999999999996
 20
99.281499999999994
 30
0.0
 10
-6.6304999999999996
 20
99.281499999999994
 30
0.0
 10
-6.6304999999999996
 20
99.281499999999994
 30
0.0
 10
-6.6304999999999996
 20
99.281499999999994
 30
0.0
 10
-6.2571000000000003
 20
99.084800000000001
 30
0.0
 10
-6.2571000000000003
 20
99.084800000000001
 30
0.0
 10
-6.2571000000000003
 20
99.084800000000001
 30
0.0
 10
-6.2571000000000003
 20
99.084800000000001
 30
0.0
 10
-3.9453999999999998
 20
97.866500000000002
 30
0.0
 10
-3.9453999999999998
 20
97.866500000000002
 30
0.0
 10
-3.9453999999999998
 20
97.866500000000002
 30
0.0
 10
-3.9453999999999998
 20
97.866500000000002
 30
0.0
 10
-3.5011000000000001
 20
95.291399999999996
 30
0.0
 10
-3.5011000000000001
 20
95.291399999999996
 30
0.0
 10
-3.5011000000000001
 20
95.291399999999996
 30
0.0
 10
-3.5011000000000001
 20
95.291399999999996
 30
0.0
 10
-3.4476
 20
94.981200000000001
 30
0.0
 10
-3.4476
 20
94.981200000000001
 30
0.0
 10
-3.4476
 20
94.981200000000001
 30
0.0
 10
-3.4476
 20
94.981200000000001
 30
0.0
 10
-1.4944999999999999
 20
93.389099999999999
 30
0.0
 10
-1.4944999999999999
 20
93.389099999999999
 30
0.0
 10
-1.4944999999999999
 20
93.389099999999999
 30
0.0
 10
-1.4944999999999999
 20
93.389099999999999
 30
0.0
 10
3.5363000000000002
 20
89.287000000000006
 30
0.0
 10
3.5363000000000002
 20
89.287000000000006
 30
0.0
 10
3.5363000000000002
 20
89.287000000000006
 30
0.0
 10
3.5363000000000002
 20
89.287000000000006
 30
0.0
 10
4.8388999999999998
 20
85.927400000000006
 30
0.0
 10
4.8388999999999998
 20
85.927400000000006
 30
0.0
 10
4.8388999999999998
 20
85.927400000000006
 30
0.0
 10
5.1618000000000004
 20
86.052800000000005
 30
0.0
 10
5.4932999999999996
 20
86.160899999999998
 30
0.0
 10
5.8322000000000003
 20
86.25
 30
0.0
 10
5.8322000000000003
 20
86.25
 30
0.0
 10
5.8322000000000003
 20
86.25
 30
0.0
 10
4.9116
 20
89.733599999999996
 30
0.0
 10
4.9116
 20
89.733599999999996
 30
0.0
 10
4.9116
 20
89.733599999999996
 30
0.0
 10
4.9116
 20
89.733599999999996
 30
0.0
 10
6.5705
 20
96.009399999999999
 30
0.0
 10
6.5705
 20
96.009399999999999
 30
0.0
 10
6.5705
 20
96.009399999999999
 30
0.0
 10
6.5705
 20
96.009399999999999
 30
0.0
 10
7.2144000000000004
 20
98.445599999999999
 30
0.0
 10
7.2144000000000004
 20
98.445599999999999
 30
0.0
 10
7.2144000000000004
 20
98.445599999999999
 30
0.0
 10
7.2144000000000004
 20
98.445599999999999
 30
0.0
 10
7.0754000000000001
 20
98.727900000000005
 30
0.0
 10
7.0754000000000001
 20
98.727900000000005
 30
0.0
 10
7.0754000000000001
 20
98.727900000000005
 30
0.0
 10
7.0754000000000001
 20
98.727900000000005
 30
0.0
 10
5.9211999999999998
 20
101.07250000000001
 30
0.0
 10
5.9211999999999998
 20
101.07250000000001
 30
0.0
 10
5.9211999999999998
 20
101.07250000000001
 30
0.0
 10
5.9211999999999998
 20
101.07250000000001
 30
0.0
 10
7.0754000000000001
 20
103.41670000000001
 30
0.0
 10
7.0754000000000001
 20
103.41670000000001
 30
0.0
 10
7.0754000000000001
 20
103.41670000000001
 30
0.0
 10
7.0754000000000001
 20
103.41670000000001
 30
0.0
 10
7.2618
 20
103.79510000000001
 30
0.0
 10
7.2618
 20
103.79510000000001
 30
0.0
 10
7.2618
 20
103.79510000000001
 30
0.0
 10
7.2618
 20
103.79510000000001
 30
0.0
 10
6.6477000000000004
 20
105.1955
 30
0.0
 10
6.6477000000000004
 20
105.1955
 30
0.0
 10
6.6477000000000004
 20
105.1955
 30
0.0
 10
6.6477000000000004
 20
105.1955
 30
0.0
 10
7.4387999999999996
 20
106.99890000000001
 30
0.0
 10
7.4387999999999996
 20
106.99890000000001
 30
0.0
 10
7.4387999999999996
 20
106.99890000000001
 30
0.0
 10
7.4387999999999996
 20
106.99890000000001
 30
0.0
 10
7.8367000000000004
 20
107.90649999999999
 30
0.0
 10
7.8367000000000004
 20
107.90649999999999
 30
0.0
 10
7.8367000000000004
 20
107.90649999999999
 30
0.0
 10
1.3776999999999999
 20
107.82550000000001
 30
0.0
 10
-4.6020000000000003
 20
105.75279999999999
 30
0.0
 10
-9.5149000000000008
 20
102.2713
 30
0.0
  0
SPLINE
  5
31
100
AcDbEntity
  8
RÚteg 1
 62
     7
100
AcDbSpline
210
0.0
220
0.0
230
1.0
 70
     1
 71
     3
 72
    36
 73
    32
 74
     0
 42
0.0000000001
 43
0.0000000001
 40
0.0
 40
0.0
 40
0.0
 40
0.0
 40
0.125
 40
0.125
 40
0.125
 40
0.125
 40
0.25
 40
0.25
 40
0.25
 40
0.25
 40
0.375
 40
0.375
 40
0.375
 40
0.375
 40
0.5
 40
0.5
 40
0.5
 40
0.5
 40
0.625
 40
0.625
 40
0.625
 40
0.625
 40
0.75
 40
0.75
 40
0.75
 40
0.75
 40
0.875
 40
0.875
 40
0.875
 40
0.875
 40
1.0
 40
1.0
 40
1.0
 40
1.0
 10
-63.710000000000001
 20
120.3
 30
0.0
 10
-60.263500000000001
 20
120.3
 30
0.0
 10
-57.468499999999999
 20
117.50490000000001
 30
0.0
 10
-57.468499999999999
 20
114.0585
 30
0.0
 10
-57.468499999999999
 20
114.0585
 30
0.0
 10
-57.468499999999999
 20
112.7161
 30
0.0
 10
-57.893000000000001
 20
111.4727
 30
0.0
 10
-58.614400000000003
 20
110.4546
 30
0.0
 10
-58.614400000000003
 20
110.4546
 30
0.0
 10
-42.1233
 20
107.9928
 30
0.0
 10
-29.469799999999999
 20
93.767899999999997
 30
0.0
 10
-29.469799999999999
 20
76.592699999999994
 30
0.0
 10
-29.469799999999999
 20
76.592699999999994
 30
0.0
 10
-29.469799999999999
 20
57.685299999999998
 30
0.0
 10
-44.802799999999998
 20
42.352600000000002
 30
0.0
 10
-63.710000000000001
 20
42.352600000000002
 30
0.0
 10
-63.710000000000001
 20
42.352600000000002
 30
0.0
 10
-82.617000000000004
 20
42.352600000000002
 30
0.0
 10
-97.950000000000003
 20
57.685299999999998
 30
0.0
 10
-97.950000000000003
 20
76.592699999999994
 30
0.0
 10
-97.950000000000003
 20
76.592699999999994
 30
0.0
 10
-97.950000000000003
 20
93.767899999999997
 30
0.0
 10
-85.296499999999995
 20
107.9928
 30
0.0
 10
-68.805700000000002
 20
110.4546
 30
0.0
 10
-68.805700000000002
 20
110.4546
 30
0.0
 10
-69.527199999999993
 20
111.4727
 30
0.0
 10
-69.951400000000007
 20
112.7161
 30
0.0
 10
-69.951400000000007
 20
114.0585
 30
0.0
 10
-69.951400000000007
 20
114.0585
 30
0.0
 10
-69.951400000000007
 20
117.50490000000001
 30
0.0
 10
-67.156499999999994
 20
120.3
 30
0.0
 10
-63.710000000000001
 20
120.3
 30
0.0
  0
SPLINE
  5
32
100
AcDbEntity
  8
RÚteg 1
 62
     7
100
AcDbSpline
210
0.0
220
0.0
230
1.0
 70
     1
 71
     3
 72
    28
 73
    24
 74
     0
 42
0.0000000001
 43
0.0000000001
 40
0.0
 40
0.0
 40
0.0
 40
0.0
 40
0.1666666666666667
 40
0.1666666666666667
 40
0.1666666666666667
 40
0.1666666666666667
 40
0.3333333333333333
 40
0.3333333333333333
 40
0.3333333333333333
 40
0.3333333333333333
 40
0.5
 40
0.5
 40
0.5
 40
0.5
 40
0.6666666666666666
 40
0.6666666666666666
 40
0.6666666666666666
 40
0.6666666666666666
 40
0.8333333333333333
 40
0.8333333333333333
 40
0.8333333333333333
 40
0.8333333333333333
 40
1.0
 40
1.0
 40
1.0
 40
1.0
 10
-63.710000000000001
 20
81.508600000000001
 30
0.0
 10
-62.726700000000001
 20
83.475099999999998
 30
0.0
 10
-61.743400000000001
 20
84.458299999999994
 30
0.0
 10
-59.7774
 20
84.458299999999994
 30
0.0
 10
-59.7774
 20
84.458299999999994
 30
0.0
 10
-57.606200000000001
 20
84.458299999999994
 30
0.0
 10
-55.844299999999997
 20
82.696399999999997
 30
0.0
 10
-55.844299999999997
 20
80.525400000000005
 30
0.0
 10
-55.844299999999997
 20
80.525400000000005
 30
0.0
 10
-55.844299999999997
 20
76.592699999999994
 30
0.0
 10
-59.7774
 20
72.659700000000001
 30
0.0
 10
-63.710000000000001
 20
68.726900000000001
 30
0.0
 10
-63.710000000000001
 20
68.726900000000001
 30
0.0
 10
-67.642700000000005
 20
72.659700000000001
 30
0.0
 10
-71.575599999999994
 20
76.592699999999994
 30
0.0
 10
-71.575599999999994
 20
80.525400000000005
 30
0.0
 10
-71.575599999999994
 20
80.525400000000005
 30
0.0
 10
-71.575599999999994
 20
82.696399999999997
 30
0.0
 10
-69.813599999999994
 20
84.458299999999994
 30
0.0
 10
-67.642700000000005
 20
84.458299999999994
 30
0.0
 10
-67.642700000000005
 20
84.458299999999994
 30
0.0
 10
-65.676400000000001
 20
84.458299999999994
 30
0.0
 10
-64.693100000000001
 20
83.475099999999998
 30
0.0
 10
-63.710000000000001
 20
81.508600000000001
 30
0.0
  0
SPLINE
  5
33
100
AcDbEntity
  8
RÚteg 1
 62
     7
100
AcDbSpline
210
0.0
220
0.0
230
1.0
 70
     1
 71
     3
 72
    28
 73
    24
 74
     0
 42
0.0000000001
 43
0.0000000001
 40
0.0
 40
0.0
 40
0.0
 40
0.0
 40
0.1666666666666667
 40
0.1666666666666667
 40
0.1666666666666667
 40
0.1666666666666667
 40
0.3333333333333333
 40
0.3333333333333333
 40
0.3333333333333333
 40
0.3333333333333333
 40
0.5
 40
0.5
 40
0.5
 40
0.5
 40
0.6666666666666666
 40
0.6666666666666666
 40
0.6666666666666666
 40
0.6666666666666666
 40
0.8333333333333333
 40
0.8333333333333333
 40
0.8333333333333333
 40
0.8333333333333333
 40
1.0
 40
1.0
 40
1.0
 40
1.0
 10
-63.710000000000001
 20
110.83280000000001
 30
0.0
 10
-63.005600000000001
 20
110.83280000000001
 30
0.0
 10
-62.307099999999998
 20
110.8092
 30
0.0
 10
-61.613300000000002
 20
110.7671
 30
0.0
 10
-61.613300000000002
 20
110.7671
 30
0.0
 10
-60.5276
 20
111.4599
 30
0.0
 10
-59.807200000000002
 20
112.67529999999999
 30
0.0
 10
-59.807200000000002
 20
114.0586
 30
0.0
 10
-59.807200000000002
 20
114.0586
 30
0.0
 10
-59.807200000000002
 20
116.21380000000001
 30
0.0
 10
-61.555
 20
117.96129999999999
 30
0.0
 10
-63.710000000000001
 20
117.96129999999999
 30
0.0
 10
-63.710000000000001
 20
117.96129999999999
 30
0.0
 10
-65.865300000000005
 20
117.96129999999999
 30
0.0
 10
-67.612799999999993
 20
116.21380000000001
 30
0.0
 10
-67.612799999999993
 20
114.0586
 30
0.0
 10
-67.612799999999993
 20
114.0586
 30
0.0
 10
-67.612799999999993
 20
112.67529999999999
 30
0.0
 10
-66.892499999999998
 20
111.4599
 30
0.0
 10
-65.806600000000003
 20
110.7671
 30
0.0
 10
-65.806600000000003
 20
110.7671
 30
0.0
 10
-65.112899999999996
 20
110.8092
 30
0.0
 10
-64.414199999999994
 20
110.83280000000001
 30
0.0
 10
-63.710000000000001
 20
110.83280000000001
 30
0.0
  0
SPLINE
  5
34
100
AcDbEntity
  8
RÚteg 1
 62
     7
100
AcDbSpline
210
0.0
220
0.0
230
1.0
 70
     1
 71
     3
 72
    56
 73
    52
 74
     0
 42
0.0000000001
 43
0.0000000001
 40
0.0
 40
0.0
 40
0.0
 40
0.0
 40
0.0769230769230769
 40
0.0769230769230769
 40
0.0769230769230769
 40
0.0769230769230769
 40
0.1538461538461539
 40
0.1538461538461539
 40
0.1538461538461539
 40
0.1538461538461539
 40
0.2307692307692308
 40
0.2307692307692308
 40
0.2307692307692308
 40
0.2307692307692308
 40
0.3076923076923077
 40
0.3076923076923077
 40
0.3076923076923077
 40
0.3076923076923077
 40
0.3846153846153846
 40
0.3846153846153846
 40
0.3846153846153846
 40
0.3846153846153846
 40
0.4615384615384616
 40
0.4615384615384616
 40
0.4615384615384616
 40
0.4615384615384616
 40
0.5384615384615386
 40
0.5384615384615386
 40
0.5384615384615386
 40
0.5384615384615386
 40
0.6153846153846154
 40
0.6153846153846154
 40
0.6153846153846154
 40
0.6153846153846154
 40
0.6923076923076923
 40
0.6923076923076923
 40
0.6923076923076923
 40
0.6923076923076923
 40
0.7692307692307692
 40
0.7692307692307692
 40
0.7692307692307692
 40
0.7692307692307692
 40
0.846153846153846
 40
0.846153846153846
 40
0.846153846153846
 40
0.846153846153846
 40
0.9230769230769229
 40
0.9230769230769229
 40
0.9230769230769229
 40
0.9230769230769229
 40
1.0
 40
1.0
 40
1.0
 40
1.0
 10
-61.351799999999997
 20
100.45910000000001
 30
0.0
 10
-61.168399999999998
 20
100.4892
 30
0.0
 10
-60.971899999999998
 20
100.50449999999999
 30
0.0
 10
-60.760300000000001
 20
100.50449999999999
 30
0.0
 10
-60.760300000000001
 20
100.50449999999999
 30
0.0
 10
-59.132100000000001
 20
100.50449999999999
 30
0.0
 10
-57.810699999999997
 20
99.183099999999996
 30
0.0
 10
-57.810699999999997
 20
97.555000000000007
 30
0.0
 10
-57.810699999999997
 20
97.555000000000007
 30
0.0
 10
-57.810699999999997
 20
95.826700000000002
 30
0.0
 10
-58.823799999999999
 20
94.098399999999998
 30
0.0
 10
-60.255600000000001
 20
92.370199999999997
 30
0.0
 10
-60.255600000000001
 20
92.370199999999997
 30
0.0
 10
-59.719200000000001
 20
92.4114
 30
0.0
 10
-59.173000000000002
 20
92.343400000000003
 30
0.0
 10
-58.652500000000003
 20
92.160399999999996
 30
0.0
 10
-58.652500000000003
 20
92.160399999999996
 30
0.0
 10
-58.123399999999997
 20
92.002600000000001
 30
0.0
 10
-57.640599999999999
 20
91.736500000000007
 30
0.0
 10
-57.230600000000003
 20
91.387500000000003
 30
0.0
 10
-57.230600000000003
 20
91.387500000000003
 30
0.0
 10
-57.3735
 20
93.627200000000002
 30
0.0
 10
-57.177100000000003
 20
95.620800000000003
 30
0.0
 10
-56.161099999999998
 20
97.019199999999998
 30
0.0
 10
-56.161099999999998
 20
97.019199999999998
 30
0.0
 10
-55.204000000000001
 20
98.336200000000005
 30
0.0
 10
-53.3583
 20
98.628500000000003
 30
0.0
 10
-52.0411
 20
97.671599999999998
 30
0.0
 10
-52.0411
 20
97.671599999999998
 30
0.0
 10
-51.869999999999997
 20
97.547200000000004
 30
0.0
 10
-51.720100000000002
 20
97.419300000000007
 30
0.0
 10
-51.589399999999998
 20
97.287099999999995
 30
0.0
 10
-51.589399999999998
 20
97.287099999999995
 30
0.0
 10
-51.740699999999997
 20
99.112399999999994
 30
0.0
 10
-51.629399999999997
 20
100.7474
 30
0.0
 10
-50.813400000000001
 20
101.8704
 30
0.0
 10
-50.813400000000001
 20
101.8704
 30
0.0
 10
-50.261600000000001
 20
102.63
 30
0.0
 10
-49.315899999999999
 20
102.9348
 30
0.0
 10
-48.459099999999999
 20
102.70910000000001
 30
0.0
 10
-48.459099999999999
 20
102.70910000000001
 30
0.0
 10
-52.117899999999999
 20
104.8509
 30
0.0
 10
-56.266500000000001
 20
106.246
 30
0.0
 10
-60.695799999999998
 20
106.685
 30
0.0
 10
-60.695799999999998
 20
106.685
 30
0.0
 10
-59.870800000000003
 20
106.36369999999999
 30
0.0
 10
-59.285499999999999
 20
105.56140000000001
 30
0.0
 10
-59.285499999999999
 20
104.623
 30
0.0
 10
-59.285499999999999
 20
104.623
 30
0.0
 10
-59.285499999999999
 20
103.235
 30
0.0
 10
-60.156700000000001
 20
101.8468
 30
0.0
 10
-61.351799999999997
 20
100.45910000000001
 30
0.0
  0
SPLINE
  5
35
100
AcDbEntity
  8
RÚteg 1
 62
     7
100
AcDbSpline
210
0.0
220
0.0
230
1.0
 70
     1
 71
     3
 72
    16
 73
    12
 74
     0
 42
0.0000000001
 43
0.0000000001
 40
0.0
 40
0.0
 40
0.0
 40
0.0
 40
0.3333333333333333
 40
0.3333333333333333
 40
0.3333333333333333
 40
0.3333333333333333
 40
0.6666666666666666
 40
0.6666666666666666
 40
0.6666666666666666
 40
0.6666666666666666
 40
1.0
 40
1.0
 40
1.0
 40
1.0
 10
-47.335099999999997
 20
102.01909999999999
 30
0.0
 10
-46.796900000000001
 20
101.4365
 30
0.0
 10
-46.740400000000001
 20
100.73139999999999
 30
0.0
 10
-46.908900000000003
 20
99.717100000000002
 30
0.0
 10
-46.908900000000003
 20
99.717100000000002
 30
0.0
 10
-46.001800000000003
 20
100.188
 30
0.0
 10
-45.316699999999997
 20
100.35339999999999
 30
0.0
 10
-44.600999999999999
 20
100.0294
 30
0.0
 10
-44.600999999999999
 20
100.0294
 30
0.0
 10
-45.473399999999998
 20
100.7415
 30
0.0
 10
-46.385800000000003
 20
101.4062
 30
0.0
 10
-47.335099999999997
 20
102.01909999999999
 30
0.0
  0
SPLINE
  5
36
100
AcDbEntity
  8
RÚteg 1
 62
     7
100
AcDbSpline
210
0.0
220
0.0
230
1.0
 70
     1
 71
     3
 72
    56
 73
    52
 74
     0
 42
0.0000000001
 43
0.0000000001
 40
0.0
 40
0.0
 40
0.0
 40
0.0
 40
0.0769230769230769
 40
0.0769230769230769
 40
0.0769230769230769
 40
0.0769230769230769
 40
0.1538461538461539
 40
0.1538461538461539
 40
0.1538461538461539
 40
0.1538461538461539
 40
0.2307692307692308
 40
0.2307692307692308
 40
0.2307692307692308
 40
0.2307692307692308
 40
0.3076923076923077
 40
0.3076923076923077
 40
0.3076923076923077
 40
0.3076923076923077
 40
0.3846153846153846
 40
0.3846153846153846
 40
0.3846153846153846
 40
0.3846153846153846
 40
0.4615384615384616
 40
0.4615384615384616
 40
0.4615384615384616
 40
0.4615384615384616
 40
0.5384615384615386
 40
0.5384615384615386
 40
0.5384615384615386
 40
0.5384615384615386
 40
0.6153846153846154
 40
0.6153846153846154
 40
0.6153846153846154
 40
0.6153846153846154
 40
0.6923076923076923
 40
0.6923076923076923
 40
0.6923076923076923
 40
0.6923076923076923
 40
0.7692307692307692
 40
0.7692307692307692
 40
0.7692307692307692
 40
0.7692307692307692
 40
0.846153846153846
 40
0.846153846153846
 40
0.846153846153846
 40
0.846153846153846
 40
0.9230769230769229
 40
0.9230769230769229
 40
0.9230769230769229
 40
0.9230769230769229
 40
1.0
 40
1.0
 40
1.0
 40
1.0
 10
-43.574599999999997
 20
99.152100000000004
 30
0.0
 10
-43.104900000000001
 20
98.408500000000004
 30
0.0
 10
-43.106499999999997
 20
97.423299999999998
 30
0.0
 10
-43.654499999999999
 20
96.6691
 30
0.0
 10
-43.654499999999999
 20
96.6691
 30
0.0
 10
-44.470500000000001
 20
95.546000000000006
 30
0.0
 10
-45.991
 20
94.935100000000006
 30
0.0
 10
-47.773800000000001
 20
94.514899999999997
 30
0.0
 10
-47.773800000000001
 20
94.514899999999997
 30
0.0
 10
-47.607700000000001
 20
94.431399999999996
 30
0.0
 10
-47.439900000000002
 20
94.328599999999994
 30
0.0
 10
-47.268500000000003
 20
94.204099999999997
 30
0.0
 10
-47.268500000000003
 20
94.204099999999997
 30
0.0
 10
-45.951300000000003
 20
93.247299999999996
 30
0.0
 10
-45.658900000000003
 20
91.401200000000003
 30
0.0
 10
-46.616
 20
90.084100000000007
 30
0.0
 10
-46.616
 20
90.084100000000007
 30
0.0
 10
-47.631700000000002
 20
88.685900000000004
 30
0.0
 10
-49.467100000000002
 20
87.883099999999999
 30
0.0
 10
-51.641599999999997
 20
87.326499999999996
 30
0.0
 10
-51.641599999999997
 20
87.326499999999996
 30
0.0
 10
-51.183100000000003
 20
87.044399999999996
 30
0.0
 10
-50.780999999999999
 20
86.667900000000003
 30
0.0
 10
-50.467399999999998
 20
86.2136
 30
0.0
 10
-50.467399999999998
 20
86.2136
 30
0.0
 10
-50.1325
 20
85.775099999999995
 30
0.0
 10
-49.898800000000001
 20
85.276300000000006
 30
0.0
 10
-49.772199999999998
 20
84.753399999999999
 30
0.0
 10
-49.772199999999998
 20
84.753399999999999
 30
0.0
 10
-48.571100000000001
 20
86.6494
 30
0.0
 10
-47.240099999999998
 20
88.146900000000002
 30
0.0
 10
-45.596299999999999
 20
88.680999999999997
 30
0.0
 10
-45.596299999999999
 20
88.680999999999997
 30
0.0
 10
-44.047800000000002
 20
89.183899999999994
 30
0.0
 10
-42.3827
 20
88.335499999999996
 30
0.0
 10
-41.8797
 20
86.787000000000006
 30
0.0
 10
-41.8797
 20
86.787000000000006
 30
0.0
 10
-41.814399999999999
 20
86.585899999999995
 30
0.0
 10
-41.7682
 20
86.394300000000001
 30
0.0
 10
-41.740299999999998
 20
86.210499999999996
 30
0.0
 10
-41.740299999999998
 20
86.210499999999996
 30
0.0
 10
-40.7898
 20
87.7761
 30
0.0
 10
-39.738799999999998
 20
89.033600000000007
 30
0.0
 10
-38.418599999999998
 20
89.462500000000006
 30
0.0
 10
-38.418599999999998
 20
89.462500000000006
 30
0.0
 10
-37.521999999999998
 20
89.753600000000006
 30
0.0
 10
-36.573599999999999
 20
89.440899999999999
 30
0.0
 10
-36.014000000000003
 20
88.748999999999995
 30
0.0
 10
-36.014000000000003
 20
88.748999999999995
 30
0.0
 10
-37.770499999999998
 20
92.742500000000007
 30
0.0
 10
-40.363999999999997
 20
96.284899999999993
 30
0.0
 10
-43.574599999999997
 20
99.152100000000004
 30
0.0
  0
SPLINE
  5
37
100
AcDbEntity
  8
RÚteg 1
 62
     7
100
AcDbSpline
210
0.0
220
0.0
230
1.0
 70
     1
 71
     3
 72
    16
 73
    12
 74
     0
 42
0.0000000001
 43
0.0000000001
 40
0.0
 40
0.0
 40
0.0
 40
0.0
 40
0.3333333333333333
 40
0.3333333333333333
 40
0.3333333333333333
 40
0.3333333333333333
 40
0.6666666666666666
 40
0.6666666666666666
 40
0.6666666666666666
 40
0.6666666666666666
 40
1.0
 40
1.0
 40
1.0
 40
1.0
 10
-35.519399999999997
 20
87.556799999999996
 30
0.0
 10
-35.418399999999998
 20
86.760000000000005
 30
0.0
 10
-35.787199999999999
 20
86.1524
 30
0.0
 10
-36.525399999999998
 20
85.4255
 30
0.0
 10
-36.525399999999998
 20
85.4255
 30
0.0
 10
-35.501300000000001
 20
85.271100000000004
 30
0.0
 10
-34.846299999999999
 20
84.997
 30
0.0
 10
-34.459499999999998
 20
84.294200000000004
 30
0.0
 10
-34.459499999999998
 20
84.294200000000004
 30
0.0
 10
-34.752400000000002
 20
85.408100000000005
 30
0.0
 10
-35.1066
 20
86.497
 30
0.0
 10
-35.519399999999997
 20
87.556799999999996
 30
0.0
  0
SPLINE
  5
38
100
AcDbEntity
  8
RÚteg 1
 62
     7
100
AcDbSpline
210
0.0
220
0.0
230
1.0
 70
     1
 71
     3
 72
    60
 73
    56
 74
     0
 42
0.0000000001
 43
0.0000000001
 40
0.0
 40
0.0
 40
0.0
 40
0.0
 40
0.0714285714285714
 40
0.0714285714285714
 40
0.0714285714285714
 40
0.0714285714285714
 40
0.1428571428571429
 40
0.1428571428571429
 40
0.1428571428571429
 40
0.1428571428571429
 40
0.2142857142857143
 40
0.2142857142857143
 40
0.2142857142857143
 40
0.2142857142857143
 40
0.2857142857142857
 40
0.2857142857142857
 40
0.2857142857142857
 40
0.2857142857142857
 40
0.3571428571428571
 40
0.3571428571428571
 40
0.3571428571428571
 40
0.3571428571428571
 40
0.4285714285714285
 40
0.4285714285714285
 40
0.4285714285714285
 40
0.4285714285714285
 40
0.4999999999999999
 40
0.4999999999999999
 40
0.4999999999999999
 40
0.4999999999999999
 40
0.5714285714285713
 40
0.5714285714285713
 40
0.5714285714285713
 40
0.5714285714285713
 40
0.6428571428571427
 40
0.6428571428571427
 40
0.6428571428571427
 40
0.6428571428571427
 40
0.7142857142857141
 40
0.7142857142857141
 40
0.7142857142857141
 40
0.7142857142857141
 40
0.7857142857142855
 40
0.7857142857142855
 40
0.7857142857142855
 40
0.7857142857142855
 40
0.8571428571428569
 40
0.8571428571428569
 40
0.8571428571428569
 40
0.8571428571428569
 40
0.9285714285714283
 40
0.9285714285714283
 40
0.9285714285714283
 40
0.9285714285714283
 40
1.0
 40
1.0
 40
1.0
 40
1.0
 10
-34.158200000000001
 20
83.034400000000005
 30
0.0
 10
-34.205500000000001
 20
82.146699999999996
 30
0.0
 10
-34.788400000000003
 20
81.337500000000006
 30
0.0
 10
-35.6843
 20
81.046499999999995
 30
0.0
 10
-35.6843
 20
81.046499999999995
 30
0.0
 10
-37.004300000000001
 20
80.617699999999999
 30
0.0
 10
-38.593699999999998
 20
81.017099999999999
 30
0.0
 10
-40.283000000000001
 20
81.724699999999999
 30
0.0
 10
-40.283000000000001
 20
81.724699999999999
 30
0.0
 10
-40.197400000000002
 20
81.560000000000002
 30
0.0
 10
-40.122100000000003
 20
81.377799999999993
 30
0.0
 10
-40.056699999999999
 20
81.176599999999993
 30
0.0
 10
-40.056699999999999
 20
81.176599999999993
 30
0.0
 10
-39.553600000000003
 20
79.628
 30
0.0
 10
-40.402000000000001
 20
77.962900000000005
 30
0.0
 10
-41.950400000000002
 20
77.459900000000005
 30
0.0
 10
-41.950400000000002
 20
77.459900000000005
 30
0.0
 10
-43.594299999999997
 20
76.925700000000006
 30
0.0
 10
-45.550899999999999
 20
77.355099999999993
 30
0.0
 10
-47.6372
 20
78.183000000000007
 30
0.0
 10
-47.6372
 20
78.183000000000007
 30
0.0
 10
-47.432299999999998
 20
77.685299999999998
 30
0.0
 10
-47.328200000000002
 20
77.144499999999994
 30
0.0
 10
-47.341500000000003
 20
76.592699999999994
 30
0.0
 10
-47.341500000000003
 20
76.592699999999994
 30
0.0
 10
-47.328000000000003
 20
76.040899999999993
 30
0.0
 10
-47.432400000000001
 20
75.499799999999993
 30
0.0
 10
-47.6374
 20
75.002099999999999
 30
0.0
 10
-47.6374
 20
75.002099999999999
 30
0.0
 10
-45.551400000000001
 20
75.830200000000005
 30
0.0
 10
-43.594299999999997
 20
76.259399999999999
 30
0.0
 10
-41.950400000000002
 20
75.725499999999997
 30
0.0
 10
-41.950400000000002
 20
75.725499999999997
 30
0.0
 10
-40.402000000000001
 20
75.222099999999998
 30
0.0
 10
-39.553600000000003
 20
73.557199999999995
 30
0.0
 10
-40.056699999999999
 20
72.008799999999994
 30
0.0
 10
-40.056699999999999
 20
72.008799999999994
 30
0.0
 10
-40.122100000000003
 20
71.807500000000005
 30
0.0
 10
-40.197400000000002
 20
71.625299999999996
 30
0.0
 10
-40.283000000000001
 20
71.460300000000004
 30
0.0
 10
-40.283000000000001
 20
71.460300000000004
 30
0.0
 10
-38.593699999999998
 20
72.168000000000006
 30
0.0
 10
-37.004300000000001
 20
72.567400000000006
 30
0.0
 10
-35.6843
 20
72.1387
 30
0.0
 10
-35.6843
 20
72.1387
 30
0.0
 10
-34.788400000000003
 20
71.8476
 30
0.0
 10
-34.205500000000001
 20
71.038499999999999
 30
0.0
 10
-34.158200000000001
 20
70.150800000000004
 30
0.0
 10
-34.158200000000001
 20
70.150800000000004
 30
0.0
 10
-33.707799999999999
 20
72.227000000000004
 30
0.0
 10
-33.468200000000003
 20
74.381799999999998
 30
0.0
 10
-33.468200000000003
 20
76.592699999999994
 30
0.0
 10
-33.468200000000003
 20
76.592699999999994
 30
0.0
 10
-33.468200000000003
 20
78.803399999999996
 30
0.0
 10
-33.707299999999996
 20
80.958699999999993
 30
0.0
 10
-34.158200000000001
 20
83.034400000000005
 30
0.0
  0
SPLINE
  5
39
100
AcDbEntity
  8
RÚteg 1
 62
     7
100
AcDbSpline
210
0.0
220
0.0
230
1.0
 70
     1
 71
     3
 72
    16
 73
    12
 74
     0
 42
0.0000000001
 43
0.0000000001
 40
0.0
 40
0.0
 40
0.0
 40
0.0
 40
0.3333333333333333
 40
0.3333333333333333
 40
0.3333333333333333
 40
0.3333333333333333
 40
0.6666666666666666
 40
0.6666666666666666
 40
0.6666666666666666
 40
0.6666666666666666
 40
1.0
 40
1.0
 40
1.0
 40
1.0
 10
-34.459499999999998
 20
68.891400000000004
 30
0.0
 10
-34.846299999999999
 20
68.188400000000001
 30
0.0
 10
-35.501300000000001
 20
67.914100000000005
 30
0.0
 10
-36.525399999999998
 20
67.759900000000002
 30
0.0
 10
-36.525399999999998
 20
67.759900000000002
 30
0.0
 10
-35.786900000000003
 20
67.032499999999999
 30
0.0
 10
-35.418399999999998
 20
66.425299999999993
 30
0.0
 10
-35.519399999999997
 20
65.628500000000003
 30
0.0
 10
-35.519399999999997
 20
65.628500000000003
 30
0.0
 10
-35.1068
 20
66.688500000000005
 30
0.0
 10
-34.752200000000002
 20
67.777299999999997
 30
0.0
 10
-34.459499999999998
 20
68.891400000000004
 30
0.0
  0
SPLINE
  5
3A
100
AcDbEntity
  8
RÚteg 1
 62
     7
100
AcDbSpline
210
0.0
220
0.0
230
1.0
 70
     1
 71
     3
 72
    56
 73
    52
 74
     0
 42
0.0000000001
 43
0.0000000001
 40
0.0
 40
0.0
 40
0.0
 40
0.0
 40
0.0769230769230769
 40
0.0769230769230769
 40
0.0769230769230769
 40
0.0769230769230769
 40
0.1538461538461539
 40
0.1538461538461539
 40
0.1538461538461539
 40
0.1538461538461539
 40
0.2307692307692308
 40
0.2307692307692308
 40
0.2307692307692308
 40
0.2307692307692308
 40
0.3076923076923077
 40
0.3076923076923077
 40
0.3076923076923077
 40
0.3076923076923077
 40
0.3846153846153846
 40
0.3846153846153846
 40
0.3846153846153846
 40
0.3846153846153846
 40
0.4615384615384616
 40
0.4615384615384616
 40
0.4615384615384616
 40
0.4615384615384616
 40
0.5384615384615386
 40
0.5384615384615386
 40
0.5384615384615386
 40
0.5384615384615386
 40
0.6153846153846154
 40
0.6153846153846154
 40
0.6153846153846154
 40
0.6153846153846154
 40
0.6923076923076923
 40
0.6923076923076923
 40
0.6923076923076923
 40
0.6923076923076923
 40
0.7692307692307692
 40
0.7692307692307692
 40
0.7692307692307692
 40
0.7692307692307692
 40
0.846153846153846
 40
0.846153846153846
 40
0.846153846153846
 40
0.846153846153846
 40
0.9230769230769229
 40
0.9230769230769229
 40
0.9230769230769229
 40
0.9230769230769229
 40
1.0
 40
1.0
 40
1.0
 40
1.0
 10
-36.014000000000003
 20
64.436599999999999
 30
0.0
 10
-36.573599999999999
 20
63.744500000000002
 30
0.0
 10
-37.521999999999998
 20
63.431399999999996
 30
0.0
 10
-38.418599999999998
 20
63.722700000000003
 30
0.0
 10
-38.418599999999998
 20
63.722700000000003
 30
0.0
 10
-39.738799999999998
 20
64.151600000000002
 30
0.0
 10
-40.789700000000003
 20
65.409000000000006
 30
0.0
 10
-41.740299999999998
 20
66.974599999999995
 30
0.0
 10
-41.740299999999998
 20
66.974599999999995
 30
0.0
 10
-41.7682
 20
66.790899999999993
 30
0.0
 10
-41.814399999999999
 20
66.599400000000003
 30
0.0
 10
-41.8797
 20
66.398200000000003
 30
0.0
 10
-41.8797
 20
66.398200000000003
 30
0.0
 10
-42.3827
 20
64.849599999999995
 30
0.0
 10
-44.047899999999998
 20
64.001099999999994
 30
0.0
 10
-45.596299999999999
 20
64.504199999999997
 30
0.0
 10
-45.596299999999999
 20
64.504199999999997
 30
0.0
 10
-47.240099999999998
 20
65.0381
 30
0.0
 10
-48.570799999999998
 20
66.535799999999995
 30
0.0
 10
-49.772199999999998
 20
68.432000000000002
 30
0.0
 10
-49.772199999999998
 20
68.432000000000002
 30
0.0
 10
-49.898800000000001
 20
67.908799999999999
 30
0.0
 10
-50.132800000000003
 20
67.409700000000001
 30
0.0
 10
-50.467799999999997
 20
66.971100000000007
 30
0.0
 10
-50.467799999999997
 20
66.971100000000007
 30
0.0
 10
-50.781300000000002
 20
66.517099999999999
 30
0.0
 10
-51.183399999999999
 20
66.140799999999999
 30
0.0
 10
-51.6419
 20
65.858699999999999
 30
0.0
 10
-51.6419
 20
65.858699999999999
 30
0.0
 10
-49.467300000000002
 20
65.302400000000006
 30
0.0
 10
-47.631900000000002
 20
64.499300000000005
 30
0.0
 10
-46.616
 20
63.100999999999999
 30
0.0
 10
-46.616
 20
63.100999999999999
 30
0.0
 10
-45.659100000000002
 20
61.783799999999999
 30
0.0
 10
-45.951300000000003
 20
59.938099999999999
 30
0.0
 10
-47.268500000000003
 20
58.981099999999998
 30
0.0
 10
-47.268500000000003
 20
58.981099999999998
 30
0.0
 10
-47.439599999999999
 20
58.8568
 30
0.0
 10
-47.607700000000001
 20
58.753700000000002
 30
0.0
 10
-47.773800000000001
 20
58.670400000000001
 30
0.0
 10
-47.773800000000001
 20
58.670400000000001
 30
0.0
 10
-45.991
 20
58.25
 30
0.0
 10
-44.470500000000001
 20
57.639000000000003
 30
0.0
 10
-43.654499999999999
 20
56.515999999999998
 30
0.0
 10
-43.654499999999999
 20
56.515999999999998
 30
0.0
 10
-43.106499999999997
 20
55.761800000000001
 30
0.0
 10
-43.1051
 20
54.776400000000002
 30
0.0
 10
-43.574599999999997
 20
54.033000000000001
 30
0.0
 10
-43.574599999999997
 20
54.033000000000001
 30
0.0
 10
-40.364699999999999
 20
56.900799999999997
 30
0.0
 10
-37.769799999999996
 20
60.4422
 30
0.0
 10
-36.014000000000003
 20
64.436599999999999
 30
0.0
  0
SPLINE
  5
3B
100
AcDbEntity
  8
RÚteg 1
 62
     7
100
AcDbSpline
210
0.0
220
0.0
230
1.0
 70
     1
 71
     3
 72
    16
 73
    12
 74
     0
 42
0.0000000001
 43
0.0000000001
 40
0.0
 40
0.0
 40
0.0
 40
0.0
 40
0.3333333333333333
 40
0.3333333333333333
 40
0.3333333333333333
 40
0.3333333333333333
 40
0.6666666666666666
 40
0.6666666666666666
 40
0.6666666666666666
 40
0.6666666666666666
 40
1.0
 40
1.0
 40
1.0
 40
1.0
 10
-44.6006
 20
53.155999999999999
 30
0.0
 10
-45.316499999999998
 20
52.832000000000001
 30
0.0
 10
-46.001800000000003
 20
52.997199999999999
 30
0.0
 10
-46.908900000000003
 20
53.468000000000004
 30
0.0
 10
-46.908900000000003
 20
53.468000000000004
 30
0.0
 10
-46.740400000000001
 20
52.453600000000002
 30
0.0
 10
-46.796900000000001
 20
51.748800000000003
 30
0.0
 10
-47.335099999999997
 20
51.166200000000003
 30
0.0
 10
-47.335099999999997
 20
51.166200000000003
 30
0.0
 10
-46.3857
 20
51.779299999999999
 30
0.0
 10
-45.472999999999999
 20
52.4437
 30
0.0
 10
-44.6006
 20
53.155999999999999
 30
0.0
  0
SPLINE
  5
3C
100
AcDbEntity
  8
RÚteg 1
 62
     7
100
AcDbSpline
210
0.0
220
0.0
230
1.0
 70
     1
 71
     3
 72
    56
 73
    52
 74
     0
 42
0.0000000001
 43
0.0000000001
 40
0.0
 40
0.0
 40
0.0
 40
0.0
 40
0.0769230769230769
 40
0.0769230769230769
 40
0.0769230769230769
 40
0.0769230769230769
 40
0.1538461538461539
 40
0.1538461538461539
 40
0.1538461538461539
 40
0.1538461538461539
 40
0.2307692307692308
 40
0.2307692307692308
 40
0.2307692307692308
 40
0.2307692307692308
 40
0.3076923076923077
 40
0.3076923076923077
 40
0.3076923076923077
 40
0.3076923076923077
 40
0.3846153846153846
 40
0.3846153846153846
 40
0.3846153846153846
 40
0.3846153846153846
 40
0.4615384615384616
 40
0.4615384615384616
 40
0.4615384615384616
 40
0.4615384615384616
 40
0.5384615384615386
 40
0.5384615384615386
 40
0.5384615384615386
 40
0.5384615384615386
 40
0.6153846153846154
 40
0.6153846153846154
 40
0.6153846153846154
 40
0.6153846153846154
 40
0.6923076923076923
 40
0.6923076923076923
 40
0.6923076923076923
 40
0.6923076923076923
 40
0.7692307692307692
 40
0.7692307692307692
 40
0.7692307692307692
 40
0.7692307692307692
 40
0.846153846153846
 40
0.846153846153846
 40
0.846153846153846
 40
0.846153846153846
 40
0.9230769230769229
 40
0.9230769230769229
 40
0.9230769230769229
 40
0.9230769230769229
 40
1.0
 40
1.0
 40
1.0
 40
1.0
 10
-48.459000000000003
 20
50.476100000000002
 30
0.0
 10
-49.315899999999999
 20
50.250399999999999
 30
0.0
 10
-50.261699999999998
 20
50.555300000000003
 30
0.0
 10
-50.813499999999998
 20
51.314999999999998
 30
0.0
 10
-50.813499999999998
 20
51.314999999999998
 30
0.0
 10
-51.629399999999997
 20
52.437800000000003
 30
0.0
 10
-51.740600000000001
 20
54.072600000000001
 30
0.0
 10
-51.589399999999998
 20
55.898000000000003
 30
0.0
 10
-51.589399999999998
 20
55.898000000000003
 30
0.0
 10
-51.719999999999999
 20
55.765999999999998
 30
0.0
 10
-51.869999999999997
 20
55.637999999999998
 30
0.0
 10
-52.0411
 20
55.513599999999997
 30
0.0
 10
-52.0411
 20
55.513599999999997
 30
0.0
 10
-53.3583
 20
54.556600000000003
 30
0.0
 10
-55.2042
 20
54.8489
 30
0.0
 10
-56.161099999999998
 20
56.165799999999997
 30
0.0
 10
-56.161099999999998
 20
56.165799999999997
 30
0.0
 10
-57.177100000000003
 20
57.564399999999999
 30
0.0
 10
-57.3735
 20
59.558
 30
0.0
 10
-57.230600000000003
 20
61.798200000000001
 30
0.0
 10
-57.230600000000003
 20
61.798200000000001
 30
0.0
 10
-57.640900000000002
 20
61.448900000000002
 30
0.0
 10
-58.123899999999999
 20
61.183
 30
0.0
 10
-58.653100000000002
 20
61.024799999999999
 30
0.0
 10
-58.653100000000002
 20
61.024799999999999
 30
0.0
 10
-59.173400000000001
 20
60.841999999999999
 30
0.0
 10
-59.719700000000003
 20
60.774000000000001
 30
0.0
 10
-60.255800000000001
 20
60.814999999999998
 30
0.0
 10
-60.255800000000001
 20
60.814999999999998
 30
0.0
 10
-58.823799999999999
 20
59.0869
 30
0.0
 10
-57.810699999999997
 20
57.358600000000003
 30
0.0
 10
-57.810699999999997
 20
55.630099999999999
 30
0.0
 10
-57.810699999999997
 20
55.630099999999999
 30
0.0
 10
-57.8108
 20
54.002000000000002
 30
0.0
 10
-59.132100000000001
 20
52.680599999999998
 30
0.0
 10
-60.760300000000001
 20
52.680599999999998
 30
0.0
 10
-60.760300000000001
 20
52.680599999999998
 30
0.0
 10
-60.971899999999998
 20
52.680599999999998
 30
0.0
 10
-61.168399999999998
 20
52.695700000000002
 30
0.0
 10
-61.351799999999997
 20
52.726199999999999
 30
0.0
 10
-61.351799999999997
 20
52.726199999999999
 30
0.0
 10
-60.156700000000001
 20
51.338299999999997
 30
0.0
 10
-59.285499999999999
 20
49.950099999999999
 30
0.0
 10
-59.285499999999999
 20
48.561900000000001
 30
0.0
 10
-59.285499999999999
 20
48.561900000000001
 30
0.0
 10
-59.285499999999999
 20
47.623600000000003
 30
0.0
 10
-59.871000000000002
 20
46.821199999999997
 30
0.0
 10
-60.696300000000001
 20
46.500100000000003
 30
0.0
 10
-60.696300000000001
 20
46.500100000000003
 30
0.0
 10
-56.266500000000001
 20
46.939100000000003
 30
0.0
 10
-52.117899999999999
 20
48.333799999999997
 30
0.0
 10
-48.459000000000003
 20
50.476100000000002
 30
0.0
  0
SPLINE
  5
3D
100
AcDbEntity
  8
RÚteg 1
 62
     7
100
AcDbSpline
210
0.0
220
0.0
230
1.0
 70
     1
 71
     3
 72
    20
 73
    16
 74
     0
 42
0.0000000001
 43
0.0000000001
 40
0.0
 40
0.0
 40
0.0
 40
0.0
 40
0.25
 40
0.25
 40
0.25
 40
0.25
 40
0.5
 40
0.5
 40
0.5
 40
0.5
 40
0.75
 40
0.75
 40
0.75
 40
0.75
 40
1.0
 40
1.0
 40
1.0
 40
1.0
 10
-62.019599999999997
 20
46.398800000000001
 30
0.0
 10
-62.793100000000003
 20
46.555799999999998
 30
0.0
 10
-63.2517
 20
47.092199999999998
 30
0.0
 10
-63.710000000000001
 20
48.0092
 30
0.0
 10
-63.710000000000001
 20
48.0092
 30
0.0
 10
-64.168400000000005
 20
47.092199999999998
 30
0.0
 10
-64.626400000000004
 20
46.555500000000002
 30
0.0
 10
-65.399900000000002
 20
46.398600000000002
 30
0.0
 10
-65.399900000000002
 20
46.398600000000002
 30
0.0
 10
-64.840400000000002
 20
46.367699999999999
 30
0.0
 10
-64.277299999999997
 20
46.3508
 30
0.0
 10
-63.710000000000001
 20
46.3508
 30
0.0
 10
-63.710000000000001
 20
46.3508
 30
0.0
 10
-63.142499999999998
 20
46.3508
 30
0.0
 10
-62.579099999999997
 20
46.367699999999999
 30
0.0
 10
-62.019599999999997
 20
46.398800000000001
 30
0.0
  0
SPLINE
  5
3E
100
AcDbEntity
  8
RÚteg 1
 62
     7
100
AcDbSpline
210
0.0
220
0.0
230
1.0
 70
     1
 71
     3
 72
    56
 73
    52
 74
     0
 42
0.0000000001
 43
0.0000000001
 40
0.0
 40
0.0
 40
0.0
 40
0.0
 40
0.0769230769230769
 40
0.0769230769230769
 40
0.0769230769230769
 40
0.0769230769230769
 40
0.1538461538461539
 40
0.1538461538461539
 40
0.1538461538461539
 40
0.1538461538461539
 40
0.2307692307692308
 40
0.2307692307692308
 40
0.2307692307692308
 40
0.2307692307692308
 40
0.3076923076923077
 40
0.3076923076923077
 40
0.3076923076923077
 40
0.3076923076923077
 40
0.3846153846153846
 40
0.3846153846153846
 40
0.3846153846153846
 40
0.3846153846153846
 40
0.4615384615384616
 40
0.4615384615384616
 40
0.4615384615384616
 40
0.4615384615384616
 40
0.5384615384615386
 40
0.5384615384615386
 40
0.5384615384615386
 40
0.5384615384615386
 40
0.6153846153846154
 40
0.6153846153846154
 40
0.6153846153846154
 40
0.6153846153846154
 40
0.6923076923076923
 40
0.6923076923076923
 40
0.6923076923076923
 40
0.6923076923076923
 40
0.7692307692307692
 40
0.7692307692307692
 40
0.7692307692307692
 40
0.7692307692307692
 40
0.846153846153846
 40
0.846153846153846
 40
0.846153846153846
 40
0.846153846153846
 40
0.9230769230769229
 40
0.9230769230769229
 40
0.9230769230769229
 40
0.9230769230769229
 40
1.0
 40
1.0
 40
1.0
 40
1.0
 10
-66.723500000000001
 20
46.500100000000003
 30
0.0
 10
-67.549000000000007
 20
46.8215
 30
0.0
 10
-68.134500000000003
 20
47.623899999999999
 30
0.0
 10
-68.134500000000003
 20
48.561900000000001
 30
0.0
 10
-68.134500000000003
 20
48.561900000000001
 30
0.0
 10
-68.134500000000003
 20
49.950099999999999
 30
0.0
 10
-67.263300000000001
 20
51.338299999999997
 30
0.0
 10
-66.067999999999998
 20
52.726199999999999
 30
0.0
 10
-66.067999999999998
 20
52.726199999999999
 30
0.0
 10
-66.251400000000004
 20
52.695700000000002
 30
0.0
 10
-66.447900000000004
 20
52.680599999999998
 30
0.0
 10
-66.659499999999994
 20
52.680599999999998
 30
0.0
 10
-66.659499999999994
 20
52.680599999999998
 30
0.0
 10
-68.287700000000001
 20
52.680599999999998
 30
0.0
 10
-69.609300000000005
 20
54.002000000000002
 30
0.0
 10
-69.609099999999998
 20
55.630099999999999
 30
0.0
 10
-69.609099999999998
 20
55.630099999999999
 30
0.0
 10
-69.609300000000005
 20
57.358400000000003
 30
0.0
 10
-68.596199999999996
 20
59.086799999999997
 30
0.0
 10
-67.164199999999994
 20
60.814999999999998
 30
0.0
 10
-67.164199999999994
 20
60.814999999999998
 30
0.0
 10
-67.700400000000002
 20
60.773899999999998
 30
0.0
 10
-68.246399999999994
 20
60.842300000000002
 30
0.0
 10
-68.766800000000003
 20
61.024799999999999
 30
0.0
 10
-68.766800000000003
 20
61.024799999999999
 30
0.0
 10
-69.296099999999996
 20
61.1828
 30
0.0
 10
-69.778899999999993
 20
61.449300000000001
 30
0.0
 10
-70.1892
 20
61.798200000000001
 30
0.0
 10
-70.1892
 20
61.798200000000001
 30
0.0
 10
-70.046300000000002
 20
59.558100000000003
 30
0.0
 10
-70.242800000000003
 20
57.564399999999999
 30
0.0
 10
-71.258700000000005
 20
56.165799999999997
 30
0.0
 10
-71.258700000000005
 20
56.165799999999997
 30
0.0
 10
-72.216099999999997
 20
54.8489
 30
0.0
 10
-74.061499999999995
 20
54.556600000000003
 30
0.0
 10
-75.378699999999995
 20
55.513599999999997
 30
0.0
 10
-75.378699999999995
 20
55.513599999999997
 30
0.0
 10
-75.549800000000005
 20
55.637999999999998
 30
0.0
 10
-75.699799999999996
 20
55.765999999999998
 30
0.0
 10
-75.830399999999997
 20
55.898000000000003
 30
0.0
 10
-75.830399999999997
 20
55.898000000000003
 30
0.0
 10
-75.679199999999994
 20
54.072699999999998
 30
0.0
 10
-75.790400000000005
 20
52.437800000000003
 30
0.0
 10
-76.606399999999994
 20
51.314999999999998
 30
0.0
 10
-76.606399999999994
 20
51.314999999999998
 30
0.0
 10
-77.158299999999997
 20
50.555300000000003
 30
0.0
 10
-78.103700000000003
 20
50.250399999999999
 30
0.0
 10
-78.960499999999996
 20
50.475900000000003
 30
0.0
 10
-78.960499999999996
 20
50.475900000000003
 30
0.0
 10
-75.301400000000001
 20
48.334400000000002
 30
0.0
 10
-71.153300000000002
 20
46.938699999999997
 30
0.0
 10
-66.723500000000001
 20
46.500100000000003
 30
0.0
  0
SPLINE
  5
3F
100
AcDbEntity
  8
RÚteg 1
 62
     7
100
AcDbSpline
210
0.0
220
0.0
230
1.0
 70
     1
 71
     3
 72
    16
 73
    12
 74
     0
 42
0.0000000001
 43
0.0000000001
 40
0.0
 40
0.0
 40
0.0
 40
0.0
 40
0.3333333333333333
 40
0.3333333333333333
 40
0.3333333333333333
 40
0.3333333333333333
 40
0.6666666666666666
 40
0.6666666666666666
 40
0.6666666666666666
 40
0.6666666666666666
 40
1.0
 40
1.0
 40
1.0
 40
1.0
 10
-80.085099999999997
 20
51.166400000000003
 30
0.0
 10
-80.623000000000005
 20
51.748800000000003
 30
0.0
 10
-80.679500000000004
 20
52.453800000000001
 30
0.0
 10
-80.510900000000007
 20
53.468000000000004
 30
0.0
 10
-80.510900000000007
 20
53.468000000000004
 30
0.0
 10
-81.418300000000002
 20
52.997199999999999
 30
0.0
 10
-82.103300000000004
 20
52.832000000000001
 30
0.0
 10
-82.819199999999995
 20
53.155999999999999
 30
0.0
 10
-82.819199999999995
 20
53.155999999999999
 30
0.0
 10
-81.946799999999996
 20
52.443899999999999
 30
0.0
 10
-81.034400000000005
 20
51.779299999999999
 30
0.0
 10
-80.085099999999997
 20
51.166400000000003
 30
0.0
  0
SPLINE
  5
40
100
AcDbEntity
  8
RÚteg 1
 62
     7
100
AcDbSpline
210
0.0
220
0.0
230
1.0
 70
     1
 71
     3
 72
    56
 73
    52
 74
     0
 42
0.0000000001
 43
0.0000000001
 40
0.0
 40
0.0
 40
0.0
 40
0.0
 40
0.0769230769230769
 40
0.0769230769230769
 40
0.0769230769230769
 40
0.0769230769230769
 40
0.1538461538461539
 40
0.1538461538461539
 40
0.1538461538461539
 40
0.1538461538461539
 40
0.2307692307692308
 40
0.2307692307692308
 40
0.2307692307692308
 40
0.2307692307692308
 40
0.3076923076923077
 40
0.3076923076923077
 40
0.3076923076923077
 40
0.3076923076923077
 40
0.3846153846153846
 40
0.3846153846153846
 40
0.3846153846153846
 40
0.3846153846153846
 40
0.4615384615384616
 40
0.4615384615384616
 40
0.4615384615384616
 40
0.4615384615384616
 40
0.5384615384615386
 40
0.5384615384615386
 40
0.5384615384615386
 40
0.5384615384615386
 40
0.6153846153846154
 40
0.6153846153846154
 40
0.6153846153846154
 40
0.6153846153846154
 40
0.6923076923076923
 40
0.6923076923076923
 40
0.6923076923076923
 40
0.6923076923076923
 40
0.7692307692307692
 40
0.7692307692307692
 40
0.7692307692307692
 40
0.7692307692307692
 40
0.846153846153846
 40
0.846153846153846
 40
0.846153846153846
 40
0.846153846153846
 40
0.9230769230769229
 40
0.9230769230769229
 40
0.9230769230769229
 40
0.9230769230769229
 40
1.0
 40
1.0
 40
1.0
 40
1.0
 10
-83.845200000000006
 20
54.033099999999997
 30
0.0
 10
-84.314899999999994
 20
54.776400000000002
 30
0.0
 10
-84.313299999999998
 20
55.761800000000001
 30
0.0
 10
-83.765299999999996
 20
56.515999999999998
 30
0.0
 10
-83.765299999999996
 20
56.515999999999998
 30
0.0
 10
-82.949600000000004
 20
57.639000000000003
 30
0.0
 10
-81.428899999999999
 20
58.25
 30
0.0
 10
-79.646000000000001
 20
58.670400000000001
 30
0.0
 10
-79.646000000000001
 20
58.670400000000001
 30
0.0
 10
-79.812100000000001
 20
58.753500000000003
 30
0.0
 10
-79.980199999999996
 20
58.8568
 30
0.0
 10
-80.151300000000006
 20
58.981099999999998
 30
0.0
 10
-80.151300000000006
 20
58.981099999999998
 30
0.0
 10
-81.468500000000006
 20
59.938099999999999
 30
0.0
 10
-81.761099999999999
 20
61.783999999999999
 30
0.0
 10
-80.803899999999999
 20
63.100999999999999
 30
0.0
 10
-80.803899999999999
 20
63.100999999999999
 30
0.0
 10
-79.7881
 20
64.499300000000005
 30
0.0
 10
-77.952699999999993
 20
65.302300000000002
 30
0.0
 10
-75.778199999999998
 20
65.858699999999999
 30
0.0
 10
-75.778199999999998
 20
65.858699999999999
 30
0.0
 10
-76.236400000000003
 20
66.140799999999999
 30
0.0
 10
-76.638499999999993
 20
66.517399999999995
 30
0.0
 10
-76.951999999999998
 20
66.971100000000007
 30
0.0
 10
-76.951999999999998
 20
66.971100000000007
 30
0.0
 10
-77.287300000000002
 20
67.409700000000001
 30
0.0
 10
-77.521100000000004
 20
67.908799999999999
 30
0.0
 10
-77.647599999999997
 20
68.431799999999996
 30
0.0
 10
-77.647599999999997
 20
68.431799999999996
 30
0.0
 10
-78.849000000000004
 20
66.535799999999995
 30
0.0
 10
-80.179699999999997
 20
65.0381
 30
0.0
 10
-81.823499999999996
 20
64.504199999999997
 30
0.0
 10
-81.823499999999996
 20
64.504199999999997
 30
0.0
 10
-83.372100000000003
 20
64.001300000000001
 30
0.0
 10
-85.037099999999995
 20
64.849599999999995
 30
0.0
 10
-85.540099999999995
 20
66.398099999999999
 30
0.0
 10
-85.540099999999995
 20
66.398099999999999
 30
0.0
 10
-85.605400000000003
 20
66.599299999999999
 30
0.0
 10
-85.651600000000002
 20
66.790800000000004
 30
0.0
 10
-85.679500000000004
 20
66.974599999999995
 30
0.0
 10
-85.679500000000004
 20
66.974599999999995
 30
0.0
 10
-86.630099999999999
 20
65.409099999999995
 30
0.0
 10
-87.680999999999997
 20
64.151600000000002
 30
0.0
 10
-89.001199999999997
 20
63.722799999999999
 30
0.0
 10
-89.001199999999997
 20
63.722799999999999
 30
0.0
 10
-89.897800000000004
 20
63.4315
 30
0.0
 10
-90.846199999999996
 20
63.744500000000002
 30
0.0
 10
-91.405799999999999
 20
64.436599999999999
 30
0.0
 10
-91.405799999999999
 20
64.436599999999999
 30
0.0
 10
-89.649299999999997
 20
60.442799999999998
 30
0.0
 10
-87.055800000000005
 20
56.900500000000001
 30
0.0
 10
-83.845200000000006
 20
54.033099999999997
 30
0.0
  0
SPLINE
  5
41
100
AcDbEntity
  8
RÚteg 1
 62
     7
100
AcDbSpline
210
0.0
220
0.0
230
1.0
 70
     1
 71
     3
 72
    16
 73
    12
 74
     0
 42
0.0000000001
 43
0.0000000001
 40
0.0
 40
0.0
 40
0.0
 40
0.0
 40
0.3333333333333333
 40
0.3333333333333333
 40
0.3333333333333333
 40
0.3333333333333333
 40
0.6666666666666666
 40
0.6666666666666666
 40
0.6666666666666666
 40
0.6666666666666666
 40
1.0
 40
1.0
 40
1.0
 40
1.0
 10
-91.900499999999994
 20
65.628600000000006
 30
0.0
 10
-92.001400000000004
 20
66.425399999999996
 30
0.0
 10
-91.632599999999996
 20
67.032499999999999
 30
0.0
 10
-90.894400000000005
 20
67.759900000000002
 30
0.0
 10
-90.894400000000005
 20
67.759900000000002
 30
0.0
 10
-91.918499999999995
 20
67.914100000000005
 30
0.0
 10
-92.573499999999996
 20
68.188299999999998
 30
0.0
 10
-92.960300000000004
 20
68.891099999999994
 30
0.0
 10
-92.960300000000004
 20
68.891099999999994
 30
0.0
 10
-92.667299999999997
 20
67.777299999999997
 30
0.0
 10
-92.313199999999995
 20
66.688400000000001
 30
0.0
 10
-91.900499999999994
 20
65.628600000000006
 30
0.0
  0
SPLINE
  5
42
100
AcDbEntity
  8
RÚteg 1
 62
     7
100
AcDbSpline
210
0.0
220
0.0
230
1.0
 70
     1
 71
     3
 72
    60
 73
    56
 74
     0
 42
0.0000000001
 43
0.0000000001
 40
0.0
 40
0.0
 40
0.0
 40
0.0
 40
0.0714285714285714
 40
0.0714285714285714
 40
0.0714285714285714
 40
0.0714285714285714
 40
0.1428571428571429
 40
0.1428571428571429
 40
0.1428571428571429
 40
0.1428571428571429
 40
0.2142857142857143
 40
0.2142857142857143
 40
0.2142857142857143
 40
0.2142857142857143
 40
0.2857142857142857
 40
0.2857142857142857
 40
0.2857142857142857
 40
0.2857142857142857
 40
0.3571428571428571
 40
0.3571428571428571
 40
0.3571428571428571
 40
0.3571428571428571
 40
0.4285714285714285
 40
0.4285714285714285
 40
0.4285714285714285
 40
0.4285714285714285
 40
0.4999999999999999
 40
0.4999999999999999
 40
0.4999999999999999
 40
0.4999999999999999
 40
0.5714285714285713
 40
0.5714285714285713
 40
0.5714285714285713
 40
0.5714285714285713
 40
0.6428571428571427
 40
0.6428571428571427
 40
0.6428571428571427
 40
0.6428571428571427
 40
0.7142857142857141
 40
0.7142857142857141
 40
0.7142857142857141
 40
0.7142857142857141
 40
0.7857142857142855
 40
0.7857142857142855
 40
0.7857142857142855
 40
0.7857142857142855
 40
0.8571428571428569
 40
0.8571428571428569
 40
0.8571428571428569
 40
0.8571428571428569
 40
0.9285714285714283
 40
0.9285714285714283
 40
0.9285714285714283
 40
0.9285714285714283
 40
1.0
 40
1.0
 40
1.0
 40
1.0
 10
-93.261600000000001
 20
70.1511
 30
0.0
 10
-93.214299999999994
 20
71.038700000000006
 30
0.0
 10
-92.631399999999999
 20
71.847700000000003
 30
0.0
 10
-91.735699999999994
 20
72.1387
 30
0.0
 10
-91.735699999999994
 20
72.1387
 30
0.0
 10
-90.415599999999998
 20
72.567400000000006
 30
0.0
 10
-88.826099999999997
 20
72.168000000000006
 30
0.0
 10
-87.136799999999994
 20
71.460300000000004
 30
0.0
 10
-87.136799999999994
 20
71.460300000000004
 30
0.0
 10
-87.222399999999993
 20
71.625299999999996
 30
0.0
 10
-87.297700000000006
 20
71.807299999999998
 30
0.0
 10
-87.363100000000003
 20
72.008799999999994
 30
0.0
 10
-87.363100000000003
 20
72.008799999999994
 30
0.0
 10
-87.866200000000006
 20
73.557199999999995
 30
0.0
 10
-87.017899999999997
 20
75.222300000000004
 30
0.0
 10
-85.469399999999993
 20
75.725499999999997
 30
0.0
 10
-85.469399999999993
 20
75.725499999999997
 30
0.0
 10
-83.825500000000005
 20
76.259399999999999
 30
0.0
 10
-81.868899999999996
 20
75.830100000000002
 30
0.0
 10
-79.782600000000002
 20
75.002300000000005
 30
0.0
 10
-79.782600000000002
 20
75.002300000000005
 30
0.0
 10
-79.9876
 20
75.499899999999997
 30
0.0
 10
-80.091700000000003
 20
76.0411
 30
0.0
 10
-80.078400000000002
 20
76.592699999999994
 30
0.0
 10
-80.078400000000002
 20
76.592699999999994
 30
0.0
 10
-80.091800000000006
 20
77.144499999999994
 30
0.0
 10
-79.987499999999997
 20
77.685299999999998
 30
0.0
 10
-79.782600000000002
 20
78.183000000000007
 30
0.0
 10
-79.782600000000002
 20
78.183000000000007
 30
0.0
 10
-81.868899999999996
 20
77.355099999999993
 30
0.0
 10
-83.825500000000005
 20
76.925700000000006
 30
0.0
 10
-85.469399999999993
 20
77.459900000000005
 30
0.0
 10
-85.469399999999993
 20
77.459900000000005
 30
0.0
 10
-87.017899999999997
 20
77.963099999999997
 30
0.0
 10
-87.866200000000006
 20
79.628
 30
0.0
 10
-87.363100000000003
 20
81.176400000000001
 30
0.0
 10
-87.363100000000003
 20
81.176400000000001
 30
0.0
 10
-87.297700000000006
 20
81.377799999999993
 30
0.0
 10
-87.222399999999993
 20
81.559700000000007
 30
0.0
 10
-87.136799999999994
 20
81.724699999999999
 30
0.0
 10
-87.136799999999994
 20
81.724699999999999
 30
0.0
 10
-88.826099999999997
 20
81.017099999999999
 30
0.0
 10
-90.415599999999998
 20
80.617699999999999
 30
0.0
 10
-91.735699999999994
 20
81.046499999999995
 30
0.0
 10
-91.735699999999994
 20
81.046499999999995
 30
0.0
 10
-92.631399999999999
 20
81.337599999999995
 30
0.0
 10
-93.214200000000005
 20
82.1464
 30
0.0
 10
-93.261600000000001
 20
83.034099999999995
 30
0.0
 10
-93.261600000000001
 20
83.034099999999995
 30
0.0
 10
-93.712000000000003
 20
80.958100000000002
 30
0.0
 10
-93.951599999999999
 20
78.803399999999996
 30
0.0
 10
-93.951599999999999
 20
76.592699999999994
 30
0.0
 10
-93.951599999999999
 20
76.592699999999994
 30
0.0
 10
-93.951599999999999
 20
74.381799999999998
 30
0.0
 10
-93.712500000000006
 20
72.227000000000004
 30
0.0
 10
-93.261600000000001
 20
70.1511
 30
0.0
  0
SPLINE
  5
43
100
AcDbEntity
  8
RÚteg 1
 62
     7
100
AcDbSpline
210
0.0
220
0.0
230
1.0
 70
     1
 71
     3
 72
    16
 73
    12
 74
     0
 42
0.0000000001
 43
0.0000000001
 40
0.0
 40
0.0
 40
0.0
 40
0.0
 40
0.3333333333333333
 40
0.3333333333333333
 40
0.3333333333333333
 40
0.3333333333333333
 40
0.6666666666666666
 40
0.6666666666666666
 40
0.6666666666666666
 40
0.6666666666666666
 40
1.0
 40
1.0
 40
1.0
 40
1.0
 10
-92.959900000000005
 20
84.294600000000003
 30
0.0
 10
-92.573300000000003
 20
84.997299999999996
 30
0.0
 10
-91.918300000000002
 20
85.271100000000004
 30
0.0
 10
-90.894400000000005
 20
85.4255
 30
0.0
 10
-90.894400000000005
 20
85.4255
 30
0.0
 10
-91.632599999999996
 20
86.1524
 30
0.0
 10
-92.001400000000004
 20
86.760000000000005
 30
0.0
 10
-91.900499999999994
 20
87.556600000000003
 30
0.0
 10
-91.900499999999994
 20
87.556600000000003
 30
0.0
 10
-92.313000000000002
 20
86.496799999999993
 30
0.0
 10
-92.667599999999993
 20
85.408299999999997
 30
0.0
 10
-92.959900000000005
 20
84.294600000000003
 30
0.0
  0
SPLINE
  5
44
100
AcDbEntity
  8
RÚteg 1
 62
     7
100
AcDbSpline
210
0.0
220
0.0
230
1.0
 70
     1
 71
     3
 72
    56
 73
    52
 74
     0
 42
0.0000000001
 43
0.0000000001
 40
0.0
 40
0.0
 40
0.0
 40
0.0
 40
0.0769230769230769
 40
0.0769230769230769
 40
0.0769230769230769
 40
0.0769230769230769
 40
0.1538461538461539
 40
0.1538461538461539
 40
0.1538461538461539
 40
0.1538461538461539
 40
0.2307692307692308
 40
0.2307692307692308
 40
0.2307692307692308
 40
0.2307692307692308
 40
0.3076923076923077
 40
0.3076923076923077
 40
0.3076923076923077
 40
0.3076923076923077
 40
0.3846153846153846
 40
0.3846153846153846
 40
0.3846153846153846
 40
0.3846153846153846
 40
0.4615384615384616
 40
0.4615384615384616
 40
0.4615384615384616
 40
0.4615384615384616
 40
0.5384615384615386
 40
0.5384615384615386
 40
0.5384615384615386
 40
0.5384615384615386
 40
0.6153846153846154
 40
0.6153846153846154
 40
0.6153846153846154
 40
0.6153846153846154
 40
0.6923076923076923
 40
0.6923076923076923
 40
0.6923076923076923
 40
0.6923076923076923
 40
0.7692307692307692
 40
0.7692307692307692
 40
0.7692307692307692
 40
0.7692307692307692
 40
0.846153846153846
 40
0.846153846153846
 40
0.846153846153846
 40
0.846153846153846
 40
0.9230769230769229
 40
0.9230769230769229
 40
0.9230769230769229
 40
0.9230769230769229
 40
1.0
 40
1.0
 40
1.0
 40
1.0
 10
-91.405699999999996
 20
88.748999999999995
 30
0.0
 10
-90.846000000000004
 20
89.440899999999999
 30
0.0
 10
-89.897800000000004
 20
89.753500000000003
 30
0.0
 10
-89.001199999999997
 20
89.462500000000006
 30
0.0
 10
-89.001199999999997
 20
89.462500000000006
 30
0.0
 10
-87.680999999999997
 20
89.0334
 30
0.0
 10
-86.630200000000002
 20
87.7761
 30
0.0
 10
-85.679500000000004
 20
86.210400000000007
 30
0.0
 10
-85.679500000000004
 20
86.210400000000007
 30
0.0
 10
-85.651600000000002
 20
86.394300000000001
 30
0.0
 10
-85.605400000000003
 20
86.585800000000006
 30
0.0
 10
-85.540099999999995
 20
86.786900000000003
 30
0.0
 10
-85.540099999999995
 20
86.786900000000003
 30
0.0
 10
-85.037099999999995
 20
88.335499999999996
 30
0.0
 10
-83.372
 20
89.184100000000001
 30
0.0
 10
-81.823499999999996
 20
88.680999999999997
 30
0.0
 10
-81.823499999999996
 20
88.680999999999997
 30
0.0
 10
-80.179699999999997
 20
88.146900000000002
 30
0.0
 10
-78.849000000000004
 20
86.6494
 30
0.0
 10
-77.647900000000007
 20
84.753399999999999
 30
0.0
 10
-77.647900000000007
 20
84.753399999999999
 30
0.0
 10
-77.521199999999993
 20
85.276499999999999
 30
0.0
 10
-77.287300000000002
 20
85.775400000000005
 30
0.0
 10
-76.952500000000001
 20
86.2136
 30
0.0
 10
-76.952500000000001
 20
86.2136
 30
0.0
 10
-76.638900000000007
 20
86.667900000000003
 30
0.0
 10
-76.236699999999999
 20
87.044399999999996
 30
0.0
 10
-75.778199999999998
 20
87.326499999999996
 30
0.0
 10
-75.778199999999998
 20
87.326499999999996
 30
0.0
 10
-77.952699999999993
 20
87.883099999999999
 30
0.0
 10
-79.7881
 20
88.685900000000004
 30
0.0
 10
-80.803899999999999
 20
90.084100000000007
 30
0.0
 10
-80.803899999999999
 20
90.084100000000007
 30
0.0
 10
-81.760900000000007
 20
91.401200000000003
 30
0.0
 10
-81.468500000000006
 20
93.247299999999996
 30
0.0
 10
-80.151499999999999
 20
94.204099999999997
 30
0.0
 10
-80.151499999999999
 20
94.204099999999997
 30
0.0
 10
-79.980199999999996
 20
94.328599999999994
 30
0.0
 10
-79.812200000000004
 20
94.431399999999996
 30
0.0
 10
-79.646000000000001
 20
94.514899999999997
 30
0.0
 10
-79.646000000000001
 20
94.514899999999997
 30
0.0
 10
-81.428799999999995
 20
94.935100000000006
 30
0.0
 10
-82.949600000000004
 20
95.546000000000006
 30
0.0
 10
-83.765299999999996
 20
96.6691
 30
0.0
 10
-83.765299999999996
 20
96.6691
 30
0.0
 10
-84.313299999999998
 20
97.423299999999998
 30
0.0
 10
-84.314899999999994
 20
98.408500000000004
 30
0.0
 10
-83.845600000000005
 20
99.152000000000001
 30
0.0
 10
-83.845600000000005
 20
99.152000000000001
 30
0.0
 10
-87.055300000000003
 20
96.284400000000005
 30
0.0
 10
-89.649799999999999
 20
92.742999999999995
 30
0.0
 10
-91.405699999999996
 20
88.748999999999995
 30
0.0
  0
SPLINE
  5
45
100
AcDbEntity
  8
RÚteg 1
 62
     7
100
AcDbSpline
210
0.0
220
0.0
230
1.0
 70
     1
 71
     3
 72
    16
 73
    12
 74
     0
 42
0.0000000001
 43
0.0000000001
 40
0.0
 40
0.0
 40
0.0
 40
0.0
 40
0.3333333333333333
 40
0.3333333333333333
 40
0.3333333333333333
 40
0.3333333333333333
 40
0.6666666666666666
 40
0.6666666666666666
 40
0.6666666666666666
 40
0.6666666666666666
 40
1.0
 40
1.0
 40
1.0
 40
1.0
 10
-82.818700000000007
 20
100.0294
 30
0.0
 10
-82.102800000000002
 20
100.35339999999999
 30
0.0
 10
-81.418000000000006
 20
100.188
 30
0.0
 10
-80.510900000000007
 20
99.717100000000002
 30
0.0
 10
-80.510900000000007
 20
99.717100000000002
 30
0.0
 10
-80.679500000000004
 20
100.73139999999999
 30
0.0
 10
-80.623099999999994
 20
101.4362
 30
0.0
 10
-80.084999999999994
 20
102.0187
 30
0.0
 10
-80.084999999999994
 20
102.0187
 30
0.0
 10
-81.034099999999995
 20
101.4061
 30
0.0
 10
-81.946799999999996
 20
100.7415
 30
0.0
 10
-82.818700000000007
 20
100.0294
 30
0.0
  0
SPLINE
  5
46
100
AcDbEntity
  8
RÚteg 1
 62
     7
100
AcDbSpline
210
0.0
220
0.0
230
1.0
 70
     1
 71
     3
 72
    56
 73
    52
 74
     0
 42
0.0000000001
 43
0.0000000001
 40
0.0
 40
0.0
 40
0.0
 40
0.0
 40
0.0769230769230769
 40
0.0769230769230769
 40
0.0769230769230769
 40
0.0769230769230769
 40
0.1538461538461539
 40
0.1538461538461539
 40
0.1538461538461539
 40
0.1538461538461539
 40
0.2307692307692308
 40
0.2307692307692308
 40
0.2307692307692308
 40
0.2307692307692308
 40
0.3076923076923077
 40
0.3076923076923077
 40
0.3076923076923077
 40
0.3076923076923077
 40
0.3846153846153846
 40
0.3846153846153846
 40
0.3846153846153846
 40
0.3846153846153846
 40
0.4615384615384616
 40
0.4615384615384616
 40
0.4615384615384616
 40
0.4615384615384616
 40
0.5384615384615386
 40
0.5384615384615386
 40
0.5384615384615386
 40
0.5384615384615386
 40
0.6153846153846154
 40
0.6153846153846154
 40
0.6153846153846154
 40
0.6153846153846154
 40
0.6923076923076923
 40
0.6923076923076923
 40
0.6923076923076923
 40
0.6923076923076923
 40
0.7692307692307692
 40
0.7692307692307692
 40
0.7692307692307692
 40
0.7692307692307692
 40
0.846153846153846
 40
0.846153846153846
 40
0.846153846153846
 40
0.846153846153846
 40
0.9230769230769229
 40
0.9230769230769229
 40
0.9230769230769229
 40
0.9230769230769229
 40
1.0
 40
1.0
 40
1.0
 40
1.0
 10
-78.960800000000006
 20
102.70910000000001
 30
0.0
 10
-78.103899999999996
 20
102.93470000000001
 30
0.0
 10
-77.158199999999994
 20
102.63
 30
0.0
 10
-76.606399999999994
 20
101.87009999999999
 30
0.0
 10
-76.606399999999994
 20
101.87009999999999
 30
0.0
 10
-75.790400000000005
 20
100.7473
 30
0.0
 10
-75.679199999999994
 20
99.112399999999994
 30
0.0
 10
-75.830399999999997
 20
97.286900000000003
 30
0.0
 10
-75.830399999999997
 20
97.286900000000003
 30
0.0
 10
-75.699799999999996
 20
97.419200000000004
 30
0.0
 10
-75.549899999999994
 20
97.5471
 30
0.0
 10
-75.378699999999995
 20
97.671599999999998
 30
0.0
 10
-75.378699999999995
 20
97.671599999999998
 30
0.0
 10
-74.061499999999995
 20
98.628500000000003
 30
0.0
 10
-72.215599999999995
 20
98.336200000000005
 30
0.0
 10
-71.258700000000005
 20
97.019199999999998
 30
0.0
 10
-71.258700000000005
 20
97.019199999999998
 30
0.0
 10
-70.242900000000006
 20
95.620800000000003
 30
0.0
 10
-70.046300000000002
 20
93.627200000000002
 30
0.0
 10
-70.1892
 20
91.387500000000003
 30
0.0
 10
-70.1892
 20
91.387500000000003
 30
0.0
 10
-69.778899999999993
 20
91.736500000000007
 30
0.0
 10
-69.296300000000002
 20
92.002600000000001
 30
0.0
 10
-68.767300000000006
 20
92.160399999999996
 30
0.0
 10
-68.767300000000006
 20
92.160399999999996
 30
0.0
 10
-68.246799999999993
 20
92.343400000000003
 30
0.0
 10
-67.700599999999994
 20
92.4114
 30
0.0
 10
-67.164299999999997
 20
92.370199999999997
 30
0.0
 10
-67.164299999999997
 20
92.370199999999997
 30
0.0
 10
-68.596199999999996
 20
94.098399999999998
 30
0.0
 10
-69.609099999999998
 20
95.826700000000002
 30
0.0
 10
-69.609099999999998
 20
97.555000000000007
 30
0.0
 10
-69.609099999999998
 20
97.555000000000007
 30
0.0
 10
-69.609099999999998
 20
99.183099999999996
 30
0.0
 10
-68.287700000000001
 20
100.50449999999999
 30
0.0
 10
-66.659499999999994
 20
100.50449999999999
 30
0.0
 10
-66.659499999999994
 20
100.50449999999999
 30
0.0
 10
-66.447900000000004
 20
100.50449999999999
 30
0.0
 10
-66.251599999999996
 20
100.4892
 30
0.0
 10
-66.067999999999998
 20
100.45910000000001
 30
0.0
 10
-66.067999999999998
 20
100.45910000000001
 30
0.0
 10
-67.263300000000001
 20
101.8468
 30
0.0
 10
-68.134299999999996
 20
103.235
 30
0.0
 10
-68.134299999999996
 20
104.623
 30
0.0
 10
-68.134299999999996
 20
104.623
 30
0.0
 10
-68.134299999999996
 20
105.56140000000001
 30
0.0
 10
-67.549000000000007
 20
106.3634
 30
0.0
 10
-66.724000000000004
 20
106.685
 30
0.0
 10
-66.724000000000004
 20
106.685
 30
0.0
 10
-71.153300000000002
 20
106.246
 30
0.0
 10
-75.301900000000003
 20
104.8511
 30
0.0
 10
-78.960800000000006
 20
102.70910000000001
 30
0.0
  0
SPLINE
  5
47
100
AcDbEntity
  8
RÚteg 1
 62
     7
100
AcDbSpline
210
0.0
220
0.0
230
1.0
 70
     1
 71
     3
 72
    20
 73
    16
 74
     0
 42
0.0000000001
 43
0.0000000001
 40
0.0
 40
0.0
 40
0.0
 40
0.0
 40
0.25
 40
0.25
 40
0.25
 40
0.25
 40
0.5
 40
0.5
 40
0.5
 40
0.5
 40
0.75
 40
0.75
 40
0.75
 40
0.75
 40
1.0
 40
1.0
 40
1.0
 40
1.0
 10
-65.399799999999999
 20
106.7864
 30
0.0
 10
-64.626400000000004
 20
106.6294
 30
0.0
 10
-64.168099999999995
 20
106.0928
 30
0.0
 10
-63.710000000000001
 20
105.176
 30
0.0
 10
-63.710000000000001
 20
105.176
 30
0.0
 10
-63.2517
 20
106.0928
 30
0.0
 10
-62.793100000000003
 20
106.6294
 30
0.0
 10
-62.020000000000003
 20
106.7864
 30
0.0
 10
-62.020000000000003
 20
106.7864
 30
0.0
 10
-62.5794
 20
106.8173
 30
0.0
 10
-63.142699999999998
 20
106.8344
 30
0.0
 10
-63.710000000000001
 20
106.8344
 30
0.0
 10
-63.710000000000001
 20
106.8344
 30
0.0
 10
-64.277199999999993
 20
106.8344
 30
0.0
 10
-64.840400000000002
 20
106.81740000000001
 30
0.0
 10
-65.399799999999999
 20
106.7864
 30
0.0
  0
ENDSEC
  0
SECTION
  2
OBJECTS
  0
DICTIONARY
  5
19
100
AcDbDictionary
280
     0
281
     1
  3
ACAD_GROUP
350
1A
  3
ACAD_MLINESTYLE
350
1B
  3
ACAD_LAYOUT
350
1E
  3
ACAD_PLOTSETTINGS
350
22
  3
ACAD_PLOTSTYLENAME
350
1F
  3
ACAD_WIPEOUT_VARS
350
23
  0
DICTIONARY
  5
1A
102
{ACAD_REACTORS
330
19
102
}
100
AcDbDictionary
280
     0
281
     1
  0
DICTIONARY
  5
1B
102
{ACAD_REACTORS
330
19
102
}
100
AcDbDictionary
280
     0
281
     1
  3
Standard
350
1C
  0
MLINESTYLE
  5
1C
102
{ACAD_REACTORS
330
1B
102
}
100
AcDbMlineStyle
  2
Standard
 70
     0
  3

 62
     0
 51
90.0
 52
90.0
 71
     2
 49
0.5
 62
   256
  6
BYLAYER
 49
-0.5
 62
   256
  6
BYLAYER
  0
ACDBDICTIONARYWDFLT
  5
1F
102
{ACAD_REACTORS
330
19
102
}
100
AcDbDictionary
281
     1
  3
Normal
350
1D
100
AcDbDictionaryWithDefault
340
1D
  0
ACDBPLACEHOLDER
  5
1D
102
{ACAD_REACTORS
330
1F
102
}
  0
LAYOUT
  5
20
102
{ACAD_REACTORS
330
1E
102
}
100
AcDbPlotSettings
  1

  2

  4

  6

 40
0.0
 41
0.0
 42
0.0
 43
0.0
 44
0.0
 45
0.0
 46
0.0
 47
0.0
 48
0.0
 49
0.0
140
0.0
141
0.0
142
1.0
143
1.0
 70
  1024
 72
     0
 73
     0
 74
     0
  7

 75
     0
147
1.0
148
0.0
149
0.0
100
AcDbLayout
  1
Model
 70
     0
 71
     0
 10
0.0
 20
0.0
 11
0.0
 21
0.0
 12
0.0
 22
0.0
 32
0.0
 14
0.0
 24
0.0
 34
0.0
 15
0.0
 25
0.0
 35
0.0
146
0.0
 13
0.0
 23
0.0
 33
0.0
 16
0.0
 26
0.0
 36
0.0
 17
0.0
 27
0.0
 37
0.0
 76
     0
330
A
331
0
345
0
346
0
  0
LAYOUT
  5
21
102
{ACAD_REACTORS
330
1E
102
}
100
AcDbPlotSettings
  1

  2

  4

  6

 40
0.0
 41
0.0
 42
0.0
 43
0.0
 44
0.0
 45
0.0
 46
0.0
 47
0.0
 48
0.0
 49
0.0
140
0.0
141
0.0
142
1.0
143
1.0
 70
     0
 72
     0
 73
     0
 74
     0
  7

 75
     0
147
1.0
148
0.0
149
0.0
100
AcDbLayout
  1
Layout1
 70
     0
 71
     0
 10
0.0
 20
0.0
 11
0.0
 21
0.0
 12
0.0
 22
0.0
 32
0.0
 14
0.0
 24
0.0
 34
0.0
 15
0.0
 25
0.0
 35
0.0
146
0.0
 13
0.0
 23
0.0
 33
0.0
 16
0.0
 26
0.0
 36
0.0
 17
0.0
 27
0.0
 37
0.0
 76
     0
330
B
331
0
345
0
346
0
  0
DICTIONARY
  5
1E
102
{ACAD_REACTORS
330
19
102
}
100
AcDbDictionary
280
     0
281
     1
  3
Layout1
350
21
  3
Model
350
20
  0
DICTIONARY
  5
22
102
{ACAD_REACTORS
330
19
102
}
100
AcDbDictionary
280
     0
281
     1
  0
WIPEOUTVARIABLES
  5
23
100
AcDbWipeoutVariables
 70
     1
  0
ENDSEC
  0
EOF
