  0
SECTION
  2
HEADER
  9
$ACADVER
  1
AC1015
  9
$ACADMAINTVER
 70
     6
  9
$DWGCODEPAGE
  3
DOS850
  9
$INSBASE
 10
0.0
 20
0.0
 30
0.0
  9
$EXTMIN
 10
-63.5882
 20
-2.3965
 30
1.000000E+20
  9
$EXTMAX
 10
2.1382
 20
71.5892
 30
-1.000000E+20
  9
$LIMMIN
 10
0.0
 20
0.0
  9
$LIMMAX
 10
0.0
 20
0.0
  9
$ORTHOMODE
 70
     0
  9
$REGENMODE
 70
     1
  9
$FILLMODE
 70
     1
  9
$QTEXTMODE
 70
     0
  9
$MIRRTEXT
 70
     1
  9
$LTSCALE
 40
1.0
  9
$ATTMODE
 70
     1
  9
$TEXTSIZE
 40
0.2
  9
$TRACEWID
 40
0.05
  9
$TEXTSTYLE
  7
Standard
  9
$CLAYER
  8
0
  9
$CELTYPE
  6
Continuous
  9
$CECOLOR
 62
   256
  9
$CELTSCALE
 40
1.0
  9
$DISPSILH
 70
     0
  9
$DIMSCALE
 40
1.0
  9
$DIMASZ
 40
0.18
  9
$DIMEXO
 40
0.0625
  9
$DIMDLI
 40
0.38
  9
$DIMRND
 40
0.0
  9
$DIMDLE
 40
0.0
  9
$DIMEXE
 40
0.18
  9
$DIMTP
 40
0.0
  9
$DIMTM
 40
0.0
  9
$DIMTXT
 40
0.18
  9
$DIMCEN
 40
0.09
  9
$DIMTSZ
 40
0.0
  9
$DIMTOL
 70
     0
  9
$DIMLIM
 70
     0
  9
$DIMTIH
 70
     1
  9
$DIMTOH
 70
     1
  9
$DIMSE1
 70
     0
  9
$DIMSE2
 70
     0
  9
$DIMTAD
 70
     0
  9
$DIMZIN
 70
     0
  9
$DIMBLK
  1

  9
$DIMASO
 70
     1
  9
$DIMSHO
 70
     1
  9
$DIMPOST
  1

  9
$DIMAPOST
  1

  9
$DIMALT
 70
     0
  9
$DIMALTD
 70
     2
  9
$DIMALTF
 40
25.4
  9
$DIMLFAC
 40
1.0
  9
$DIMTOFL
 70
     0
  9
$DIMTVP
 40
0.0
  9
$DIMTIX
 70
     0
  9
$DIMSOXD
 70
     0
  9
$DIMSAH
 70
     0
  9
$DIMBLK1
  1

  9
$DIMBLK2
  1

  9
$DIMSTYLE
  2
Standard
  9
$DIMCLRD
 70
     0
  9
$DIMCLRE
 70
     0
  9
$DIMCLRT
 70
     0
  9
$DIMTFAC
 40
1.0
  9
$DIMGAP
 40
0.09
  9
$DIMJUST
 70
     0
  9
$DIMSD1
 70
     0
  9
$DIMSD2
 70
     0
  9
$DIMTOLJ
 70
     1
  9
$DIMTZIN
 70
     0
  9
$DIMALTZ
 70
     0
  9
$DIMALTTZ
 70
     0
  9
$DIMUPT
 70
     0
  9
$DIMDEC
 70
     4
  9
$DIMTDEC
 70
     4
  9
$DIMALTU
 70
     2
  9
$DIMALTTD
 70
     2
  9
$DIMTXSTY
  7
Standard
  9
$DIMAUNIT
 70
     0
  9
$DIMADEC
 70
     0
  9
$DIMALTRND
 40
0.0
  9
$DIMAZIN
 70
     0
  9
$DIMDSEP
 70
     0
  9
$DIMATFIT
 70
     3
  9
$DIMFRAC
 70
     0
  9
$DIMLDRBLK
  1

  9
$DIMLUNIT
 70
     2
  9
$DIMLWD
 70
     0
  9
$DIMLWE
 70
     0
  9
$DIMTMOVE
 70
     0
  9
$LUNITS
 70
     2
  9
$LUPREC
 70
     4
  9
$SKETCHINC
 40
0.1
  9
$FILLETRAD
 40
0.0
  9
$AUNITS
 70
     0
  9
$AUPREC
 70
     0
  9
$MENU
  1
acad
  9
$ELEVATION
 40
0.0
  9
$PELEVATION
 40
0.0
  9
$THICKNESS
 40
0.0
  9
$LIMCHECK
 70
     0
  9
$CHAMFERA
 40
0.0
  9
$CHAMFERB
 40
0.0
  9
$CHAMFERC
 40
0.0
  9
$CHAMFERD
 40
0.0
  9
$SKPOLY
 70
     0
  9
$TDCREATE
 40
0.000000000
  9
$TDUCREATE
 40
0.000000000
  9
$TDUPDATE
 40
0.000000000
  9
$TDUUPDATE
 40
0.000000000
  9
$TDINDWG
 40
0.0000000000
  9
$TDUSRTIMER
 40
0.0000000000
  9
$USRTIMER
 70
     1
  9
$ANGBASE
 50
0.0
  9
$ANGDIR
 70
     0
  9
$PDMODE
 70
     0
  9
$PDSIZE
 40
0.0
  9
$PLINEWID
 40
0.0
  9
$SPLFRAME
 70
     0
  9
$SPLINETYPE
 70
     6
  9
$SPLINESEGS
 70
     8
  9
$HANDSEED
  5
4C
  9
$SURFTAB1
 70
     6
  9
$SURFTAB2
 70
     6
  9
$SURFTYPE
 70
     6
  9
$SURFU
 70
     6
  9
$SURFV
 70
     6
  9
$UCSBASE
  2

  9
$UCSNAME
  2

  9
$UCSORG
 10
0.0
 20
0.0
 30
0.0
  9
$UCSXDIR
 10
1.0
 20
0.0
 30
0.0
  9
$UCSYDIR
 10
0.0
 20
1.0
 30
0.0
  9
$UCSORTHOREF
  2

  9
$UCSORTHOVIEW
 70
     0
  9
$UCSORGTOP
 10
0.0
 20
0.0
 30
0.0
  9
$UCSORGBOTTOM
 10
0.0
 20
0.0
 30
0.0
  9
$UCSORGLEFT
 10
0.0
 20
0.0
 30
0.0
  9
$UCSORGRIGHT
 10
0.0
 20
0.0
 30
0.0
  9
$UCSORGFRONT
 10
0.0
 20
0.0
 30
0.0
  9
$UCSORGBACK
 10
0.0
 20
0.0
 30
0.0
  9
$PUCSBASE
  2

  9
$PUCSNAME
  2

  9
$PUCSORG
 10
0.0
 20
0.0
 30
0.0
  9
$PUCSXDIR
 10
1.0
 20
0.0
 30
0.0
  9
$PUCSYDIR
 10
0.0
 20
1.0
 30
0.0
  9
$PUCSORTHOREF
  2

  9
$PUCSORTHOVIEW
 70
     0
  9
$PUCSORGTOP
 10
0.0
 20
0.0
 30
0.0
  9
$PUCSORGBOTTOM
 10
0.0
 20
0.0
 30
0.0
  9
$PUCSORGLEFT
 10
0.0
 20
0.0
 30
0.0
  9
$PUCSORGRIGHT
 10
0.0
 20
0.0
 30
0.0
  9
$PUCSORGFRONT
 10
0.0
 20
0.0
 30
0.0
  9
$PUCSORGBACK
 10
0.0
 20
0.0
 30
0.0
  9
$USERI1
 70
     0
  9
$USERI2
 70
     0
  9
$USERI3
 70
     0
  9
$USERI4
 70
     0
  9
$USERI5
 70
     0
  9
$USERR1
 40
0.0
  9
$USERR2
 40
0.0
  9
$USERR3
 40
0.0
  9
$USERR4
 40
0.0
  9
$USERR5
 40
0.0
  9
$WORLDVIEW
 70
     1
  9
$SHADEDGE
 70
     3
  9
$SHADEDIF
 70
    70
  9
$TILEMODE
 70
     1
  9
$MAXACTVP
 70
    16
  9
$PINSBASE
 10
0.0
 20
0.0
 30
0.0
  9
$PLIMCHECK
 70
     0
  9
$PEXTMIN
 10
1.000000E+20
 20
1.000000E+20
 30
1.000000E+20
  9
$PEXTMAX
 10
-1.000000E+20
 20
-1.000000E+20
 30
-1.000000E+20
  9
$PLIMMIN
 10
0.0
 20
0.0
  9
$PLIMMAX
 10
12.0
 20
9.0
  9
$UNITMODE
 70
     0
  9
$VISRETAIN
 70
     0
  9
$PLINEGEN
 70
     1
  9
$PSLTSCALE
 70
     0
  9
$TREEDEPTH
 70
  3020
  9
$CMLSTYLE
  2
Standard
  9
$CMLJUST
 70
     0
  9
$CMLSCALE
 40
1.0
  9
$PROXYGRAPHICS
 70
     0
  9
$MEASUREMENT
 70
     0
  9
$CELWEIGHT
370
     0
  9
$ENDCAPS
280
     0
  9
$JOINSTYLE
280
     0
  9
$LWDISPLAY
290
     0
  9
$INSUNITS
 70
     4
  9
$HYPERLINKBASE
  1

  9
$XEDIT
290
     1
  9
$CEPSNTYPE
380
     0
  9
$PSTYLEMODE
290
     1
  9
$FINGERPRINTGUID
  2

  9
$VERSIONGUID
  2

  9
$EXTNAMES
290
     1
  9
$PSVPSCALE
 40
0.0
  0
ENDSEC
  0
SECTION
  2
CLASSES
  0
CLASS
  1
LWPOLYLINE
  2
AcDbPolyline
  3
AutoCAD 2000
 90
    32768
280
     0
281
     1
  0
CLASS
  1
IMAGE
  2
AcDbRasterImage
  3
ISM
 90
    32895
280
     0
281
     1
  0
CLASS
  1
OLE2FRAME
  2
AcDbOle2Frame
  3
AutoCAD 2000
 90
    32768
280
     0
281
     1
  0
CLASS
  1
HATCH
  2
AcDbHatch
  3
AutoCAD 2000
 90
    32768
280
     0
281
     1
  0
CLASS
  1
DICTIONARYVAR
  2
AcDbDictionaryVar
  3
AutoCAD 2000
 90
    32768
280
     0
281
     0
  0
CLASS
  1
RASTERVARIABLES
  2
AcDbRasterVariables
  3
ISM
 90
    32768
280
     0
281
     0
  0
CLASS
  1
IMAGEDEF
  2
AcDbRasterImageDef
  3
ISM
 90
    32768
280
     0
281
     0
  0
CLASS
  1
IMAGEDEF_REACTOR
  2
AcDbRasterImageDefReactor
  3
ISM
 90
    32769
280
     0
281
     0
  0
CLASS
  1
IDBUFFER
  2
AcDbIdBuffer
  3
AutoCAD 2000
 90
    32768
280
     0
281
     0
  0
CLASS
  1
SPATIAL_FILTER
  2
AcDbSpatialFilter
  3
AutoCAD 2000
 90
    32768
280
     0
281
     0
  0
CLASS
  1
XRECORD
  2
AcDbXrecord
  3
AutoCAD 2000
 90
    32768
280
     0
281
     0
  0
CLASS
  1
SORTENTSTABLE
  2
AcDbSortentsTable
  3
AutoCAD 2000
 90
    32768
280
     0
281
     0
  0
CLASS
  1
LAYER_INDEX
  2
AcDbLayerIndex
  3
AutoCAD 2000
 90
    32768
280
     0
281
     0
  0
CLASS
  1
SPATIAL_INDEX
  2
AcDbSpatialIndex
  3
AutoCAD 2000
 90
    32768
280
     0
281
     0
  0
CLASS
  1
OBJECT_PTR
  2
CAseDLPNTableRecord
  3
"ASE-LPNTableRecord"
 90
    32769
280
     0
281
     0
  0
CLASS
  1
LAYOUT
  2
AcDbLayout
  3
AutoCAD 2000
 90
        0
280
     0
281
     0
  0
CLASS
  1
PLOTSETTINGS
  2
AcDbPlotSettings
  3
AutoCAD 2000
 90
    32768
280
     0
281
     0
  0
CLASS
  1
ACDBDICTIONARYWDFLT
  2
AcDbDictionaryWithDefault
  3
AutoCAD 2000
 90
        0
280
     0
281
     0
  0
CLASS
  1
ACDBPLACEHOLDER
  2
AcDbPlaceHolder
  3
AutoCAD 2000
 90
        0
280
     0
281
     0
  0
CLASS
  1
VBA_PROJECT
  2
AcDbVbaProject
  3
acadvba
 90
    32768
280
     0
281
     0
  0
CLASS
  1
WIPEOUT
  2
AcDbWipeout
  3
WipeOut|AutoCAD Express Tool|expresstools@autodesk.com
 90
    32895
280
     0
281
     1
  0
CLASS
  1
WIPEOUTVARIABLES
  2
AcDbWipeoutVariables
  3
WipeOut|AutoCAD Express Tool|expresstools@autodesk.com
 90
        0
280
     0
281
     0
  0
CLASS
  1
RTEXT
  2
RText
  3
RText|AutoCAD Express Tool|expresstools@autodesk.com
 90
    32768
280
     0
281
     1
  0
CLASS
  1
ARCALIGNEDTEXT
  2
AcDbArcAlignedText
  3
ATEXT|AutoCAD Express Tool|expresstools@autodesk.com
 90
    32768
280
     0
281
     1
  0
ENDSEC
  0
SECTION
  2
TABLES
  0
TABLE
  2
VPORT
  5
7
100
AcDbSymbolTable
 70
     1
  0
VPORT
  5
15
100
AcDbSymbolTableRecord
100
AcDbViewportTableRecord
  2
*ACTIVE
 70
     0
 10
0.0
 20
0.0
 11
1.0
 21
1.0
 12
6.591288
 22
4.579184
 13
0.0
 23
0.0
 14
1.0
 24
1.0
 15
0.0
 25
0.0
 16
0.0
 26
0.0
 36
1.0
 17
0.0
 27
0.0
 37
0.0
 40
9.158369
 41
0.688564
 42
50.0
 43
0.0
 44
0.0
 50
0.0
 51
0.0
 71
     0
 72
   100
 73
     1
 74
     1
 75
     0
 76
     0
 77
     0
 78
     0
281
     0
 65
     0
110
0.0
120
0.0
130
0.0
111
1.0
121
0.0
131
0.0
112
0.0
122
1.0
132
0.0
345
0
346
0
 79
     0
146
0.0
  0
ENDTAB
  0
TABLE
  2
LTYPE
  5
4
100
AcDbSymbolTable
 70
     3
  0
LTYPE
  5
11
100
AcDbSymbolTableRecord
100
AcDbLinetypeTableRecord
  2
ByBlock
 70
    64
  3

 72
    65
 73
     0
 40
0.0
  0
LTYPE
  5
12
100
AcDbSymbolTableRecord
100
AcDbLinetypeTableRecord
  2
ByLayer
 70
    64
  3

 72
    65
 73
     0
 40
0.0
  0
LTYPE
  5
13
100
AcDbSymbolTableRecord
100
AcDbLinetypeTableRecord
  2
Continuous
 70
    64
  3
Solid line
 72
    65
 73
     0
 40
0.0
  0
ENDTAB
  0
TABLE
  2
LAYER
  5
2
100
AcDbSymbolTable
 70
     2
  0
LAYER
  5
14
100
AcDbSymbolTableRecord
100
AcDbLayerTableRecord
  2
0
 70
     0
 62
     7
  6
Continuous
290
     1
370
    -3
390
1D
  0
LAYER
  5
24
100
AcDbSymbolTableRecord
100
AcDbLayerTableRecord
  2
RÚteg 1
 70
     0
 62
     7
  6
Continuous
290
     1
370
    -3
390
1F
  0
ENDTAB
  0
TABLE
  2
STYLE
  5
3
100
AcDbSymbolTable
 70
     1
  0
STYLE
  5
17
100
AcDbSymbolTableRecord
100
AcDbTextStyleTableRecord
  2
Standard
 70
     0
 40
0.0
 41
1.0
 50
0.0
 71
     0
 42
0.0
  3
txt
  4

  0
ENDTAB
  0
TABLE
  2
VIEW
  5
5
100
AcDbSymbolTable
 70
     0
  0
ENDTAB
  0
TABLE
  2
UCS
  5
6
100
AcDbSymbolTable
 70
     0
  0
ENDTAB
  0
TABLE
  2
APPID
  5
8
100
AcDbSymbolTable
 70
     1
  0
APPID
  5
16
100
AcDbSymbolTableRecord
100
AcDbRegAppTableRecord
  2
ACAD
 70
     0
  0
ENDTAB
  0
TABLE
  2
DIMSTYLE
  5
9
100
AcDbSymbolTable
 70
     1
100
AcDbDimStyleTable
 71
     0
  0
DIMSTYLE
105
18
100
AcDbSymbolTableRecord
100
AcDbDimStyleTableRecord
  2
Standard
 70
     0
  3

  4

 40
1.0
 41
0.18
 42
0.0625
 43
0.38
 44
0.18
 45
0.0
 46
0.0
 47
0.0
 48
0.0
 71
     0
 72
     0
 73
     1
 74
     1
 75
     0
 76
     0
 77
     0
 78
     0
 79
     0
140
0.18
141
0.09
142
0.0
143
25.4
144
1.0
145
0.0
146
1.0
147
0.09
148
0.0
170
     0
171
     2
172
     0
173
     0
174
     0
175
     0
176
     0
177
     0
178
     0
179
     0
271
     4
272
     4
273
     2
274
     2
275
     0
276
     0
277
     2
278
    46
279
     0
280
     0
281
     0
282
     0
283
     1
284
     0
285
     0
286
     0
288
     0
340
17
341
0
342
0
343
0
344
0
371
    -2
372
    -2
  0
ENDTAB
  0
TABLE
  2
BLOCK_RECORD
  5
1
100
AcDbSymbolTable
 70
     0
  0
BLOCK_RECORD
  5
A
100
AcDbSymbolTableRecord
100
AcDbBlockTableRecord
  2
*MODEL_SPACE
340
20
  0
BLOCK_RECORD
  5
B
100
AcDbSymbolTableRecord
100
AcDbBlockTableRecord
  2
*PAPER_SPACE
340
21
  0
ENDTAB
  0
ENDSEC
  0
SECTION
  2
BLOCKS
  0
BLOCK
  5
D
100
AcDbEntity
  8
0
100
AcDbBlockBegin
  2
*MODEL_SPACE
 70
     0
 10
0.0
 20
0.0
 30
0.0
  3
*MODEL_SPACE
  1

  0
ENDBLK
  5
E
100
AcDbEntity
  8
0
100
AcDbBlockEnd
  0
BLOCK
  5
F
100
AcDbEntity
 67
     1
  8
0
100
AcDbBlockBegin
  2
*PAPER_SPACE
 70
     0
 10
0.0
 20
0.0
 30
0.0
  3
*PAPER_SPACE
  1

  0
ENDBLK
  5
10
100
AcDbEntity
 67
     1
  8
0
100
AcDbBlockEnd
  0
ENDSEC
  0
SECTION
  2
ENTITIES
  0
SPLINE
  5
25
100
AcDbEntity
  8
RÚteg 1
 62
     7
100
AcDbSpline
210
0.0
220
0.0
230
1.0
 70
     1
 71
     3
 72
    52
 73
    48
 74
     0
 42
0.0000000001
 43
0.0000000001
 40
0.0
 40
0.0
 40
0.0
 40
0.0
 40
0.0833333333333333
 40
0.0833333333333333
 40
0.0833333333333333
 40
0.0833333333333333
 40
0.1666666666666667
 40
0.1666666666666667
 40
0.1666666666666667
 40
0.1666666666666667
 40
0.25
 40
0.25
 40
0.25
 40
0.25
 40
0.3333333333333333
 40
0.3333333333333333
 40
0.3333333333333333
 40
0.3333333333333333
 40
0.4166666666666666
 40
0.4166666666666666
 40
0.4166666666666666
 40
0.4166666666666666
 40
0.4999999999999999
 40
0.4999999999999999
 40
0.4999999999999999
 40
0.4999999999999999
 40
0.5833333333333333
 40
0.5833333333333333
 40
0.5833333333333333
 40
0.5833333333333333
 40
0.6666666666666666
 40
0.6666666666666666
 40
0.6666666666666666
 40
0.6666666666666666
 40
0.75
 40
0.75
 40
0.75
 40
0.75
 40
0.8333333333333334
 40
0.8333333333333334
 40
0.8333333333333334
 40
0.8333333333333334
 40
0.9166666666666667
 40
0.9166666666666667
 40
0.9166666666666667
 40
0.9166666666666667
 40
1.0
 40
1.0
 40
1.0
 40
1.0
 10
-42.368400000000001
 20
17.481200000000001
 30
0.0
 10
-41.036999999999999
 20
17.373899999999999
 30
0.0
 10
-40.102200000000003
 20
13.7178
 30
0.0
 10
-40.102200000000003
 20
12.1137
 30
0.0
 10
-40.102200000000003
 20
12.1137
 30
0.0
 10
-40.102200000000003
 20
12.1137
 30
0.0
 10
-40.102200000000003
 20
11.9511
 30
0.0
 10
-40.102200000000003
 20
11.9511
 30
0.0
 10
-40.102200000000003
 20
11.9511
 30
0.0
 10
-40.102200000000003
 20
11.194599999999999
 30
0.0
 10
-40.2346
 20
9.5165000000000006
 30
0.0
 10
-40.434600000000003
 20
9.0205000000000002
 30
0.0
 10
-40.434600000000003
 20
9.0205000000000002
 30
0.0
 10
-40.569800000000001
 20
8.6859999999999999
 30
0.0
 10
-40.766399999999997
 20
8.1646000000000001
 30
0.0
 10
-40.874400000000001
 20
7.8201000000000001
 30
0.0
 10
-40.874400000000001
 20
7.8201000000000001
 30
0.0
 10
-40.9739
 20
7.5021000000000004
 30
0.0
 10
-41.284999999999997
 20
7.0231000000000003
 30
0.0
 10
-41.3613
 20
6.7462999999999997
 30
0.0
 10
-41.3613
 20
6.7462999999999997
 30
0.0
 10
-41.3613
 20
6.7462999999999997
 30
0.0
 10
-41.5291
 20
6.7462999999999997
 30
0.0
 10
-41.5291
 20
6.7462999999999997
 30
0.0
 10
-41.5291
 20
6.7462999999999997
 30
0.0
 10
-41.7926
 20
7.8418999999999999
 30
0.0
 10
-41.947800000000001
 20
8.2263999999999999
 30
0.0
 10
-42.357999999999997
 20
9.1152999999999995
 30
0.0
 10
-42.357999999999997
 20
9.1152999999999995
 30
0.0
 10
-42.515700000000002
 20
9.4570000000000007
 30
0.0
 10
-43.627800000000001
 20
11.004300000000001
 30
0.0
 10
-43.627800000000001
 20
11.056699999999999
 30
0.0
 10
-43.627800000000001
 20
11.056699999999999
 30
0.0
 10
-43.627800000000001
 20
11.1972
 30
0.0
 10
-43.257899999999999
 20
11.7019
 30
0.0
 10
-43.124000000000002
 20
11.788500000000001
 30
0.0
 10
-43.124000000000002
 20
11.788500000000001
 30
0.0
 10
-43.124000000000002
 20
12.194800000000001
 30
0.0
 10
-42.705199999999998
 20
13.4377
 30
0.0
 10
-42.6113
 20
14.1381
 30
0.0
 10
-42.6113
 20
14.1381
 30
0.0
 10
-42.501300000000001
 20
14.9605
 30
0.0
 10
-42.368400000000001
 20
15.6738
 30
0.0
 10
-42.368400000000001
 20
16.667999999999999
 30
0.0
 10
-42.368400000000001
 20
16.667999999999999
 30
0.0
 10
-42.368400000000001
 20
16.667999999999999
 30
0.0
 10
-42.368400000000001
 20
17.481200000000001
 30
0.0
 10
-42.368400000000001
 20
17.481200000000001
 30
0.0
  0
SPLINE
  5
26
100
AcDbEntity
  8
RÚteg 1
 62
     7
100
AcDbSpline
210
0.0
220
0.0
230
1.0
 70
     1
 71
     3
 72
    72
 73
    68
 74
     0
 42
0.0000000001
 43
0.0000000001
 40
0.0
 40
0.0
 40
0.0
 40
0.0
 40
0.0588235294117647
 40
0.0588235294117647
 40
0.0588235294117647
 40
0.0588235294117647
 40
0.1176470588235294
 40
0.1176470588235294
 40
0.1176470588235294
 40
0.1176470588235294
 40
0.1764705882352941
 40
0.1764705882352941
 40
0.1764705882352941
 40
0.1764705882352941
 40
0.2352941176470588
 40
0.2352941176470588
 40
0.2352941176470588
 40
0.2352941176470588
 40
0.2941176470588235
 40
0.2941176470588235
 40
0.2941176470588235
 40
0.2941176470588235
 40
0.3529411764705883
 40
0.3529411764705883
 40
0.3529411764705883
 40
0.3529411764705883
 40
0.411764705882353
 40
0.411764705882353
 40
0.411764705882353
 40
0.411764705882353
 40
0.4705882352941177
 40
0.4705882352941177
 40
0.4705882352941177
 40
0.4705882352941177
 40
0.5294117647058824
 40
0.5294117647058824
 40
0.5294117647058824
 40
0.5294117647058824
 40
0.5882352941176471
 40
0.5882352941176471
 40
0.5882352941176471
 40
0.5882352941176471
 40
0.6470588235294118
 40
0.6470588235294118
 40
0.6470588235294118
 40
0.6470588235294118
 40
0.7058823529411765
 40
0.7058823529411765
 40
0.7058823529411765
 40
0.7058823529411765
 40
0.7647058823529412
 40
0.7647058823529412
 40
0.7647058823529412
 40
0.7647058823529412
 40
0.823529411764706
 40
0.823529411764706
 40
0.823529411764706
 40
0.823529411764706
 40
0.8823529411764707
 40
0.8823529411764707
 40
0.8823529411764707
 40
0.8823529411764707
 40
0.9411764705882354
 40
0.9411764705882354
 40
0.9411764705882354
 40
0.9411764705882354
 40
1.0
 40
1.0
 40
1.0
 40
1.0
 10
-25.4648
 20
62.819200000000002
 30
0.0
 10
-14.1898
 20
60.999299999999998
 30
0.0
 10
-4.8396999999999997
 20
53.425899999999999
 30
0.0
 10
-0.5223
 20
43.209200000000003
 30
0.0
 10
-0.5223
 20
43.209200000000003
 30
0.0
 10
-0.5064
 20
43.199599999999997
 30
0.0
 10
-0.4917
 20
43.189799999999998
 30
0.0
 10
-0.4791
 20
43.179099999999998
 30
0.0
 10
-0.4791
 20
43.179099999999998
 30
0.0
 10
-0.4791
 20
43.179099999999998
 30
0.0
 10
-0.5087
 20
43.176299999999998
 30
0.0
 10
-0.5087
 20
43.176299999999998
 30
0.0
 10
-0.5087
 20
43.176299999999998
 30
0.0
 10
1.1379999999999999
 20
39.267800000000001
 30
0.0
 10
2.0499999999999998
 20
34.973799999999997
 30
0.0
 10
2.0499999999999998
 20
30.466699999999999
 30
0.0
 10
2.0499999999999998
 20
30.466699999999999
 30
0.0
 10
2.0499999999999998
 20
12.368600000000001
 30
0.0
 10
-12.626899999999999
 20
-2.3083
 30
0.0
 10
-30.725000000000001
 20
-2.3083
 30
0.0
 10
-30.725000000000001
 20
-2.3083
 30
0.0
 10
-48.823099999999997
 20
-2.3083
 30
0.0
 10
-63.5
 20
12.368600000000001
 30
0.0
 10
-63.5
 20
30.466699999999999
 30
0.0
 10
-63.5
 20
30.466699999999999
 30
0.0
 10
-63.5
 20
46.773899999999998
 30
0.0
 10
-51.583199999999998
 20
60.301499999999997
 30
0.0
 10
-35.985199999999999
 20
62.819200000000002
 30
0.0
 10
-35.985199999999999
 20
62.819200000000002
 30
0.0
 10
-35.985199999999999
 20
62.819200000000002
 30
0.0
 10
-35.985199999999999
 20
65.022900000000007
 30
0.0
 10
-35.985199999999999
 20
65.022900000000007
 30
0.0
 10
-35.985199999999999
 20
65.022900000000007
 30
0.0
 10
-35.985199999999999
 20
65.843599999999995
 30
0.0
 10
-35.313899999999997
 20
66.514899999999997
 30
0.0
 10
-34.493200000000002
 20
66.514899999999997
 30
0.0
 10
-34.493200000000002
 20
66.514899999999997
 30
0.0
 10
-34.493200000000002
 20
66.514899999999997
 30
0.0
 10
-33.522300000000001
 20
66.514899999999997
 30
0.0
 10
-33.522300000000001
 20
66.514899999999997
 30
0.0
 10
-33.522300000000001
 20
66.514899999999997
 30
0.0
 10
-33.826799999999999
 20
67.012600000000006
 30
0.0
 10
-34.002499999999998
 20
67.597499999999997
 30
0.0
 10
-34.002499999999998
 20
68.223500000000001
 30
0.0
 10
-34.002499999999998
 20
68.223500000000001
 30
0.0
 10
-34.002499999999998
 20
70.033100000000005
 30
0.0
 10
-32.534599999999998
 20
71.501000000000005
 30
0.0
 10
-30.725000000000001
 20
71.501000000000005
 30
0.0
 10
-30.725000000000001
 20
71.501000000000005
 30
0.0
 10
-28.915400000000002
 20
71.501000000000005
 30
0.0
 10
-27.447600000000001
 20
70.033100000000005
 30
0.0
 10
-27.447600000000001
 20
68.223500000000001
 30
0.0
 10
-27.447600000000001
 20
68.223500000000001
 30
0.0
 10
-27.447600000000001
 20
67.597499999999997
 30
0.0
 10
-27.623200000000001
 20
67.012600000000006
 30
0.0
 10
-27.927700000000002
 20
66.514899999999997
 30
0.0
 10
-27.927700000000002
 20
66.514899999999997
 30
0.0
 10
-27.927700000000002
 20
66.514899999999997
 30
0.0
 10
-26.956800000000001
 20
66.514899999999997
 30
0.0
 10
-26.956800000000001
 20
66.514899999999997
 30
0.0
 10
-26.956800000000001
 20
66.514899999999997
 30
0.0
 10
-26.136099999999999
 20
66.514899999999997
 30
0.0
 10
-25.4648
 20
65.843599999999995
 30
0.0
 10
-25.4648
 20
65.022900000000007
 30
0.0
 10
-25.4648
 20
65.022900000000007
 30
0.0
 10
-25.4648
 20
65.022900000000007
 30
0.0
 10
-25.4648
 20
62.819200000000002
 30
0.0
 10
-25.4648
 20
62.819200000000002
 30
0.0
  0
SPLINE
  5
27
100
AcDbEntity
  8
RÚteg 1
 62
     7
100
AcDbSpline
210
0.0
220
0.0
230
1.0
 70
     1
 71
     3
 72
    20
 73
    16
 74
     0
 42
0.0000000001
 43
0.0000000001
 40
0.0
 40
0.0
 40
0.0
 40
0.0
 40
0.25
 40
0.25
 40
0.25
 40
0.25
 40
0.5
 40
0.5
 40
0.5
 40
0.5
 40
0.75
 40
0.75
 40
0.75
 40
0.75
 40
1.0
 40
1.0
 40
1.0
 40
1.0
 10
-30.725000000000001
 20
69.796700000000001
 30
0.0
 10
-29.856300000000001
 20
69.796700000000001
 30
0.0
 10
-29.151800000000001
 20
69.092200000000005
 30
0.0
 10
-29.151800000000001
 20
68.223500000000001
 30
0.0
 10
-29.151800000000001
 20
68.223500000000001
 30
0.0
 10
-29.151800000000001
 20
67.354799999999997
 30
0.0
 10
-29.856300000000001
 20
66.650300000000001
 30
0.0
 10
-30.725000000000001
 20
66.650300000000001
 30
0.0
 10
-30.725000000000001
 20
66.650300000000001
 30
0.0
 10
-31.593699999999998
 20
66.650300000000001
 30
0.0
 10
-32.298200000000001
 20
67.354799999999997
 30
0.0
 10
-32.298200000000001
 20
68.223500000000001
 30
0.0
 10
-32.298200000000001
 20
68.223500000000001
 30
0.0
 10
-32.298200000000001
 20
69.092200000000005
 30
0.0
 10
-31.593699999999998
 20
69.796700000000001
 30
0.0
 10
-30.725000000000001
 20
69.796700000000001
 30
0.0
  0
SPLINE
  5
28
100
AcDbEntity
  8
RÚteg 1
 62
     7
100
AcDbSpline
210
0.0
220
0.0
230
1.0
 70
     1
 71
     3
 72
   100
 73
    96
 74
     0
 42
0.0000000001
 43
0.0000000001
 40
0.0
 40
0.0
 40
0.0
 40
0.0
 40
0.0416666666666667
 40
0.0416666666666667
 40
0.0416666666666667
 40
0.0416666666666667
 40
0.0833333333333333
 40
0.0833333333333333
 40
0.0833333333333333
 40
0.0833333333333333
 40
0.125
 40
0.125
 40
0.125
 40
0.125
 40
0.1666666666666667
 40
0.1666666666666667
 40
0.1666666666666667
 40
0.1666666666666667
 40
0.2083333333333333
 40
0.2083333333333333
 40
0.2083333333333333
 40
0.2083333333333333
 40
0.25
 40
0.25
 40
0.25
 40
0.25
 40
0.2916666666666666
 40
0.2916666666666666
 40
0.2916666666666666
 40
0.2916666666666666
 40
0.3333333333333333
 40
0.3333333333333333
 40
0.3333333333333333
 40
0.3333333333333333
 40
0.375
 40
0.375
 40
0.375
 40
0.375
 40
0.4166666666666667
 40
0.4166666666666667
 40
0.4166666666666667
 40
0.4166666666666667
 40
0.4583333333333334
 40
0.4583333333333334
 40
0.4583333333333334
 40
0.4583333333333334
 40
0.5
 40
0.5
 40
0.5
 40
0.5
 40
0.5416666666666666
 40
0.5416666666666666
 40
0.5416666666666666
 40
0.5416666666666666
 40
0.5833333333333333
 40
0.5833333333333333
 40
0.5833333333333333
 40
0.5833333333333333
 40
0.6249999999999999
 40
0.6249999999999999
 40
0.6249999999999999
 40
0.6249999999999999
 40
0.6666666666666665
 40
0.6666666666666665
 40
0.6666666666666665
 40
0.6666666666666665
 40
0.7083333333333332
 40
0.7083333333333332
 40
0.7083333333333332
 40
0.7083333333333332
 40
0.7499999999999998
 40
0.7499999999999998
 40
0.7499999999999998
 40
0.7499999999999998
 40
0.7916666666666664
 40
0.7916666666666664
 40
0.7916666666666664
 40
0.7916666666666664
 40
0.833333333333333
 40
0.833333333333333
 40
0.833333333333333
 40
0.833333333333333
 40
0.8749999999999997
 40
0.8749999999999997
 40
0.8749999999999997
 40
0.8749999999999997
 40
0.9166666666666663
 40
0.9166666666666663
 40
0.9166666666666663
 40
0.9166666666666663
 40
0.9583333333333329
 40
0.9583333333333329
 40
0.9583333333333329
 40
0.9583333333333329
 40
1.0
 40
1.0
 40
1.0
 40
1.0
 10
-30.725000000000001
 20
60.357500000000002
 30
0.0
 10
-22.553999999999998
 20
60.357500000000002
 30
0.0
 10
-15.148199999999999
 20
57.0762
 30
0.0
 10
-9.7524999999999995
 20
51.760399999999997
 30
0.0
 10
-9.7524999999999995
 20
51.760399999999997
 30
0.0
 10
-9.9297000000000004
 20
51.784799999999997
 30
0.0
 10
-10.112399999999999
 20
51.799599999999998
 30
0.0
 10
-10.300800000000001
 20
51.799599999999998
 30
0.0
 10
-10.300800000000001
 20
51.799599999999998
 30
0.0
 10
-10.300800000000001
 20
51.799599999999998
 30
0.0
 10
-11.392099999999999
 20
51.799599999999998
 30
0.0
 10
-11.392099999999999
 20
51.799599999999998
 30
0.0
 10
-11.392099999999999
 20
51.799599999999998
 30
0.0
 10
-12.4756
 20
51.799599999999998
 30
0.0
 10
-13.0235
 20
51.6723
 30
0.0
 10
-13.8775
 20
51.442300000000003
 30
0.0
 10
-13.8775
 20
51.442300000000003
 30
0.0
 10
-14.4291
 20
51.293700000000001
 30
0.0
 10
-15.723599999999999
 20
50.823599999999999
 30
0.0
 10
-16.093299999999999
 20
50.823599999999999
 30
0.0
 10
-16.093299999999999
 20
50.823599999999999
 30
0.0
 10
-16.1128
 20
50.823599999999999
 30
0.0
 10
-16.917999999999999
 20
51.394500000000001
 30
0.0
 10
-17.099499999999999
 20
51.475099999999998
 30
0.0
 10
-17.099499999999999
 20
51.475099999999998
 30
0.0
 10
-17.620699999999999
 20
51.707099999999997
 30
0.0
 10
-18.070900000000002
 20
51.636899999999997
 30
0.0
 10
-18.527799999999999
 20
51.636899999999997
 30
0.0
 10
-18.527799999999999
 20
51.636899999999997
 30
0.0
 10
-21.296500000000002
 20
51.636899999999997
 30
0.0
 10
-23.206199999999999
 20
49.249899999999997
 30
0.0
 10
-24.802499999999998
 20
47.713099999999997
 30
0.0
 10
-24.802499999999998
 20
47.713099999999997
 30
0.0
 10
-25.664400000000001
 20
46.882899999999999
 30
0.0
 10
-26.595199999999998
 20
46.061300000000003
 30
0.0
 10
-27.578700000000001
 20
45.360300000000002
 30
0.0
 10
-27.578700000000001
 20
45.360300000000002
 30
0.0
 10
-28.133900000000001
 20
44.964599999999997
 30
0.0
 10
-28.415099999999999
 20
44.6434
 30
0.0
 10
-29.130800000000001
 20
44.342799999999997
 30
0.0
 10
-29.130800000000001
 20
44.342799999999997
 30
0.0
 10
-29.773299999999999
 20
44.073099999999997
 30
0.0
 10
-30.333500000000001
 20
43.773699999999998
 30
0.0
 10
-30.9512
 20
43.504199999999997
 30
0.0
 10
-30.9512
 20
43.504199999999997
 30
0.0
 10
-32.107399999999998
 20
42.999400000000001
 30
0.0
 10
-33.447099999999999
 20
42.521599999999999
 30
0.0
 10
-34.495800000000003
 20
41.895699999999998
 30
0.0
 10
-34.495800000000003
 20
41.895699999999998
 30
0.0
 10
-35.5047
 20
41.293399999999998
 30
0.0
 10
-36.987499999999997
 20
40.683100000000003
 30
0.0
 10
-37.858400000000003
 20
40.029699999999998
 30
0.0
 10
-37.858400000000003
 20
40.029699999999998
 30
0.0
 10
-38.604599999999998
 20
39.469799999999999
 30
0.0
 10
-40.3249
 20
38.521000000000001
 30
0.0
 10
-41.287199999999999
 20
38.228099999999998
 30
0.0
 10
-41.287199999999999
 20
38.228099999999998
 30
0.0
 10
-42.868299999999998
 20
37.746299999999998
 30
0.0
 10
-44.407499999999999
 20
38.265999999999998
 30
0.0
 10
-45.997199999999999
 20
38.253300000000003
 30
0.0
 10
-45.997199999999999
 20
38.253300000000003
 30
0.0
 10
-45.997199999999999
 20
38.253300000000003
 30
0.0
 10
-43.124000000000002
 20
37.1614
 30
0.0
 10
-43.124000000000002
 20
37.1614
 30
0.0
 10
-43.124000000000002
 20
37.1614
 30
0.0
 10
-43.173900000000003
 20
36.980200000000004
 30
0.0
 10
-43.143799999999999
 20
36.917299999999997
 30
0.0
 10
-43.375900000000001
 20
36.917299999999997
 30
0.0
 10
-43.375900000000001
 20
36.917299999999997
 30
0.0
 10
-43.375900000000001
 20
36.917299999999997
 30
0.0
 10
-43.543399999999998
 20
36.921799999999998
 30
0.0
 10
-43.543399999999998
 20
36.921799999999998
 30
0.0
 10
-43.543399999999998
 20
36.921799999999998
 30
0.0
 10
-43.543399999999998
 20
36.921799999999998
 30
0.0
 10
-44.635199999999998
 20
36.998699999999999
 30
0.0
 10
-44.635199999999998
 20
36.998699999999999
 30
0.0
 10
-44.635199999999998
 20
36.998699999999999
 30
0.0
 10
-45.954500000000003
 20
37.079099999999997
 30
0.0
 10
-48.211199999999998
 20
36.688099999999999
 30
0.0
 10
-49.411099999999998
 20
36.502000000000002
 30
0.0
 10
-49.411099999999998
 20
36.502000000000002
 30
0.0
 10
-50.210799999999999
 20
36.377899999999997
 30
0.0
 10
-50.874200000000002
 20
36.238999999999997
 30
0.0
 10
-51.650799999999997
 20
36.069400000000002
 30
0.0
 10
-51.650799999999997
 20
36.069400000000002
 30
0.0
 10
-52.527299999999997
 20
35.878100000000003
 30
0.0
 10
-53.011800000000001
 20
35.655200000000001
 30
0.0
 10
-53.734499999999997
 20
35.485599999999998
 30
0.0
 10
-53.734499999999997
 20
35.485599999999998
 30
0.0
 10
-54.497
 20
35.3065
 30
0.0
 10
-58.570300000000003
 20
33.878300000000003
 30
0.0
 10
-60.4998
 20
33.0901
 30
0.0
 10
-60.4998
 20
33.0901
 30
0.0
 10
-59.1706
 20
48.367100000000001
 30
0.0
 10
-46.346400000000003
 20
60.357500000000002
 30
0.0
 10
-30.725000000000001
 20
60.357500000000002
 30
0.0
  0
SPLINE
  5
29
100
AcDbEntity
  8
RÚteg 1
 62
     7
100
AcDbSpline
210
0.0
220
0.0
230
1.0
 70
     1
 71
     3
 72
    64
 73
    60
 74
     0
 42
0.0000000001
 43
0.0000000001
 40
0.0
 40
0.0
 40
0.0
 40
0.0
 40
0.0666666666666667
 40
0.0666666666666667
 40
0.0666666666666667
 40
0.0666666666666667
 40
0.1333333333333333
 40
0.1333333333333333
 40
0.1333333333333333
 40
0.1333333333333333
 40
0.2
 40
0.2
 40
0.2
 40
0.2
 40
0.2666666666666667
 40
0.2666666666666667
 40
0.2666666666666667
 40
0.2666666666666667
 40
0.3333333333333333
 40
0.3333333333333333
 40
0.3333333333333333
 40
0.3333333333333333
 40
0.4
 40
0.4
 40
0.4
 40
0.4
 40
0.4666666666666666
 40
0.4666666666666666
 40
0.4666666666666666
 40
0.4666666666666666
 40
0.5333333333333333
 40
0.5333333333333333
 40
0.5333333333333333
 40
0.5333333333333333
 40
0.6
 40
0.6
 40
0.6
 40
0.6
 40
0.6666666666666666
 40
0.6666666666666666
 40
0.6666666666666666
 40
0.6666666666666666
 40
0.7333333333333333
 40
0.7333333333333333
 40
0.7333333333333333
 40
0.7333333333333333
 40
0.7999999999999999
 40
0.7999999999999999
 40
0.7999999999999999
 40
0.7999999999999999
 40
0.8666666666666666
 40
0.8666666666666666
 40
0.8666666666666666
 40
0.8666666666666666
 40
0.9333333333333332
 40
0.9333333333333332
 40
0.9333333333333332
 40
0.9333333333333332
 40
1.0
 40
1.0
 40
1.0
 40
1.0
 10
-8.9667999999999992
 20
50.9572
 30
0.0
 10
-6.7948000000000004
 20
48.651299999999999
 30
0.0
 10
-4.9851999999999999
 20
46.000700000000002
 30
0.0
 10
-3.6288
 20
43.095799999999997
 30
0.0
 10
-3.6288
 20
43.095799999999997
 30
0.0
 10
-4.5209999999999999
 20
42.943100000000001
 30
0.0
 10
-5.3423999999999996
 20
42.751100000000001
 30
0.0
 10
-5.6971999999999996
 20
42.622999999999998
 30
0.0
 10
-5.6971999999999996
 20
42.622999999999998
 30
0.0
 10
-6.3030999999999997
 20
42.404000000000003
 30
0.0
 10
-7.4132999999999996
 20
41.9895
 30
0.0
 10
-7.9489999999999998
 20
41.714100000000002
 30
0.0
 10
-7.9489999999999998
 20
41.714100000000002
 30
0.0
 10
-8.6555
 20
41.351100000000002
 30
0.0
 10
-9.2979000000000003
 20
40.837600000000002
 30
0.0
 10
-9.9649000000000001
 20
40.4955
 30
0.0
 10
-9.9649000000000001
 20
40.4955
 30
0.0
 10
-10.0837
 20
40.552700000000002
 30
0.0
 10
-10.1046
 20
40.576799999999999
 30
0.0
 10
-10.300800000000001
 20
40.576799999999999
 30
0.0
 10
-10.300800000000001
 20
40.576799999999999
 30
0.0
 10
-10.300800000000001
 20
40.576799999999999
 30
0.0
 10
-10.9724
 20
40.576799999999999
 30
0.0
 10
-10.9724
 20
40.576799999999999
 30
0.0
 10
-10.9724
 20
40.576799999999999
 30
0.0
 10
-11.246499999999999
 20
40.576799999999999
 30
0.0
 10
-12.222
 20
39.6342
 30
0.0
 10
-12.469200000000001
 20
39.424599999999998
 30
0.0
 10
-12.469200000000001
 20
39.424599999999998
 30
0.0
 10
-12.723800000000001
 20
39.2087
 30
0.0
 10
-12.890700000000001
 20
39.010899999999999
 30
0.0
 10
-13.122199999999999
 20
38.756
 30
0.0
 10
-13.122199999999999
 20
38.756
 30
0.0
 10
-13.3657
 20
38.487900000000003
 30
0.0
 10
-13.620900000000001
 20
38.351999999999997
 30
0.0
 10
-13.8888
 20
38.116199999999999
 30
0.0
 10
-13.8888
 20
38.116199999999999
 30
0.0
 10
-14.2774
 20
37.7746
 30
0.0
 10
-16.597899999999999
 20
35.805900000000001
 30
0.0
 10
-16.932500000000001
 20
35.778799999999997
 30
0.0
 10
-16.932500000000001
 20
35.778799999999997
 30
0.0
 10
-16.900099999999998
 20
36.159399999999998
 30
0.0
 10
-16.534300000000002
 20
36.696399999999997
 30
0.0
 10
-16.371700000000001
 20
37.105899999999998
 30
0.0
 10
-16.371700000000001
 20
37.105899999999998
 30
0.0
 10
-16.186900000000001
 20
37.571399999999997
 30
0.0
 10
-15.979200000000001
 20
38.021599999999999
 30
0.0
 10
-15.8598
 20
38.480400000000003
 30
0.0
 10
-15.8598
 20
38.480400000000003
 30
0.0
 10
-15.627599999999999
 20
39.3718
 30
0.0
 10
-15.2881
 20
40.4711
 30
0.0
 10
-15.017099999999999
 20
41.404899999999998
 30
0.0
 10
-15.017099999999999
 20
41.404899999999998
 30
0.0
 10
-14.593500000000001
 20
42.864800000000002
 30
0.0
 10
-14.401300000000001
 20
46.526600000000002
 30
0.0
 10
-14.7501
 20
47.977200000000003
 30
0.0
 10
-14.7501
 20
47.977200000000003
 30
0.0
 10
-14.3939
 20
48.629100000000001
 30
0.0
 10
-10.960699999999999
 20
50.375300000000003
 30
0.0
 10
-8.9667999999999992
 20
50.9572
 30
0.0
  0
SPLINE
  5
2A
100
AcDbEntity
  8
RÚteg 1
 62
     7
100
AcDbSpline
210
0.0
220
0.0
230
1.0
 70
     1
 71
     3
 72
    52
 73
    48
 74
     0
 42
0.0000000001
 43
0.0000000001
 40
0.0
 40
0.0
 40
0.0
 40
0.0
 40
0.0833333333333333
 40
0.0833333333333333
 40
0.0833333333333333
 40
0.0833333333333333
 40
0.1666666666666667
 40
0.1666666666666667
 40
0.1666666666666667
 40
0.1666666666666667
 40
0.25
 40
0.25
 40
0.25
 40
0.25
 40
0.3333333333333333
 40
0.3333333333333333
 40
0.3333333333333333
 40
0.3333333333333333
 40
0.4166666666666666
 40
0.4166666666666666
 40
0.4166666666666666
 40
0.4166666666666666
 40
0.4999999999999999
 40
0.4999999999999999
 40
0.4999999999999999
 40
0.4999999999999999
 40
0.5833333333333333
 40
0.5833333333333333
 40
0.5833333333333333
 40
0.5833333333333333
 40
0.6666666666666666
 40
0.6666666666666666
 40
0.6666666666666666
 40
0.6666666666666666
 40
0.75
 40
0.75
 40
0.75
 40
0.75
 40
0.8333333333333334
 40
0.8333333333333334
 40
0.8333333333333334
 40
0.8333333333333334
 40
0.9166666666666667
 40
0.9166666666666667
 40
0.9166666666666667
 40
0.9166666666666667
 40
1.0
 40
1.0
 40
1.0
 40
1.0
 10
-3.343
 20
42.464799999999997
 30
0.0
 10
-3.1507999999999998
 20
42.026800000000001
 30
0.0
 10
-2.9689000000000001
 20
41.583500000000001
 30
0.0
 10
-2.7972000000000001
 20
41.134799999999998
 30
0.0
 10
-2.7972000000000001
 20
41.134799999999998
 30
0.0
 10
-3.5268000000000002
 20
41.0473
 30
0.0
 10
-4.4431000000000003
 20
40.9666
 30
0.0
 10
-4.8268000000000004
 20
40.885199999999998
 30
0.0
 10
-4.8268000000000004
 20
40.885199999999998
 30
0.0
 10
-5.3528000000000002
 20
40.773699999999998
 30
0.0
 10
-6.7203999999999997
 20
40.011200000000002
 30
0.0
 10
-7.1265999999999998
 20
39.697499999999998
 30
0.0
 10
-7.1265999999999998
 20
39.697499999999998
 30
0.0
 10
-9.1509
 20
38.133299999999998
 30
0.0
 10
-8.7050999999999998
 20
37.438499999999998
 30
0.0
 10
-9.9649000000000001
 20
35.616100000000003
 30
0.0
 10
-9.9649000000000001
 20
35.616100000000003
 30
0.0
 10
-10.7134
 20
35.7849
 30
0.0
 10
-12.894299999999999
 20
35.558199999999999
 30
0.0
 10
-13.5915
 20
35.388800000000003
 30
0.0
 10
-13.5915
 20
35.388800000000003
 30
0.0
 10
-14.2981
 20
35.2164
 30
0.0
 10
-16.290299999999998
 20
34.485999999999997
 30
0.0
 10
-16.680700000000002
 20
34.477600000000002
 30
0.0
 10
-16.680700000000002
 20
34.477600000000002
 30
0.0
 10
-16.090800000000002
 20
35.557499999999997
 30
0.0
 10
-14.2475
 20
36.386800000000001
 30
0.0
 10
-13.2607
 20
37.263800000000003
 30
0.0
 10
-13.2607
 20
37.263800000000003
 30
0.0
 10
-13.122199999999999
 20
37.386600000000001
 30
0.0
 10
-11.595800000000001
 20
38.5017
 30
0.0
 10
-11.4893
 20
38.556600000000003
 30
0.0
 10
-11.4893
 20
38.556600000000003
 30
0.0
 10
-11.2111
 20
38.700200000000002
 30
0.0
 10
-10.6144
 20
38.833799999999997
 30
0.0
 10
-10.366400000000001
 20
39.014000000000003
 30
0.0
 10
-10.366400000000001
 20
39.014000000000003
 30
0.0
 10
-10.0654
 20
39.232999999999997
 30
0.0
 10
-9.8017000000000003
 20
39.484900000000003
 30
0.0
 10
-9.4944000000000006
 20
39.714300000000001
 30
0.0
 10
-9.4944000000000006
 20
39.714300000000001
 30
0.0
 10
-8.5327999999999999
 20
40.431600000000003
 30
0.0
 10
-6.5820999999999996
 20
41.299100000000003
 30
0.0
 10
-5.3201000000000001
 20
41.769799999999996
 30
0.0
 10
-5.3201000000000001
 20
41.769799999999996
 30
0.0
 10
-4.8558000000000003
 20
41.942999999999998
 30
0.0
 10
-4.1242999999999999
 20
42.209699999999998
 30
0.0
 10
-3.343
 20
42.464799999999997
 30
0.0
  0
SPLINE
  5
2B
100
AcDbEntity
  8
RÚteg 1
 62
     7
100
AcDbSpline
210
0.0
220
0.0
230
1.0
 70
     1
 71
     3
 72
    32
 73
    28
 74
     0
 42
0.0000000001
 43
0.0000000001
 40
0.0
 40
0.0
 40
0.0
 40
0.0
 40
0.1428571428571429
 40
0.1428571428571429
 40
0.1428571428571429
 40
0.1428571428571429
 40
0.2857142857142857
 40
0.2857142857142857
 40
0.2857142857142857
 40
0.2857142857142857
 40
0.4285714285714286
 40
0.4285714285714286
 40
0.4285714285714286
 40
0.4285714285714286
 40
0.5714285714285714
 40
0.5714285714285714
 40
0.5714285714285714
 40
0.5714285714285714
 40
0.7142857142857142
 40
0.7142857142857142
 40
0.7142857142857142
 40
0.7142857142857142
 40
0.857142857142857
 40
0.857142857142857
 40
0.857142857142857
 40
0.857142857142857
 40
1.0
 40
1.0
 40
1.0
 40
1.0
 10
-2.3420000000000001
 20
39.858400000000003
 30
0.0
 10
-1.3648
 20
36.904600000000002
 30
0.0
 10
-0.8342000000000001
 20
33.747700000000002
 30
0.0
 10
-0.8342000000000001
 20
30.466699999999999
 30
0.0
 10
-0.8342000000000001
 20
30.466699999999999
 30
0.0
 10
-0.8342000000000001
 20
30.053699999999999
 30
0.0
 10
-0.8449
 20
29.6432
 30
0.0
 10
-0.8614000000000001
 20
29.234400000000001
 30
0.0
 10
-0.8614000000000001
 20
29.234400000000001
 30
0.0
 10
-1.3163
 20
30.458500000000001
 30
0.0
 10
-1.9710000000000001
 20
31.679500000000001
 30
0.0
 10
-2.5303
 20
32.165300000000002
 30
0.0
 10
-2.5303
 20
32.165300000000002
 30
0.0
 10
-3.8841000000000001
 20
33.340400000000002
 30
0.0
 10
-6.0763999999999996
 20
33.6646
 30
0.0
 10
-8.3699999999999992
 20
33.6646
 30
0.0
 10
-8.3699999999999992
 20
33.6646
 30
0.0
 10
-7.2678000000000003
 20
35.258800000000001
 30
0.0
 10
-5.3977000000000004
 20
34.143599999999999
 30
0.0
 10
-3.8022
 20
36.232999999999997
 30
0.0
 10
-3.8022
 20
36.232999999999997
 30
0.0
 10
-3.2970000000000002
 20
36.895000000000003
 30
0.0
 10
-2.9340000000000002
 20
37.777099999999997
 30
0.0
 10
-2.6587999999999998
 20
38.622399999999999
 30
0.0
 10
-2.6587999999999998
 20
38.622399999999999
 30
0.0
 10
-2.5377000000000001
 20
38.993899999999996
 30
0.0
 10
-2.4451000000000001
 20
39.441099999999999
 30
0.0
 10
-2.3420000000000001
 20
39.858400000000003
 30
0.0
  0
SPLINE
  5
2C
100
AcDbEntity
  8
RÚteg 1
 62
     7
100
AcDbSpline
210
0.0
220
0.0
230
1.0
 70
     1
 71
     3
 72
   256
 73
   252
 74
     0
 42
0.0000000001
 43
0.0000000001
 40
0.0
 40
0.0
 40
0.0
 40
0.0
 40
0.0158730158730159
 40
0.0158730158730159
 40
0.0158730158730159
 40
0.0158730158730159
 40
0.0317460317460317
 40
0.0317460317460317
 40
0.0317460317460317
 40
0.0317460317460317
 40
0.0476190476190476
 40
0.0476190476190476
 40
0.0476190476190476
 40
0.0476190476190476
 40
0.0634920634920635
 40
0.0634920634920635
 40
0.0634920634920635
 40
0.0634920634920635
 40
0.0793650793650794
 40
0.0793650793650794
 40
0.0793650793650794
 40
0.0793650793650794
 40
0.0952380952380952
 40
0.0952380952380952
 40
0.0952380952380952
 40
0.0952380952380952
 40
0.1111111111111111
 40
0.1111111111111111
 40
0.1111111111111111
 40
0.1111111111111111
 40
0.126984126984127
 40
0.126984126984127
 40
0.126984126984127
 40
0.126984126984127
 40
0.1428571428571429
 40
0.1428571428571429
 40
0.1428571428571429
 40
0.1428571428571429
 40
0.1587301587301587
 40
0.1587301587301587
 40
0.1587301587301587
 40
0.1587301587301587
 40
0.1746031746031746
 40
0.1746031746031746
 40
0.1746031746031746
 40
0.1746031746031746
 40
0.1904761904761905
 40
0.1904761904761905
 40
0.1904761904761905
 40
0.1904761904761905
 40
0.2063492063492063
 40
0.2063492063492063
 40
0.2063492063492063
 40
0.2063492063492063
 40
0.2222222222222222
 40
0.2222222222222222
 40
0.2222222222222222
 40
0.2222222222222222
 40
0.2380952380952381
 40
0.2380952380952381
 40
0.2380952380952381
 40
0.2380952380952381
 40
0.253968253968254
 40
0.253968253968254
 40
0.253968253968254
 40
0.253968253968254
 40
0.2698412698412698
 40
0.2698412698412698
 40
0.2698412698412698
 40
0.2698412698412698
 40
0.2857142857142857
 40
0.2857142857142857
 40
0.2857142857142857
 40
0.2857142857142857
 40
0.3015873015873016
 40
0.3015873015873016
 40
0.3015873015873016
 40
0.3015873015873016
 40
0.3174603174603174
 40
0.3174603174603174
 40
0.3174603174603174
 40
0.3174603174603174
 40
0.3333333333333333
 40
0.3333333333333333
 40
0.3333333333333333
 40
0.3333333333333333
 40
0.3492063492063492
 40
0.3492063492063492
 40
0.3492063492063492
 40
0.3492063492063492
 40
0.3650793650793651
 40
0.3650793650793651
 40
0.3650793650793651
 40
0.3650793650793651
 40
0.3809523809523809
 40
0.3809523809523809
 40
0.3809523809523809
 40
0.3809523809523809
 40
0.3968253968253968
 40
0.3968253968253968
 40
0.3968253968253968
 40
0.3968253968253968
 40
0.4126984126984127
 40
0.4126984126984127
 40
0.4126984126984127
 40
0.4126984126984127
 40
0.4285714285714286
 40
0.4285714285714286
 40
0.4285714285714286
 40
0.4285714285714286
 40
0.4444444444444444
 40
0.4444444444444444
 40
0.4444444444444444
 40
0.4444444444444444
 40
0.4603174603174603
 40
0.4603174603174603
 40
0.4603174603174603
 40
0.4603174603174603
 40
0.4761904761904762
 40
0.4761904761904762
 40
0.4761904761904762
 40
0.4761904761904762
 40
0.492063492063492
 40
0.492063492063492
 40
0.492063492063492
 40
0.492063492063492
 40
0.5079365079365079
 40
0.5079365079365079
 40
0.5079365079365079
 40
0.5079365079365079
 40
0.5238095238095237
 40
0.5238095238095237
 40
0.5238095238095237
 40
0.5238095238095237
 40
0.5396825396825395
 40
0.5396825396825395
 40
0.5396825396825395
 40
0.5396825396825395
 40
0.5555555555555554
 40
0.5555555555555554
 40
0.5555555555555554
 40
0.5555555555555554
 40
0.5714285714285712
 40
0.5714285714285712
 40
0.5714285714285712
 40
0.5714285714285712
 40
0.587301587301587
 40
0.587301587301587
 40
0.587301587301587
 40
0.587301587301587
 40
0.6031746031746028
 40
0.6031746031746028
 40
0.6031746031746028
 40
0.6031746031746028
 40
0.6190476190476186
 40
0.6190476190476186
 40
0.6190476190476186
 40
0.6190476190476186
 40
0.6349206349206344
 40
0.6349206349206344
 40
0.6349206349206344
 40
0.6349206349206344
 40
0.6507936507936503
 40
0.6507936507936503
 40
0.6507936507936503
 40
0.6507936507936503
 40
0.6666666666666661
 40
0.6666666666666661
 40
0.6666666666666661
 40
0.6666666666666661
 40
0.6825396825396819
 40
0.6825396825396819
 40
0.6825396825396819
 40
0.6825396825396819
 40
0.6984126984126977
 40
0.6984126984126977
 40
0.6984126984126977
 40
0.6984126984126977
 40
0.7142857142857135
 40
0.7142857142857135
 40
0.7142857142857135
 40
0.7142857142857135
 40
0.7301587301587293
 40
0.7301587301587293
 40
0.7301587301587293
 40
0.7301587301587293
 40
0.7460317460317452
 40
0.7460317460317452
 40
0.7460317460317452
 40
0.7460317460317452
 40
0.761904761904761
 40
0.761904761904761
 40
0.761904761904761
 40
0.761904761904761
 40
0.7777777777777768
 40
0.7777777777777768
 40
0.7777777777777768
 40
0.7777777777777768
 40
0.7936507936507926
 40
0.7936507936507926
 40
0.7936507936507926
 40
0.7936507936507926
 40
0.8095238095238084
 40
0.8095238095238084
 40
0.8095238095238084
 40
0.8095238095238084
 40
0.8253968253968242
 40
0.8253968253968242
 40
0.8253968253968242
 40
0.8253968253968242
 40
0.8412698412698401
 40
0.8412698412698401
 40
0.8412698412698401
 40
0.8412698412698401
 40
0.8571428571428559
 40
0.8571428571428559
 40
0.8571428571428559
 40
0.8571428571428559
 40
0.8730158730158717
 40
0.8730158730158717
 40
0.8730158730158717
 40
0.8730158730158717
 40
0.8888888888888875
 40
0.8888888888888875
 40
0.8888888888888875
 40
0.8888888888888875
 40
0.9047619047619033
 40
0.9047619047619033
 40
0.9047619047619033
 40
0.9047619047619033
 40
0.9206349206349191
 40
0.9206349206349191
 40
0.9206349206349191
 40
0.9206349206349191
 40
0.936507936507935
 40
0.936507936507935
 40
0.936507936507935
 40
0.936507936507935
 40
0.9523809523809508
 40
0.9523809523809508
 40
0.9523809523809508
 40
0.9523809523809508
 40
0.9682539682539666
 40
0.9682539682539666
 40
0.9682539682539666
 40
0.9682539682539666
 40
0.9841269841269824
 40
0.9841269841269824
 40
0.9841269841269824
 40
0.9841269841269824
 40
1.0
 40
1.0
 40
1.0
 40
1.0
 10
-0.9902
 20
27.397200000000002
 30
0.0
 10
-2.5276000000000001
 20
12.3332
 30
0.0
 10
-15.256
 20
0.5759
 30
0.0
 10
-30.725000000000001
 20
0.5759
 30
0.0
 10
-30.725000000000001
 20
0.5759
 30
0.0
 10
-34.605400000000003
 20
0.5759
 30
0.0
 10
-38.313600000000001
 20
1.3157000000000001
 30
0.0
 10
-41.715299999999999
 20
2.6625999999999999
 30
0.0
 10
-41.715299999999999
 20
2.6625999999999999
 30
0.0
 10
-41.373600000000003
 20
2.8464
 30
0.0
 10
-41.460999999999999
 20
3.2105000000000001
 30
0.0
 10
-41.078400000000002
 20
4.1140999999999996
 30
0.0
 10
-41.078400000000002
 20
4.1140999999999996
 30
0.0
 10
-40.445799999999998
 20
5.6085000000000003
 30
0.0
 10
-39.028500000000001
 20
4.3880999999999997
 30
0.0
 10
-38.591000000000001
 20
4.3880999999999997
 30
0.0
 10
-38.591000000000001
 20
4.3880999999999997
 30
0.0
 10
-38.591000000000001
 20
4.3880999999999997
 30
0.0
 10
-38.338999999999999
 20
4.3880999999999997
 30
0.0
 10
-38.338999999999999
 20
4.3880999999999997
 30
0.0
 10
-38.338999999999999
 20
4.3880999999999997
 30
0.0
 10
-38.010599999999997
 20
4.3880999999999997
 30
0.0
 10
-38.329700000000003
 20
4.5110000000000001
 30
0.0
 10
-37.854500000000002
 20
4.5564999999999998
 30
0.0
 10
-37.854500000000002
 20
4.5564999999999998
 30
0.0
 10
-37.854500000000002
 20
4.5564999999999998
 30
0.0
 10
-37.5837
 20
5.3639999999999999
 30
0.0
 10
-37.5837
 20
5.3639999999999999
 30
0.0
 10
-37.5837
 20
5.3639999999999999
 30
0.0
 10
-37.5837
 20
5.3639999999999999
 30
0.0
 10
-37.247700000000002
 20
5.3639999999999999
 30
0.0
 10
-37.247700000000002
 20
5.3639999999999999
 30
0.0
 10
-37.247700000000002
 20
5.3639999999999999
 30
0.0
 10
-36.871299999999998
 20
5.3639999999999999
 30
0.0
 10
-36.3245
 20
5.6196999999999999
 30
0.0
 10
-36.3245
 20
5.8517999999999999
 30
0.0
 10
-36.3245
 20
5.8517999999999999
 30
0.0
 10
-36.3245
 20
6.5522999999999998
 30
0.0
 10
-36.9773
 20
6.9089999999999998
 30
0.0
 10
-37.7515
 20
6.9089999999999998
 30
0.0
 10
-37.7515
 20
6.9089999999999998
 30
0.0
 10
-37.7515
 20
6.9089999999999998
 30
0.0
 10
-37.919400000000003
 20
6.9089999999999998
 30
0.0
 10
-37.919400000000003
 20
6.9089999999999998
 30
0.0
 10
-37.919400000000003
 20
6.9089999999999998
 30
0.0
 10
-38.915199999999999
 20
6.9089999999999998
 30
0.0
 10
-40.223599999999998
 20
6.0453999999999999
 30
0.0
 10
-40.605600000000003
 20
6.0144000000000002
 30
0.0
 10
-40.605600000000003
 20
6.0144000000000002
 30
0.0
 10
-40.572600000000001
 20
6.3985000000000003
 30
0.0
 10
-39.8264
 20
8.0533000000000001
 30
0.0
 10
-39.633299999999998
 20
8.4882000000000009
 30
0.0
 10
-39.633299999999998
 20
8.4882000000000009
 30
0.0
 10
-39.177999999999997
 20
9.5137999999999998
 30
0.0
 10
-38.813899999999997
 20
9.8416999999999994
 30
0.0
 10
-38.255099999999999
 20
10.6501
 30
0.0
 10
-38.255099999999999
 20
10.6501
 30
0.0
 10
-38.090699999999998
 20
10.573499999999999
 30
0.0
 10
-37.047899999999998
 20
10.382999999999999
 30
0.0
 10
-36.712400000000002
 20
10.2742
 30
0.0
 10
-36.712400000000002
 20
10.2742
 30
0.0
 10
-36.202800000000003
 20
10.1091
 30
0.0
 10
-35.7333
 20
9.9130000000000003
 30
0.0
 10
-35.380000000000003
 20
9.6130999999999993
 30
0.0
 10
-35.380000000000003
 20
9.6130999999999993
 30
0.0
 10
-34.674500000000002
 20
9.0137999999999998
 30
0.0
 10
-33.912500000000001
 20
8.5319000000000003
 30
0.0
 10
-33.197099999999999
 20
7.9058000000000002
 30
0.0
 10
-33.197099999999999
 20
7.9058000000000002
 30
0.0
 10
-32.252499999999998
 20
7.0792000000000002
 30
0.0
 10
-29.5824
 20
5.2827000000000002
 30
0.0
 10
-27.929600000000001
 20
5.2827000000000002
 30
0.0
 10
-27.929600000000001
 20
5.2827000000000002
 30
0.0
 10
-27.929600000000001
 20
5.2827000000000002
 30
0.0
 10
-26.8383
 20
5.2827000000000002
 30
0.0
 10
-26.8383
 20
5.2827000000000002
 30
0.0
 10
-26.8383
 20
5.2827000000000002
 30
0.0
 10
-25.291899999999998
 20
5.2827000000000002
 30
0.0
 10
-23.102900000000002
 20
6.1772999999999998
 30
0.0
 10
-21.465800000000002
 20
6.1772999999999998
 30
0.0
 10
-21.465800000000002
 20
6.1772999999999998
 30
0.0
 10
-21.465800000000002
 20
6.1772999999999998
 30
0.0
 10
-21.377199999999998
 20
6.2210000000000001
 30
0.0
 10
-21.377199999999998
 20
6.2210000000000001
 30
0.0
 10
-21.377199999999998
 20
6.2210000000000001
 30
0.0
 10
-21.377199999999998
 20
6.2210000000000001
 30
0.0
 10
-20.290299999999998
 20
6.0960999999999999
 30
0.0
 10
-20.290299999999998
 20
6.0960999999999999
 30
0.0
 10
-20.290299999999998
 20
6.0960999999999999
 30
0.0
 10
-20.733000000000001
 20
6.7363999999999997
 30
0.0
 10
-21.303799999999999
 20
7.3311999999999999
 30
0.0
 10
-21.704499999999999
 20
7.9790000000000001
 30
0.0
 10
-21.704499999999999
 20
7.9790000000000001
 30
0.0
 10
-22.091699999999999
 20
8.6049000000000007
 30
0.0
 10
-22.6037
 20
9.3524999999999991
 30
0.0
 10
-23.0823
 20
9.8972999999999995
 30
0.0
 10
-23.0823
 20
9.8972999999999995
 30
0.0
 10
-24.129799999999999
 20
11.0884
 30
0.0
 10
-25.305
 20
12.175700000000001
 30
0.0
 10
-26.849399999999999
 20
12.834899999999999
 30
0.0
 10
-26.849399999999999
 20
12.834899999999999
 30
0.0
 10
-28.5444
 20
13.558299999999999
 30
0.0
 10
-30.4407
 20
13.8226
 30
0.0
 10
-32.326700000000002
 20
13.2018
 30
0.0
 10
-32.326700000000002
 20
13.2018
 30
0.0
 10
-33.593600000000002
 20
12.7849
 30
0.0
 10
-36.240099999999998
 20
11.788500000000001
 30
0.0
 10
-37.6676
 20
11.788500000000001
 30
0.0
 10
-37.6676
 20
11.788500000000001
 30
0.0
 10
-37.5764
 20
12.8492
 30
0.0
 10
-34.882899999999999
 20
15.7014
 30
0.0
 10
-33.991799999999998
 20
16.197299999999998
 30
0.0
 10
-33.991799999999998
 20
16.197299999999998
 30
0.0
 10
-33.266599999999997
 20
16.600999999999999
 30
0.0
 10
-29.0932
 20
18.945
 30
0.0
 10
-28.517299999999999
 20
18.945
 30
0.0
 10
-28.517299999999999
 20
18.945
 30
0.0
 10
-28.088999999999999
 20
18.945
 30
0.0
 10
-28.454599999999999
 20
18.0505
 30
0.0
 10
-26.418700000000001
 20
18.0505
 30
0.0
 10
-26.418700000000001
 20
18.0505
 30
0.0
 10
-26.418700000000001
 20
18.0505
 30
0.0
 10
-25.747
 20
18.0505
 30
0.0
 10
-25.747
 20
18.0505
 30
0.0
 10
-25.747
 20
18.0505
 30
0.0
 10
-25.6099
 20
16.455200000000001
 30
0.0
 10
-25.038699999999999
 20
16.384899999999998
 30
0.0
 10
-23.579699999999999
 20
16.002400000000002
 30
0.0
 10
-23.579699999999999
 20
16.002400000000002
 30
0.0
 10
-22.327500000000001
 20
15.673999999999999
 30
0.0
 10
-21.427399999999999
 20
15.431699999999999
 30
0.0
 10
-20.300799999999999
 20
14.9506
 30
0.0
 10
-20.300799999999999
 20
14.9506
 30
0.0
 10
-19.526800000000001
 20
14.6198
 30
0.0
 10
-18.555399999999999
 20
13.5877
 30
0.0
 10
-18.203700000000001
 20
12.834199999999999
 30
0.0
 10
-18.203700000000001
 20
12.834199999999999
 30
0.0
 10
-17.9481
 20
12.2866
 30
0.0
 10
-16.9467
 20
10.446899999999999
 30
0.0
 10
-16.932500000000001
 20
9.8369
 30
0.0
 10
-16.932500000000001
 20
9.8369
 30
0.0
 10
-16.479299999999999
 20
9.6044
 30
0.0
 10
-16.6524
 20
9.3082999999999991
 30
0.0
 10
-15.7065
 20
8.9916
 30
0.0
 10
-15.7065
 20
8.9916
 30
0.0
 10
-15.142899999999999
 20
8.8027999999999995
 30
0.0
 10
-14.597200000000001
 20
8.7603000000000009
 30
0.0
 10
-14.0022
 20
8.9497
 30
0.0
 10
-14.0022
 20
8.9497
 30
0.0
 10
-13.0694
 20
9.2468000000000004
 30
0.0
 10
-12.1477
 20
10.125299999999999
 30
0.0
 10
-12.1477
 20
11.300700000000001
 30
0.0
 10
-12.1477
 20
11.300700000000001
 30
0.0
 10
-11.3596
 20
11.1228
 30
0.0
 10
-10.6516
 20
10.5222
 30
0.0
 10
-9.8505000000000003
 20
10.945600000000001
 30
0.0
 10
-9.8505000000000003
 20
10.945600000000001
 30
0.0
 10
-9.1600000000000001
 20
11.31
 30
0.0
 10
-8.6218000000000004
 20
11.761699999999999
 30
0.0
 10
-8.6218000000000004
 20
12.7644
 30
0.0
 10
-8.6218000000000004
 20
12.7644
 30
0.0
 10
-7.9931000000000001
 20
13.0566
 30
0.0
 10
-7.7347999999999999
 20
12.8262
 30
0.0
 10
-7.0945999999999998
 20
13.3179
 30
0.0
 10
-7.0945999999999998
 20
13.3179
 30
0.0
 10
-6.6266999999999996
 20
13.677300000000001
 30
0.0
 10
-6.5034000000000001
 20
14.014799999999999
 30
0.0
 10
-6.1955999999999998
 20
14.472899999999999
 30
0.0
 10
-6.1955999999999998
 20
14.472899999999999
 30
0.0
 10
-6.1955999999999998
 20
14.472899999999999
 30
0.0
 10
-6.1035000000000004
 20
15.4482
 30
0.0
 10
-6.1035000000000004
 20
15.4482
 30
0.0
 10
-6.1035000000000004
 20
15.4482
 30
0.0
 10
-6.1035000000000004
 20
15.4482
 30
0.0
 10
-6.1035000000000004
 20
15.610900000000001
 30
0.0
 10
-6.1035000000000004
 20
15.610900000000001
 30
0.0
 10
-6.1035000000000004
 20
15.610900000000001
 30
0.0
 10
-6.1035000000000004
 20
16.4801
 30
0.0
 10
-7.6877000000000004
 20
17.481200000000001
 30
0.0
 10
-8.6218000000000004
 20
17.481200000000001
 30
0.0
 10
-8.6218000000000004
 20
17.481200000000001
 30
0.0
 10
-8.6218000000000004
 20
17.481200000000001
 30
0.0
 10
-8.6218000000000004
 20
17.725100000000001
 30
0.0
 10
-8.6218000000000004
 20
17.725100000000001
 30
0.0
 10
-8.6218000000000004
 20
17.725100000000001
 30
0.0
 10
-8.6218000000000004
 20
18.116
 30
0.0
 10
-8.3699999999999992
 20
18.1477
 30
0.0
 10
-8.3699999999999992
 20
18.538399999999999
 30
0.0
 10
-8.3699999999999992
 20
18.538399999999999
 30
0.0
 10
-8.3699999999999992
 20
18.538399999999999
 30
0.0
 10
-8.3699999999999992
 20
19.107700000000001
 30
0.0
 10
-8.3699999999999992
 20
19.107700000000001
 30
0.0
 10
-8.3699999999999992
 20
19.107700000000001
 30
0.0
 10
-8.3699999999999992
 20
19.355599999999999
 30
0.0
 10
-8.4505999999999997
 20
19.435500000000001
 30
0.0
 10
-8.5380000000000003
 20
19.595400000000001
 30
0.0
 10
-8.5380000000000003
 20
19.595400000000001
 30
0.0
 10
-8.1387
 20
20.173100000000002
 30
0.0
 10
-7.4504000000000001
 20
20.421600000000002
 30
0.0
 10
-7.0753000000000004
 20
21.268999999999998
 30
0.0
 10
-7.0753000000000004
 20
21.268999999999998
 30
0.0
 10
-6.5490000000000004
 20
22.4573
 30
0.0
 10
-6.7038000000000002
 20
22.522200000000002
 30
0.0
 10
-7.0923999999999996
 20
23.679600000000001
 30
0.0
 10
-7.0923999999999996
 20
23.679600000000001
 30
0.0
 10
-7.569
 20
25.099900000000002
 30
0.0
 10
-9.4786000000000001
 20
25.776199999999999
 30
0.0
 10
-11.476000000000001
 20
25.776199999999999
 30
0.0
 10
-11.476000000000001
 20
25.776199999999999
 30
0.0
 10
-11.476000000000001
 20
25.776199999999999
 30
0.0
 10
-12.315
 20
25.738399999999999
 30
0.0
 10
-12.315
 20
25.738399999999999
 30
0.0
 10
-12.315
 20
25.738399999999999
 30
0.0
 10
-12.315
 20
25.738399999999999
 30
0.0
 10
-14.5822
 20
25.776199999999999
 30
0.0
 10
-14.5822
 20
25.776199999999999
 30
0.0
 10
-14.5822
 20
25.776199999999999
 30
0.0
 10
-14.326700000000001
 20
26.113800000000001
 30
0.0
 10
-13.052300000000001
 20
26.4206
 30
0.0
 10
-12.5563
 20
26.578700000000001
 30
0.0
 10
-12.5563
 20
26.578700000000001
 30
0.0
 10
-11.911300000000001
 20
26.784199999999998
 30
0.0
 10
-11.255100000000001
 20
27.280000000000001
 30
0.0
 10
-10.702999999999999
 20
27.629300000000001
 30
0.0
 10
-10.702999999999999
 20
27.629300000000001
 30
0.0
 10
-9.6869999999999994
 20
28.272600000000001
 30
0.0
 10
-8.8735999999999997
 20
29.898900000000001
 30
0.0
 10
-8.8735999999999997
 20
31.5501
 30
0.0
 10
-8.8735999999999997
 20
31.5501
 30
0.0
 10
-8.8735999999999997
 20
31.5501
 30
0.0
 10
-8.8735999999999997
 20
31.956499999999998
 30
0.0
 10
-8.8735999999999997
 20
31.956499999999998
 30
0.0
 10
-8.8735999999999997
 20
31.956499999999998
 30
0.0
 10
-8.1788000000000007
 20
31.776900000000001
 30
0.0
 10
-7.7327000000000004
 20
30.640599999999999
 30
0.0
 10
-7.3718000000000004
 20
30.077400000000001
 30
0.0
 10
-7.3718000000000004
 20
30.077400000000001
 30
0.0
 10
-6.9923999999999999
 20
29.4846
 30
0.0
 10
-6.3041
 20
28.692599999999999
 30
0.0
 10
-5.6835000000000004
 20
28.378599999999999
 30
0.0
 10
-5.6835000000000004
 20
28.378599999999999
 30
0.0
 10
-4.9596
 20
28.0121
 30
0.0
 10
-3.8018999999999998
 20
27.828600000000002
 30
0.0
 10
-2.9860000000000002
 20
27.785399999999999
 30
0.0
 10
-2.9860000000000002
 20
27.785399999999999
 30
0.0
 10
-2.6194000000000002
 20
27.766100000000002
 30
0.0
 10
-1.9401999999999999
 20
27.687000000000001
 30
0.0
 10
-1.5336000000000001
 20
27.6008
 30
0.0
 10
-1.5336000000000001
 20
27.6008
 30
0.0
 10
-1.2855000000000001
 20
27.547899999999998
 30
0.0
 10
-1.1254
 20
27.474499999999999
 30
0.0
 10
-0.9902
 20
27.397200000000002
 30
0.0
  0
SPLINE
  5
2D
100
AcDbEntity
  8
RÚteg 1
 62
     7
100
AcDbSpline
210
0.0
220
0.0
230
1.0
 70
     1
 71
     3
 72
    32
 73
    28
 74
     0
 42
0.0000000001
 43
0.0000000001
 40
0.0
 40
0.0
 40
0.0
 40
0.0
 40
0.1428571428571429
 40
0.1428571428571429
 40
0.1428571428571429
 40
0.1428571428571429
 40
0.2857142857142857
 40
0.2857142857142857
 40
0.2857142857142857
 40
0.2857142857142857
 40
0.4285714285714286
 40
0.4285714285714286
 40
0.4285714285714286
 40
0.4285714285714286
 40
0.5714285714285714
 40
0.5714285714285714
 40
0.5714285714285714
 40
0.5714285714285714
 40
0.7142857142857142
 40
0.7142857142857142
 40
0.7142857142857142
 40
0.7142857142857142
 40
0.857142857142857
 40
0.857142857142857
 40
0.857142857142857
 40
0.857142857142857
 40
1.0
 40
1.0
 40
1.0
 40
1.0
 10
-42.848999999999997
 20
3.1398999999999999
 30
0.0
 10
-45.140900000000002
 20
4.1584000000000003
 30
0.0
 10
-47.281599999999997
 20
5.4560000000000004
 30
0.0
 10
-49.226199999999999
 20
6.9911000000000003
 30
0.0
 10
-49.226199999999999
 20
6.9911000000000003
 30
0.0
 10
-49.137700000000002
 20
7.1593
 30
0.0
 10
-49.046700000000001
 20
7.3147000000000002
 30
0.0
 10
-48.938699999999997
 20
7.4188999999999998
 30
0.0
 10
-48.938699999999997
 20
7.4188999999999998
 30
0.0
 10
-48.451900000000002
 20
7.8890000000000002
 30
0.0
 10
-48.2928
 20
8.0938999999999997
 30
0.0
 10
-47.747300000000003
 20
8.5412999999999997
 30
0.0
 10
-47.747300000000003
 20
8.5412999999999997
 30
0.0
 10
-46.711599999999997
 20
9.3904999999999994
 30
0.0
 10
-45.758699999999997
 20
9.4380000000000006
 30
0.0
 10
-44.551200000000001
 20
9.9993999999999996
 30
0.0
 10
-44.551200000000001
 20
9.9993999999999996
 30
0.0
 10
-43.721800000000002
 20
9.5741999999999994
 30
0.0
 10
-42.6205
 20
7.1391
 30
0.0
 10
-42.6205
 20
5.9330999999999996
 30
0.0
 10
-42.6205
 20
5.9330999999999996
 30
0.0
 10
-42.6205
 20
5.9330999999999996
 30
0.0
 10
-42.6205
 20
4.5507
 30
0.0
 10
-42.6205
 20
4.5507
 30
0.0
 10
-42.6205
 20
4.5507
 30
0.0
 10
-42.6205
 20
3.9318
 30
0.0
 10
-42.789299999999997
 20
3.5705
 30
0.0
 10
-42.848999999999997
 20
3.1398999999999999
 30
0.0
  0
SPLINE
  5
2E
100
AcDbEntity
  8
RÚteg 1
 62
     7
100
AcDbSpline
210
0.0
220
0.0
230
1.0
 70
     1
 71
     3
 72
   148
 73
   144
 74
     0
 42
0.0000000001
 43
0.0000000001
 40
0.0
 40
0.0
 40
0.0
 40
0.0
 40
0.0277777777777778
 40
0.0277777777777778
 40
0.0277777777777778
 40
0.0277777777777778
 40
0.0555555555555556
 40
0.0555555555555556
 40
0.0555555555555556
 40
0.0555555555555556
 40
0.0833333333333333
 40
0.0833333333333333
 40
0.0833333333333333
 40
0.0833333333333333
 40
0.1111111111111111
 40
0.1111111111111111
 40
0.1111111111111111
 40
0.1111111111111111
 40
0.1388888888888889
 40
0.1388888888888889
 40
0.1388888888888889
 40
0.1388888888888889
 40
0.1666666666666667
 40
0.1666666666666667
 40
0.1666666666666667
 40
0.1666666666666667
 40
0.1944444444444445
 40
0.1944444444444445
 40
0.1944444444444445
 40
0.1944444444444445
 40
0.2222222222222223
 40
0.2222222222222223
 40
0.2222222222222223
 40
0.2222222222222223
 40
0.2500000000000001
 40
0.2500000000000001
 40
0.2500000000000001
 40
0.2500000000000001
 40
0.2777777777777779
 40
0.2777777777777779
 40
0.2777777777777779
 40
0.2777777777777779
 40
0.3055555555555556
 40
0.3055555555555556
 40
0.3055555555555556
 40
0.3055555555555556
 40
0.3333333333333334
 40
0.3333333333333334
 40
0.3333333333333334
 40
0.3333333333333334
 40
0.3611111111111112
 40
0.3611111111111112
 40
0.3611111111111112
 40
0.3611111111111112
 40
0.388888888888889
 40
0.388888888888889
 40
0.388888888888889
 40
0.388888888888889
 40
0.4166666666666668
 40
0.4166666666666668
 40
0.4166666666666668
 40
0.4166666666666668
 40
0.4444444444444446
 40
0.4444444444444446
 40
0.4444444444444446
 40
0.4444444444444446
 40
0.4722222222222224
 40
0.4722222222222224
 40
0.4722222222222224
 40
0.4722222222222224
 40
0.5000000000000001
 40
0.5000000000000001
 40
0.5000000000000001
 40
0.5000000000000001
 40
0.5277777777777779
 40
0.5277777777777779
 40
0.5277777777777779
 40
0.5277777777777779
 40
0.5555555555555557
 40
0.5555555555555557
 40
0.5555555555555557
 40
0.5555555555555557
 40
0.5833333333333335
 40
0.5833333333333335
 40
0.5833333333333335
 40
0.5833333333333335
 40
0.6111111111111113
 40
0.6111111111111113
 40
0.6111111111111113
 40
0.6111111111111113
 40
0.6388888888888891
 40
0.6388888888888891
 40
0.6388888888888891
 40
0.6388888888888891
 40
0.6666666666666669
 40
0.6666666666666669
 40
0.6666666666666669
 40
0.6666666666666669
 40
0.6944444444444446
 40
0.6944444444444446
 40
0.6944444444444446
 40
0.6944444444444446
 40
0.7222222222222224
 40
0.7222222222222224
 40
0.7222222222222224
 40
0.7222222222222224
 40
0.7500000000000002
 40
0.7500000000000002
 40
0.7500000000000002
 40
0.7500000000000002
 40
0.777777777777778
 40
0.777777777777778
 40
0.777777777777778
 40
0.777777777777778
 40
0.8055555555555558
 40
0.8055555555555558
 40
0.8055555555555558
 40
0.8055555555555558
 40
0.8333333333333336
 40
0.8333333333333336
 40
0.8333333333333336
 40
0.8333333333333336
 40
0.8611111111111114
 40
0.8611111111111114
 40
0.8611111111111114
 40
0.8611111111111114
 40
0.8888888888888892
 40
0.8888888888888892
 40
0.8888888888888892
 40
0.8888888888888892
 40
0.916666666666667
 40
0.916666666666667
 40
0.916666666666667
 40
0.916666666666667
 40
0.9444444444444448
 40
0.9444444444444448
 40
0.9444444444444448
 40
0.9444444444444448
 40
0.9722222222222225
 40
0.9722222222222225
 40
0.9722222222222225
 40
0.9722222222222225
 40
1.0
 40
1.0
 40
1.0
 40
1.0
 10
-50.2121
 20
7.8038999999999996
 30
0.0
 10
-55.5974
 20
12.4396
 30
0.0
 10
-59.312100000000001
 20
18.9617
 30
0.0
 10
-60.331299999999999
 20
26.343800000000002
 30
0.0
 10
-60.331299999999999
 20
26.343800000000002
 30
0.0
 10
-57.668500000000002
 20
26.334
 30
0.0
 10
-53.928800000000003
 20
26.294799999999999
 30
0.0
 10
-51.971899999999998
 20
26.6219
 30
0.0
 10
-51.971899999999998
 20
26.6219
 30
0.0
 10
-50.468400000000003
 20
26.873000000000001
 30
0.0
 10
-49.0518
 20
27.108499999999999
 30
0.0
 10
-47.664299999999997
 20
27.327999999999999
 30
0.0
 10
-47.664299999999997
 20
27.327999999999999
 30
0.0
 10
-46.4923
 20
27.513500000000001
 30
0.0
 10
-44.805599999999998
 20
28.202300000000001
 30
0.0
 10
-43.627800000000001
 20
28.2973
 30
0.0
 10
-43.627800000000001
 20
28.2973
 30
0.0
 10
-43.627800000000001
 20
28.2973
 30
0.0
 10
-43.559600000000003
 20
28.245699999999999
 30
0.0
 10
-43.559600000000003
 20
28.245699999999999
 30
0.0
 10
-43.559600000000003
 20
28.245699999999999
 30
0.0
 10
-43.559600000000003
 20
28.245699999999999
 30
0.0
 10
-44.155799999999999
 20
27.502199999999998
 30
0.0
 10
-44.155799999999999
 20
27.502199999999998
 30
0.0
 10
-44.155799999999999
 20
27.502199999999998
 30
0.0
 10
-44.155799999999999
 20
27.502199999999998
 30
0.0
 10
-44.131700000000002
 20
27.421800000000001
 30
0.0
 10
-44.131700000000002
 20
27.421800000000001
 30
0.0
 10
-44.131700000000002
 20
27.421800000000001
 30
0.0
 10
-44.131700000000002
 20
27.421800000000001
 30
0.0
 10
-36.995899999999999
 20
27.4025
 30
0.0
 10
-36.995899999999999
 20
27.4025
 30
0.0
 10
-36.995899999999999
 20
27.4025
 30
0.0
 10
-37.269300000000001
 20
27.0412
 30
0.0
 10
-38.071899999999999
 20
26.994299999999999
 30
0.0
 10
-38.655799999999999
 20
26.8964
 30
0.0
 10
-38.655799999999999
 20
26.8964
 30
0.0
 10
-39.241199999999999
 20
26.798100000000002
 30
0.0
 10
-39.790500000000002
 20
26.536799999999999
 30
0.0
 10
-40.345199999999998
 20
26.3369
 30
0.0
 10
-40.345199999999998
 20
26.3369
 30
0.0
 10
-41.339700000000001
 20
25.978400000000001
 30
0.0
 10
-42.058900000000001
 20
25.043399999999998
 30
0.0
 10
-42.6205
 20
24.231100000000001
 30
0.0
 10
-42.6205
 20
24.231100000000001
 30
0.0
 10
-42.6205
 20
24.231100000000001
 30
0.0
 10
-42.6205
 20
23.824400000000001
 30
0.0
 10
-42.6205
 20
23.824400000000001
 30
0.0
 10
-42.6205
 20
23.824400000000001
 30
0.0
 10
-43.020000000000003
 20
23.246200000000002
 30
0.0
 10
-42.872300000000003
 20
21.919799999999999
 30
0.0
 10
-42.872300000000003
 20
21.222000000000001
 30
0.0
 10
-42.872300000000003
 20
21.222000000000001
 30
0.0
 10
-42.872300000000003
 20
21.222000000000001
 30
0.0
 10
-42.872300000000003
 20
20.896799999999999
 30
0.0
 10
-42.872300000000003
 20
20.896799999999999
 30
0.0
 10
-42.872300000000003
 20
20.896799999999999
 30
0.0
 10
-43.179099999999998
 20
20.975899999999999
 30
0.0
 10
-43.685699999999997
 20
22.2957
 30
0.0
 10
-43.877099999999999
 20
22.606999999999999
 30
0.0
 10
-43.877099999999999
 20
22.606999999999999
 30
0.0
 10
-44.192399999999999
 20
23.120100000000001
 30
0.0
 10
-44.692599999999999
 20
23.691700000000001
 30
0.0
 10
-45.1387
 20
24.0686
 30
0.0
 10
-45.1387
 20
24.0686
 30
0.0
 10
-46.122999999999998
 20
24.9008
 30
0.0
 10
-47.237499999999997
 20
25.694800000000001
 30
0.0
 10
-49.084499999999998
 20
25.694800000000001
 30
0.0
 10
-49.084499999999998
 20
25.694800000000001
 30
0.0
 10
-49.084499999999998
 20
25.694800000000001
 30
0.0
 10
-49.337699999999998
 20
25.713899999999999
 30
0.0
 10
-49.337699999999998
 20
25.713899999999999
 30
0.0
 10
-49.337699999999998
 20
25.713899999999999
 30
0.0
 10
-49.337699999999998
 20
25.713899999999999
 30
0.0
 10
-50.931100000000001
 20
25.613499999999998
 30
0.0
 10
-50.931100000000001
 20
25.613499999999998
 30
0.0
 10
-50.931100000000001
 20
25.613499999999998
 30
0.0
 10
-50.931100000000001
 20
25.613499999999998
 30
0.0
 10
-50.969000000000001
 20
25.357299999999999
 30
0.0
 10
-50.969000000000001
 20
25.357299999999999
 30
0.0
 10
-50.969000000000001
 20
25.357299999999999
 30
0.0
 10
-50.969000000000001
 20
25.357299999999999
 30
0.0
 10
-51.015000000000001
 20
25.5322
 30
0.0
 10
-51.015000000000001
 20
25.5322
 30
0.0
 10
-51.015000000000001
 20
25.5322
 30
0.0
 10
-51.771500000000003
 20
25.5322
 30
0.0
 10
-55.576500000000003
 20
24.6479
 30
0.0
 10
-55.726599999999998
 20
24.349299999999999
 30
0.0
 10
-55.726599999999998
 20
24.349299999999999
 30
0.0
 10
-55.726599999999998
 20
24.349299999999999
 30
0.0
 10
-56.975499999999997
 20
24.068200000000001
 30
0.0
 10
-56.975499999999997
 20
24.068200000000001
 30
0.0
 10
-56.975499999999997
 20
24.068200000000001
 30
0.0
 10
-56.846200000000003
 20
23.600100000000001
 30
0.0
 10
-54.865299999999998
 20
23.139099999999999
 30
0.0
 10
-54.221699999999998
 20
22.751100000000001
 30
0.0
 10
-54.221699999999998
 20
22.751100000000001
 30
0.0
 10
-53.387300000000003
 20
22.247699999999998
 30
0.0
 10
-52.558999999999997
 20
21.616299999999999
 30
0.0
 10
-51.8352
 20
20.9969
 30
0.0
 10
-51.8352
 20
20.9969
 30
0.0
 10
-50.335799999999999
 20
19.712700000000002
 30
0.0
 10
-48.603999999999999
 20
18.700900000000001
 30
0.0
 10
-46.062100000000001
 20
18.700900000000001
 30
0.0
 10
-46.062100000000001
 20
18.700900000000001
 30
0.0
 10
-46.062100000000001
 20
18.700900000000001
 30
0.0
 10
-45.642499999999998
 20
18.700900000000001
 30
0.0
 10
-45.642499999999998
 20
18.700900000000001
 30
0.0
 10
-45.642499999999998
 20
18.700900000000001
 30
0.0
 10
-45.714199999999998
 20
18.5093
 30
0.0
 10
-47.8157
 20
17.6403
 30
0.0
 10
-48.179299999999998
 20
17.4178
 30
0.0
 10
-48.179299999999998
 20
17.4178
 30
0.0
 10
-48.517800000000001
 20
17.210599999999999
 30
0.0
 10
-48.983499999999999
 20
16.836500000000001
 30
0.0
 10
-49.258200000000002
 20
16.592600000000001
 30
0.0
 10
-49.258200000000002
 20
16.592600000000001
 30
0.0
 10
-49.567500000000003
 20
16.317900000000002
 30
0.0
 10
-49.499499999999998
 20
16.459199999999999
 30
0.0
 10
-49.746000000000002
 20
16.088899999999999
 30
0.0
 10
-49.746000000000002
 20
16.088899999999999
 30
0.0
 10
-49.883699999999997
 20
15.882199999999999
 30
0.0
 10
-49.9694
 20
15.6633
 30
0.0
 10
-50.1755
 20
15.529500000000001
 30
0.0
 10
-50.1755
 20
15.529500000000001
 30
0.0
 10
-50.1755
 20
15.529500000000001
 30
0.0
 10
-50.1755
 20
15.1229
 30
0.0
 10
-50.1755
 20
15.1229
 30
0.0
 10
-50.1755
 20
15.1229
 30
0.0
 10
-50.527200000000001
 20
14.8949
 30
0.0
 10
-50.931100000000001
 20
13.4267
 30
0.0
 10
-50.931100000000001
 20
12.845700000000001
 30
0.0
 10
-50.931100000000001
 20
12.845700000000001
 30
0.0
 10
-50.931100000000001
 20
12.845700000000001
 30
0.0
 10
-50.931100000000001
 20
11.8698
 30
0.0
 10
-50.931100000000001
 20
11.8698
 30
0.0
 10
-50.931100000000001
 20
11.8698
 30
0.0
 10
-50.931100000000001
 20
10.791700000000001
 30
0.0
 10
-50.645000000000003
 20
9.9289000000000005
 30
0.0
 10
-50.457999999999998
 20
8.9941999999999993
 30
0.0
 10
-50.457999999999998
 20
8.9941999999999993
 30
0.0
 10
-50.4069
 20
8.7398000000000007
 30
0.0
 10
-50.309699999999999
 20
8.2837999999999994
 30
0.0
 10
-50.2121
 20
7.8038999999999996
 30
0.0
  0
SPLINE
  5
2F
100
AcDbEntity
  8
RÚteg 1
 62
     7
100
AcDbSpline
210
0.0
220
0.0
230
1.0
 70
     1
 71
     3
 72
    36
 73
    32
 74
     0
 42
0.0000000001
 43
0.0000000001
 40
0.0
 40
0.0
 40
0.0
 40
0.0
 40
0.125
 40
0.125
 40
0.125
 40
0.125
 40
0.25
 40
0.25
 40
0.25
 40
0.25
 40
0.375
 40
0.375
 40
0.375
 40
0.375
 40
0.5
 40
0.5
 40
0.5
 40
0.5
 40
0.625
 40
0.625
 40
0.625
 40
0.625
 40
0.75
 40
0.75
 40
0.75
 40
0.75
 40
0.875
 40
0.875
 40
0.875
 40
0.875
 40
1.0
 40
1.0
 40
1.0
 40
1.0
 10
-60.389299999999999
 20
26.781199999999998
 30
0.0
 10
-60.537999999999997
 20
27.989100000000001
 30
0.0
 10
-60.6158
 20
29.218800000000002
 30
0.0
 10
-60.6158
 20
30.466699999999999
 30
0.0
 10
-60.6158
 20
30.466699999999999
 30
0.0
 10
-60.6158
 20
31.166
 30
0.0
 10
-60.590499999999999
 20
31.859100000000002
 30
0.0
 10
-60.542700000000004
 20
32.546199999999999
 30
0.0
 10
-60.542700000000004
 20
32.546199999999999
 30
0.0
 10
-60.005299999999998
 20
32.490400000000001
 30
0.0
 10
-59.436700000000002
 20
32.407800000000002
 30
0.0
 10
-59.008899999999997
 20
32.344900000000003
 30
0.0
 10
-59.008899999999997
 20
32.344900000000003
 30
0.0
 10
-58.156700000000001
 20
32.219499999999996
 30
0.0
 10
-57.426600000000001
 20
32.173200000000001
 30
0.0
 10
-56.620800000000003
 20
32.056100000000001
 30
0.0
 10
-56.620800000000003
 20
32.056100000000001
 30
0.0
 10
-55.700499999999998
 20
31.922499999999999
 30
0.0
 10
-52.004300000000001
 20
31.686299999999999
 30
0.0
 10
-51.854700000000001
 20
31.143599999999999
 30
0.0
 10
-51.854700000000001
 20
31.143599999999999
 30
0.0
 10
-52.008200000000002
 20
31.1309
 30
0.0
 10
-56.404499999999999
 20
29.140499999999999
 30
0.0
 10
-56.655099999999997
 20
28.962900000000001
 30
0.0
 10
-56.655099999999997
 20
28.962900000000001
 30
0.0
 10
-57.356200000000001
 20
28.467500000000001
 30
0.0
 10
-58.107999999999997
 20
28.1249
 30
0.0
 10
-58.807000000000002
 20
27.631799999999998
 30
0.0
 10
-58.807000000000002
 20
27.631799999999998
 30
0.0
 10
-59.209400000000002
 20
27.3475
 30
0.0
 10
-59.853700000000003
 20
27.0625
 30
0.0
 10
-60.389299999999999
 20
26.781199999999998
 30
0.0
  0
SPLINE
  5
30
100
AcDbEntity
  8
RÚteg 1
 62
     7
100
AcDbSpline
210
0.0
220
0.0
230
1.0
 70
     1
 71
     3
 72
    52
 73
    48
 74
     0
 42
0.0000000001
 43
0.0000000001
 40
0.0
 40
0.0
 40
0.0
 40
0.0
 40
0.0833333333333333
 40
0.0833333333333333
 40
0.0833333333333333
 40
0.0833333333333333
 40
0.1666666666666667
 40
0.1666666666666667
 40
0.1666666666666667
 40
0.1666666666666667
 40
0.25
 40
0.25
 40
0.25
 40
0.25
 40
0.3333333333333333
 40
0.3333333333333333
 40
0.3333333333333333
 40
0.3333333333333333
 40
0.4166666666666666
 40
0.4166666666666666
 40
0.4166666666666666
 40
0.4166666666666666
 40
0.4999999999999999
 40
0.4999999999999999
 40
0.4999999999999999
 40
0.4999999999999999
 40
0.5833333333333333
 40
0.5833333333333333
 40
0.5833333333333333
 40
0.5833333333333333
 40
0.6666666666666666
 40
0.6666666666666666
 40
0.6666666666666666
 40
0.6666666666666666
 40
0.75
 40
0.75
 40
0.75
 40
0.75
 40
0.8333333333333334
 40
0.8333333333333334
 40
0.8333333333333334
 40
0.8333333333333334
 40
0.9166666666666667
 40
0.9166666666666667
 40
0.9166666666666667
 40
0.9166666666666667
 40
1.0
 40
1.0
 40
1.0
 40
1.0
 10
-33.722200000000001
 20
11.056699999999999
 30
0.0
 10
-33.088700000000003
 20
11.056699999999999
 30
0.0
 10
-32.076300000000003
 20
10.873200000000001
 30
0.0
 10
-31.727499999999999
 20
10.925700000000001
 30
0.0
 10
-31.727499999999999
 20
10.925700000000001
 30
0.0
 10
-31.328399999999998
 20
10.9861
 30
0.0
 10
-30.8565
 20
11.4542
 30
0.0
 10
-30.3157
 20
11.660299999999999
 30
0.0
 10
-30.3157
 20
11.660299999999999
 30
0.0
 10
-29.581399999999999
 20
11.940099999999999
 30
0.0
 10
-27.071100000000001
 20
12.308199999999999
 30
0.0
 10
-26.8383
 20
11.4633
 30
0.0
 10
-26.8383
 20
11.4633
 30
0.0
 10
-26.8383
 20
11.4633
 30
0.0
 10
-28.601299999999998
 20
11.4633
 30
0.0
 10
-28.601299999999998
 20
11.4633
 30
0.0
 10
-28.601299999999998
 20
11.4633
 30
0.0
 10
-29.182400000000001
 20
11.4633
 30
0.0
 10
-30.930299999999999
 20
11.195399999999999
 30
0.0
 10
-31.035799999999998
 20
10.8126
 30
0.0
 10
-31.035799999999998
 20
10.8126
 30
0.0
 10
-29.679200000000002
 20
10.8126
 30
0.0
 10
-25.693300000000001
 20
9.5121000000000002
 30
0.0
 10
-25.243300000000001
 20
8.8610000000000007
 30
0.0
 10
-25.243300000000001
 20
8.8610000000000007
 30
0.0
 10
-25.909500000000001
 20
8.9146000000000001
 30
0.0
 10
-27.4621
 20
9.6209000000000007
 30
0.0
 10
-28.107900000000001
 20
9.8268000000000004
 30
0.0
 10
-28.107900000000001
 20
9.8268000000000004
 30
0.0
 10
-28.833100000000002
 20
10.0579
 30
0.0
 10
-30.346399999999999
 20
10.568899999999999
 30
0.0
 10
-31.203800000000001
 20
10.568899999999999
 30
0.0
 10
-31.203800000000001
 20
10.568899999999999
 30
0.0
 10
-31.063700000000001
 20
8.9405000000000001
 30
0.0
 10
-28.651900000000001
 20
7.4786000000000001
 30
0.0
 10
-28.517299999999999
 20
6.9903000000000004
 30
0.0
 10
-28.517299999999999
 20
6.9903000000000004
 30
0.0
 10
-29.719000000000001
 20
7.6063999999999998
 30
0.0
 10
-31.6234
 20
8.8491999999999997
 30
0.0
 10
-31.6234
 20
10.568899999999999
 30
0.0
 10
-31.6234
 20
10.568899999999999
 30
0.0
 10
-32.059899999999999
 20
10.851900000000001
 30
0.0
 10
-33.026200000000003
 20
10.8939
 30
0.0
 10
-33.722200000000001
 20
10.8939
 30
0.0
 10
-33.722200000000001
 20
10.8939
 30
0.0
 10
-33.722200000000001
 20
10.8939
 30
0.0
 10
-33.722200000000001
 20
11.056699999999999
 30
0.0
 10
-33.722200000000001
 20
11.056699999999999
 30
0.0
  0
SPLINE
  5
31
100
AcDbEntity
  8
RÚteg 1
 62
     7
100
AcDbSpline
210
0.0
220
0.0
230
1.0
 70
     1
 71
     3
 72
    40
 73
    36
 74
     0
 42
0.0000000001
 43
0.0000000001
 40
0.0
 40
0.0
 40
0.0
 40
0.0
 40
0.1111111111111111
 40
0.1111111111111111
 40
0.1111111111111111
 40
0.1111111111111111
 40
0.2222222222222222
 40
0.2222222222222222
 40
0.2222222222222222
 40
0.2222222222222222
 40
0.3333333333333333
 40
0.3333333333333333
 40
0.3333333333333333
 40
0.3333333333333333
 40
0.4444444444444444
 40
0.4444444444444444
 40
0.4444444444444444
 40
0.4444444444444444
 40
0.5555555555555556
 40
0.5555555555555556
 40
0.5555555555555556
 40
0.5555555555555556
 40
0.6666666666666667
 40
0.6666666666666667
 40
0.6666666666666667
 40
0.6666666666666667
 40
0.7777777777777779
 40
0.7777777777777779
 40
0.7777777777777779
 40
0.7777777777777779
 40
0.8888888888888891
 40
0.8888888888888891
 40
0.8888888888888891
 40
0.8888888888888891
 40
1.0
 40
1.0
 40
1.0
 40
1.0
 10
-11.811999999999999
 20
16.017299999999999
 30
0.0
 10
-10.5694
 20
16.017299999999999
 30
0.0
 10
-10.3157
 20
16.349399999999999
 30
0.0
 10
-9.3775999999999993
 20
16.830500000000001
 30
0.0
 10
-9.3775999999999993
 20
16.830500000000001
 30
0.0
 10
-9.4227000000000007
 20
16.303599999999999
 30
0.0
 10
-10.1473
 20
15.780900000000001
 30
0.0
 10
-10.7011
 20
15.6724
 30
0.0
 10
-10.7011
 20
15.6724
 30
0.0
 10
-11.180300000000001
 20
15.5785
 30
0.0
 10
-11.1334
 20
15.605600000000001
 30
0.0
 10
-11.673999999999999
 20
15.5731
 30
0.0
 10
-11.673999999999999
 20
15.5731
 30
0.0
 10
-12.404199999999999
 20
15.5299
 30
0.0
 10
-11.895899999999999
 20
15.5936
 30
0.0
 10
-11.895899999999999
 20
15.041499999999999
 30
0.0
 10
-11.895899999999999
 20
15.041499999999999
 30
0.0
 10
-11.895899999999999
 20
15.041499999999999
 30
0.0
 10
-11.895899999999999
 20
14.3908
 30
0.0
 10
-11.895899999999999
 20
14.3908
 30
0.0
 10
-11.895899999999999
 20
14.3908
 30
0.0
 10
-11.895899999999999
 20
14.0036
 30
0.0
 10
-11.9627
 20
13.7021
 30
0.0
 10
-12.1477
 20
13.4962
 30
0.0
 10
-12.1477
 20
13.4962
 30
0.0
 10
-12.1477
 20
13.4962
 30
0.0
 10
-12.054600000000001
 20
13.5146
 30
0.0
 10
-12.054600000000001
 20
13.5146
 30
0.0
 10
-12.054600000000001
 20
13.5146
 30
0.0
 10
-12.054600000000001
 20
13.5146
 30
0.0
 10
-12.585900000000001
 20
16.0305
 30
0.0
 10
-12.585900000000001
 20
16.0305
 30
0.0
 10
-12.585900000000001
 20
16.0305
 30
0.0
 10
-12.585900000000001
 20
16.0305
 30
0.0
 10
-11.811999999999999
 20
16.017299999999999
 30
0.0
 10
-11.811999999999999
 20
16.017299999999999
 30
0.0
  0
SPLINE
  5
32
100
AcDbEntity
  8
RÚteg 1
 62
     7
100
AcDbSpline
210
0.0
220
0.0
230
1.0
 70
     1
 71
     3
 72
    96
 73
    92
 74
     0
 42
0.0000000001
 43
0.0000000001
 40
0.0
 40
0.0
 40
0.0
 40
0.0
 40
0.0434782608695652
 40
0.0434782608695652
 40
0.0434782608695652
 40
0.0434782608695652
 40
0.0869565217391304
 40
0.0869565217391304
 40
0.0869565217391304
 40
0.0869565217391304
 40
0.1304347826086957
 40
0.1304347826086957
 40
0.1304347826086957
 40
0.1304347826086957
 40
0.1739130434782609
 40
0.1739130434782609
 40
0.1739130434782609
 40
0.1739130434782609
 40
0.2173913043478261
 40
0.2173913043478261
 40
0.2173913043478261
 40
0.2173913043478261
 40
0.2608695652173913
 40
0.2608695652173913
 40
0.2608695652173913
 40
0.2608695652173913
 40
0.3043478260869565
 40
0.3043478260869565
 40
0.3043478260869565
 40
0.3043478260869565
 40
0.3478260869565217
 40
0.3478260869565217
 40
0.3478260869565217
 40
0.3478260869565217
 40
0.3913043478260869
 40
0.3913043478260869
 40
0.3913043478260869
 40
0.3913043478260869
 40
0.4347826086956521
 40
0.4347826086956521
 40
0.4347826086956521
 40
0.4347826086956521
 40
0.4782608695652173
 40
0.4782608695652173
 40
0.4782608695652173
 40
0.4782608695652173
 40
0.5217391304347825
 40
0.5217391304347825
 40
0.5217391304347825
 40
0.5217391304347825
 40
0.5652173913043477
 40
0.5652173913043477
 40
0.5652173913043477
 40
0.5652173913043477
 40
0.6086956521739129
 40
0.6086956521739129
 40
0.6086956521739129
 40
0.6086956521739129
 40
0.6521739130434781
 40
0.6521739130434781
 40
0.6521739130434781
 40
0.6521739130434781
 40
0.6956521739130432
 40
0.6956521739130432
 40
0.6956521739130432
 40
0.6956521739130432
 40
0.7391304347826084
 40
0.7391304347826084
 40
0.7391304347826084
 40
0.7391304347826084
 40
0.7826086956521736
 40
0.7826086956521736
 40
0.7826086956521736
 40
0.7826086956521736
 40
0.8260869565217388
 40
0.8260869565217388
 40
0.8260869565217388
 40
0.8260869565217388
 40
0.869565217391304
 40
0.869565217391304
 40
0.869565217391304
 40
0.869565217391304
 40
0.9130434782608692
 40
0.9130434782608692
 40
0.9130434782608692
 40
0.9130434782608692
 40
0.9565217391304344
 40
0.9565217391304344
 40
0.9565217391304344
 40
0.9565217391304344
 40
1.0
 40
1.0
 40
1.0
 40
1.0
 10
-46.062100000000001
 20
16.1799
 30
0.0
 10
-45.687800000000003
 20
16.524000000000001
 30
0.0
 10
-45.012599999999999
 20
17.186499999999999
 30
0.0
 10
-44.383299999999998
 20
17.237100000000002
 30
0.0
 10
-44.383299999999998
 20
17.237100000000002
 30
0.0
 10
-44.383299999999998
 20
17.237100000000002
 30
0.0
 10
-44.383299999999998
 20
17.0745
 30
0.0
 10
-44.383299999999998
 20
17.0745
 30
0.0
 10
-44.383299999999998
 20
17.0745
 30
0.0
 10
-44.605600000000003
 20
17.016999999999999
 30
0.0
 10
-45.390799999999999
 20
16.369399999999999
 30
0.0
 10
-45.390799999999999
 20
16.1799
 30
0.0
 10
-45.390799999999999
 20
16.1799
 30
0.0
 10
-45.390799999999999
 20
16.1738
 30
0.0
 10
-45.143000000000001
 20
15.8246
 30
0.0
 10
-45.085500000000003
 20
15.6624
 30
0.0
 10
-45.085500000000003
 20
15.6624
 30
0.0
 10
-44.984299999999998
 20
15.376200000000001
 30
0.0
 10
-44.943199999999997
 20
15.3553
 30
0.0
 10
-44.866500000000002
 20
15.061500000000001
 30
0.0
 10
-44.866500000000002
 20
15.061500000000001
 30
0.0
 10
-44.776000000000003
 20
14.7159
 30
0.0
 10
-44.719000000000001
 20
14.053800000000001
 30
0.0
 10
-44.719000000000001
 20
13.577500000000001
 30
0.0
 10
-44.719000000000001
 20
13.577500000000001
 30
0.0
 10
-44.719000000000001
 20
13.577500000000001
 30
0.0
 10
-44.719000000000001
 20
13.2524
 30
0.0
 10
-44.719000000000001
 20
13.2524
 30
0.0
 10
-44.719000000000001
 20
13.2524
 30
0.0
 10
-44.719000000000001
 20
12.995799999999999
 30
0.0
 10
-45.296399999999998
 20
11.9595
 30
0.0
 10
-45.642499999999998
 20
11.8698
 30
0.0
 10
-45.642499999999998
 20
11.8698
 30
0.0
 10
-45.348799999999997
 20
12.4076
 30
0.0
 10
-45.087400000000002
 20
13.1487
 30
0.0
 10
-45.183799999999998
 20
13.8428
 30
0.0
 10
-45.183799999999998
 20
13.8428
 30
0.0
 10
-45.221600000000002
 20
14.112399999999999
 30
0.0
 10
-45.354900000000001
 20
14.626300000000001
 30
0.0
 10
-45.383600000000001
 20
14.8858
 30
0.0
 10
-45.383600000000001
 20
14.8858
 30
0.0
 10
-45.461399999999998
 20
15.5886
 30
0.0
 10
-45.527200000000001
 20
15.3752
 30
0.0
 10
-45.642499999999998
 20
15.854900000000001
 30
0.0
 10
-45.642499999999998
 20
15.854900000000001
 30
0.0
 10
-45.642499999999998
 20
15.854900000000001
 30
0.0
 10
-45.810200000000002
 20
15.854900000000001
 30
0.0
 10
-45.810200000000002
 20
15.854900000000001
 30
0.0
 10
-45.810200000000002
 20
15.854900000000001
 30
0.0
 10
-45.836100000000002
 20
15.762
 30
0.0
 10
-46.710299999999997
 20
14.8043
 30
0.0
 10
-46.868499999999997
 20
14.6028
 30
0.0
 10
-46.868499999999997
 20
14.6028
 30
0.0
 10
-47.181600000000003
 20
14.204000000000001
 30
0.0
 10
-47.476300000000002
 20
13.685700000000001
 30
0.0
 10
-47.727699999999999
 20
13.239000000000001
 30
0.0
 10
-47.727699999999999
 20
13.239000000000001
 30
0.0
 10
-48.002200000000002
 20
12.751200000000001
 30
0.0
 10
-48.221800000000002
 20
12.2585
 30
0.0
 10
-48.412700000000001
 20
11.707100000000001
 30
0.0
 10
-48.412700000000001
 20
11.707100000000001
 30
0.0
 10
-48.508499999999998
 20
11.4306
 30
0.0
 10
-48.890099999999997
 20
10.248900000000001
 30
0.0
 10
-49.000399999999999
 20
10.0808
 30
0.0
 10
-49.000399999999999
 20
10.0808
 30
0.0
 10
-49.000399999999999
 20
11.475099999999999
 30
0.0
 10
-48.615699999999997
 20
12.6271
 30
0.0
 10
-48.011400000000002
 20
13.6767
 30
0.0
 10
-48.011400000000002
 20
13.6767
 30
0.0
 10
-47.743899999999996
 20
14.1412
 30
0.0
 10
-47.375100000000003
 20
14.683999999999999
 30
0.0
 10
-47.046599999999998
 20
15.1005
 30
0.0
 10
-47.046599999999998
 20
15.1005
 30
0.0
 10
-46.261299999999999
 20
16.096499999999999
 30
0.0
 10
-46.466500000000003
 20
15.7735
 30
0.0
 10
-47.573500000000003
 20
15.7735
 30
0.0
 10
-47.573500000000003
 20
15.7735
 30
0.0
 10
-48.230699999999999
 20
15.3469
 30
0.0
 10
-48.258600000000001
 20
15.355600000000001
 30
0.0
 10
-48.8705
 20
14.8344
 30
0.0
 10
-48.8705
 20
14.8344
 30
0.0
 10
-49.180700000000002
 20
14.569900000000001
 30
0.0
 10
-49.645600000000002
 20
13.8123
 30
0.0
 10
-49.9238
 20
13.7401
 30
0.0
 10
-49.9238
 20
13.7401
 30
0.0
 10
-49.854799999999997
 20
14.543900000000001
 30
0.0
 10
-48.131900000000002
 20
16.484300000000001
 30
0.0
 10
-47.153599999999997
 20
16.342500000000001
 30
0.0
 10
-47.153599999999997
 20
16.342500000000001
 30
0.0
 10
-47.153599999999997
 20
16.342500000000001
 30
0.0
 10
-46.062100000000001
 20
16.1799
 30
0.0
 10
-46.062100000000001
 20
16.1799
 30
0.0
  0
SPLINE
  5
33
100
AcDbEntity
  8
RÚteg 1
 62
     7
100
AcDbSpline
210
0.0
220
0.0
230
1.0
 70
     1
 71
     3
 72
    20
 73
    16
 74
     0
 42
0.0000000001
 43
0.0000000001
 40
0.0
 40
0.0
 40
0.0
 40
0.0
 40
0.25
 40
0.25
 40
0.25
 40
0.25
 40
0.5
 40
0.5
 40
0.5
 40
0.5
 40
0.75
 40
0.75
 40
0.75
 40
0.75
 40
1.0
 40
1.0
 40
1.0
 40
1.0
 10
-22.808900000000001
 20
18.945
 30
0.0
 10
-22.197399999999998
 20
19.753599999999999
 30
0.0
 10
-15.2079
 20
19.113299999999999
 30
0.0
 10
-14.7501
 20
17.887899999999998
 30
0.0
 10
-14.7501
 20
17.887899999999998
 30
0.0
 10
-15.085800000000001
 20
17.895099999999999
 30
0.0
 10
-16.1629
 20
18.345800000000001
 30
0.0
 10
-16.583100000000002
 20
18.470099999999999
 30
0.0
 10
-16.583100000000002
 20
18.470099999999999
 30
0.0
 10
-16.827200000000001
 20
18.5427
 30
0.0
 10
-18.289000000000001
 20
18.833400000000001
 30
0.0
 10
-18.5335
 20
18.858000000000001
 30
0.0
 10
-18.5335
 20
18.858000000000001
 30
0.0
 10
-19.684899999999999
 20
18.9741
 30
0.0
 10
-21.8551
 20
18.729700000000001
 30
0.0
 10
-22.808900000000001
 20
18.945
 30
0.0
  0
SPLINE
  5
34
100
AcDbEntity
  8
RÚteg 1
 62
     7
100
AcDbSpline
210
0.0
220
0.0
230
1.0
 70
     1
 71
     3
 72
    24
 73
    20
 74
     0
 42
0.0000000001
 43
0.0000000001
 40
0.0
 40
0.0
 40
0.0
 40
0.0
 40
0.2
 40
0.2
 40
0.2
 40
0.2
 40
0.4
 40
0.4
 40
0.4
 40
0.4
 40
0.6000000000000001
 40
0.6000000000000001
 40
0.6000000000000001
 40
0.6000000000000001
 40
0.8
 40
0.8
 40
0.8
 40
0.8
 40
1.0
 40
1.0
 40
1.0
 40
1.0
 10
-27.342199999999998
 20
18.863600000000002
 30
0.0
 10
-27.151199999999999
 20
19.5563
 30
0.0
 10
-26.047499999999999
 20
19.459199999999999
 30
0.0
 10
-25.5792
 20
19.6768
 30
0.0
 10
-25.5792
 20
19.6768
 30
0.0
 10
-25.5792
 20
19.6768
 30
0.0
 10
-25.491
 20
19.724699999999999
 30
0.0
 10
-25.491
 20
19.724699999999999
 30
0.0
 10
-25.491
 20
19.724699999999999
 30
0.0
 10
-25.491
 20
19.724699999999999
 30
0.0
 10
-25.1052
 20
19.055499999999999
 30
0.0
 10
-25.1052
 20
19.055499999999999
 30
0.0
 10
-25.1052
 20
19.055499999999999
 30
0.0
 10
-25.1052
 20
19.055499999999999
 30
0.0
 10
-25.344200000000001
 20
18.879799999999999
 30
0.0
 10
-25.344200000000001
 20
18.879799999999999
 30
0.0
 10
-25.344200000000001
 20
18.879799999999999
 30
0.0
 10
-25.344200000000001
 20
18.879799999999999
 30
0.0
 10
-27.342199999999998
 20
18.863600000000002
 30
0.0
 10
-27.342199999999998
 20
18.863600000000002
 30
0.0
  0
SPLINE
  5
35
100
AcDbEntity
  8
RÚteg 1
 62
     7
100
AcDbSpline
210
0.0
220
0.0
230
1.0
 70
     1
 71
     3
 72
    44
 73
    40
 74
     0
 42
0.0000000001
 43
0.0000000001
 40
0.0
 40
0.0
 40
0.0
 40
0.0
 40
0.1
 40
0.1
 40
0.1
 40
0.1
 40
0.2
 40
0.2
 40
0.2
 40
0.2
 40
0.3
 40
0.3
 40
0.3
 40
0.3
 40
0.4
 40
0.4
 40
0.4
 40
0.4
 40
0.5
 40
0.5
 40
0.5
 40
0.5
 40
0.6
 40
0.6
 40
0.6
 40
0.6
 40
0.7
 40
0.7
 40
0.7
 40
0.7
 40
0.7999999999999999
 40
0.7999999999999999
 40
0.7999999999999999
 40
0.7999999999999999
 40
0.8999999999999999
 40
0.8999999999999999
 40
0.8999999999999999
 40
0.8999999999999999
 40
1.0
 40
1.0
 40
1.0
 40
1.0
 10
-46.398099999999999
 20
22.116599999999998
 30
0.0
 10
-46.415900000000001
 20
22.885400000000001
 30
0.0
 10
-47.572200000000002
 20
23.662099999999999
 30
0.0
 10
-47.909100000000002
 20
24.1495
 30
0.0
 10
-47.909100000000002
 20
24.1495
 30
0.0
 10
-47.909100000000002
 20
24.1495
 30
0.0
 10
-47.573500000000003
 20
24.1495
 30
0.0
 10
-47.573500000000003
 20
24.1495
 30
0.0
 10
-47.573500000000003
 20
24.1495
 30
0.0
 10
-46.778799999999997
 20
23.6343
 30
0.0
 10
-45.922899999999998
 20
23.110900000000001
 30
0.0
 10
-45.894300000000001
 20
21.872699999999998
 30
0.0
 10
-45.894300000000001
 20
21.872699999999998
 30
0.0
 10
-45.451999999999998
 20
21.758199999999999
 30
0.0
 10
-44.647399999999998
 20
21.180800000000001
 30
0.0
 10
-44.635199999999998
 20
20.652999999999999
 30
0.0
 10
-44.635199999999998
 20
20.652999999999999
 30
0.0
 10
-45.090899999999998
 20
20.7011
 30
0.0
 10
-45.7301
 20
21.384499999999999
 30
0.0
 10
-46.062100000000001
 20
21.384499999999999
 30
0.0
 10
-46.062100000000001
 20
21.384499999999999
 30
0.0
 10
-46.225700000000003
 20
21.384499999999999
 30
0.0
 10
-47.1404
 20
20.057099999999998
 30
0.0
 10
-49.420200000000001
 20
20.5716
 30
0.0
 10
-49.420200000000001
 20
20.5716
 30
0.0
 10
-49.420200000000001
 20
20.5716
 30
0.0
 10
-49.420200000000001
 20
20.734200000000001
 30
0.0
 10
-49.420200000000001
 20
20.734200000000001
 30
0.0
 10
-49.420200000000001
 20
20.734200000000001
 30
0.0
 10
-48.470300000000002
 20
20.7546
 30
0.0
 10
-46.879399999999997
 20
20.911000000000001
 30
0.0
 10
-46.398099999999999
 20
21.547499999999999
 30
0.0
 10
-46.398099999999999
 20
21.547499999999999
 30
0.0
 10
-47.591099999999997
 20
22.1587
 30
0.0
 10
-49.351700000000001
 20
22.4298
 30
0.0
 10
-50.847099999999998
 20
22.767199999999999
 30
0.0
 10
-50.847099999999998
 20
22.767199999999999
 30
0.0
 10
-50.412100000000002
 20
23.342300000000002
 30
0.0
 10
-46.905000000000001
 20
22.231000000000002
 30
0.0
 10
-46.398099999999999
 20
22.116599999999998
 30
0.0
  0
SPLINE
  5
36
100
AcDbEntity
  8
RÚteg 1
 62
     7
100
AcDbSpline
210
0.0
220
0.0
230
1.0
 70
     1
 71
     3
 72
    48
 73
    44
 74
     0
 42
0.0000000001
 43
0.0000000001
 40
0.0
 40
0.0
 40
0.0
 40
0.0
 40
0.0909090909090909
 40
0.0909090909090909
 40
0.0909090909090909
 40
0.0909090909090909
 40
0.1818181818181818
 40
0.1818181818181818
 40
0.1818181818181818
 40
0.1818181818181818
 40
0.2727272727272727
 40
0.2727272727272727
 40
0.2727272727272727
 40
0.2727272727272727
 40
0.3636363636363637
 40
0.3636363636363637
 40
0.3636363636363637
 40
0.3636363636363637
 40
0.4545454545454546
 40
0.4545454545454546
 40
0.4545454545454546
 40
0.4545454545454546
 40
0.5454545454545455
 40
0.5454545454545455
 40
0.5454545454545455
 40
0.5454545454545455
 40
0.6363636363636365
 40
0.6363636363636365
 40
0.6363636363636365
 40
0.6363636363636365
 40
0.7272727272727274
 40
0.7272727272727274
 40
0.7272727272727274
 40
0.7272727272727274
 40
0.8181818181818183
 40
0.8181818181818183
 40
0.8181818181818183
 40
0.8181818181818183
 40
0.9090909090909093
 40
0.9090909090909093
 40
0.9090909090909093
 40
0.9090909090909093
 40
1.0
 40
1.0
 40
1.0
 40
1.0
 10
-12.651300000000001
 20
21.222000000000001
 30
0.0
 10
-12.651300000000001
 20
21.307600000000001
 30
0.0
 10
-10.8886
 20
22.244499999999999
 30
0.0
 10
-10.8886
 20
23.092600000000001
 30
0.0
 10
-10.8886
 20
23.092600000000001
 30
0.0
 10
-10.8886
 20
23.092600000000001
 30
0.0
 10
-10.8886
 20
23.499099999999999
 30
0.0
 10
-10.8886
 20
23.499099999999999
 30
0.0
 10
-10.8886
 20
23.499099999999999
 30
0.0
 10
-10.8886
 20
23.863600000000002
 30
0.0
 10
-11.128299999999999
 20
23.9528
 30
0.0
 10
-11.1403
 20
24.475000000000001
 30
0.0
 10
-11.1403
 20
24.475000000000001
 30
0.0
 10
-10.7759
 20
24.380600000000001
 30
0.0
 10
-10.216699999999999
 20
23.6112
 30
0.0
 10
-10.216699999999999
 20
23.1739
 30
0.0
 10
-10.216699999999999
 20
23.1739
 30
0.0
 10
-10.216699999999999
 20
23.1739
 30
0.0
 10
-10.216699999999999
 20
22.9298
 30
0.0
 10
-10.216699999999999
 20
22.9298
 30
0.0
 10
-10.216699999999999
 20
22.9298
 30
0.0
 10
-10.216699999999999
 20
21.5746
 30
0.0
 10
-12.1477
 20
21.313099999999999
 30
0.0
 10
-12.1477
 20
20.978100000000001
 30
0.0
 10
-12.1477
 20
20.978100000000001
 30
0.0
 10
-12.1477
 20
20.587399999999999
 30
0.0
 10
-11.895899999999999
 20
20.555599999999998
 30
0.0
 10
-11.895899999999999
 20
20.1647
 30
0.0
 10
-11.895899999999999
 20
20.1647
 30
0.0
 10
-11.895899999999999
 20
18.644600000000001
 30
0.0
 10
-13.2814
 20
18.223600000000001
 30
0.0
 10
-13.407
 20
17.887899999999998
 30
0.0
 10
-13.407
 20
17.887899999999998
 30
0.0
 10
-13.407
 20
17.887899999999998
 30
0.0
 10
-14.1608
 20
17.796800000000001
 30
0.0
 10
-14.1608
 20
17.796800000000001
 30
0.0
 10
-14.1608
 20
17.796800000000001
 30
0.0
 10
-13.8058
 20
18.277899999999999
 30
0.0
 10
-13.2249
 20
18.496400000000001
 30
0.0
 10
-12.914199999999999
 20
19.118400000000001
 30
0.0
 10
-12.914199999999999
 20
19.118400000000001
 30
0.0
 10
-12.467000000000001
 20
20.014399999999998
 30
0.0
 10
-12.651300000000001
 20
20.214200000000002
 30
0.0
 10
-12.651300000000001
 20
21.222000000000001
 30
0.0
  0
SPLINE
  5
37
100
AcDbEntity
  8
RÚteg 1
 62
     7
100
AcDbSpline
210
0.0
220
0.0
230
1.0
 70
     1
 71
     3
 72
    68
 73
    64
 74
     0
 42
0.0000000001
 43
0.0000000001
 40
0.0
 40
0.0
 40
0.0
 40
0.0
 40
0.0625
 40
0.0625
 40
0.0625
 40
0.0625
 40
0.125
 40
0.125
 40
0.125
 40
0.125
 40
0.1875
 40
0.1875
 40
0.1875
 40
0.1875
 40
0.25
 40
0.25
 40
0.25
 40
0.25
 40
0.3125
 40
0.3125
 40
0.3125
 40
0.3125
 40
0.375
 40
0.375
 40
0.375
 40
0.375
 40
0.4375
 40
0.4375
 40
0.4375
 40
0.4375
 40
0.5
 40
0.5
 40
0.5
 40
0.5
 40
0.5625
 40
0.5625
 40
0.5625
 40
0.5625
 40
0.625
 40
0.625
 40
0.625
 40
0.625
 40
0.6875
 40
0.6875
 40
0.6875
 40
0.6875
 40
0.75
 40
0.75
 40
0.75
 40
0.75
 40
0.8125
 40
0.8125
 40
0.8125
 40
0.8125
 40
0.875
 40
0.875
 40
0.875
 40
0.875
 40
0.9375
 40
0.9375
 40
0.9375
 40
0.9375
 40
1.0
 40
1.0
 40
1.0
 40
1.0
 10
-40.689500000000002
 20
21.953800000000001
 30
0.0
 10
-40.309899999999999
 20
21.994199999999999
 30
0.0
 10
-39.930399999999999
 20
22.738399999999999
 30
0.0
 10
-39.664299999999997
 20
22.993600000000001
 30
0.0
 10
-39.664299999999997
 20
22.993600000000001
 30
0.0
 10
-39.315899999999999
 20
23.328700000000001
 30
0.0
 10
-39.014800000000001
 20
23.640599999999999
 30
0.0
 10
-38.636299999999999
 20
23.9498
 30
0.0
 10
-38.636299999999999
 20
23.9498
 30
0.0
 10
-38.113300000000002
 20
24.376999999999999
 30
0.0
 10
-36.885800000000003
 20
25.473400000000002
 30
0.0
 10
-36.156500000000001
 20
25.5322
 30
0.0
 10
-36.156500000000001
 20
25.5322
 30
0.0
 10
-36.228200000000001
 20
25.271599999999999
 30
0.0
 10
-40.020299999999999
 20
22.500499999999999
 30
0.0
 10
-40.102200000000003
 20
21.547499999999999
 30
0.0
 10
-40.102200000000003
 20
21.547499999999999
 30
0.0
 10
-39.316099999999999
 20
21.724699999999999
 30
0.0
 10
-38.735199999999999
 20
21.784199999999998
 30
0.0
 10
-38.013300000000001
 20
22.044799999999999
 30
0.0
 10
-38.013300000000001
 20
22.044799999999999
 30
0.0
 10
-37.637
 20
22.180700000000002
 30
0.0
 10
-36.469299999999997
 20
22.829999999999998
 30
0.0
 10
-36.240499999999997
 20
22.848600000000001
 30
0.0
 10
-36.240499999999997
 20
22.848600000000001
 30
0.0
 10
-36.412500000000001
 20
22.132300000000001
 30
0.0
 10
-38.4206
 20
21.140699999999999
 30
0.0
 10
-39.430300000000003
 20
21.140699999999999
 30
0.0
 10
-39.430300000000003
 20
21.140699999999999
 30
0.0
 10
-39.430300000000003
 20
21.140699999999999
 30
0.0
 10
-39.598300000000002
 20
21.140699999999999
 30
0.0
 10
-39.598300000000002
 20
21.140699999999999
 30
0.0
 10
-39.598300000000002
 20
21.140699999999999
 30
0.0
 10
-39.926099999999998
 20
21.140699999999999
 30
0.0
 10
-40.222200000000001
 20
21.2029
 30
0.0
 10
-40.437800000000003
 20
21.3034
 30
0.0
 10
-40.437800000000003
 20
21.3034
 30
0.0
 10
-40.437800000000003
 20
21.3034
 30
0.0
 10
-41.167200000000001
 20
20.549399999999999
 30
0.0
 10
-41.167200000000001
 20
20.549399999999999
 30
0.0
 10
-41.167200000000001
 20
20.549399999999999
 30
0.0
 10
-41.167200000000001
 20
20.549399999999999
 30
0.0
 10
-40.892200000000003
 20
21.398099999999999
 30
0.0
 10
-40.892200000000003
 20
21.398099999999999
 30
0.0
 10
-40.892200000000003
 20
21.398099999999999
 30
0.0
 10
-40.940100000000001
 20
21.728300000000001
 30
0.0
 10
-41.109400000000001
 20
21.973099999999999
 30
0.0
 10
-41.109400000000001
 20
22.360399999999998
 30
0.0
 10
-41.109400000000001
 20
22.360399999999998
 30
0.0
 10
-41.109400000000001
 20
22.360399999999998
 30
0.0
 10
-41.109400000000001
 20
22.9298
 30
0.0
 10
-41.109400000000001
 20
22.9298
 30
0.0
 10
-41.109400000000001
 20
22.9298
 30
0.0
 10
-41.109400000000001
 20
23.730599999999999
 30
0.0
 10
-40.353499999999997
 20
25.2271
 30
0.0
 10
-39.598300000000002
 20
25.2882
 30
0.0
 10
-39.598300000000002
 20
25.2882
 30
0.0
 10
-39.708300000000001
 20
24.888999999999999
 30
0.0
 10
-40.229300000000002
 20
24.405200000000001
 30
0.0
 10
-40.361800000000002
 20
23.8323
 30
0.0
 10
-40.361800000000002
 20
23.8323
 30
0.0
 10
-40.488399999999999
 20
23.284600000000001
 30
0.0
 10
-40.689500000000002
 20
22.653400000000001
 30
0.0
 10
-40.689500000000002
 20
21.953800000000001
 30
0.0
  0
SPLINE
  5
38
100
AcDbEntity
  8
RÚteg 1
 62
     7
100
AcDbSpline
210
0.0
220
0.0
230
1.0
 70
     1
 71
     3
 72
   112
 73
   108
 74
     0
 42
0.0000000001
 43
0.0000000001
 40
0.0
 40
0.0
 40
0.0
 40
0.0
 40
0.037037037037037
 40
0.037037037037037
 40
0.037037037037037
 40
0.037037037037037
 40
0.0740740740740741
 40
0.0740740740740741
 40
0.0740740740740741
 40
0.0740740740740741
 40
0.1111111111111111
 40
0.1111111111111111
 40
0.1111111111111111
 40
0.1111111111111111
 40
0.1481481481481481
 40
0.1481481481481481
 40
0.1481481481481481
 40
0.1481481481481481
 40
0.1851851851851852
 40
0.1851851851851852
 40
0.1851851851851852
 40
0.1851851851851852
 40
0.2222222222222222
 40
0.2222222222222222
 40
0.2222222222222222
 40
0.2222222222222222
 40
0.2592592592592592
 40
0.2592592592592592
 40
0.2592592592592592
 40
0.2592592592592592
 40
0.2962962962962963
 40
0.2962962962962963
 40
0.2962962962962963
 40
0.2962962962962963
 40
0.3333333333333333
 40
0.3333333333333333
 40
0.3333333333333333
 40
0.3333333333333333
 40
0.3703703703703704
 40
0.3703703703703704
 40
0.3703703703703704
 40
0.3703703703703704
 40
0.4074074074074074
 40
0.4074074074074074
 40
0.4074074074074074
 40
0.4074074074074074
 40
0.4444444444444444
 40
0.4444444444444444
 40
0.4444444444444444
 40
0.4444444444444444
 40
0.4814814814814815
 40
0.4814814814814815
 40
0.4814814814814815
 40
0.4814814814814815
 40
0.5185185185185185
 40
0.5185185185185185
 40
0.5185185185185185
 40
0.5185185185185185
 40
0.5555555555555556
 40
0.5555555555555556
 40
0.5555555555555556
 40
0.5555555555555556
 40
0.5925925925925926
 40
0.5925925925925926
 40
0.5925925925925926
 40
0.5925925925925926
 40
0.6296296296296295
 40
0.6296296296296295
 40
0.6296296296296295
 40
0.6296296296296295
 40
0.6666666666666665
 40
0.6666666666666665
 40
0.6666666666666665
 40
0.6666666666666665
 40
0.7037037037037035
 40
0.7037037037037035
 40
0.7037037037037035
 40
0.7037037037037035
 40
0.7407407407407405
 40
0.7407407407407405
 40
0.7407407407407405
 40
0.7407407407407405
 40
0.7777777777777775
 40
0.7777777777777775
 40
0.7777777777777775
 40
0.7777777777777775
 40
0.8148148148148144
 40
0.8148148148148144
 40
0.8148148148148144
 40
0.8148148148148144
 40
0.8518518518518514
 40
0.8518518518518514
 40
0.8518518518518514
 40
0.8518518518518514
 40
0.8888888888888884
 40
0.8888888888888884
 40
0.8888888888888884
 40
0.8888888888888884
 40
0.9259259259259254
 40
0.9259259259259254
 40
0.9259259259259254
 40
0.9259259259259254
 40
0.9629629629629624
 40
0.9629629629629624
 40
0.9629629629629624
 40
0.9629629629629624
 40
1.0
 40
1.0
 40
1.0
 40
1.0
 10
-40.941400000000002
 20
18.863600000000002
 30
0.0
 10
-37.941299999999998
 20
18.863600000000002
 30
0.0
 10
-36.203499999999998
 20
19.941299999999998
 30
0.0
 10
-34.914400000000001
 20
22.133199999999999
 30
0.0
 10
-34.914400000000001
 20
22.133199999999999
 30
0.0
 10
-34.322600000000001
 20
23.139099999999999
 30
0.0
 10
-34.0762
 20
24.4619
 30
0.0
 10
-33.787999999999997
 20
25.758800000000001
 30
0.0
 10
-33.787999999999997
 20
25.758800000000001
 30
0.0
 10
-33.512999999999998
 20
26.9984
 30
0.0
 10
-33.106900000000003
 20
28.1629
 30
0.0
 10
-31.7912
 20
28.459900000000001
 30
0.0
 10
-31.7912
 20
28.459900000000001
 30
0.0
 10
-31.7912
 20
28.459900000000001
 30
0.0
 10
-31.7912
 20
28.134499999999999
 30
0.0
 10
-31.7912
 20
28.134499999999999
 30
0.0
 10
-31.7912
 20
28.134499999999999
 30
0.0
 10
-31.7912
 20
26.2378
 30
0.0
 10
-28.9757
 20
27.492899999999999
 30
0.0
 10
-28.0136
 20
26.101500000000001
 30
0.0
 10
-28.0136
 20
26.101500000000001
 30
0.0
 10
-28.0136
 20
26.101500000000001
 30
0.0
 10
-29.7393
 20
25.213200000000001
 30
0.0
 10
-29.7393
 20
25.213200000000001
 30
0.0
 10
-29.7393
 20
25.213200000000001
 30
0.0
 10
-29.7393
 20
25.213200000000001
 30
0.0
 10
-29.776399999999999
 20
25.2882
 30
0.0
 10
-29.776399999999999
 20
25.2882
 30
0.0
 10
-29.776399999999999
 20
25.2882
 30
0.0
 10
-29.776399999999999
 20
25.2882
 30
0.0
 10
-29.776399999999999
 20
25.125399999999999
 30
0.0
 10
-29.776399999999999
 20
25.125399999999999
 30
0.0
 10
-29.776399999999999
 20
25.125399999999999
 30
0.0
 10
-29.776399999999999
 20
25.125399999999999
 30
0.0
 10
-29.523
 20
25.0488
 30
0.0
 10
-29.523
 20
25.0488
 30
0.0
 10
-29.523
 20
25.0488
 30
0.0
 10
-29.523
 20
25.0488
 30
0.0
 10
-27.764800000000001
 20
25.237100000000002
 30
0.0
 10
-27.764800000000001
 20
25.237100000000002
 30
0.0
 10
-27.764800000000001
 20
25.237100000000002
 30
0.0
 10
-28.181999999999999
 20
24.4375
 30
0.0
 10
-28.885200000000001
 20
23.857099999999999
 30
0.0
 10
-29.500699999999998
 20
23.2317
 30
0.0
 10
-29.500699999999998
 20
23.2317
 30
0.0
 10
-29.900200000000002
 20
22.825500000000002
 30
0.0
 10
-30.8492
 20
21.478999999999999
 30
0.0
 10
-31.4556
 20
21.466100000000001
 30
0.0
 10
-31.4556
 20
21.466100000000001
 30
0.0
 10
-31.4116
 20
21.648399999999999
 30
0.0
 10
-31.371600000000001
 20
21.653099999999998
 30
0.0
 10
-31.371600000000001
 20
21.872699999999998
 30
0.0
 10
-31.371600000000001
 20
21.872699999999998
 30
0.0
 10
-31.371600000000001
 20
21.872699999999998
 30
0.0
 10
-31.371600000000001
 20
22.604500000000002
 30
0.0
 10
-31.371600000000001
 20
22.604500000000002
 30
0.0
 10
-31.371600000000001
 20
22.604500000000002
 30
0.0
 10
-31.371600000000001
 20
23.1906
 30
0.0
 10
-31.673300000000001
 20
24.1495
 30
0.0
 10
-32.210900000000002
 20
24.1495
 30
0.0
 10
-32.210900000000002
 20
24.1495
 30
0.0
 10
-33.207900000000002
 20
24.1495
 30
0.0
 10
-33.050400000000003
 20
23.620100000000001
 30
0.0
 10
-33.050400000000003
 20
23.011199999999999
 30
0.0
 10
-33.050400000000003
 20
23.011199999999999
 30
0.0
 10
-33.050400000000003
 20
22.8142
 30
0.0
 10
-33.635899999999999
 20
22.812999999999999
 30
0.0
 10
-33.806100000000001
 20
22.0352
 30
0.0
 10
-33.806100000000001
 20
22.0352
 30
0.0
 10
-33.1736
 20
21.120699999999999
 30
0.0
 10
-32.842799999999997
 20
21.2301
 30
0.0
 10
-31.875299999999999
 20
20.734200000000001
 30
0.0
 10
-31.875299999999999
 20
20.734200000000001
 30
0.0
 10
-32.099800000000002
 20
20.323
 30
0.0
 10
-33.543199999999999
 20
19.0154
 30
0.0
 10
-33.983199999999997
 20
18.5473
 30
0.0
 10
-33.983199999999997
 20
18.5473
 30
0.0
 10
-34.2547
 20
18.257899999999999
 30
0.0
 10
-35.670299999999997
 20
16.5076
 30
0.0
 10
-35.849699999999999
 20
16.207899999999999
 30
0.0
 10
-35.849699999999999
 20
16.207899999999999
 30
0.0
 10
-36.368400000000001
 20
15.3421
 30
0.0
 10
-37.091700000000003
 20
14.667
 30
0.0
 10
-37.5837
 20
13.7401
 30
0.0
 10
-37.5837
 20
13.7401
 30
0.0
 10
-37.768700000000003
 20
13.391299999999999
 30
0.0
 10
-39.084200000000003
 20
11.368399999999999
 30
0.0
 10
-39.346600000000002
 20
11.300700000000001
 30
0.0
 10
-39.346600000000002
 20
11.300700000000001
 30
0.0
 10
-39.346600000000002
 20
11.300700000000001
 30
0.0
 10
-39.346600000000002
 20
11.9511
 30
0.0
 10
-39.346600000000002
 20
11.9511
 30
0.0
 10
-39.346600000000002
 20
11.9511
 30
0.0
 10
-39.346600000000002
 20
13.307700000000001
 30
0.0
 10
-39.6342
 20
14.805199999999999
 30
0.0
 10
-40.044600000000003
 20
15.828799999999999
 30
0.0
 10
-40.044600000000003
 20
15.828799999999999
 30
0.0
 10
-40.264400000000002
 20
16.3765
 30
0.0
 10
-40.4495
 20
16.953700000000001
 30
0.0
 10
-40.7517
 20
17.421099999999999
 30
0.0
 10
-40.7517
 20
17.421099999999999
 30
0.0
 10
-40.854300000000002
 20
17.5792
 30
0.0
 10
-41.606299999999997
 20
18.838999999999999
 30
0.0
 10
-41.613199999999999
 20
18.863600000000002
 30
0.0
 10
-41.613199999999999
 20
18.863600000000002
 30
0.0
 10
-41.613199999999999
 20
18.863600000000002
 30
0.0
 10
-40.941400000000002
 20
18.863600000000002
 30
0.0
 10
-40.941400000000002
 20
18.863600000000002
 30
0.0
  0
SPLINE
  5
39
100
AcDbEntity
  8
RÚteg 1
 62
     7
100
AcDbSpline
210
0.0
220
0.0
230
1.0
 70
     1
 71
     3
 72
    32
 73
    28
 74
     0
 42
0.0000000001
 43
0.0000000001
 40
0.0
 40
0.0
 40
0.0
 40
0.0
 40
0.1428571428571429
 40
0.1428571428571429
 40
0.1428571428571429
 40
0.1428571428571429
 40
0.2857142857142857
 40
0.2857142857142857
 40
0.2857142857142857
 40
0.2857142857142857
 40
0.4285714285714286
 40
0.4285714285714286
 40
0.4285714285714286
 40
0.4285714285714286
 40
0.5714285714285714
 40
0.5714285714285714
 40
0.5714285714285714
 40
0.5714285714285714
 40
0.7142857142857142
 40
0.7142857142857142
 40
0.7142857142857142
 40
0.7142857142857142
 40
0.857142857142857
 40
0.857142857142857
 40
0.857142857142857
 40
0.857142857142857
 40
1.0
 40
1.0
 40
1.0
 40
1.0
 10
-29.860499999999998
 20
27.8904
 30
0.0
 10
-29.753699999999998
 20
28.0318
 30
0.0
 10
-27.275500000000001
 20
28.503699999999998
 30
0.0
 10
-26.9116
 20
28.611999999999998
 30
0.0
 10
-26.9116
 20
28.611999999999998
 30
0.0
 10
-26.486000000000001
 20
28.738499999999998
 30
0.0
 10
-25.858699999999999
 20
28.874199999999998
 30
0.0
 10
-25.4938
 20
29.0276
 30
0.0
 10
-25.4938
 20
29.0276
 30
0.0
 10
-25.151499999999999
 20
29.171399999999998
 30
0.0
 10
-24.601800000000001
 20
29.4345
 30
0.0
 10
-24.236000000000001
 20
29.517099999999999
 30
0.0
 10
-24.236000000000001
 20
29.517099999999999
 30
0.0
 10
-24.2715
 20
29.104800000000001
 30
0.0
 10
-24.838100000000001
 20
28.383600000000001
 30
0.0
 10
-25.049199999999999
 20
28.0275
 30
0.0
 10
-25.049199999999999
 20
28.0275
 30
0.0
 10
-25.523800000000001
 20
27.226600000000001
 30
0.0
 10
-25.571000000000002
 20
27.465
 30
0.0
 10
-26.511900000000001
 20
27.1678
 30
0.0
 10
-26.511900000000001
 20
27.1678
 30
0.0
 10
-27.420100000000001
 20
26.881399999999999
 30
0.0
 10
-27.447099999999999
 20
26.8794
 30
0.0
 10
-28.2653
 20
27.239999999999998
 30
0.0
 10
-28.2653
 20
27.239999999999998
 30
0.0
 10
-28.7563
 20
27.456299999999999
 30
0.0
 10
-29.5932
 20
27.537199999999999
 30
0.0
 10
-29.860499999999998
 20
27.8904
 30
0.0
  0
SPLINE
  5
3A
100
AcDbEntity
  8
RÚteg 1
 62
     7
100
AcDbSpline
210
0.0
220
0.0
230
1.0
 70
     1
 71
     3
 72
    20
 73
    16
 74
     0
 42
0.0000000001
 43
0.0000000001
 40
0.0
 40
0.0
 40
0.0
 40
0.0
 40
0.25
 40
0.25
 40
0.25
 40
0.25
 40
0.5
 40
0.5
 40
0.5
 40
0.5
 40
0.75
 40
0.75
 40
0.75
 40
0.75
 40
1.0
 40
1.0
 40
1.0
 40
1.0
 10
-13.826700000000001
 20
27.4025
 30
0.0
 10
-13.690300000000001
 20
27.8965
 30
0.0
 10
-12.4847
 20
28.988199999999999
 30
0.0
 10
-12.1471
 20
29.435099999999998
 30
0.0
 10
-12.1471
 20
29.435099999999998
 30
0.0
 10
-11.887700000000001
 20
29.778300000000002
 30
0.0
 10
-10.898899999999999
 20
31.320399999999999
 30
0.0
 10
-10.804600000000001
 20
31.712599999999998
 30
0.0
 10
-10.804600000000001
 20
31.712599999999998
 30
0.0
 10
-10.804600000000001
 20
31.712599999999998
 30
0.0
 10
-10.6366
 20
31.712599999999998
 30
0.0
 10
-10.6366
 20
31.712599999999998
 30
0.0
 10
-10.6366
 20
31.712599999999998
 30
0.0
 10
-10.6366
 20
30.595500000000001
 30
0.0
 10
-13.023400000000001
 20
27.610399999999998
 30
0.0
 10
-13.826700000000001
 20
27.4025
 30
0.0
  0
SPLINE
  5
3B
100
AcDbEntity
  8
RÚteg 1
 62
     7
100
AcDbSpline
210
0.0
220
0.0
230
1.0
 70
     1
 71
     3
 72
    16
 73
    12
 74
     0
 42
0.0000000001
 43
0.0000000001
 40
0.0
 40
0.0
 40
0.0
 40
0.0
 40
0.3333333333333333
 40
0.3333333333333333
 40
0.3333333333333333
 40
0.3333333333333333
 40
0.6666666666666666
 40
0.6666666666666666
 40
0.6666666666666666
 40
0.6666666666666666
 40
1.0
 40
1.0
 40
1.0
 40
1.0
 10
-2.8294999999999999
 20
28.866299999999999
 30
0.0
 10
-3.2193000000000001
 20
28.907699999999998
 30
0.0
 10
-5.8009000000000004
 20
31.708600000000001
 30
0.0
 10
-6.8590999999999998
 20
31.793900000000001
 30
0.0
 10
-6.8590999999999998
 20
31.793900000000001
 30
0.0
 10
-6.8590999999999998
 20
31.793900000000001
 30
0.0
 10
-6.8590999999999998
 20
32.0381
 30
0.0
 10
-6.8590999999999998
 20
32.0381
 30
0.0
 10
-6.8590999999999998
 20
32.0381
 30
0.0
 10
-5.0953999999999997
 20
31.134
 30
0.0
 10
-3.7814999999999999
 20
30.609200000000001
 30
0.0
 10
-2.8294999999999999
 20
28.866299999999999
 30
0.0
  0
SPLINE
  5
3C
100
AcDbEntity
  8
RÚteg 1
 62
     7
100
AcDbSpline
210
0.0
220
0.0
230
1.0
 70
     1
 71
     3
 72
    40
 73
    36
 74
     0
 42
0.0000000001
 43
0.0000000001
 40
0.0
 40
0.0
 40
0.0
 40
0.0
 40
0.1111111111111111
 40
0.1111111111111111
 40
0.1111111111111111
 40
0.1111111111111111
 40
0.2222222222222222
 40
0.2222222222222222
 40
0.2222222222222222
 40
0.2222222222222222
 40
0.3333333333333333
 40
0.3333333333333333
 40
0.3333333333333333
 40
0.3333333333333333
 40
0.4444444444444444
 40
0.4444444444444444
 40
0.4444444444444444
 40
0.4444444444444444
 40
0.5555555555555556
 40
0.5555555555555556
 40
0.5555555555555556
 40
0.5555555555555556
 40
0.6666666666666667
 40
0.6666666666666667
 40
0.6666666666666667
 40
0.6666666666666667
 40
0.7777777777777779
 40
0.7777777777777779
 40
0.7777777777777779
 40
0.7777777777777779
 40
0.8888888888888891
 40
0.8888888888888891
 40
0.8888888888888891
 40
0.8888888888888891
 40
1.0
 40
1.0
 40
1.0
 40
1.0
 10
-41.3613
 20
30.004899999999999
 30
0.0
 10
-41.3613
 20
30.5471
 30
0.0
 10
-40.484099999999998
 20
32.095399999999998
 30
0.0
 10
-40.018000000000001
 20
32.200600000000001
 30
0.0
 10
-40.018000000000001
 20
32.200600000000001
 30
0.0
 10
-40.018000000000001
 20
32.200600000000001
 30
0.0
 10
-40.671199999999999
 20
30.105699999999999
 30
0.0
 10
-40.671199999999999
 20
30.105699999999999
 30
0.0
 10
-40.671199999999999
 20
30.105699999999999
 30
0.0
 10
-40.165700000000001
 20
30.050699999999999
 30
0.0
 10
-39.191099999999999
 20
29.702300000000001
 30
0.0
 10
-38.573500000000003
 20
29.615500000000001
 30
0.0
 10
-38.573500000000003
 20
29.615500000000001
 30
0.0
 10
-37.868499999999997
 20
29.516100000000002
 30
0.0
 10
-36.963200000000001
 20
29.4358
 30
0.0
 10
-36.240499999999997
 20
29.4358
 30
0.0
 10
-36.240499999999997
 20
29.4358
 30
0.0
 10
-36.240499999999997
 20
29.4358
 30
0.0
 10
-35.904600000000002
 20
29.4358
 30
0.0
 10
-35.904600000000002
 20
29.4358
 30
0.0
 10
-35.904600000000002
 20
29.4358
 30
0.0
 10
-35.904600000000002
 20
29.4358
 30
0.0
 10
-31.616
 20
29.955500000000001
 30
0.0
 10
-31.616
 20
29.955500000000001
 30
0.0
 10
-31.616
 20
29.955500000000001
 30
0.0
 10
-32.029699999999998
 20
29.4175
 30
0.0
 10
-35.333599999999997
 20
28.866299999999999
 30
0.0
 10
-36.576300000000003
 20
28.866299999999999
 30
0.0
 10
-36.576300000000003
 20
28.866299999999999
 30
0.0
 10
-38.372300000000003
 20
28.866299999999999
 30
0.0
 10
-39.909100000000002
 20
29.351900000000001
 30
0.0
 10
-41.3613
 20
29.6797
 30
0.0
 10
-41.3613
 20
29.6797
 30
0.0
 10
-41.3613
 20
29.6797
 30
0.0
 10
-41.3613
 20
30.004899999999999
 30
0.0
 10
-41.3613
 20
30.004899999999999
 30
0.0
  0
SPLINE
  5
3D
100
AcDbEntity
  8
RÚteg 1
 62
     7
100
AcDbSpline
210
0.0
220
0.0
230
1.0
 70
     1
 71
     3
 72
    88
 73
    84
 74
     0
 42
0.0000000001
 43
0.0000000001
 40
0.0
 40
0.0
 40
0.0
 40
0.0
 40
0.0476190476190476
 40
0.0476190476190476
 40
0.0476190476190476
 40
0.0476190476190476
 40
0.0952380952380952
 40
0.0952380952380952
 40
0.0952380952380952
 40
0.0952380952380952
 40
0.1428571428571429
 40
0.1428571428571429
 40
0.1428571428571429
 40
0.1428571428571429
 40
0.1904761904761905
 40
0.1904761904761905
 40
0.1904761904761905
 40
0.1904761904761905
 40
0.2380952380952381
 40
0.2380952380952381
 40
0.2380952380952381
 40
0.2380952380952381
 40
0.2857142857142857
 40
0.2857142857142857
 40
0.2857142857142857
 40
0.2857142857142857
 40
0.3333333333333333
 40
0.3333333333333333
 40
0.3333333333333333
 40
0.3333333333333333
 40
0.3809523809523809
 40
0.3809523809523809
 40
0.3809523809523809
 40
0.3809523809523809
 40
0.4285714285714286
 40
0.4285714285714286
 40
0.4285714285714286
 40
0.4285714285714286
 40
0.4761904761904762
 40
0.4761904761904762
 40
0.4761904761904762
 40
0.4761904761904762
 40
0.5238095238095237
 40
0.5238095238095237
 40
0.5238095238095237
 40
0.5238095238095237
 40
0.5714285714285714
 40
0.5714285714285714
 40
0.5714285714285714
 40
0.5714285714285714
 40
0.6190476190476191
 40
0.6190476190476191
 40
0.6190476190476191
 40
0.6190476190476191
 40
0.6666666666666667
 40
0.6666666666666667
 40
0.6666666666666667
 40
0.6666666666666667
 40
0.7142857142857144
 40
0.7142857142857144
 40
0.7142857142857144
 40
0.7142857142857144
 40
0.7619047619047621
 40
0.7619047619047621
 40
0.7619047619047621
 40
0.7619047619047621
 40
0.8095238095238098
 40
0.8095238095238098
 40
0.8095238095238098
 40
0.8095238095238098
 40
0.8571428571428574
 40
0.8571428571428574
 40
0.8571428571428574
 40
0.8571428571428574
 40
0.9047619047619051
 40
0.9047619047619051
 40
0.9047619047619051
 40
0.9047619047619051
 40
0.9523809523809528
 40
0.9523809523809528
 40
0.9523809523809528
 40
0.9523809523809528
 40
1.0
 40
1.0
 40
1.0
 40
1.0
 10
-51.182899999999997
 20
30.086200000000002
 30
0.0
 10
-51.127000000000002
 20
30.5823
 30
0.0
 10
-49.9998
 20
30.825399999999998
 30
0.0
 10
-49.5764
 20
30.9695
 30
0.0
 10
-49.5764
 20
30.9695
 30
0.0
 10
-48.9679
 20
31.176400000000001
 30
0.0
 10
-48.442300000000003
 20
31.383600000000001
 30
0.0
 10
-47.789400000000001
 20
31.596699999999998
 30
0.0
 10
-47.789400000000001
 20
31.596699999999998
 30
0.0
 10
-47.114100000000001
 20
31.8169
 30
0.0
 10
-44.438800000000001
 20
32.444699999999997
 30
0.0
 10
-43.7117
 20
32.444699999999997
 30
0.0
 10
-43.7117
 20
32.444699999999997
 30
0.0
 10
-43.7117
 20
32.444699999999997
 30
0.0
 10
-43.375900000000001
 20
32.444699999999997
 30
0.0
 10
-43.375900000000001
 20
32.444699999999997
 30
0.0
 10
-43.375900000000001
 20
32.444699999999997
 30
0.0
 10
-43.375900000000001
 20
32.444699999999997
 30
0.0
 10
-43.988
 20
31.9053
 30
0.0
 10
-43.988
 20
31.9053
 30
0.0
 10
-43.988
 20
31.9053
 30
0.0
 10
-43.988
 20
31.9053
 30
0.0
 10
-42.277799999999999
 20
31.679500000000001
 30
0.0
 10
-42.277799999999999
 20
31.679500000000001
 30
0.0
 10
-42.277799999999999
 20
31.679500000000001
 30
0.0
 10
-42.465400000000002
 20
31.300599999999999
 30
0.0
 10
-42.995100000000001
 20
31.224799999999998
 30
0.0
 10
-43.407400000000003
 20
31.092700000000001
 30
0.0
 10
-43.407400000000003
 20
31.092700000000001
 30
0.0
 10
-43.842599999999997
 20
30.953399999999998
 30
0.0
 10
-44.225299999999997
 20
30.747699999999998
 30
0.0
 10
-44.719000000000001
 20
30.736899999999999
 30
0.0
 10
-44.719000000000001
 20
30.736899999999999
 30
0.0
 10
-44.515900000000002
 20
30.468299999999999
 30
0.0
 10
-42.954700000000003
 20
30.176600000000001
 30
0.0
 10
-42.536299999999997
 20
30.167400000000001
 30
0.0
 10
-42.536299999999997
 20
30.167400000000001
 30
0.0
 10
-42.536299999999997
 20
30.167400000000001
 30
0.0
 10
-42.637599999999999
 20
29.7651
 30
0.0
 10
-42.637599999999999
 20
29.7651
 30
0.0
 10
-42.637599999999999
 20
29.7651
 30
0.0
 10
-43.265599999999999
 20
29.615500000000001
 30
0.0
 10
-43.652700000000003
 20
29.241
 30
0.0
 10
-44.417400000000001
 20
29.062000000000001
 30
0.0
 10
-44.417400000000001
 20
29.062000000000001
 30
0.0
 10
-45.0443
 20
28.915400000000002
 30
0.0
 10
-45.692500000000003
 20
28.693899999999999
 30
0.0
 10
-46.3123
 20
28.539300000000001
 30
0.0
 10
-46.3123
 20
28.539300000000001
 30
0.0
 10
-47.326599999999999
 20
28.2866
 30
0.0
 10
-49.370699999999999
 20
27.971800000000002
 30
0.0
 10
-50.595300000000002
 20
27.971800000000002
 30
0.0
 10
-50.595300000000002
 20
27.971800000000002
 30
0.0
 10
-50.595300000000002
 20
27.971800000000002
 30
0.0
 10
-51.0991
 20
27.971800000000002
 30
0.0
 10
-51.0991
 20
27.971800000000002
 30
0.0
 10
-51.0991
 20
27.971800000000002
 30
0.0
 10
-51.0991
 20
27.971800000000002
 30
0.0
 10
-51.146000000000001
 20
28.0717
 30
0.0
 10
-51.146000000000001
 20
28.0717
 30
0.0
 10
-51.146000000000001
 20
28.0717
 30
0.0
 10
-51.146000000000001
 20
28.0717
 30
0.0
 10
-49.134999999999998
 20
28.958200000000001
 30
0.0
 10
-49.134999999999998
 20
28.958200000000001
 30
0.0
 10
-49.134999999999998
 20
28.958200000000001
 30
0.0
 10
-49.134999999999998
 20
28.958200000000001
 30
0.0
 10
-49.168599999999998
 20
29.035499999999999
 30
0.0
 10
-49.168599999999998
 20
29.035499999999999
 30
0.0
 10
-49.168599999999998
 20
29.035499999999999
 30
0.0
 10
-49.168599999999998
 20
29.035499999999999
 30
0.0
 10
-51.099400000000003
 20
28.9529
 30
0.0
 10
-51.099400000000003
 20
28.9529
 30
0.0
 10
-51.099400000000003
 20
28.9529
 30
0.0
 10
-51.099400000000003
 20
28.9529
 30
0.0
 10
-51.3508
 20
28.947700000000001
 30
0.0
 10
-51.3508
 20
28.947700000000001
 30
0.0
 10
-51.3508
 20
28.947700000000001
 30
0.0
 10
-51.1935
 20
29.518999999999998
 30
0.0
 10
-49.338200000000001
 20
29.631499999999999
 30
0.0
 10
-49.168399999999998
 20
30.086200000000002
 30
0.0
 10
-49.168399999999998
 20
30.086200000000002
 30
0.0
 10
-49.168399999999998
 20
30.086200000000002
 30
0.0
 10
-51.182899999999997
 20
30.086200000000002
 30
0.0
 10
-51.182899999999997
 20
30.086200000000002
 30
0.0
  0
SPLINE
  5
3E
100
AcDbEntity
  8
RÚteg 1
 62
     7
100
AcDbSpline
210
0.0
220
0.0
230
1.0
 70
     1
 71
     3
 72
   120
 73
   116
 74
     0
 42
0.0000000001
 43
0.0000000001
 40
0.0
 40
0.0
 40
0.0
 40
0.0
 40
0.0344827586206897
 40
0.0344827586206897
 40
0.0344827586206897
 40
0.0344827586206897
 40
0.0689655172413793
 40
0.0689655172413793
 40
0.0689655172413793
 40
0.0689655172413793
 40
0.103448275862069
 40
0.103448275862069
 40
0.103448275862069
 40
0.103448275862069
 40
0.1379310344827586
 40
0.1379310344827586
 40
0.1379310344827586
 40
0.1379310344827586
 40
0.1724137931034483
 40
0.1724137931034483
 40
0.1724137931034483
 40
0.1724137931034483
 40
0.206896551724138
 40
0.206896551724138
 40
0.206896551724138
 40
0.206896551724138
 40
0.2413793103448276
 40
0.2413793103448276
 40
0.2413793103448276
 40
0.2413793103448276
 40
0.2758620689655173
 40
0.2758620689655173
 40
0.2758620689655173
 40
0.2758620689655173
 40
0.310344827586207
 40
0.310344827586207
 40
0.310344827586207
 40
0.310344827586207
 40
0.3448275862068966
 40
0.3448275862068966
 40
0.3448275862068966
 40
0.3448275862068966
 40
0.3793103448275863
 40
0.3793103448275863
 40
0.3793103448275863
 40
0.3793103448275863
 40
0.413793103448276
 40
0.413793103448276
 40
0.413793103448276
 40
0.413793103448276
 40
0.4482758620689656
 40
0.4482758620689656
 40
0.4482758620689656
 40
0.4482758620689656
 40
0.4827586206896553
 40
0.4827586206896553
 40
0.4827586206896553
 40
0.4827586206896553
 40
0.517241379310345
 40
0.517241379310345
 40
0.517241379310345
 40
0.517241379310345
 40
0.5517241379310346
 40
0.5517241379310346
 40
0.5517241379310346
 40
0.5517241379310346
 40
0.5862068965517242
 40
0.5862068965517242
 40
0.5862068965517242
 40
0.5862068965517242
 40
0.6206896551724138
 40
0.6206896551724138
 40
0.6206896551724138
 40
0.6206896551724138
 40
0.6551724137931034
 40
0.6551724137931034
 40
0.6551724137931034
 40
0.6551724137931034
 40
0.689655172413793
 40
0.689655172413793
 40
0.689655172413793
 40
0.689655172413793
 40
0.7241379310344827
 40
0.7241379310344827
 40
0.7241379310344827
 40
0.7241379310344827
 40
0.7586206896551723
 40
0.7586206896551723
 40
0.7586206896551723
 40
0.7586206896551723
 40
0.7931034482758619
 40
0.7931034482758619
 40
0.7931034482758619
 40
0.7931034482758619
 40
0.8275862068965515
 40
0.8275862068965515
 40
0.8275862068965515
 40
0.8275862068965515
 40
0.8620689655172411
 40
0.8620689655172411
 40
0.8620689655172411
 40
0.8620689655172411
 40
0.8965517241379307
 40
0.8965517241379307
 40
0.8965517241379307
 40
0.8965517241379307
 40
0.9310344827586203
 40
0.9310344827586203
 40
0.9310344827586203
 40
0.9310344827586203
 40
0.9655172413793099
 40
0.9655172413793099
 40
0.9655172413793099
 40
0.9655172413793099
 40
1.0
 40
1.0
 40
1.0
 40
1.0
 10
-18.779699999999998
 20
32.363300000000002
 30
0.0
 10
-18.2104
 20
33.186599999999999
 30
0.0
 10
-14.9095
 20
33.746000000000002
 30
0.0
 10
-13.239100000000001
 20
33.746000000000002
 30
0.0
 10
-13.239100000000001
 20
33.746000000000002
 30
0.0
 10
-12.345700000000001
 20
33.746000000000002
 30
0.0
 10
-11.000299999999999
 20
33.575800000000001
 30
0.0
 10
-10.6366
 20
33.095100000000002
 30
0.0
 10
-10.6366
 20
33.095100000000002
 30
0.0
 10
-11.500500000000001
 20
31.845500000000001
 30
0.0
 10
-13.564500000000001
 20
31.805399999999999
 30
0.0
 10
-14.376300000000001
 20
30.456
 30
0.0
 10
-14.376300000000001
 20
30.456
 30
0.0
 10
-14.944100000000001
 20
29.511700000000001
 30
0.0
 10
-15.673500000000001
 20
26.842600000000001
 30
0.0
 10
-15.673500000000001
 20
25.613499999999998
 30
0.0
 10
-15.673500000000001
 20
25.613499999999998
 30
0.0
 10
-16.8505
 20
25.010100000000001
 30
0.0
 10
-17.7333
 20
23.379100000000001
 30
0.0
 10
-19.0305
 20
22.6038
 30
0.0
 10
-19.0305
 20
22.6038
 30
0.0
 10
-20.425899999999999
 20
21.770299999999999
 30
0.0
 10
-22.5017
 20
21.974699999999999
 30
0.0
 10
-24.2437
 20
21.635999999999999
 30
0.0
 10
-24.2437
 20
21.635999999999999
 30
0.0
 10
-25.1584
 20
21.457899999999999
 30
0.0
 10
-24.782699999999998
 20
21.460999999999999
 30
0.0
 10
-25.207100000000001
 20
20.942699999999999
 30
0.0
 10
-25.207100000000001
 20
20.942699999999999
 30
0.0
 10
-25.5077
 20
20.575600000000001
 30
0.0
 10
-25.914000000000001
 20
20.679500000000001
 30
0.0
 10
-26.4254
 20
20.5779
 30
0.0
 10
-26.4254
 20
20.5779
 30
0.0
 10
-26.7136
 20
20.520600000000002
 30
0.0
 10
-27.526900000000001
 20
20.401199999999999
 30
0.0
 10
-27.7272
 20
20.293800000000001
 30
0.0
 10
-27.7272
 20
20.293800000000001
 30
0.0
 10
-28.1752
 20
20.054300000000001
 30
0.0
 10
-27.908799999999999
 20
19.936399999999999
 30
0.0
 10
-28.674199999999999
 20
19.6663
 30
0.0
 10
-28.674199999999999
 20
19.6663
 30
0.0
 10
-29.515000000000001
 20
19.369499999999999
 30
0.0
 10
-32.5627
 20
17.764500000000002
 30
0.0
 10
-33.050400000000003
 20
17.725100000000001
 30
0.0
 10
-33.050400000000003
 20
17.725100000000001
 30
0.0
 10
-32.985999999999997
 20
18.475999999999999
 30
0.0
 10
-26.436
 20
25.5322
 30
0.0
 10
-26.167000000000002
 20
25.5322
 30
0.0
 10
-26.167000000000002
 20
25.5322
 30
0.0
 10
-25.8123
 20
25.5322
 30
0.0
 10
-25.153600000000001
 20
25.321200000000001
 30
0.0
 10
-24.907599999999999
 20
25.206800000000001
 30
0.0
 10
-24.907599999999999
 20
25.206800000000001
 30
0.0
 10
-24.934699999999999
 20
25.522300000000001
 30
0.0
 10
-25.259
 20
26.182700000000001
 30
0.0
 10
-24.823699999999999
 20
26.182700000000001
 30
0.0
 10
-24.823699999999999
 20
26.182700000000001
 30
0.0
 10
-24.1327
 20
26.182700000000001
 30
0.0
 10
-24.038
 20
25.964300000000001
 30
0.0
 10
-23.564599999999999
 20
25.857600000000001
 30
0.0
 10
-23.564599999999999
 20
25.857600000000001
 30
0.0
 10
-23.658899999999999
 20
26.249600000000001
 30
0.0
 10
-23.984200000000001
 20
26.610199999999999
 30
0.0
 10
-23.984200000000001
 20
26.9147
 30
0.0
 10
-23.984200000000001
 20
26.9147
 30
0.0
 10
-23.984200000000001
 20
27.079999999999998
 30
0.0
 10
-23.921800000000001
 20
27.1843
 30
0.0
 10
-23.732500000000002
 20
27.1587
 30
0.0
 10
-23.732500000000002
 20
27.1587
 30
0.0
 10
-23.732500000000002
 20
27.1587
 30
0.0
 10
-21.207999999999998
 20
26.8733
 30
0.0
 10
-21.207999999999998
 20
26.8733
 30
0.0
 10
-21.207999999999998
 20
26.8733
 30
0.0
 10
-21.4724
 20
27.7714
 30
0.0
 10
-22.753699999999998
 20
27.8324
 30
0.0
 10
-23.732500000000002
 20
28.0532
 30
0.0
 10
-23.732500000000002
 20
28.0532
 30
0.0
 10
-23.6997
 20
28.433700000000002
 30
0.0
 10
-22.689399999999999
 20
29.403700000000001
 30
0.0
 10
-22.389199999999999
 20
29.598299999999998
 30
0.0
 10
-22.389199999999999
 20
29.598299999999998
 30
0.0
 10
-22.389199999999999
 20
29.598299999999998
 30
0.0
 10
-20.4589
 20
28.946400000000001
 30
0.0
 10
-20.4589
 20
28.946400000000001
 30
0.0
 10
-20.4589
 20
28.946400000000001
 30
0.0
 10
-20.4589
 20
28.946400000000001
 30
0.0
 10
-21.120899999999999
 20
30.380600000000001
 30
0.0
 10
-21.120899999999999
 20
30.380600000000001
 30
0.0
 10
-21.120899999999999
 20
30.380600000000001
 30
0.0
 10
-21.120899999999999
 20
30.380600000000001
 30
0.0
 10
-20.458300000000001
 20
30.4115
 30
0.0
 10
-20.458300000000001
 20
30.4115
 30
0.0
 10
-20.458300000000001
 20
30.4115
 30
0.0
 10
-20.0185
 20
30.4115
 30
0.0
 10
-20.039899999999999
 20
30.133700000000001
 30
0.0
 10
-19.450800000000001
 20
30.086200000000002
 30
0.0
 10
-19.450800000000001
 20
30.086200000000002
 30
0.0
 10
-19.450800000000001
 20
30.086200000000002
 30
0.0
 10
-19.9359
 20
31.530100000000001
 30
0.0
 10
-19.9359
 20
31.530100000000001
 30
0.0
 10
-19.9359
 20
31.530100000000001
 30
0.0
 10
-19.9359
 20
31.530100000000001
 30
0.0
 10
-18.9499
 20
31.450299999999999
 30
0.0
 10
-18.9499
 20
31.450299999999999
 30
0.0
 10
-18.9499
 20
31.450299999999999
 30
0.0
 10
-18.9499
 20
31.450299999999999
 30
0.0
 10
-17.703299999999999
 20
30.711400000000001
 30
0.0
 10
-17.703299999999999
 20
30.711400000000001
 30
0.0
 10
-17.703299999999999
 20
30.711400000000001
 30
0.0
 10
-17.703299999999999
 20
30.711400000000001
 30
0.0
 10
-17.6158
 20
30.784400000000002
 30
0.0
 10
-17.6158
 20
30.784400000000002
 30
0.0
 10
-17.6158
 20
30.784400000000002
 30
0.0
 10
-17.6158
 20
30.784400000000002
 30
0.0
 10
-18.779699999999998
 20
32.363300000000002
 30
0.0
 10
-18.779699999999998
 20
32.363300000000002
 30
0.0
  0
SPLINE
  5
3F
100
AcDbEntity
  8
RÚteg 1
 62
     7
100
AcDbSpline
210
0.0
220
0.0
230
1.0
 70
     1
 71
     3
 72
    52
 73
    48
 74
     0
 42
0.0000000001
 43
0.0000000001
 40
0.0
 40
0.0
 40
0.0
 40
0.0
 40
0.0833333333333333
 40
0.0833333333333333
 40
0.0833333333333333
 40
0.0833333333333333
 40
0.1666666666666667
 40
0.1666666666666667
 40
0.1666666666666667
 40
0.1666666666666667
 40
0.25
 40
0.25
 40
0.25
 40
0.25
 40
0.3333333333333333
 40
0.3333333333333333
 40
0.3333333333333333
 40
0.3333333333333333
 40
0.4166666666666666
 40
0.4166666666666666
 40
0.4166666666666666
 40
0.4166666666666666
 40
0.4999999999999999
 40
0.4999999999999999
 40
0.4999999999999999
 40
0.4999999999999999
 40
0.5833333333333333
 40
0.5833333333333333
 40
0.5833333333333333
 40
0.5833333333333333
 40
0.6666666666666666
 40
0.6666666666666666
 40
0.6666666666666666
 40
0.6666666666666666
 40
0.75
 40
0.75
 40
0.75
 40
0.75
 40
0.8333333333333334
 40
0.8333333333333334
 40
0.8333333333333334
 40
0.8333333333333334
 40
0.9166666666666667
 40
0.9166666666666667
 40
0.9166666666666667
 40
0.9166666666666667
 40
1.0
 40
1.0
 40
1.0
 40
1.0
 10
-39.598300000000002
 20
31.224799999999998
 30
0.0
 10
-39.598300000000002
 20
32.115499999999997
 30
0.0
 10
-38.5959
 20
34.4163
 30
0.0
 10
-37.835299999999997
 20
34.477600000000002
 30
0.0
 10
-37.835299999999997
 20
34.477600000000002
 30
0.0
 10
-37.966000000000001
 20
34.004300000000001
 30
0.0
 10
-38.758699999999997
 20
32.896900000000002
 30
0.0
 10
-38.758699999999997
 20
32.200600000000001
 30
0.0
 10
-38.758699999999997
 20
32.200600000000001
 30
0.0
 10
-38.758699999999997
 20
31.836300000000001
 30
0.0
 10
-35.518799999999999
 20
31.5501
 30
0.0
 10
-34.813200000000002
 20
31.5501
 30
0.0
 10
-34.813200000000002
 20
31.5501
 30
0.0
 10
-34.813200000000002
 20
31.5501
 30
0.0
 10
-34.477499999999999
 20
31.5501
 30
0.0
 10
-34.477499999999999
 20
31.5501
 30
0.0
 10
-34.477499999999999
 20
31.5501
 30
0.0
 10
-34.0764
 20
31.5501
 30
0.0
 10
-32.694299999999998
 20
31.707899999999999
 30
0.0
 10
-32.073300000000003
 20
31.825099999999999
 30
0.0
 10
-32.073300000000003
 20
31.825099999999999
 30
0.0
 10
-31.674600000000002
 20
31.900200000000002
 30
0.0
 10
-30.301500000000001
 20
32.2761
 30
0.0
 10
-30.028400000000001
 20
32.281999999999996
 30
0.0
 10
-30.028400000000001
 20
32.281999999999996
 30
0.0
 10
-30.028400000000001
 20
32.281999999999996
 30
0.0
 10
-30.028400000000001
 20
32.119199999999999
 30
0.0
 10
-30.028400000000001
 20
32.119199999999999
 30
0.0
 10
-30.028400000000001
 20
32.119199999999999
 30
0.0
 10
-30.246200000000002
 20
32.063000000000002
 30
0.0
 10
-30.708300000000001
 20
31.709700000000002
 30
0.0
 10
-30.9678
 20
31.5656
 30
0.0
 10
-30.9678
 20
31.5656
 30
0.0
 10
-31.275200000000002
 20
31.394600000000001
 30
0.0
 10
-31.695399999999999
 20
31.2805
 30
0.0
 10
-32.076300000000003
 20
31.1755
 30
0.0
 10
-32.076300000000003
 20
31.1755
 30
0.0
 10
-32.639699999999998
 20
31.020299999999999
 30
0.0
 10
-33.795900000000003
 20
30.899699999999999
 30
0.0
 10
-34.563299999999998
 20
30.9011
 30
0.0
 10
-34.563299999999998
 20
30.9011
 30
0.0
 10
-35.364400000000003
 20
30.9023
 30
0.0
 10
-36.166600000000003
 20
30.762599999999999
 30
0.0
 10
-37.164499999999997
 20
30.8643
 30
0.0
 10
-37.164499999999997
 20
30.8643
 30
0.0
 10
-37.802100000000003
 20
30.929200000000002
 30
0.0
 10
-38.971699999999998
 20
31.173999999999999
 30
0.0
 10
-39.598300000000002
 20
31.224799999999998
 30
0.0
  0
SPLINE
  5
40
100
AcDbEntity
  8
RÚteg 1
 62
     7
100
AcDbSpline
210
0.0
220
0.0
230
1.0
 70
     1
 71
     3
 72
    24
 73
    20
 74
     0
 42
0.0000000001
 43
0.0000000001
 40
0.0
 40
0.0
 40
0.0
 40
0.0
 40
0.2
 40
0.2
 40
0.2
 40
0.2
 40
0.4
 40
0.4
 40
0.4
 40
0.4
 40
0.6000000000000001
 40
0.6000000000000001
 40
0.6000000000000001
 40
0.6000000000000001
 40
0.8
 40
0.8
 40
0.8
 40
0.8
 40
1.0
 40
1.0
 40
1.0
 40
1.0
 10
-14.330299999999999
 20
34.314900000000002
 30
0.0
 10
-13.976100000000001
 20
34.827399999999997
 30
0.0
 10
-12.0154
 20
34.965600000000002
 30
0.0
 10
-11.0562
 20
34.965600000000002
 30
0.0
 10
-11.0562
 20
34.965600000000002
 30
0.0
 10
-11.0562
 20
34.965600000000002
 30
0.0
 10
-10.720599999999999
 20
34.965600000000002
 30
0.0
 10
-10.720599999999999
 20
34.965600000000002
 30
0.0
 10
-10.720599999999999
 20
34.965600000000002
 30
0.0
 10
-10.248900000000001
 20
34.965600000000002
 30
0.0
 10
-10.07
 20
34.832599999999999
 30
0.0
 10
-9.8810000000000002
 20
34.559199999999997
 30
0.0
 10
-9.8810000000000002
 20
34.559199999999997
 30
0.0
 10
-9.8810000000000002
 20
34.559199999999997
 30
0.0
 10
-10.071300000000001
 20
34.162199999999999
 30
0.0
 10
-10.071300000000001
 20
34.162199999999999
 30
0.0
 10
-10.071300000000001
 20
34.162199999999999
 30
0.0
 10
-10.071300000000001
 20
34.162199999999999
 30
0.0
 10
-14.330299999999999
 20
34.314900000000002
 30
0.0
 10
-14.330299999999999
 20
34.314900000000002
 30
0.0
  0
SPLINE
  5
41
100
AcDbEntity
  8
RÚteg 1
 62
     7
100
AcDbSpline
210
0.0
220
0.0
230
1.0
 70
     1
 71
     3
 72
    84
 73
    80
 74
     0
 42
0.0000000001
 43
0.0000000001
 40
0.0
 40
0.0
 40
0.0
 40
0.0
 40
0.05
 40
0.05
 40
0.05
 40
0.05
 40
0.1
 40
0.1
 40
0.1
 40
0.1
 40
0.15
 40
0.15
 40
0.15
 40
0.15
 40
0.2
 40
0.2
 40
0.2
 40
0.2
 40
0.25
 40
0.25
 40
0.25
 40
0.25
 40
0.3
 40
0.3
 40
0.3
 40
0.3
 40
0.35
 40
0.35
 40
0.35
 40
0.35
 40
0.4
 40
0.4
 40
0.4
 40
0.4
 40
0.45
 40
0.45
 40
0.45
 40
0.45
 40
0.4999999999999999
 40
0.4999999999999999
 40
0.4999999999999999
 40
0.4999999999999999
 40
0.5499999999999999
 40
0.5499999999999999
 40
0.5499999999999999
 40
0.5499999999999999
 40
0.6
 40
0.6
 40
0.6
 40
0.6
 40
0.65
 40
0.65
 40
0.65
 40
0.65
 40
0.7000000000000001
 40
0.7000000000000001
 40
0.7000000000000001
 40
0.7000000000000001
 40
0.7500000000000001
 40
0.7500000000000001
 40
0.7500000000000001
 40
0.7500000000000001
 40
0.8000000000000002
 40
0.8000000000000002
 40
0.8000000000000002
 40
0.8000000000000002
 40
0.8500000000000002
 40
0.8500000000000002
 40
0.8500000000000002
 40
0.8500000000000002
 40
0.9000000000000002
 40
0.9000000000000002
 40
0.9000000000000002
 40
0.9000000000000002
 40
0.9500000000000003
 40
0.9500000000000003
 40
0.9500000000000003
 40
0.9500000000000003
 40
1.0
 40
1.0
 40
1.0
 40
1.0
 10
-51.182899999999997
 20
34.721600000000002
 30
0.0
 10
-50.610700000000001
 20
34.767699999999998
 30
0.0
 10
-49.367899999999999
 20
35.3245
 30
0.0
 10
-48.562800000000003
 20
35.436199999999999
 30
0.0
 10
-48.562800000000003
 20
35.436199999999999
 30
0.0
 10
-47.668599999999998
 20
35.5608
 30
0.0
 10
-46.482300000000002
 20
35.697499999999998
 30
0.0
 10
-45.558599999999998
 20
35.697499999999998
 30
0.0
 10
-45.558599999999998
 20
35.697499999999998
 30
0.0
 10
-45.558599999999998
 20
35.697499999999998
 30
0.0
 10
-43.8797
 20
35.697499999999998
 30
0.0
 10
-43.8797
 20
35.697499999999998
 30
0.0
 10
-43.8797
 20
35.697499999999998
 30
0.0
 10
-43.167200000000001
 20
35.697499999999998
 30
0.0
 10
-41.470300000000002
 20
35.575800000000001
 30
0.0
 10
-41.193399999999997
 20
35.209600000000002
 30
0.0
 10
-41.193399999999997
 20
35.209600000000002
 30
0.0
 10
-41.193399999999997
 20
35.209600000000002
 30
0.0
 10
-42.600099999999998
 20
34.590899999999998
 30
0.0
 10
-42.600099999999998
 20
34.590899999999998
 30
0.0
 10
-42.600099999999998
 20
34.590899999999998
 30
0.0
 10
-42.600099999999998
 20
34.590899999999998
 30
0.0
 10
-42.6205
 20
34.477600000000002
 30
0.0
 10
-42.6205
 20
34.477600000000002
 30
0.0
 10
-42.6205
 20
34.477600000000002
 30
0.0
 10
-42.145699999999998
 20
34.477600000000002
 30
0.0
 10
-41.212200000000003
 20
34.444200000000002
 30
0.0
 10
-41.109400000000001
 20
34.070999999999998
 30
0.0
 10
-41.109400000000001
 20
34.070999999999998
 30
0.0
 10
-41.109400000000001
 20
34.070999999999998
 30
0.0
 10
-42.605499999999999
 20
33.389800000000001
 30
0.0
 10
-42.605499999999999
 20
33.389800000000001
 30
0.0
 10
-42.605499999999999
 20
33.389800000000001
 30
0.0
 10
-42.605499999999999
 20
33.389800000000001
 30
0.0
 10
-42.1389
 20
33.056100000000001
 30
0.0
 10
-42.1389
 20
33.056100000000001
 30
0.0
 10
-42.1389
 20
33.056100000000001
 30
0.0
 10
-42.1389
 20
33.056100000000001
 30
0.0
 10
-42.116700000000002
 20
32.932499999999997
 30
0.0
 10
-42.116700000000002
 20
32.932499999999997
 30
0.0
 10
-42.116700000000002
 20
32.932499999999997
 30
0.0
 10
-42.116700000000002
 20
32.932499999999997
 30
0.0
 10
-44.046399999999998
 20
33.030700000000003
 30
0.0
 10
-44.046399999999998
 20
33.030700000000003
 30
0.0
 10
-44.046399999999998
 20
33.030700000000003
 30
0.0
 10
-44.046399999999998
 20
33.030700000000003
 30
0.0
 10
-44.802900000000001
 20
33.0139
 30
0.0
 10
-44.802900000000001
 20
33.0139
 30
0.0
 10
-44.802900000000001
 20
33.0139
 30
0.0
 10
-46.261600000000001
 20
33.0139
 30
0.0
 10
-48.400799999999997
 20
32.442100000000003
 30
0.0
 10
-49.588200000000001
 20
32.525799999999997
 30
0.0
 10
-49.588200000000001
 20
32.525799999999997
 30
0.0
 10
-49.588200000000001
 20
32.525799999999997
 30
0.0
 10
-50.512099999999997
 20
32.599200000000003
 30
0.0
 10
-50.512099999999997
 20
32.599200000000003
 30
0.0
 10
-50.512099999999997
 20
32.599200000000003
 30
0.0
 10
-50.512099999999997
 20
32.599200000000003
 30
0.0
 10
-50.5426
 20
32.689599999999999
 30
0.0
 10
-50.5426
 20
32.689599999999999
 30
0.0
 10
-50.5426
 20
32.689599999999999
 30
0.0
 10
-50.5426
 20
32.689599999999999
 30
0.0
 10
-48.569200000000002
 20
33.390000000000001
 30
0.0
 10
-48.569200000000002
 20
33.390000000000001
 30
0.0
 10
-48.569200000000002
 20
33.390000000000001
 30
0.0
 10
-49.015700000000002
 20
33.455399999999997
 30
0.0
 10
-50.656599999999997
 20
33.358699999999999
 30
0.0
 10
-50.763300000000001
 20
33.746000000000002
 30
0.0
 10
-50.763300000000001
 20
33.746000000000002
 30
0.0
 10
-50.763300000000001
 20
33.746000000000002
 30
0.0
 10
-48.727600000000002
 20
34.3324
 30
0.0
 10
-48.727600000000002
 20
34.3324
 30
0.0
 10
-48.727600000000002
 20
34.3324
 30
0.0
 10
-48.727600000000002
 20
34.3324
 30
0.0
 10
-51.182200000000002
 20
34.494500000000002
 30
0.0
 10
-51.182200000000002
 20
34.494500000000002
 30
0.0
 10
-51.182200000000002
 20
34.494500000000002
 30
0.0
 10
-51.182200000000002
 20
34.494500000000002
 30
0.0
 10
-51.182899999999997
 20
34.721600000000002
 30
0.0
 10
-51.182899999999997
 20
34.721600000000002
 30
0.0
  0
SPLINE
  5
42
100
AcDbEntity
  8
RÚteg 1
 62
     7
100
AcDbSpline
210
0.0
220
0.0
230
1.0
 70
     1
 71
     3
 72
    36
 73
    32
 74
     0
 42
0.0000000001
 43
0.0000000001
 40
0.0
 40
0.0
 40
0.0
 40
0.0
 40
0.125
 40
0.125
 40
0.125
 40
0.125
 40
0.25
 40
0.25
 40
0.25
 40
0.25
 40
0.375
 40
0.375
 40
0.375
 40
0.375
 40
0.5
 40
0.5
 40
0.5
 40
0.5
 40
0.625
 40
0.625
 40
0.625
 40
0.625
 40
0.75
 40
0.75
 40
0.75
 40
0.75
 40
0.875
 40
0.875
 40
0.875
 40
0.875
 40
1.0
 40
1.0
 40
1.0
 40
1.0
 10
-37.331800000000001
 20
32.932499999999997
 30
0.0
 10
-37.506500000000003
 20
33.7316
 30
0.0
 10
-36.4664
 20
36.219000000000001
 30
0.0
 10
-35.652700000000003
 20
36.429499999999997
 30
0.0
 10
-35.652700000000003
 20
36.429499999999997
 30
0.0
 10
-35.682699999999997
 20
36.081299999999999
 30
0.0
 10
-36.576300000000003
 20
34.459800000000001
 30
0.0
 10
-36.576300000000003
 20
34.152500000000003
 30
0.0
 10
-36.576300000000003
 20
34.152500000000003
 30
0.0
 10
-36.576300000000003
 20
34.152500000000003
 30
0.0
 10
-36.576300000000003
 20
33.908499999999997
 30
0.0
 10
-36.576300000000003
 20
33.908499999999997
 30
0.0
 10
-36.576300000000003
 20
33.908499999999997
 30
0.0
 10
-35.751800000000003
 20
33.841999999999999
 30
0.0
 10
-34.751399999999997
 20
33.257899999999999
 30
0.0
 10
-33.554200000000002
 20
33.257899999999999
 30
0.0
 10
-33.554200000000002
 20
33.257899999999999
 30
0.0
 10
-33.554200000000002
 20
33.257899999999999
 30
0.0
 10
-32.463000000000001
 20
33.257899999999999
 30
0.0
 10
-32.463000000000001
 20
33.257899999999999
 30
0.0
 10
-32.463000000000001
 20
33.257899999999999
 30
0.0
 10
-31.571300000000001
 20
33.257899999999999
 30
0.0
 10
-30.915099999999999
 20
33.650500000000001
 30
0.0
 10
-30.280000000000001
 20
33.6646
 30
0.0
 10
-30.280000000000001
 20
33.6646
 30
0.0
 10
-30.455200000000001
 20
33.030099999999997
 30
0.0
 10
-32.570799999999998
 20
32.397500000000001
 30
0.0
 10
-33.638100000000001
 20
32.525799999999997
 30
0.0
 10
-33.638100000000001
 20
32.525799999999997
 30
0.0
 10
-33.638100000000001
 20
32.525799999999997
 30
0.0
 10
-37.331800000000001
 20
32.932499999999997
 30
0.0
 10
-37.331800000000001
 20
32.932499999999997
 30
0.0
  0
SPLINE
  5
43
100
AcDbEntity
  8
RÚteg 1
 62
     7
100
AcDbSpline
210
0.0
220
0.0
230
1.0
 70
     1
 71
     3
 72
    20
 73
    16
 74
     0
 42
0.0000000001
 43
0.0000000001
 40
0.0
 40
0.0
 40
0.0
 40
0.0
 40
0.25
 40
0.25
 40
0.25
 40
0.25
 40
0.5
 40
0.5
 40
0.5
 40
0.5
 40
0.75
 40
0.75
 40
0.75
 40
0.75
 40
1.0
 40
1.0
 40
1.0
 40
1.0
 10
-24.488099999999999
 20
35.778799999999997
 30
0.0
 10
-24.488099999999999
 20
36.439100000000003
 30
0.0
 10
-23.742899999999999
 20
37.974600000000002
 30
0.0
 10
-23.3127
 20
37.974600000000002
 30
0.0
 10
-23.3127
 20
37.974600000000002
 30
0.0
 10
-23.135200000000001
 20
37.974600000000002
 30
0.0
 10
-23.202000000000002
 20
37.945500000000003
 30
0.0
 10
-22.976800000000001
 20
37.893300000000004
 30
0.0
 10
-22.976800000000001
 20
37.893300000000004
 30
0.0
 10
-22.976800000000001
 20
37.893300000000004
 30
0.0
 10
-22.976800000000001
 20
37.405299999999997
 30
0.0
 10
-22.976800000000001
 20
37.405299999999997
 30
0.0
 10
-22.976800000000001
 20
37.405299999999997
 30
0.0
 10
-22.976800000000001
 20
36.645099999999999
 30
0.0
 10
-23.9192
 20
35.926099999999998
 30
0.0
 10
-24.488099999999999
 20
35.778799999999997
 30
0.0
  0
SPLINE
  5
44
100
AcDbEntity
  8
RÚteg 1
 62
     7
100
AcDbSpline
210
0.0
220
0.0
230
1.0
 70
     1
 71
     3
 72
    20
 73
    16
 74
     0
 42
0.0000000001
 43
0.0000000001
 40
0.0
 40
0.0
 40
0.0
 40
0.0
 40
0.25
 40
0.25
 40
0.25
 40
0.25
 40
0.5
 40
0.5
 40
0.5
 40
0.5
 40
0.75
 40
0.75
 40
0.75
 40
0.75
 40
1.0
 40
1.0
 40
1.0
 40
1.0
 10
-26.167000000000002
 20
36.917299999999997
 30
0.0
 10
-26.110099999999999
 20
37.576599999999999
 30
0.0
 10
-24.953499999999998
 20
38.7879
 30
0.0
 10
-24.488099999999999
 20
38.7879
 30
0.0
 10
-24.488099999999999
 20
38.7879
 30
0.0
 10
-24.2944
 20
38.7879
 30
0.0
 10
-24.236000000000001
 20
38.731299999999997
 30
0.0
 10
-24.236000000000001
 20
38.543799999999997
 30
0.0
 10
-24.236000000000001
 20
38.543799999999997
 30
0.0
 10
-24.236000000000001
 20
38.543799999999997
 30
0.0
 10
-24.236000000000001
 20
38.218499999999999
 30
0.0
 10
-24.236000000000001
 20
38.218499999999999
 30
0.0
 10
-24.236000000000001
 20
38.218499999999999
 30
0.0
 10
-24.587800000000001
 20
38.095100000000002
 30
0.0
 10
-24.808800000000002
 20
36.917299999999997
 30
0.0
 10
-26.167000000000002
 20
36.917299999999997
 30
0.0
  0
SPLINE
  5
45
100
AcDbEntity
  8
RÚteg 1
 62
     7
100
AcDbSpline
210
0.0
220
0.0
230
1.0
 70
     1
 71
     3
 72
    28
 73
    24
 74
     0
 42
0.0000000001
 43
0.0000000001
 40
0.0
 40
0.0
 40
0.0
 40
0.0
 40
0.1666666666666667
 40
0.1666666666666667
 40
0.1666666666666667
 40
0.1666666666666667
 40
0.3333333333333333
 40
0.3333333333333333
 40
0.3333333333333333
 40
0.3333333333333333
 40
0.5
 40
0.5
 40
0.5
 40
0.5
 40
0.6666666666666666
 40
0.6666666666666666
 40
0.6666666666666666
 40
0.6666666666666666
 40
0.8333333333333333
 40
0.8333333333333333
 40
0.8333333333333333
 40
0.8333333333333333
 40
1.0
 40
1.0
 40
1.0
 40
1.0
 10
-35.065300000000001
 20
35.209600000000002
 30
0.0
 10
-35.065300000000001
 20
35.698099999999997
 30
0.0
 10
-33.200400000000002
 20
38.491
 30
0.0
 10
-32.546700000000001
 20
38.543799999999997
 30
0.0
 10
-32.546700000000001
 20
38.543799999999997
 30
0.0
 10
-32.546700000000001
 20
38.543799999999997
 30
0.0
 10
-34.115299999999998
 20
35.974299999999999
 30
0.0
 10
-34.115299999999998
 20
35.974299999999999
 30
0.0
 10
-34.115299999999998
 20
35.974299999999999
 30
0.0
 10
-32.959400000000002
 20
35.693600000000004
 30
0.0
 10
-32.466700000000003
 20
35.4176
 30
0.0
 10
-31.1008
 20
35.227800000000002
 30
0.0
 10
-31.1008
 20
35.227800000000002
 30
0.0
 10
-29.151599999999998
 20
34.9572
 30
0.0
 10
-32.090200000000003
 20
34.445599999999999
 30
0.0
 10
-32.798499999999997
 20
34.559199999999997
 30
0.0
 10
-32.798499999999997
 20
34.559199999999997
 30
0.0
 10
-32.798499999999997
 20
34.559199999999997
 30
0.0
 10
-35.067
 20
34.873899999999999
 30
0.0
 10
-35.067
 20
34.873899999999999
 30
0.0
 10
-35.067
 20
34.873899999999999
 30
0.0
 10
-35.067
 20
34.873899999999999
 30
0.0
 10
-35.065300000000001
 20
35.209600000000002
 30
0.0
 10
-35.065300000000001
 20
35.209600000000002
 30
0.0
  0
SPLINE
  5
46
100
AcDbEntity
  8
RÚteg 1
 62
     7
100
AcDbSpline
210
0.0
220
0.0
230
1.0
 70
     1
 71
     3
 72
    24
 73
    20
 74
     0
 42
0.0000000001
 43
0.0000000001
 40
0.0
 40
0.0
 40
0.0
 40
0.0
 40
0.2
 40
0.2
 40
0.2
 40
0.2
 40
0.4
 40
0.4
 40
0.4
 40
0.4
 40
0.6000000000000001
 40
0.6000000000000001
 40
0.6000000000000001
 40
0.6000000000000001
 40
0.8
 40
0.8
 40
0.8
 40
0.8
 40
1.0
 40
1.0
 40
1.0
 40
1.0
 10
-8.5380000000000003
 20
35.290799999999997
 30
0.0
 10
-8.3353000000000002
 20
36.026499999999999
 30
0.0
 10
-7.3826999999999998
 20
36.898200000000003
 30
0.0
 10
-6.8381999999999996
 20
37.385199999999998
 30
0.0
 10
-6.8381999999999996
 20
37.385199999999998
 30
0.0
 10
-6.4618000000000002
 20
37.722099999999998
 30
0.0
 10
-6.1906999999999996
 20
37.916699999999999
 30
0.0
 10
-5.7347999999999999
 20
38.186599999999999
 30
0.0
 10
-5.7347999999999999
 20
38.186599999999999
 30
0.0
 10
-5.1403999999999996
 20
38.5383
 30
0.0
 10
-4.7983000000000002
 20
38.493600000000001
 30
0.0
 10
-4.3407
 20
38.706699999999998
 30
0.0
 10
-4.3407
 20
38.706699999999998
 30
0.0
 10
-4.3838999999999997
 20
38.323
 30
0.0
 10
-6.0933000000000002
 20
37.328099999999999
 30
0.0
 10
-6.4884000000000004
 20
37.046199999999999
 30
0.0
 10
-6.4884000000000004
 20
37.046199999999999
 30
0.0
 10
-6.8979999999999997
 20
36.753700000000002
 30
0.0
 10
-8.4456000000000007
 20
35.3232
 30
0.0
 10
-8.5380000000000003
 20
35.290799999999997
 30
0.0
  0
SPLINE
  5
47
100
AcDbEntity
  8
RÚteg 1
 62
     7
100
AcDbSpline
210
0.0
220
0.0
230
1.0
 70
     1
 71
     3
 72
    28
 73
    24
 74
     0
 42
0.0000000001
 43
0.0000000001
 40
0.0
 40
0.0
 40
0.0
 40
0.0
 40
0.1666666666666667
 40
0.1666666666666667
 40
0.1666666666666667
 40
0.1666666666666667
 40
0.3333333333333333
 40
0.3333333333333333
 40
0.3333333333333333
 40
0.3333333333333333
 40
0.5
 40
0.5
 40
0.5
 40
0.5
 40
0.6666666666666666
 40
0.6666666666666666
 40
0.6666666666666666
 40
0.6666666666666666
 40
0.8333333333333333
 40
0.8333333333333333
 40
0.8333333333333333
 40
0.8333333333333333
 40
1.0
 40
1.0
 40
1.0
 40
1.0
 10
-27.258199999999999
 20
39.113100000000003
 30
0.0
 10
-26.7302
 20
39.8765
 30
0.0
 10
-26.053100000000001
 20
39.930599999999998
 30
0.0
 10
-24.991499999999998
 20
40.170299999999997
 30
0.0
 10
-24.991499999999998
 20
40.170299999999997
 30
0.0
 10
-24.8901
 20
40.023400000000002
 30
0.0
 10
-24.823699999999999
 20
40.027299999999997
 30
0.0
 10
-24.823699999999999
 20
39.845199999999998
 30
0.0
 10
-24.823699999999999
 20
39.845199999999998
 30
0.0
 10
-24.823699999999999
 20
39.845199999999998
 30
0.0
 10
-24.823699999999999
 20
39.600900000000003
 30
0.0
 10
-24.823699999999999
 20
39.600900000000003
 30
0.0
 10
-24.823699999999999
 20
39.600900000000003
 30
0.0
 10
-24.823699999999999
 20
39.166200000000003
 30
0.0
 10
-26.2209
 20
39.0319
 30
0.0
 10
-26.7546
 20
39.0319
 30
0.0
 10
-26.7546
 20
39.0319
 30
0.0
 10
-26.7546
 20
39.0319
 30
0.0
 10
-26.8383
 20
39.0319
 30
0.0
 10
-26.8383
 20
39.0319
 30
0.0
 10
-26.8383
 20
39.0319
 30
0.0
 10
-27.065100000000001
 20
39.0319
 30
0.0
 10
-27.069900000000001
 20
39.070500000000003
 30
0.0
 10
-27.258199999999999
 20
39.113100000000003
 30
0.0
  0
SPLINE
  5
48
100
AcDbEntity
  8
RÚteg 1
 62
     7
100
AcDbSpline
210
0.0
220
0.0
230
1.0
 70
     1
 71
     3
 72
    16
 73
    12
 74
     0
 42
0.0000000001
 43
0.0000000001
 40
0.0
 40
0.0
 40
0.0
 40
0.0
 40
0.3333333333333333
 40
0.3333333333333333
 40
0.3333333333333333
 40
0.3333333333333333
 40
0.6666666666666666
 40
0.6666666666666666
 40
0.6666666666666666
 40
0.6666666666666666
 40
1.0
 40
1.0
 40
1.0
 40
1.0
 10
-26.9223
 20
40.902200000000001
 30
0.0
 10
-26.2864
 20
41.066499999999998
 30
0.0
 10
-25.383700000000001
 20
41.849400000000003
 30
0.0
 10
-24.488099999999999
 20
41.3902
 30
0.0
 10
-24.488099999999999
 20
41.3902
 30
0.0
 10
-24.488099999999999
 20
41.3902
 30
0.0
 10
-24.712399999999999
 20
40.729900000000001
 30
0.0
 10
-24.712399999999999
 20
40.729900000000001
 30
0.0
 10
-24.712399999999999
 20
40.729900000000001
 30
0.0
 10
-25.3599
 20
40.739400000000003
 30
0.0
 10
-26.616700000000002
 20
40.497999999999998
 30
0.0
 10
-26.9223
 20
40.902200000000001
 30
0.0
  0
SPLINE
  5
49
100
AcDbEntity
  8
RÚteg 1
 62
     7
100
AcDbSpline
210
0.0
220
0.0
230
1.0
 70
     1
 71
     3
 72
   136
 73
   132
 74
     0
 42
0.0000000001
 43
0.0000000001
 40
0.0
 40
0.0
 40
0.0
 40
0.0
 40
0.0303030303030303
 40
0.0303030303030303
 40
0.0303030303030303
 40
0.0303030303030303
 40
0.0606060606060606
 40
0.0606060606060606
 40
0.0606060606060606
 40
0.0606060606060606
 40
0.0909090909090909
 40
0.0909090909090909
 40
0.0909090909090909
 40
0.0909090909090909
 40
0.1212121212121212
 40
0.1212121212121212
 40
0.1212121212121212
 40
0.1212121212121212
 40
0.1515151515151515
 40
0.1515151515151515
 40
0.1515151515151515
 40
0.1515151515151515
 40
0.1818181818181818
 40
0.1818181818181818
 40
0.1818181818181818
 40
0.1818181818181818
 40
0.2121212121212121
 40
0.2121212121212121
 40
0.2121212121212121
 40
0.2121212121212121
 40
0.2424242424242424
 40
0.2424242424242424
 40
0.2424242424242424
 40
0.2424242424242424
 40
0.2727272727272727
 40
0.2727272727272727
 40
0.2727272727272727
 40
0.2727272727272727
 40
0.303030303030303
 40
0.303030303030303
 40
0.303030303030303
 40
0.303030303030303
 40
0.3333333333333333
 40
0.3333333333333333
 40
0.3333333333333333
 40
0.3333333333333333
 40
0.3636363636363635
 40
0.3636363636363635
 40
0.3636363636363635
 40
0.3636363636363635
 40
0.3939393939393938
 40
0.3939393939393938
 40
0.3939393939393938
 40
0.3939393939393938
 40
0.4242424242424241
 40
0.4242424242424241
 40
0.4242424242424241
 40
0.4242424242424241
 40
0.4545454545454544
 40
0.4545454545454544
 40
0.4545454545454544
 40
0.4545454545454544
 40
0.4848484848484846
 40
0.4848484848484846
 40
0.4848484848484846
 40
0.4848484848484846
 40
0.5151515151515149
 40
0.5151515151515149
 40
0.5151515151515149
 40
0.5151515151515149
 40
0.5454545454545452
 40
0.5454545454545452
 40
0.5454545454545452
 40
0.5454545454545452
 40
0.5757575757575755
 40
0.5757575757575755
 40
0.5757575757575755
 40
0.5757575757575755
 40
0.6060606060606057
 40
0.6060606060606057
 40
0.6060606060606057
 40
0.6060606060606057
 40
0.636363636363636
 40
0.636363636363636
 40
0.636363636363636
 40
0.636363636363636
 40
0.6666666666666663
 40
0.6666666666666663
 40
0.6666666666666663
 40
0.6666666666666663
 40
0.6969696969696966
 40
0.6969696969696966
 40
0.6969696969696966
 40
0.6969696969696966
 40
0.7272727272727269
 40
0.7272727272727269
 40
0.7272727272727269
 40
0.7272727272727269
 40
0.7575757575757571
 40
0.7575757575757571
 40
0.7575757575757571
 40
0.7575757575757571
 40
0.7878787878787874
 40
0.7878787878787874
 40
0.7878787878787874
 40
0.7878787878787874
 40
0.8181818181818177
 40
0.8181818181818177
 40
0.8181818181818177
 40
0.8181818181818177
 40
0.848484848484848
 40
0.848484848484848
 40
0.848484848484848
 40
0.848484848484848
 40
0.8787878787878782
 40
0.8787878787878782
 40
0.8787878787878782
 40
0.8787878787878782
 40
0.9090909090909085
 40
0.9090909090909085
 40
0.9090909090909085
 40
0.9090909090909085
 40
0.9393939393939388
 40
0.9393939393939388
 40
0.9393939393939388
 40
0.9393939393939388
 40
0.9696969696969691
 40
0.9696969696969691
 40
0.9696969696969691
 40
0.9696969696969691
 40
1.0
 40
1.0
 40
1.0
 40
1.0
 10
-31.371600000000001
 20
40.414299999999997
 30
0.0
 10
-31.371600000000001
 20
40.7271
 30
0.0
 10
-29.529900000000001
 20
41.957299999999996
 30
0.0
 10
-29.133900000000001
 20
42.149999999999999
 30
0.0
 10
-29.133900000000001
 20
42.149999999999999
 30
0.0
 10
-28.248100000000001
 20
42.581699999999998
 30
0.0
 10
-27.204599999999999
 20
42.935200000000002
 30
0.0
 10
-25.914999999999999
 20
42.935200000000002
 30
0.0
 10
-25.914999999999999
 20
42.935200000000002
 30
0.0
 10
-24.311900000000001
 20
42.935200000000002
 30
0.0
 10
-23.155799999999999
 20
42.468800000000002
 30
0.0
 10
-22.310199999999998
 20
41.7104
 30
0.0
 10
-22.310199999999998
 20
41.7104
 30
0.0
 10
-21.647200000000002
 20
41.115600000000001
 30
0.0
 10
-20.8781
 20
39.613900000000001
 30
0.0
 10
-20.8781
 20
38.3812
 30
0.0
 10
-20.8781
 20
38.3812
 30
0.0
 10
-20.8781
 20
36.1858
 30
0.0
 10
-23.1479
 20
31.8751
 30
0.0
 10
-25.075399999999998
 20
31.8751
 30
0.0
 10
-25.075399999999998
 20
31.8751
 30
0.0
 10
-25.018599999999999
 20
31.979399999999998
 30
0.0
 10
-24.028199999999998
 20
32.842599999999997
 30
0.0
 10
-23.796900000000001
 20
33.0764
 30
0.0
 10
-23.796900000000001
 20
33.0764
 30
0.0
 10
-23.414400000000001
 20
33.462699999999998
 30
0.0
 10
-23.056799999999999
 20
33.950400000000002
 30
0.0
 10
-22.7652
 20
34.435299999999998
 30
0.0
 10
-22.7652
 20
34.435299999999998
 30
0.0
 10
-22.315799999999999
 20
35.181899999999999
 30
0.0
 10
-21.549800000000001
 20
36.8705
 30
0.0
 10
-21.549800000000001
 20
37.974600000000002
 30
0.0
 10
-21.549800000000001
 20
37.974600000000002
 30
0.0
 10
-21.549800000000001
 20
37.974600000000002
 30
0.0
 10
-21.549800000000001
 20
38.218499999999999
 30
0.0
 10
-21.549800000000001
 20
38.218499999999999
 30
0.0
 10
-21.549800000000001
 20
38.218499999999999
 30
0.0
 10
-21.549800000000001
 20
38.857300000000002
 30
0.0
 10
-22.272600000000001
 20
40.615000000000002
 30
0.0
 10
-22.6327
 20
40.991799999999998
 30
0.0
 10
-22.6327
 20
40.991799999999998
 30
0.0
 10
-23.257200000000001
 20
41.644799999999996
 30
0.0
 10
-23.942399999999999
 20
42.266100000000002
 30
0.0
 10
-25.1568
 20
42.368400000000001
 30
0.0
 10
-25.1568
 20
42.368400000000001
 30
0.0
 10
-26.404800000000002
 20
42.473700000000001
 30
0.0
 10
-27.2072
 20
42.354900000000001
 30
0.0
 10
-28.293099999999999
 20
41.904800000000002
 30
0.0
 10
-28.293099999999999
 20
41.904800000000002
 30
0.0
 10
-29.043399999999998
 20
41.593600000000002
 30
0.0
 10
-30.305599999999998
 20
40.984999999999999
 30
0.0
 10
-30.6999
 20
40.414299999999997
 30
0.0
 10
-30.6999
 20
40.414299999999997
 30
0.0
 10
-30.6999
 20
40.414299999999997
 30
0.0
 10
-28.779
 20
39.6584
 30
0.0
 10
-28.779
 20
39.6584
 30
0.0
 10
-28.779
 20
39.6584
 30
0.0
 10
-28.861699999999999
 20
39.346899999999998
 30
0.0
 10
-29.878699999999998
 20
38.740299999999998
 30
0.0
 10
-29.944500000000001
 20
37.974600000000002
 30
0.0
 10
-29.944500000000001
 20
37.974600000000002
 30
0.0
 10
-29.944500000000001
 20
37.974600000000002
 30
0.0
 10
-27.596499999999999
 20
37.554299999999998
 30
0.0
 10
-27.596499999999999
 20
37.554299999999998
 30
0.0
 10
-27.596499999999999
 20
37.554299999999998
 30
0.0
 10
-27.596499999999999
 20
37.554299999999998
 30
0.0
 10
-28.6648
 20
35.985199999999999
 30
0.0
 10
-28.6648
 20
35.985199999999999
 30
0.0
 10
-28.6648
 20
35.985199999999999
 30
0.0
 10
-28.6648
 20
35.985199999999999
 30
0.0
 10
-28.597999999999999
 20
35.8795
 30
0.0
 10
-28.597999999999999
 20
35.8795
 30
0.0
 10
-28.597999999999999
 20
35.8795
 30
0.0
 10
-28.597999999999999
 20
35.8795
 30
0.0
 10
-26.165700000000001
 20
35.999499999999998
 30
0.0
 10
-26.165700000000001
 20
35.999499999999998
 30
0.0
 10
-26.165700000000001
 20
35.999499999999998
 30
0.0
 10
-26.165700000000001
 20
35.999499999999998
 30
0.0
 10
-26.802
 20
34.333199999999998
 30
0.0
 10
-26.802
 20
34.333199999999998
 30
0.0
 10
-26.802
 20
34.333199999999998
 30
0.0
 10
-26.802
 20
34.333199999999998
 30
0.0
 10
-25.834599999999998
 20
34.213299999999997
 30
0.0
 10
-25.834599999999998
 20
34.213299999999997
 30
0.0
 10
-25.834599999999998
 20
34.213299999999997
 30
0.0
 10
-25.834599999999998
 20
34.213299999999997
 30
0.0
 10
-25.5792
 20
34.233699999999999
 30
0.0
 10
-25.5792
 20
34.233699999999999
 30
0.0
 10
-25.5792
 20
34.233699999999999
 30
0.0
 10
-25.5792
 20
34.233699999999999
 30
0.0
 10
-24.825099999999999
 20
34.324599999999997
 30
0.0
 10
-24.825099999999999
 20
34.324599999999997
 30
0.0
 10
-24.825099999999999
 20
34.324599999999997
 30
0.0
 10
-24.933900000000001
 20
33.914999999999999
 30
0.0
 10
-25.499099999999999
 20
33.729199999999999
 30
0.0
 10
-25.967400000000001
 20
33.631900000000002
 30
0.0
 10
-25.967400000000001
 20
33.631900000000002
 30
0.0
 10
-26.439800000000002
 20
33.533799999999999
 30
0.0
 10
-26.7378
 20
33.785299999999999
 30
0.0
 10
-27.258199999999999
 20
33.827199999999998
 30
0.0
 10
-27.258199999999999
 20
33.827199999999998
 30
0.0
 10
-27.258199999999999
 20
33.827199999999998
 30
0.0
 10
-27.258199999999999
 20
34.559199999999997
 30
0.0
 10
-27.258199999999999
 20
34.559199999999997
 30
0.0
 10
-27.258199999999999
 20
34.559199999999997
 30
0.0
 10
-27.258199999999999
 20
34.559199999999997
 30
0.0
 10
-27.162199999999999
 20
35.451999999999998
 30
0.0
 10
-27.162199999999999
 20
35.451999999999998
 30
0.0
 10
-27.162199999999999
 20
35.451999999999998
 30
0.0
 10
-27.377099999999999
 20
35.359099999999998
 30
0.0
 10
-27.5413
 20
35.290799999999997
 30
0.0
 10
-27.845700000000001
 20
35.290799999999997
 30
0.0
 10
-27.845700000000001
 20
35.290799999999997
 30
0.0
 10
-29.194099999999999
 20
35.290799999999997
 30
0.0
 10
-29.430199999999999
 20
35.960799999999999
 30
0.0
 10
-28.769200000000001
 20
36.917299999999997
 30
0.0
 10
-28.769200000000001
 20
36.917299999999997
 30
0.0
 10
-28.769200000000001
 20
36.917299999999997
 30
0.0
 10
-28.769200000000001
 20
37.242800000000003
 30
0.0
 10
-28.769200000000001
 20
37.242800000000003
 30
0.0
 10
-28.769200000000001
 20
37.242800000000003
 30
0.0
 10
-29.396599999999999
 20
36.961599999999997
 30
0.0
 10
-30.321000000000002
 20
37.728900000000003
 30
0.0
 10
-30.6999
 20
37.974600000000002
 30
0.0
 10
-30.6999
 20
37.974600000000002
 30
0.0
 10
-30.334599999999998
 20
38.712400000000002
 30
0.0
 10
-30.6631
 20
38.601199999999999
 30
0.0
 10
-30.028400000000001
 20
39.5197
 30
0.0
 10
-30.028400000000001
 20
39.5197
 30
0.0
 10
-30.394300000000001
 20
39.707099999999997
 30
0.0
 10
-31.371600000000001
 20
39.932499999999997
 30
0.0
 10
-31.371600000000001
 20
40.414299999999997
 30
0.0
  0
SPLINE
  5
4A
100
AcDbEntity
  8
RÚteg 1
 62
     7
100
AcDbSpline
210
0.0
220
0.0
230
1.0
 70
     1
 71
     3
 72
    80
 73
    76
 74
     0
 42
0.0000000001
 43
0.0000000001
 40
0.0
 40
0.0
 40
0.0
 40
0.0
 40
0.0526315789473684
 40
0.0526315789473684
 40
0.0526315789473684
 40
0.0526315789473684
 40
0.1052631578947368
 40
0.1052631578947368
 40
0.1052631578947368
 40
0.1052631578947368
 40
0.1578947368421053
 40
0.1578947368421053
 40
0.1578947368421053
 40
0.1578947368421053
 40
0.2105263157894737
 40
0.2105263157894737
 40
0.2105263157894737
 40
0.2105263157894737
 40
0.2631578947368421
 40
0.2631578947368421
 40
0.2631578947368421
 40
0.2631578947368421
 40
0.3157894736842105
 40
0.3157894736842105
 40
0.3157894736842105
 40
0.3157894736842105
 40
0.3684210526315789
 40
0.3684210526315789
 40
0.3684210526315789
 40
0.3684210526315789
 40
0.4210526315789474
 40
0.4210526315789474
 40
0.4210526315789474
 40
0.4210526315789474
 40
0.4736842105263158
 40
0.4736842105263158
 40
0.4736842105263158
 40
0.4736842105263158
 40
0.5263157894736842
 40
0.5263157894736842
 40
0.5263157894736842
 40
0.5263157894736842
 40
0.5789473684210527
 40
0.5789473684210527
 40
0.5789473684210527
 40
0.5789473684210527
 40
0.631578947368421
 40
0.631578947368421
 40
0.631578947368421
 40
0.631578947368421
 40
0.6842105263157894
 40
0.6842105263157894
 40
0.6842105263157894
 40
0.6842105263157894
 40
0.7368421052631577
 40
0.7368421052631577
 40
0.7368421052631577
 40
0.7368421052631577
 40
0.7894736842105261
 40
0.7894736842105261
 40
0.7894736842105261
 40
0.7894736842105261
 40
0.8421052631578945
 40
0.8421052631578945
 40
0.8421052631578945
 40
0.8421052631578945
 40
0.8947368421052628
 40
0.8947368421052628
 40
0.8947368421052628
 40
0.8947368421052628
 40
0.9473684210526312
 40
0.9473684210526312
 40
0.9473684210526312
 40
0.9473684210526312
 40
1.0
 40
1.0
 40
1.0
 40
1.0
 10
-21.717600000000001
 20
48.058599999999998
 30
0.0
 10
-21.0565
 20
49.0152
 30
0.0
 10
-20.2196
 20
50.335700000000003
 30
0.0
 10
-18.611599999999999
 20
50.335700000000003
 30
0.0
 10
-18.611599999999999
 20
50.335700000000003
 30
0.0
 10
-18.611599999999999
 20
50.335700000000003
 30
0.0
 10
-18.4438
 20
50.335700000000003
 30
0.0
 10
-18.4438
 20
50.335700000000003
 30
0.0
 10
-18.4438
 20
50.335700000000003
 30
0.0
 10
-18.4438
 20
50.335700000000003
 30
0.0
 10
-17.186299999999999
 20
50.162599999999998
 30
0.0
 10
-17.186299999999999
 20
50.162599999999998
 30
0.0
 10
-17.186299999999999
 20
50.162599999999998
 30
0.0
 10
-17.186299999999999
 20
50.162599999999998
 30
0.0
 10
-17.1844
 20
49.929099999999998
 30
0.0
 10
-17.1844
 20
49.929099999999998
 30
0.0
 10
-17.1844
 20
49.929099999999998
 30
0.0
 10
-17.1844
 20
49.929099999999998
 30
0.0
 10
-18.105599999999999
 20
49.829300000000003
 30
0.0
 10
-18.105599999999999
 20
49.829300000000003
 30
0.0
 10
-18.105599999999999
 20
49.829300000000003
 30
0.0
 10
-18.105599999999999
 20
49.829300000000003
 30
0.0
 10
-19.902000000000001
 20
48.671700000000001
 30
0.0
 10
-19.902000000000001
 20
48.671700000000001
 30
0.0
 10
-19.902000000000001
 20
48.671700000000001
 30
0.0
 10
-19.775099999999998
 20
48.4893
 30
0.0
 10
-19.688099999999999
 20
48.302599999999998
 30
0.0
 10
-19.450800000000001
 20
48.302599999999998
 30
0.0
 10
-19.450800000000001
 20
48.302599999999998
 30
0.0
 10
-19.450800000000001
 20
48.302599999999998
 30
0.0
 10
-18.947399999999998
 20
48.302599999999998
 30
0.0
 10
-18.947399999999998
 20
48.302599999999998
 30
0.0
 10
-18.947399999999998
 20
48.302599999999998
 30
0.0
 10
-18.154599999999999
 20
48.302599999999998
 30
0.0
 10
-18.0002
 20
48.989100000000001
 30
0.0
 10
-17.436299999999999
 20
49.034500000000001
 30
0.0
 10
-17.436299999999999
 20
49.034500000000001
 30
0.0
 10
-17.640799999999999
 20
48.1845
 30
0.0
 10
-18.264900000000001
 20
47.570799999999998
 30
0.0
 10
-19.367000000000001
 20
47.570799999999998
 30
0.0
 10
-19.367000000000001
 20
47.570799999999998
 30
0.0
 10
-19.566099999999999
 20
47.570799999999998
 30
0.0
 10
-20.387699999999999
 20
47.958399999999997
 30
0.0
 10
-20.542300000000001
 20
48.058599999999998
 30
0.0
 10
-20.542300000000001
 20
48.058599999999998
 30
0.0
 10
-20.542300000000001
 20
48.058599999999998
 30
0.0
 10
-20.807700000000001
 20
47.660600000000002
 30
0.0
 10
-20.807700000000001
 20
47.660600000000002
 30
0.0
 10
-20.807700000000001
 20
47.660600000000002
 30
0.0
 10
-20.539000000000001
 20
47.185000000000002
 30
0.0
 10
-19.6082
 20
46.7577
 30
0.0
 10
-18.863399999999999
 20
46.7577
 30
0.0
 10
-18.863399999999999
 20
46.7577
 30
0.0
 10
-17.962
 20
46.7577
 30
0.0
 10
-17.505800000000001
 20
47.578800000000001
 30
0.0
 10
-17.0167
 20
47.895899999999997
 30
0.0
 10
-17.0167
 20
47.895899999999997
 30
0.0
 10
-17.0883
 20
47.0608
 30
0.0
 10
-17.556000000000001
 20
46.106900000000003
 30
0.0
 10
-18.695499999999999
 20
46.106900000000003
 30
0.0
 10
-18.695499999999999
 20
46.106900000000003
 30
0.0
 10
-19.5365
 20
46.106900000000003
 30
0.0
 10
-20.760999999999999
 20
46.896999999999998
 30
0.0
 10
-21.298100000000002
 20
47.2453
 30
0.0
 10
-21.298100000000002
 20
47.2453
 30
0.0
 10
-21.298100000000002
 20
47.2453
 30
0.0
 10
-21.753299999999999
 20
46.450899999999997
 30
0.0
 10
-21.753299999999999
 20
46.450899999999997
 30
0.0
 10
-21.753299999999999
 20
46.450899999999997
 30
0.0
 10
-21.753299999999999
 20
46.450899999999997
 30
0.0
 10
-21.885400000000001
 20
46.432299999999998
 30
0.0
 10
-21.885400000000001
 20
46.432299999999998
 30
0.0
 10
-21.885400000000001
 20
46.432299999999998
 30
0.0
 10
-21.885400000000001
 20
46.432299999999998
 30
0.0
 10
-21.717600000000001
 20
48.058599999999998
 30
0.0
 10
-21.717600000000001
 20
48.058599999999998
 30
0.0
  0
SPLINE
  5
4B
100
AcDbEntity
  8
RÚteg 1
 62
     7
100
AcDbSpline
210
0.0
220
0.0
230
1.0
 70
     1
 71
     3
 72
    20
 73
    16
 74
     0
 42
0.0000000001
 43
0.0000000001
 40
0.0
 40
0.0
 40
0.0
 40
0.0
 40
0.25
 40
0.25
 40
0.25
 40
0.25
 40
0.5
 40
0.5
 40
0.5
 40
0.5
 40
0.75
 40
0.75
 40
0.75
 40
0.75
 40
1.0
 40
1.0
 40
1.0
 40
1.0
 10
-15.4215
 20
49.685099999999998
 30
0.0
 10
-15.4215
 20
50.061199999999999
 30
0.0
 10
-12.585000000000001
 20
50.823599999999999
 30
0.0
 10
-11.895899999999999
 20
50.823599999999999
 30
0.0
 10
-11.895899999999999
 20
50.823599999999999
 30
0.0
 10
-12.104100000000001
 20
50.548299999999998
 30
0.0
 10
-13.1905
 20
50.224299999999999
 30
0.0
 10
-13.573600000000001
 20
50.0092
 30
0.0
 10
-13.573600000000001
 20
50.0092
 30
0.0
 10
-13.9695
 20
49.787399999999998
 30
0.0
 10
-14.674899999999999
 20
49.126600000000003
 30
0.0
 10
-15.169700000000001
 20
49.116
 30
0.0
 10
-15.169700000000001
 20
49.116
 30
0.0
 10
-15.2135
 20
49.6235
 30
0.0
 10
-15.4215
 20
49.3416
 30
0.0
 10
-15.4215
 20
49.685099999999998
 30
0.0
  0
ENDSEC
  0
SECTION
  2
OBJECTS
  0
DICTIONARY
  5
19
100
AcDbDictionary
280
     0
281
     1
  3
ACAD_GROUP
350
1A
  3
ACAD_MLINESTYLE
350
1B
  3
ACAD_LAYOUT
350
1E
  3
ACAD_PLOTSETTINGS
350
22
  3
ACAD_PLOTSTYLENAME
350
1F
  3
ACAD_WIPEOUT_VARS
350
23
  0
DICTIONARY
  5
1A
102
{ACAD_REACTORS
330
19
102
}
100
AcDbDictionary
280
     0
281
     1
  0
DICTIONARY
  5
1B
102
{ACAD_REACTORS
330
19
102
}
100
AcDbDictionary
280
     0
281
     1
  3
Standard
350
1C
  0
MLINESTYLE
  5
1C
102
{ACAD_REACTORS
330
1B
102
}
100
AcDbMlineStyle
  2
Standard
 70
     0
  3

 62
     0
 51
90.0
 52
90.0
 71
     2
 49
0.5
 62
   256
  6
BYLAYER
 49
-0.5
 62
   256
  6
BYLAYER
  0
ACDBDICTIONARYWDFLT
  5
1F
102
{ACAD_REACTORS
330
19
102
}
100
AcDbDictionary
281
     1
  3
Normal
350
1D
100
AcDbDictionaryWithDefault
340
1D
  0
ACDBPLACEHOLDER
  5
1D
102
{ACAD_REACTORS
330
1F
102
}
  0
LAYOUT
  5
20
102
{ACAD_REACTORS
330
1E
102
}
100
AcDbPlotSettings
  1

  2

  4

  6

 40
0.0
 41
0.0
 42
0.0
 43
0.0
 44
0.0
 45
0.0
 46
0.0
 47
0.0
 48
0.0
 49
0.0
140
0.0
141
0.0
142
1.0
143
1.0
 70
  1024
 72
     0
 73
     0
 74
     0
  7

 75
     0
147
1.0
148
0.0
149
0.0
100
AcDbLayout
  1
Model
 70
     0
 71
     0
 10
0.0
 20
0.0
 11
0.0
 21
0.0
 12
0.0
 22
0.0
 32
0.0
 14
0.0
 24
0.0
 34
0.0
 15
0.0
 25
0.0
 35
0.0
146
0.0
 13
0.0
 23
0.0
 33
0.0
 16
0.0
 26
0.0
 36
0.0
 17
0.0
 27
0.0
 37
0.0
 76
     0
330
A
331
0
345
0
346
0
  0
LAYOUT
  5
21
102
{ACAD_REACTORS
330
1E
102
}
100
AcDbPlotSettings
  1

  2

  4

  6

 40
0.0
 41
0.0
 42
0.0
 43
0.0
 44
0.0
 45
0.0
 46
0.0
 47
0.0
 48
0.0
 49
0.0
140
0.0
141
0.0
142
1.0
143
1.0
 70
     0
 72
     0
 73
     0
 74
     0
  7

 75
     0
147
1.0
148
0.0
149
0.0
100
AcDbLayout
  1
Layout1
 70
     0
 71
     0
 10
0.0
 20
0.0
 11
0.0
 21
0.0
 12
0.0
 22
0.0
 32
0.0
 14
0.0
 24
0.0
 34
0.0
 15
0.0
 25
0.0
 35
0.0
146
0.0
 13
0.0
 23
0.0
 33
0.0
 16
0.0
 26
0.0
 36
0.0
 17
0.0
 27
0.0
 37
0.0
 76
     0
330
B
331
0
345
0
346
0
  0
DICTIONARY
  5
1E
102
{ACAD_REACTORS
330
19
102
}
100
AcDbDictionary
280
     0
281
     1
  3
Layout1
350
21
  3
Model
350
20
  0
DICTIONARY
  5
22
102
{ACAD_REACTORS
330
19
102
}
100
AcDbDictionary
280
     0
281
     1
  0
WIPEOUTVARIABLES
  5
23
100
AcDbWipeoutVariables
 70
     1
  0
ENDSEC
  0
EOF
