  0
SECTION
  2
HEADER
  9
$ACADVER
  1
AC1015
  9
$ACADMAINTVER
 70
     6
  9
$DWGCODEPAGE
  3
DOS850
  9
$INSBASE
 10
0.0
 20
0.0
 30
0.0
  9
$EXTMIN
 10
-77.9881
 20
18.5098
 30
1.000000E+20
  9
$EXTMAX
 10
67.0882
 20
130.3381
 30
-1.000000E+20
  9
$LIMMIN
 10
0.0
 20
0.0
  9
$LIMMAX
 10
0.0
 20
0.0
  9
$ORTHOMODE
 70
     0
  9
$REGENMODE
 70
     1
  9
$FILLMODE
 70
     1
  9
$QTEXTMODE
 70
     0
  9
$MIRRTEXT
 70
     1
  9
$LTSCALE
 40
1.0
  9
$ATTMODE
 70
     1
  9
$TEXTSIZE
 40
0.2
  9
$TRACEWID
 40
0.05
  9
$TEXTSTYLE
  7
Standard
  9
$CLAYER
  8
0
  9
$CELTYPE
  6
Continuous
  9
$CECOLOR
 62
   256
  9
$CELTSCALE
 40
1.0
  9
$DISPSILH
 70
     0
  9
$DIMSCALE
 40
1.0
  9
$DIMASZ
 40
0.18
  9
$DIMEXO
 40
0.0625
  9
$DIMDLI
 40
0.38
  9
$DIMRND
 40
0.0
  9
$DIMDLE
 40
0.0
  9
$DIMEXE
 40
0.18
  9
$DIMTP
 40
0.0
  9
$DIMTM
 40
0.0
  9
$DIMTXT
 40
0.18
  9
$DIMCEN
 40
0.09
  9
$DIMTSZ
 40
0.0
  9
$DIMTOL
 70
     0
  9
$DIMLIM
 70
     0
  9
$DIMTIH
 70
     1
  9
$DIMTOH
 70
     1
  9
$DIMSE1
 70
     0
  9
$DIMSE2
 70
     0
  9
$DIMTAD
 70
     0
  9
$DIMZIN
 70
     0
  9
$DIMBLK
  1

  9
$DIMASO
 70
     1
  9
$DIMSHO
 70
     1
  9
$DIMPOST
  1

  9
$DIMAPOST
  1

  9
$DIMALT
 70
     0
  9
$DIMALTD
 70
     2
  9
$DIMALTF
 40
25.4
  9
$DIMLFAC
 40
1.0
  9
$DIMTOFL
 70
     0
  9
$DIMTVP
 40
0.0
  9
$DIMTIX
 70
     0
  9
$DIMSOXD
 70
     0
  9
$DIMSAH
 70
     0
  9
$DIMBLK1
  1

  9
$DIMBLK2
  1

  9
$DIMSTYLE
  2
Standard
  9
$DIMCLRD
 70
     0
  9
$DIMCLRE
 70
     0
  9
$DIMCLRT
 70
     0
  9
$DIMTFAC
 40
1.0
  9
$DIMGAP
 40
0.09
  9
$DIMJUST
 70
     0
  9
$DIMSD1
 70
     0
  9
$DIMSD2
 70
     0
  9
$DIMTOLJ
 70
     1
  9
$DIMTZIN
 70
     0
  9
$DIMALTZ
 70
     0
  9
$DIMALTTZ
 70
     0
  9
$DIMUPT
 70
     0
  9
$DIMDEC
 70
     4
  9
$DIMTDEC
 70
     4
  9
$DIMALTU
 70
     2
  9
$DIMALTTD
 70
     2
  9
$DIMTXSTY
  7
Standard
  9
$DIMAUNIT
 70
     0
  9
$DIMADEC
 70
     0
  9
$DIMALTRND
 40
0.0
  9
$DIMAZIN
 70
     0
  9
$DIMDSEP
 70
     0
  9
$DIMATFIT
 70
     3
  9
$DIMFRAC
 70
     0
  9
$DIMLDRBLK
  1

  9
$DIMLUNIT
 70
     2
  9
$DIMLWD
 70
     0
  9
$DIMLWE
 70
     0
  9
$DIMTMOVE
 70
     0
  9
$LUNITS
 70
     2
  9
$LUPREC
 70
     4
  9
$SKETCHINC
 40
0.1
  9
$FILLETRAD
 40
0.0
  9
$AUNITS
 70
     0
  9
$AUPREC
 70
     0
  9
$MENU
  1
acad
  9
$ELEVATION
 40
0.0
  9
$PELEVATION
 40
0.0
  9
$THICKNESS
 40
0.0
  9
$LIMCHECK
 70
     0
  9
$CHAMFERA
 40
0.0
  9
$CHAMFERB
 40
0.0
  9
$CHAMFERC
 40
0.0
  9
$CHAMFERD
 40
0.0
  9
$SKPOLY
 70
     0
  9
$TDCREATE
 40
0.000000000
  9
$TDUCREATE
 40
0.000000000
  9
$TDUPDATE
 40
0.000000000
  9
$TDUUPDATE
 40
0.000000000
  9
$TDINDWG
 40
0.0000000000
  9
$TDUSRTIMER
 40
0.0000000000
  9
$USRTIMER
 70
     1
  9
$ANGBASE
 50
0.0
  9
$ANGDIR
 70
     0
  9
$PDMODE
 70
     0
  9
$PDSIZE
 40
0.0
  9
$PLINEWID
 40
0.0
  9
$SPLFRAME
 70
     0
  9
$SPLINETYPE
 70
     6
  9
$SPLINESEGS
 70
     8
  9
$HANDSEED
  5
38
  9
$SURFTAB1
 70
     6
  9
$SURFTAB2
 70
     6
  9
$SURFTYPE
 70
     6
  9
$SURFU
 70
     6
  9
$SURFV
 70
     6
  9
$UCSBASE
  2

  9
$UCSNAME
  2

  9
$UCSORG
 10
0.0
 20
0.0
 30
0.0
  9
$UCSXDIR
 10
1.0
 20
0.0
 30
0.0
  9
$UCSYDIR
 10
0.0
 20
1.0
 30
0.0
  9
$UCSORTHOREF
  2

  9
$UCSORTHOVIEW
 70
     0
  9
$UCSORGTOP
 10
0.0
 20
0.0
 30
0.0
  9
$UCSORGBOTTOM
 10
0.0
 20
0.0
 30
0.0
  9
$UCSORGLEFT
 10
0.0
 20
0.0
 30
0.0
  9
$UCSORGRIGHT
 10
0.0
 20
0.0
 30
0.0
  9
$UCSORGFRONT
 10
0.0
 20
0.0
 30
0.0
  9
$UCSORGBACK
 10
0.0
 20
0.0
 30
0.0
  9
$PUCSBASE
  2

  9
$PUCSNAME
  2

  9
$PUCSORG
 10
0.0
 20
0.0
 30
0.0
  9
$PUCSXDIR
 10
1.0
 20
0.0
 30
0.0
  9
$PUCSYDIR
 10
0.0
 20
1.0
 30
0.0
  9
$PUCSORTHOREF
  2

  9
$PUCSORTHOVIEW
 70
     0
  9
$PUCSORGTOP
 10
0.0
 20
0.0
 30
0.0
  9
$PUCSORGBOTTOM
 10
0.0
 20
0.0
 30
0.0
  9
$PUCSORGLEFT
 10
0.0
 20
0.0
 30
0.0
  9
$PUCSORGRIGHT
 10
0.0
 20
0.0
 30
0.0
  9
$PUCSORGFRONT
 10
0.0
 20
0.0
 30
0.0
  9
$PUCSORGBACK
 10
0.0
 20
0.0
 30
0.0
  9
$USERI1
 70
     0
  9
$USERI2
 70
     0
  9
$USERI3
 70
     0
  9
$USERI4
 70
     0
  9
$USERI5
 70
     0
  9
$USERR1
 40
0.0
  9
$USERR2
 40
0.0
  9
$USERR3
 40
0.0
  9
$USERR4
 40
0.0
  9
$USERR5
 40
0.0
  9
$WORLDVIEW
 70
     1
  9
$SHADEDGE
 70
     3
  9
$SHADEDIF
 70
    70
  9
$TILEMODE
 70
     1
  9
$MAXACTVP
 70
    16
  9
$PINSBASE
 10
0.0
 20
0.0
 30
0.0
  9
$PLIMCHECK
 70
     0
  9
$PEXTMIN
 10
1.000000E+20
 20
1.000000E+20
 30
1.000000E+20
  9
$PEXTMAX
 10
-1.000000E+20
 20
-1.000000E+20
 30
-1.000000E+20
  9
$PLIMMIN
 10
0.0
 20
0.0
  9
$PLIMMAX
 10
12.0
 20
9.0
  9
$UNITMODE
 70
     0
  9
$VISRETAIN
 70
     0
  9
$PLINEGEN
 70
     1
  9
$PSLTSCALE
 70
     0
  9
$TREEDEPTH
 70
  3020
  9
$CMLSTYLE
  2
Standard
  9
$CMLJUST
 70
     0
  9
$CMLSCALE
 40
1.0
  9
$PROXYGRAPHICS
 70
     0
  9
$MEASUREMENT
 70
     0
  9
$CELWEIGHT
370
     0
  9
$ENDCAPS
280
     0
  9
$JOINSTYLE
280
     0
  9
$LWDISPLAY
290
     0
  9
$INSUNITS
 70
     4
  9
$HYPERLINKBASE
  1

  9
$XEDIT
290
     1
  9
$CEPSNTYPE
380
     0
  9
$PSTYLEMODE
290
     1
  9
$FINGERPRINTGUID
  2

  9
$VERSIONGUID
  2

  9
$EXTNAMES
290
     1
  9
$PSVPSCALE
 40
0.0
  0
ENDSEC
  0
SECTION
  2
CLASSES
  0
CLASS
  1
LWPOLYLINE
  2
AcDbPolyline
  3
AutoCAD 2000
 90
    32768
280
     0
281
     1
  0
CLASS
  1
IMAGE
  2
AcDbRasterImage
  3
ISM
 90
    32895
280
     0
281
     1
  0
CLASS
  1
OLE2FRAME
  2
AcDbOle2Frame
  3
AutoCAD 2000
 90
    32768
280
     0
281
     1
  0
CLASS
  1
HATCH
  2
AcDbHatch
  3
AutoCAD 2000
 90
    32768
280
     0
281
     1
  0
CLASS
  1
DICTIONARYVAR
  2
AcDbDictionaryVar
  3
AutoCAD 2000
 90
    32768
280
     0
281
     0
  0
CLASS
  1
RASTERVARIABLES
  2
AcDbRasterVariables
  3
ISM
 90
    32768
280
     0
281
     0
  0
CLASS
  1
IMAGEDEF
  2
AcDbRasterImageDef
  3
ISM
 90
    32768
280
     0
281
     0
  0
CLASS
  1
IMAGEDEF_REACTOR
  2
AcDbRasterImageDefReactor
  3
ISM
 90
    32769
280
     0
281
     0
  0
CLASS
  1
IDBUFFER
  2
AcDbIdBuffer
  3
AutoCAD 2000
 90
    32768
280
     0
281
     0
  0
CLASS
  1
SPATIAL_FILTER
  2
AcDbSpatialFilter
  3
AutoCAD 2000
 90
    32768
280
     0
281
     0
  0
CLASS
  1
XRECORD
  2
AcDbXrecord
  3
AutoCAD 2000
 90
    32768
280
     0
281
     0
  0
CLASS
  1
SORTENTSTABLE
  2
AcDbSortentsTable
  3
AutoCAD 2000
 90
    32768
280
     0
281
     0
  0
CLASS
  1
LAYER_INDEX
  2
AcDbLayerIndex
  3
AutoCAD 2000
 90
    32768
280
     0
281
     0
  0
CLASS
  1
SPATIAL_INDEX
  2
AcDbSpatialIndex
  3
AutoCAD 2000
 90
    32768
280
     0
281
     0
  0
CLASS
  1
OBJECT_PTR
  2
CAseDLPNTableRecord
  3
"ASE-LPNTableRecord"
 90
    32769
280
     0
281
     0
  0
CLASS
  1
LAYOUT
  2
AcDbLayout
  3
AutoCAD 2000
 90
        0
280
     0
281
     0
  0
CLASS
  1
PLOTSETTINGS
  2
AcDbPlotSettings
  3
AutoCAD 2000
 90
    32768
280
     0
281
     0
  0
CLASS
  1
ACDBDICTIONARYWDFLT
  2
AcDbDictionaryWithDefault
  3
AutoCAD 2000
 90
        0
280
     0
281
     0
  0
CLASS
  1
ACDBPLACEHOLDER
  2
AcDbPlaceHolder
  3
AutoCAD 2000
 90
        0
280
     0
281
     0
  0
CLASS
  1
VBA_PROJECT
  2
AcDbVbaProject
  3
acadvba
 90
    32768
280
     0
281
     0
  0
CLASS
  1
WIPEOUT
  2
AcDbWipeout
  3
WipeOut|AutoCAD Express Tool|expresstools@autodesk.com
 90
    32895
280
     0
281
     1
  0
CLASS
  1
WIPEOUTVARIABLES
  2
AcDbWipeoutVariables
  3
WipeOut|AutoCAD Express Tool|expresstools@autodesk.com
 90
        0
280
     0
281
     0
  0
CLASS
  1
RTEXT
  2
RText
  3
RText|AutoCAD Express Tool|expresstools@autodesk.com
 90
    32768
280
     0
281
     1
  0
CLASS
  1
ARCALIGNEDTEXT
  2
AcDbArcAlignedText
  3
ATEXT|AutoCAD Express Tool|expresstools@autodesk.com
 90
    32768
280
     0
281
     1
  0
ENDSEC
  0
SECTION
  2
TABLES
  0
TABLE
  2
VPORT
  5
7
100
AcDbSymbolTable
 70
     1
  0
VPORT
  5
15
100
AcDbSymbolTableRecord
100
AcDbViewportTableRecord
  2
*ACTIVE
 70
     0
 10
0.0
 20
0.0
 11
1.0
 21
1.0
 12
6.591288
 22
4.579184
 13
0.0
 23
0.0
 14
1.0
 24
1.0
 15
0.0
 25
0.0
 16
0.0
 26
0.0
 36
1.0
 17
0.0
 27
0.0
 37
0.0
 40
9.158369
 41
0.688564
 42
50.0
 43
0.0
 44
0.0
 50
0.0
 51
0.0
 71
     0
 72
   100
 73
     1
 74
     1
 75
     0
 76
     0
 77
     0
 78
     0
281
     0
 65
     0
110
0.0
120
0.0
130
0.0
111
1.0
121
0.0
131
0.0
112
0.0
122
1.0
132
0.0
345
0
346
0
 79
     0
146
0.0
  0
ENDTAB
  0
TABLE
  2
LTYPE
  5
4
100
AcDbSymbolTable
 70
     3
  0
LTYPE
  5
11
100
AcDbSymbolTableRecord
100
AcDbLinetypeTableRecord
  2
ByBlock
 70
    64
  3

 72
    65
 73
     0
 40
0.0
  0
LTYPE
  5
12
100
AcDbSymbolTableRecord
100
AcDbLinetypeTableRecord
  2
ByLayer
 70
    64
  3

 72
    65
 73
     0
 40
0.0
  0
LTYPE
  5
13
100
AcDbSymbolTableRecord
100
AcDbLinetypeTableRecord
  2
Continuous
 70
    64
  3
Solid line
 72
    65
 73
     0
 40
0.0
  0
ENDTAB
  0
TABLE
  2
LAYER
  5
2
100
AcDbSymbolTable
 70
     2
  0
LAYER
  5
14
100
AcDbSymbolTableRecord
100
AcDbLayerTableRecord
  2
0
 70
     0
 62
     7
  6
Continuous
290
     1
370
    -3
390
1D
  0
LAYER
  5
24
100
AcDbSymbolTableRecord
100
AcDbLayerTableRecord
  2
RÚteg 1
 70
     0
 62
     7
  6
Continuous
290
     1
370
    -3
390
1F
  0
ENDTAB
  0
TABLE
  2
STYLE
  5
3
100
AcDbSymbolTable
 70
     1
  0
STYLE
  5
17
100
AcDbSymbolTableRecord
100
AcDbTextStyleTableRecord
  2
Standard
 70
     0
 40
0.0
 41
1.0
 50
0.0
 71
     0
 42
0.0
  3
txt
  4

  0
ENDTAB
  0
TABLE
  2
VIEW
  5
5
100
AcDbSymbolTable
 70
     0
  0
ENDTAB
  0
TABLE
  2
UCS
  5
6
100
AcDbSymbolTable
 70
     0
  0
ENDTAB
  0
TABLE
  2
APPID
  5
8
100
AcDbSymbolTable
 70
     1
  0
APPID
  5
16
100
AcDbSymbolTableRecord
100
AcDbRegAppTableRecord
  2
ACAD
 70
     0
  0
ENDTAB
  0
TABLE
  2
DIMSTYLE
  5
9
100
AcDbSymbolTable
 70
     1
100
AcDbDimStyleTable
 71
     0
  0
DIMSTYLE
105
18
100
AcDbSymbolTableRecord
100
AcDbDimStyleTableRecord
  2
Standard
 70
     0
  3

  4

 40
1.0
 41
0.18
 42
0.0625
 43
0.38
 44
0.18
 45
0.0
 46
0.0
 47
0.0
 48
0.0
 71
     0
 72
     0
 73
     1
 74
     1
 75
     0
 76
     0
 77
     0
 78
     0
 79
     0
140
0.18
141
0.09
142
0.0
143
25.4
144
1.0
145
0.0
146
1.0
147
0.09
148
0.0
170
     0
171
     2
172
     0
173
     0
174
     0
175
     0
176
     0
177
     0
178
     0
179
     0
271
     4
272
     4
273
     2
274
     2
275
     0
276
     0
277
     2
278
    46
279
     0
280
     0
281
     0
282
     0
283
     1
284
     0
285
     0
286
     0
288
     0
340
17
341
0
342
0
343
0
344
0
371
    -2
372
    -2
  0
ENDTAB
  0
TABLE
  2
BLOCK_RECORD
  5
1
100
AcDbSymbolTable
 70
     0
  0
BLOCK_RECORD
  5
A
100
AcDbSymbolTableRecord
100
AcDbBlockTableRecord
  2
*MODEL_SPACE
340
20
  0
BLOCK_RECORD
  5
B
100
AcDbSymbolTableRecord
100
AcDbBlockTableRecord
  2
*PAPER_SPACE
340
21
  0
ENDTAB
  0
ENDSEC
  0
SECTION
  2
BLOCKS
  0
BLOCK
  5
D
100
AcDbEntity
  8
0
100
AcDbBlockBegin
  2
*MODEL_SPACE
 70
     0
 10
0.0
 20
0.0
 30
0.0
  3
*MODEL_SPACE
  1

  0
ENDBLK
  5
E
100
AcDbEntity
  8
0
100
AcDbBlockEnd
  0
BLOCK
  5
F
100
AcDbEntity
 67
     1
  8
0
100
AcDbBlockBegin
  2
*PAPER_SPACE
 70
     0
 10
0.0
 20
0.0
 30
0.0
  3
*PAPER_SPACE
  1

  0
ENDBLK
  5
10
100
AcDbEntity
 67
     1
  8
0
100
AcDbBlockEnd
  0
ENDSEC
  0
SECTION
  2
ENTITIES
  0
SPLINE
  5
25
100
AcDbEntity
  8
RÚteg 1
 62
     7
100
AcDbSpline
210
0.0
220
0.0
230
1.0
 70
     1
 71
     3
 72
    28
 73
    24
 74
     0
 42
0.0000000001
 43
0.0000000001
 40
0.0
 40
0.0
 40
0.0
 40
0.0
 40
0.1666666666666667
 40
0.1666666666666667
 40
0.1666666666666667
 40
0.1666666666666667
 40
0.3333333333333333
 40
0.3333333333333333
 40
0.3333333333333333
 40
0.3333333333333333
 40
0.5
 40
0.5
 40
0.5
 40
0.5
 40
0.6666666666666666
 40
0.6666666666666666
 40
0.6666666666666666
 40
0.6666666666666666
 40
0.8333333333333333
 40
0.8333333333333333
 40
0.8333333333333333
 40
0.8333333333333333
 40
1.0
 40
1.0
 40
1.0
 40
1.0
 10
33.75
 20
123.4795
 30
0.0
 10
34.761400000000002
 20
123.4795
 30
0.0
 10
35.761699999999998
 20
123.4324
 30
0.0
 10
36.749499999999998
 20
123.34350000000001
 30
0.0
 10
36.749499999999998
 20
123.34350000000001
 30
0.0
 10
37.066200000000002
 20
123.86960000000001
 30
0.0
 10
37.248699999999999
 20
124.48560000000001
 30
0.0
 10
37.248699999999999
 20
125.1442
 30
0.0
 10
37.248699999999999
 20
125.1442
 30
0.0
 10
37.248699999999999
 20
127.07640000000001
 30
0.0
 10
35.681800000000003
 20
128.643
 30
0.0
 10
33.750100000000003
 20
128.643
 30
0.0
 10
33.750100000000003
 20
128.643
 30
0.0
 10
31.818300000000001
 20
128.643
 30
0.0
 10
30.2514
 20
127.07640000000001
 30
0.0
 10
30.2514
 20
125.1442
 30
0.0
 10
30.2514
 20
125.1442
 30
0.0
 10
30.2514
 20
124.48560000000001
 30
0.0
 10
30.433900000000001
 20
123.86960000000001
 30
0.0
 10
30.750699999999998
 20
123.34350000000001
 30
0.0
 10
30.750699999999998
 20
123.34350000000001
 30
0.0
 10
31.738399999999999
 20
123.4324
 30
0.0
 10
32.738700000000001
 20
123.4795
 30
0.0
 10
33.75
 20
123.4795
 30
0.0
  0
SPLINE
  5
26
100
AcDbEntity
  8
RÚteg 1
 62
     7
100
AcDbSpline
210
0.0
220
0.0
230
1.0
 70
     1
 71
     3
 72
    56
 73
    52
 74
     0
 42
0.0000000001
 43
0.0000000001
 40
0.0
 40
0.0
 40
0.0
 40
0.0
 40
0.0769230769230769
 40
0.0769230769230769
 40
0.0769230769230769
 40
0.0769230769230769
 40
0.1538461538461539
 40
0.1538461538461539
 40
0.1538461538461539
 40
0.1538461538461539
 40
0.2307692307692308
 40
0.2307692307692308
 40
0.2307692307692308
 40
0.2307692307692308
 40
0.3076923076923077
 40
0.3076923076923077
 40
0.3076923076923077
 40
0.3076923076923077
 40
0.3846153846153846
 40
0.3846153846153846
 40
0.3846153846153846
 40
0.3846153846153846
 40
0.4615384615384616
 40
0.4615384615384616
 40
0.4615384615384616
 40
0.4615384615384616
 40
0.5384615384615386
 40
0.5384615384615386
 40
0.5384615384615386
 40
0.5384615384615386
 40
0.6153846153846154
 40
0.6153846153846154
 40
0.6153846153846154
 40
0.6153846153846154
 40
0.6923076923076923
 40
0.6923076923076923
 40
0.6923076923076923
 40
0.6923076923076923
 40
0.7692307692307692
 40
0.7692307692307692
 40
0.7692307692307692
 40
0.7692307692307692
 40
0.846153846153846
 40
0.846153846153846
 40
0.846153846153846
 40
0.846153846153846
 40
0.9230769230769229
 40
0.9230769230769229
 40
0.9230769230769229
 40
0.9230769230769229
 40
1.0
 40
1.0
 40
1.0
 40
1.0
 10
47.670400000000001
 20
68.974599999999995
 30
0.0
 10
47.670400000000001
 20
68.974599999999995
 30
0.0
 10
47.359900000000003
 20
67.382099999999994
 30
0.0
 10
47.359900000000003
 20
67.382099999999994
 30
0.0
 10
47.359900000000003
 20
67.382099999999994
 30
0.0
 10
47.359900000000003
 20
67.382099999999994
 30
0.0
 10
47.135199999999998
 20
66.167100000000005
 30
0.0
 10
47.135199999999998
 20
66.167100000000005
 30
0.0
 10
47.135199999999998
 20
66.167100000000005
 30
0.0
 10
47.135199999999998
 20
66.167100000000005
 30
0.0
 10
45.669600000000003
 20
66.167100000000005
 30
0.0
 10
45.669600000000003
 20
66.167100000000005
 30
0.0
 10
45.669600000000003
 20
66.167100000000005
 30
0.0
 10
45.669600000000003
 20
66.167100000000005
 30
0.0
 10
47.414200000000001
 20
73.528800000000004
 30
0.0
 10
47.414200000000001
 20
73.528800000000004
 30
0.0
 10
47.414200000000001
 20
73.528800000000004
 30
0.0
 10
47.414200000000001
 20
73.528800000000004
 30
0.0
 10
48.978099999999998
 20
73.528800000000004
 30
0.0
 10
48.978099999999998
 20
73.528800000000004
 30
0.0
 10
48.978099999999998
 20
73.528800000000004
 30
0.0
 10
48.978099999999998
 20
73.528800000000004
 30
0.0
 10
50.723500000000001
 20
66.167100000000005
 30
0.0
 10
50.723500000000001
 20
66.167100000000005
 30
0.0
 10
50.723500000000001
 20
66.167100000000005
 30
0.0
 10
50.723500000000001
 20
66.167100000000005
 30
0.0
 10
49.222299999999997
 20
66.167100000000005
 30
0.0
 10
49.222299999999997
 20
66.167100000000005
 30
0.0
 10
49.222299999999997
 20
66.167100000000005
 30
0.0
 10
49.222299999999997
 20
66.167100000000005
 30
0.0
 10
48.994399999999999
 20
67.382099999999994
 30
0.0
 10
48.994399999999999
 20
67.382099999999994
 30
0.0
 10
48.994399999999999
 20
67.382099999999994
 30
0.0
 10
48.994399999999999
 20
67.382099999999994
 30
0.0
 10
48.245699999999999
 20
67.382099999999994
 30
0.0
 10
48.245699999999999
 20
67.382099999999994
 30
0.0
 10
48.245699999999999
 20
67.382099999999994
 30
0.0
 10
48.245699999999999
 20
67.382099999999994
 30
0.0
 10
48.194400000000002
 20
68.974599999999995
 30
0.0
 10
48.194400000000002
 20
68.974599999999995
 30
0.0
 10
48.194400000000002
 20
68.974599999999995
 30
0.0
 10
48.194400000000002
 20
68.974599999999995
 30
0.0
 10
48.693800000000003
 20
68.974599999999995
 30
0.0
 10
48.693800000000003
 20
68.974599999999995
 30
0.0
 10
48.693800000000003
 20
68.974599999999995
 30
0.0
 10
48.693800000000003
 20
68.974599999999995
 30
0.0
 10
48.180399999999999
 20
71.620999999999995
 30
0.0
 10
48.180399999999999
 20
71.620999999999995
 30
0.0
 10
48.180399999999999
 20
71.620999999999995
 30
0.0
 10
48.180399999999999
 20
71.620999999999995
 30
0.0
 10
47.670400000000001
 20
68.974599999999995
 30
0.0
 10
47.670400000000001
 20
68.974599999999995
 30
0.0
  0
SPLINE
  5
27
100
AcDbEntity
  8
RÚteg 1
 62
     7
100
AcDbSpline
210
0.0
220
0.0
230
1.0
 70
     1
 71
     3
 72
    96
 73
    92
 74
     0
 42
0.0000000001
 43
0.0000000001
 40
0.0
 40
0.0
 40
0.0
 40
0.0
 40
0.0434782608695652
 40
0.0434782608695652
 40
0.0434782608695652
 40
0.0434782608695652
 40
0.0869565217391304
 40
0.0869565217391304
 40
0.0869565217391304
 40
0.0869565217391304
 40
0.1304347826086957
 40
0.1304347826086957
 40
0.1304347826086957
 40
0.1304347826086957
 40
0.1739130434782609
 40
0.1739130434782609
 40
0.1739130434782609
 40
0.1739130434782609
 40
0.2173913043478261
 40
0.2173913043478261
 40
0.2173913043478261
 40
0.2173913043478261
 40
0.2608695652173913
 40
0.2608695652173913
 40
0.2608695652173913
 40
0.2608695652173913
 40
0.3043478260869565
 40
0.3043478260869565
 40
0.3043478260869565
 40
0.3043478260869565
 40
0.3478260869565217
 40
0.3478260869565217
 40
0.3478260869565217
 40
0.3478260869565217
 40
0.3913043478260869
 40
0.3913043478260869
 40
0.3913043478260869
 40
0.3913043478260869
 40
0.4347826086956521
 40
0.4347826086956521
 40
0.4347826086956521
 40
0.4347826086956521
 40
0.4782608695652173
 40
0.4782608695652173
 40
0.4782608695652173
 40
0.4782608695652173
 40
0.5217391304347825
 40
0.5217391304347825
 40
0.5217391304347825
 40
0.5217391304347825
 40
0.5652173913043477
 40
0.5652173913043477
 40
0.5652173913043477
 40
0.5652173913043477
 40
0.6086956521739129
 40
0.6086956521739129
 40
0.6086956521739129
 40
0.6086956521739129
 40
0.6521739130434781
 40
0.6521739130434781
 40
0.6521739130434781
 40
0.6521739130434781
 40
0.6956521739130432
 40
0.6956521739130432
 40
0.6956521739130432
 40
0.6956521739130432
 40
0.7391304347826084
 40
0.7391304347826084
 40
0.7391304347826084
 40
0.7391304347826084
 40
0.7826086956521736
 40
0.7826086956521736
 40
0.7826086956521736
 40
0.7826086956521736
 40
0.8260869565217388
 40
0.8260869565217388
 40
0.8260869565217388
 40
0.8260869565217388
 40
0.869565217391304
 40
0.869565217391304
 40
0.869565217391304
 40
0.869565217391304
 40
0.9130434782608692
 40
0.9130434782608692
 40
0.9130434782608692
 40
0.9130434782608692
 40
0.9565217391304344
 40
0.9565217391304344
 40
0.9565217391304344
 40
0.9565217391304344
 40
1.0
 40
1.0
 40
1.0
 40
1.0
 10
43.053899999999999
 20
73.528800000000004
 30
0.0
 10
43.053899999999999
 20
73.528800000000004
 30
0.0
 10
43.053899999999999
 20
72.042900000000003
 30
0.0
 10
43.053899999999999
 20
72.042900000000003
 30
0.0
 10
43.053899999999999
 20
72.042900000000003
 30
0.0
 10
43.053899999999999
 20
72.042900000000003
 30
0.0
 10
43.183900000000001
 20
72.042900000000003
 30
0.0
 10
43.183900000000001
 20
72.042900000000003
 30
0.0
 10
43.183900000000001
 20
72.042900000000003
 30
0.0
 10
43.445300000000003
 20
72.042900000000003
 30
0.0
 10
43.623800000000003
 20
71.979299999999995
 30
0.0
 10
43.718800000000002
 20
71.850899999999996
 30
0.0
 10
43.718800000000002
 20
71.850899999999996
 30
0.0
 10
43.813800000000001
 20
71.7239
 30
0.0
 10
43.861499999999999
 20
71.542400000000001
 30
0.0
 10
43.861499999999999
 20
71.304000000000002
 30
0.0
 10
43.861499999999999
 20
71.304000000000002
 30
0.0
 10
43.861499999999999
 20
71.142799999999994
 30
0.0
 10
43.831099999999999
 20
71.000600000000006
 30
0.0
 10
43.771700000000003
 20
70.877399999999994
 30
0.0
 10
43.771700000000003
 20
70.877399999999994
 30
0.0
 10
43.711100000000002
 20
70.754000000000005
 30
0.0
 10
43.633400000000002
 20
70.676599999999993
 30
0.0
 10
43.538400000000003
 20
70.645799999999994
 30
0.0
 10
43.538400000000003
 20
70.645799999999994
 30
0.0
 10
43.3504
 20
70.578900000000004
 30
0.0
 10
43.223700000000001
 20
70.546400000000006
 30
0.0
 10
43.158799999999999
 20
70.546400000000006
 30
0.0
 10
43.158799999999999
 20
70.546400000000006
 30
0.0
 10
43.158799999999999
 20
70.546400000000006
 30
0.0
 10
43.053899999999999
 20
70.546400000000006
 30
0.0
 10
43.053899999999999
 20
70.546400000000006
 30
0.0
 10
43.053899999999999
 20
70.546400000000006
 30
0.0
 10
43.053899999999999
 20
70.546400000000006
 30
0.0
 10
43.053899999999999
 20
68.956699999999998
 30
0.0
 10
43.053899999999999
 20
68.956699999999998
 30
0.0
 10
43.053899999999999
 20
68.956699999999998
 30
0.0
 10
43.124899999999997
 20
68.859899999999996
 30
0.0
 10
43.2042
 20
68.679299999999998
 30
0.0
 10
43.291800000000002
 20
68.4178
 30
0.0
 10
43.291800000000002
 20
68.4178
 30
0.0
 10
43.291800000000002
 20
68.4178
 30
0.0
 10
44.058199999999999
 20
66.167100000000005
 30
0.0
 10
44.058199999999999
 20
66.167100000000005
 30
0.0
 10
44.058199999999999
 20
66.167100000000005
 30
0.0
 10
44.058199999999999
 20
66.167100000000005
 30
0.0
 10
45.679400000000001
 20
66.167100000000005
 30
0.0
 10
45.679400000000001
 20
66.167100000000005
 30
0.0
 10
45.679400000000001
 20
66.167100000000005
 30
0.0
 10
45.679400000000001
 20
66.167100000000005
 30
0.0
 10
44.985599999999998
 20
68.301000000000002
 30
0.0
 10
44.985599999999998
 20
68.301000000000002
 30
0.0
 10
44.985599999999998
 20
68.301000000000002
 30
0.0
 10
44.951900000000002
 20
68.409199999999998
 30
0.0
 10
44.885199999999998
 20
68.559899999999999
 30
0.0
 10
44.784500000000001
 20
68.758700000000005
 30
0.0
 10
44.784500000000001
 20
68.758700000000005
 30
0.0
 10
44.683900000000001
 20
68.955799999999996
 30
0.0
 10
44.607300000000002
 20
69.084400000000002
 30
0.0
 10
44.555399999999999
 20
69.144300000000001
 30
0.0
 10
44.555399999999999
 20
69.144300000000001
 30
0.0
 10
44.476399999999998
 20
69.235200000000006
 30
0.0
 10
44.3521
 20
69.326099999999997
 30
0.0
 10
44.1813
 20
69.416700000000006
 30
0.0
 10
44.1813
 20
69.416700000000006
 30
0.0
 10
44.394300000000001
 20
69.4923
 30
0.0
 10
44.561799999999998
 20
69.5899
 30
0.0
 10
44.684899999999999
 20
69.706599999999995
 30
0.0
 10
44.684899999999999
 20
69.706599999999995
 30
0.0
 10
44.876399999999997
 20
69.891599999999997
 30
0.0
 10
45.0276
 20
70.131799999999998
 30
0.0
 10
45.137799999999999
 20
70.428200000000004
 30
0.0
 10
45.137799999999999
 20
70.428200000000004
 30
0.0
 10
45.246899999999997
 20
70.724800000000002
 30
0.0
 10
45.302100000000003
 20
71.075900000000004
 30
0.0
 10
45.302100000000003
 20
71.485699999999994
 30
0.0
 10
45.302100000000003
 20
71.485699999999994
 30
0.0
 10
45.302100000000003
 20
71.953800000000001
 30
0.0
 10
45.230899999999998
 20
72.351299999999995
 30
0.0
 10
45.087200000000003
 20
72.6768
 30
0.0
 10
45.087200000000003
 20
72.6768
 30
0.0
 10
44.943199999999997
 20
73.004400000000004
 30
0.0
 10
44.754199999999997
 20
73.227199999999996
 30
0.0
 10
44.519500000000001
 20
73.347399999999993
 30
0.0
 10
44.519500000000001
 20
73.347399999999993
 30
0.0
 10
44.286299999999997
 20
73.468800000000002
 30
0.0
 10
43.947000000000003
 20
73.528800000000004
 30
0.0
 10
43.503900000000002
 20
73.528800000000004
 30
0.0
 10
43.503900000000002
 20
73.528800000000004
 30
0.0
 10
43.503900000000002
 20
73.528800000000004
 30
0.0
 10
43.053899999999999
 20
73.528800000000004
 30
0.0
 10
43.053899999999999
 20
73.528800000000004
 30
0.0
  0
SPLINE
  5
28
100
AcDbEntity
  8
RÚteg 1
 62
     7
100
AcDbSpline
210
0.0
220
0.0
230
1.0
 70
     1
 71
     3
 72
    20
 73
    16
 74
     0
 42
0.0000000001
 43
0.0000000001
 40
0.0
 40
0.0
 40
0.0
 40
0.0
 40
0.25
 40
0.25
 40
0.25
 40
0.25
 40
0.5
 40
0.5
 40
0.5
 40
0.5
 40
0.75
 40
0.75
 40
0.75
 40
0.75
 40
1.0
 40
1.0
 40
1.0
 40
1.0
 10
42.296999999999997
 20
66.167100000000005
 30
0.0
 10
42.296999999999997
 20
66.167100000000005
 30
0.0
 10
42.296999999999997
 20
73.528800000000004
 30
0.0
 10
42.296999999999997
 20
73.528800000000004
 30
0.0
 10
42.296999999999997
 20
73.528800000000004
 30
0.0
 10
42.296999999999997
 20
73.528800000000004
 30
0.0
 10
41.113
 20
73.528800000000004
 30
0.0
 10
41.113
 20
73.528800000000004
 30
0.0
 10
41.113
 20
73.528800000000004
 30
0.0
 10
41.113
 20
73.528800000000004
 30
0.0
 10
41.113
 20
66.167100000000005
 30
0.0
 10
41.113
 20
66.167100000000005
 30
0.0
 10
41.113
 20
66.167100000000005
 30
0.0
 10
41.113
 20
66.167100000000005
 30
0.0
 10
42.296999999999997
 20
66.167100000000005
 30
0.0
 10
42.296999999999997
 20
66.167100000000005
 30
0.0
  0
SPLINE
  5
29
100
AcDbEntity
  8
RÚteg 1
 62
     7
100
AcDbSpline
210
0.0
220
0.0
230
1.0
 70
     1
 71
     3
 72
    52
 73
    48
 74
     0
 42
0.0000000001
 43
0.0000000001
 40
0.0
 40
0.0
 40
0.0
 40
0.0
 40
0.0833333333333333
 40
0.0833333333333333
 40
0.0833333333333333
 40
0.0833333333333333
 40
0.1666666666666667
 40
0.1666666666666667
 40
0.1666666666666667
 40
0.1666666666666667
 40
0.25
 40
0.25
 40
0.25
 40
0.25
 40
0.3333333333333333
 40
0.3333333333333333
 40
0.3333333333333333
 40
0.3333333333333333
 40
0.4166666666666666
 40
0.4166666666666666
 40
0.4166666666666666
 40
0.4166666666666666
 40
0.4999999999999999
 40
0.4999999999999999
 40
0.4999999999999999
 40
0.4999999999999999
 40
0.5833333333333333
 40
0.5833333333333333
 40
0.5833333333333333
 40
0.5833333333333333
 40
0.6666666666666666
 40
0.6666666666666666
 40
0.6666666666666666
 40
0.6666666666666666
 40
0.75
 40
0.75
 40
0.75
 40
0.75
 40
0.8333333333333334
 40
0.8333333333333334
 40
0.8333333333333334
 40
0.8333333333333334
 40
0.9166666666666667
 40
0.9166666666666667
 40
0.9166666666666667
 40
0.9166666666666667
 40
1.0
 40
1.0
 40
1.0
 40
1.0
 10
38.468800000000002
 20
73.528800000000004
 30
0.0
 10
38.468800000000002
 20
73.528800000000004
 30
0.0
 10
38.468800000000002
 20
72.011600000000001
 30
0.0
 10
38.468800000000002
 20
72.011600000000001
 30
0.0
 10
38.468800000000002
 20
72.011600000000001
 30
0.0
 10
38.622
 20
71.978099999999998
 30
0.0
 10
38.7333
 20
71.904399999999995
 30
0.0
 10
38.801099999999998
 20
71.790899999999993
 30
0.0
 10
38.801099999999998
 20
71.790899999999993
 30
0.0
 10
38.898400000000002
 20
71.631500000000003
 30
0.0
 10
38.947000000000003
 20
71.434200000000004
 30
0.0
 10
38.947000000000003
 20
71.203000000000003
 30
0.0
 10
38.947000000000003
 20
71.203000000000003
 30
0.0
 10
38.947000000000003
 20
70.966399999999993
 30
0.0
 10
38.890900000000002
 20
70.771000000000001
 30
0.0
 10
38.779499999999999
 20
70.618399999999994
 30
0.0
 10
38.779499999999999
 20
70.618399999999994
 30
0.0
 10
38.708399999999997
 20
70.522099999999995
 30
0.0
 10
38.604700000000001
 20
70.456800000000001
 30
0.0
 10
38.468800000000002
 20
70.421400000000006
 30
0.0
 10
38.468800000000002
 20
70.421400000000006
 30
0.0
 10
38.468800000000002
 20
70.421400000000006
 30
0.0
 10
38.468800000000002
 20
68.899199999999993
 30
0.0
 10
38.468800000000002
 20
68.899199999999993
 30
0.0
 10
38.468800000000002
 20
68.899199999999993
 30
0.0
 10
38.468800000000002
 20
68.899199999999993
 30
0.0
 10
38.630200000000002
 20
68.899199999999993
 30
0.0
 10
38.630200000000002
 20
68.899199999999993
 30
0.0
 10
38.630200000000002
 20
68.899199999999993
 30
0.0
 10
39.208500000000001
 20
68.899199999999993
 30
0.0
 10
39.6387
 20
69.108500000000006
 30
0.0
 10
39.920699999999997
 20
69.526499999999999
 30
0.0
 10
39.920699999999997
 20
69.526499999999999
 30
0.0
 10
40.2029
 20
69.944999999999993
 30
0.0
 10
40.343400000000003
 20
70.525899999999993
 30
0.0
 10
40.343400000000003
 20
71.2697
 30
0.0
 10
40.343400000000003
 20
71.2697
 30
0.0
 10
40.343400000000003
 20
71.991299999999995
 30
0.0
 10
40.213700000000003
 20
72.550200000000004
 30
0.0
 10
39.955300000000001
 20
72.941000000000003
 30
0.0
 10
39.955300000000001
 20
72.941000000000003
 30
0.0
 10
39.697099999999999
 20
73.333600000000004
 30
0.0
 10
39.308
 20
73.528800000000004
 30
0.0
 10
38.789299999999997
 20
73.528800000000004
 30
0.0
 10
38.789299999999997
 20
73.528800000000004
 30
0.0
 10
38.789299999999997
 20
73.528800000000004
 30
0.0
 10
38.468800000000002
 20
73.528800000000004
 30
0.0
 10
38.468800000000002
 20
73.528800000000004
 30
0.0
  0
SPLINE
  5
2A
100
AcDbEntity
  8
RÚteg 1
 62
     7
100
AcDbSpline
210
0.0
220
0.0
230
1.0
 70
     1
 71
     3
 72
    20
 73
    16
 74
     0
 42
0.0000000001
 43
0.0000000001
 40
0.0
 40
0.0
 40
0.0
 40
0.0
 40
0.25
 40
0.25
 40
0.25
 40
0.25
 40
0.5
 40
0.5
 40
0.5
 40
0.5
 40
0.75
 40
0.75
 40
0.75
 40
0.75
 40
1.0
 40
1.0
 40
1.0
 40
1.0
 10
37.667499999999997
 20
66.167100000000005
 30
0.0
 10
37.667499999999997
 20
66.167100000000005
 30
0.0
 10
37.667499999999997
 20
73.528800000000004
 30
0.0
 10
37.667499999999997
 20
73.528800000000004
 30
0.0
 10
37.667499999999997
 20
73.528800000000004
 30
0.0
 10
37.667499999999997
 20
73.528800000000004
 30
0.0
 10
36.404899999999998
 20
73.528800000000004
 30
0.0
 10
36.404899999999998
 20
73.528800000000004
 30
0.0
 10
36.404899999999998
 20
73.528800000000004
 30
0.0
 10
36.404899999999998
 20
73.528800000000004
 30
0.0
 10
36.404899999999998
 20
66.167100000000005
 30
0.0
 10
36.404899999999998
 20
66.167100000000005
 30
0.0
 10
36.404899999999998
 20
66.167100000000005
 30
0.0
 10
36.404899999999998
 20
66.167100000000005
 30
0.0
 10
37.667499999999997
 20
66.167100000000005
 30
0.0
 10
37.667499999999997
 20
66.167100000000005
 30
0.0
  0
SPLINE
  5
2B
100
AcDbEntity
  8
RÚteg 1
 62
     7
100
AcDbSpline
210
0.0
220
0.0
230
1.0
 70
     1
 71
     3
 72
    28
 73
    24
 74
     0
 42
0.0000000001
 43
0.0000000001
 40
0.0
 40
0.0
 40
0.0
 40
0.0
 40
0.1666666666666667
 40
0.1666666666666667
 40
0.1666666666666667
 40
0.1666666666666667
 40
0.3333333333333333
 40
0.3333333333333333
 40
0.3333333333333333
 40
0.3333333333333333
 40
0.5
 40
0.5
 40
0.5
 40
0.5
 40
0.6666666666666666
 40
0.6666666666666666
 40
0.6666666666666666
 40
0.6666666666666666
 40
0.8333333333333333
 40
0.8333333333333333
 40
0.8333333333333333
 40
0.8333333333333333
 40
1.0
 40
1.0
 40
1.0
 40
1.0
 10
14.0708
 20
73.528800000000004
 30
0.0
 10
14.0708
 20
73.528800000000004
 30
0.0
 10
15.5062
 20
73.528800000000004
 30
0.0
 10
15.5062
 20
73.528800000000004
 30
0.0
 10
15.5062
 20
73.528800000000004
 30
0.0
 10
15.5062
 20
73.528800000000004
 30
0.0
 10
15.5062
 20
67.980500000000006
 30
0.0
 10
15.5062
 20
67.980500000000006
 30
0.0
 10
15.5062
 20
67.980500000000006
 30
0.0
 10
15.5062
 20
67.980500000000006
 30
0.0
 10
17.744599999999998
 20
67.980500000000006
 30
0.0
 10
17.744599999999998
 20
67.980500000000006
 30
0.0
 10
17.744599999999998
 20
67.980500000000006
 30
0.0
 10
17.744599999999998
 20
67.980500000000006
 30
0.0
 10
17.744599999999998
 20
66.167100000000005
 30
0.0
 10
17.744599999999998
 20
66.167100000000005
 30
0.0
 10
17.744599999999998
 20
66.167100000000005
 30
0.0
 10
17.744599999999998
 20
66.167100000000005
 30
0.0
 10
14.0708
 20
66.167100000000005
 30
0.0
 10
14.0708
 20
66.167100000000005
 30
0.0
 10
14.0708
 20
66.167100000000005
 30
0.0
 10
14.0708
 20
66.167100000000005
 30
0.0
 10
14.0708
 20
73.528800000000004
 30
0.0
 10
14.0708
 20
73.528800000000004
 30
0.0
  0
SPLINE
  5
2C
100
AcDbEntity
  8
RÚteg 1
 62
     7
100
AcDbSpline
210
0.0
220
0.0
230
1.0
 70
     1
 71
     3
 72
    52
 73
    48
 74
     0
 42
0.0000000001
 43
0.0000000001
 40
0.0
 40
0.0
 40
0.0
 40
0.0
 40
0.0833333333333333
 40
0.0833333333333333
 40
0.0833333333333333
 40
0.0833333333333333
 40
0.1666666666666667
 40
0.1666666666666667
 40
0.1666666666666667
 40
0.1666666666666667
 40
0.25
 40
0.25
 40
0.25
 40
0.25
 40
0.3333333333333333
 40
0.3333333333333333
 40
0.3333333333333333
 40
0.3333333333333333
 40
0.4166666666666666
 40
0.4166666666666666
 40
0.4166666666666666
 40
0.4166666666666666
 40
0.4999999999999999
 40
0.4999999999999999
 40
0.4999999999999999
 40
0.4999999999999999
 40
0.5833333333333333
 40
0.5833333333333333
 40
0.5833333333333333
 40
0.5833333333333333
 40
0.6666666666666666
 40
0.6666666666666666
 40
0.6666666666666666
 40
0.6666666666666666
 40
0.75
 40
0.75
 40
0.75
 40
0.75
 40
0.8333333333333334
 40
0.8333333333333334
 40
0.8333333333333334
 40
0.8333333333333334
 40
0.9166666666666667
 40
0.9166666666666667
 40
0.9166666666666667
 40
0.9166666666666667
 40
1.0
 40
1.0
 40
1.0
 40
1.0
 10
18.394100000000002
 20
73.528800000000004
 30
0.0
 10
18.394100000000002
 20
73.528800000000004
 30
0.0
 10
22.237500000000001
 20
73.528800000000004
 30
0.0
 10
22.237500000000001
 20
73.528800000000004
 30
0.0
 10
22.237500000000001
 20
73.528800000000004
 30
0.0
 10
22.237500000000001
 20
73.528800000000004
 30
0.0
 10
22.237500000000001
 20
71.957099999999997
 30
0.0
 10
22.237500000000001
 20
71.957099999999997
 30
0.0
 10
22.237500000000001
 20
71.957099999999997
 30
0.0
 10
22.237500000000001
 20
71.957099999999997
 30
0.0
 10
19.831499999999998
 20
71.957099999999997
 30
0.0
 10
19.831499999999998
 20
71.957099999999997
 30
0.0
 10
19.831499999999998
 20
71.957099999999997
 30
0.0
 10
19.831499999999998
 20
71.957099999999997
 30
0.0
 10
19.831499999999998
 20
70.7864
 30
0.0
 10
19.831499999999998
 20
70.7864
 30
0.0
 10
19.831499999999998
 20
70.7864
 30
0.0
 10
19.831499999999998
 20
70.7864
 30
0.0
 10
22.063600000000001
 20
70.7864
 30
0.0
 10
22.063600000000001
 20
70.7864
 30
0.0
 10
22.063600000000001
 20
70.7864
 30
0.0
 10
22.063600000000001
 20
70.7864
 30
0.0
 10
22.063600000000001
 20
69.284999999999997
 30
0.0
 10
22.063600000000001
 20
69.284999999999997
 30
0.0
 10
22.063600000000001
 20
69.284999999999997
 30
0.0
 10
22.063600000000001
 20
69.284999999999997
 30
0.0
 10
19.831499999999998
 20
69.284999999999997
 30
0.0
 10
19.831499999999998
 20
69.284999999999997
 30
0.0
 10
19.831499999999998
 20
69.284999999999997
 30
0.0
 10
19.831499999999998
 20
69.284999999999997
 30
0.0
 10
19.831499999999998
 20
67.834800000000001
 30
0.0
 10
19.831499999999998
 20
67.834800000000001
 30
0.0
 10
19.831499999999998
 20
67.834800000000001
 30
0.0
 10
19.831499999999998
 20
67.834800000000001
 30
0.0
 10
22.307700000000001
 20
67.834800000000001
 30
0.0
 10
22.307700000000001
 20
67.834800000000001
 30
0.0
 10
22.307700000000001
 20
67.834800000000001
 30
0.0
 10
22.307700000000001
 20
67.834800000000001
 30
0.0
 10
22.307700000000001
 20
66.167100000000005
 30
0.0
 10
22.307700000000001
 20
66.167100000000005
 30
0.0
 10
22.307700000000001
 20
66.167100000000005
 30
0.0
 10
22.307700000000001
 20
66.167100000000005
 30
0.0
 10
18.394100000000002
 20
66.167100000000005
 30
0.0
 10
18.394100000000002
 20
66.167100000000005
 30
0.0
 10
18.394100000000002
 20
66.167100000000005
 30
0.0
 10
18.394100000000002
 20
66.167100000000005
 30
0.0
 10
18.394100000000002
 20
73.528800000000004
 30
0.0
 10
18.394100000000002
 20
73.528800000000004
 30
0.0
  0
SPLINE
  5
2D
100
AcDbEntity
  8
RÚteg 1
 62
     7
100
AcDbSpline
210
0.0
220
0.0
230
1.0
 70
     1
 71
     3
 72
    36
 73
    32
 74
     0
 42
0.0000000001
 43
0.0000000001
 40
0.0
 40
0.0
 40
0.0
 40
0.0
 40
0.125
 40
0.125
 40
0.125
 40
0.125
 40
0.25
 40
0.25
 40
0.25
 40
0.25
 40
0.375
 40
0.375
 40
0.375
 40
0.375
 40
0.5
 40
0.5
 40
0.5
 40
0.5
 40
0.625
 40
0.625
 40
0.625
 40
0.625
 40
0.75
 40
0.75
 40
0.75
 40
0.75
 40
0.875
 40
0.875
 40
0.875
 40
0.875
 40
1.0
 40
1.0
 40
1.0
 40
1.0
 10
22.754100000000001
 20
73.528800000000004
 30
0.0
 10
22.754100000000001
 20
73.528800000000004
 30
0.0
 10
27.1142
 20
73.528800000000004
 30
0.0
 10
27.1142
 20
73.528800000000004
 30
0.0
 10
27.1142
 20
73.528800000000004
 30
0.0
 10
27.1142
 20
73.528800000000004
 30
0.0
 10
27.1142
 20
71.7102
 30
0.0
 10
27.1142
 20
71.7102
 30
0.0
 10
27.1142
 20
71.7102
 30
0.0
 10
27.1142
 20
71.7102
 30
0.0
 10
25.650700000000001
 20
71.7102
 30
0.0
 10
25.650700000000001
 20
71.7102
 30
0.0
 10
25.650700000000001
 20
71.7102
 30
0.0
 10
25.650700000000001
 20
71.7102
 30
0.0
 10
25.650700000000001
 20
66.167100000000005
 30
0.0
 10
25.650700000000001
 20
66.167100000000005
 30
0.0
 10
25.650700000000001
 20
66.167100000000005
 30
0.0
 10
25.650700000000001
 20
66.167100000000005
 30
0.0
 10
24.216699999999999
 20
66.167100000000005
 30
0.0
 10
24.216699999999999
 20
66.167100000000005
 30
0.0
 10
24.216699999999999
 20
66.167100000000005
 30
0.0
 10
24.216699999999999
 20
66.167100000000005
 30
0.0
 10
24.216699999999999
 20
71.7102
 30
0.0
 10
24.216699999999999
 20
71.7102
 30
0.0
 10
24.216699999999999
 20
71.7102
 30
0.0
 10
24.216699999999999
 20
71.7102
 30
0.0
 10
22.754100000000001
 20
71.7102
 30
0.0
 10
22.754100000000001
 20
71.7102
 30
0.0
 10
22.754100000000001
 20
71.7102
 30
0.0
 10
22.754100000000001
 20
71.7102
 30
0.0
 10
22.754100000000001
 20
73.528800000000004
 30
0.0
 10
22.754100000000001
 20
73.528800000000004
 30
0.0
  0
SPLINE
  5
2E
100
AcDbEntity
  8
RÚteg 1
 62
     7
100
AcDbSpline
210
0.0
220
0.0
230
1.0
 70
     1
 71
     3
 72
    40
 73
    36
 74
     0
 42
0.0000000001
 43
0.0000000001
 40
0.0
 40
0.0
 40
0.0
 40
0.0
 40
0.1111111111111111
 40
0.1111111111111111
 40
0.1111111111111111
 40
0.1111111111111111
 40
0.2222222222222222
 40
0.2222222222222222
 40
0.2222222222222222
 40
0.2222222222222222
 40
0.3333333333333333
 40
0.3333333333333333
 40
0.3333333333333333
 40
0.3333333333333333
 40
0.4444444444444444
 40
0.4444444444444444
 40
0.4444444444444444
 40
0.4444444444444444
 40
0.5555555555555556
 40
0.5555555555555556
 40
0.5555555555555556
 40
0.5555555555555556
 40
0.6666666666666667
 40
0.6666666666666667
 40
0.6666666666666667
 40
0.6666666666666667
 40
0.7777777777777779
 40
0.7777777777777779
 40
0.7777777777777779
 40
0.7777777777777779
 40
0.8888888888888891
 40
0.8888888888888891
 40
0.8888888888888891
 40
0.8888888888888891
 40
1.0
 40
1.0
 40
1.0
 40
1.0
 10
27.509799999999998
 20
73.653899999999993
 30
0.0
 10
27.509799999999998
 20
73.653899999999993
 30
0.0
 10
28.888000000000002
 20
73.653899999999993
 30
0.0
 10
28.888000000000002
 20
73.653899999999993
 30
0.0
 10
28.888000000000002
 20
73.653899999999993
 30
0.0
 10
28.888000000000002
 20
73.653899999999993
 30
0.0
 10
28.888000000000002
 20
71.972499999999997
 30
0.0
 10
28.888000000000002
 20
71.972499999999997
 30
0.0
 10
28.888000000000002
 20
71.972499999999997
 30
0.0
 10
28.888000000000002
 20
71.352099999999993
 30
0.0
 10
28.805800000000001
 20
70.863500000000002
 30
0.0
 10
28.6435
 20
70.503699999999995
 30
0.0
 10
28.6435
 20
70.503699999999995
 30
0.0
 10
28.4815
 20
70.143500000000003
 30
0.0
 10
28.203600000000002
 20
69.828299999999999
 30
0.0
 10
27.810300000000002
 20
69.557400000000001
 30
0.0
 10
27.810300000000002
 20
69.557400000000001
 30
0.0
 10
27.810300000000002
 20
69.557400000000001
 30
0.0
 10
27.509799999999998
 20
70.450500000000005
 30
0.0
 10
27.509799999999998
 20
70.450500000000005
 30
0.0
 10
27.509799999999998
 20
70.450500000000005
 30
0.0
 10
27.755099999999999
 20
70.632300000000001
 30
0.0
 10
27.922699999999999
 20
70.810400000000001
 30
0.0
 10
28.014600000000002
 20
70.990300000000005
 30
0.0
 10
28.014600000000002
 20
70.990300000000005
 30
0.0
 10
28.106400000000001
 20
71.168599999999998
 30
0.0
 10
28.158200000000001
 20
71.381200000000007
 30
0.0
 10
28.167899999999999
 20
71.626300000000001
 30
0.0
 10
28.167899999999999
 20
71.626300000000001
 30
0.0
 10
28.167899999999999
 20
71.626300000000001
 30
0.0
 10
27.509799999999998
 20
71.626300000000001
 30
0.0
 10
27.509799999999998
 20
71.626300000000001
 30
0.0
 10
27.509799999999998
 20
71.626300000000001
 30
0.0
 10
27.509799999999998
 20
71.626300000000001
 30
0.0
 10
27.509799999999998
 20
73.653899999999993
 30
0.0
 10
27.509799999999998
 20
73.653899999999993
 30
0.0
  0
SPLINE
  5
2F
100
AcDbEntity
  8
RÚteg 1
 62
     7
100
AcDbSpline
210
0.0
220
0.0
230
1.0
 70
     1
 71
     3
 72
   120
 73
   116
 74
     0
 42
0.0000000001
 43
0.0000000001
 40
0.0
 40
0.0
 40
0.0
 40
0.0
 40
0.0344827586206897
 40
0.0344827586206897
 40
0.0344827586206897
 40
0.0344827586206897
 40
0.0689655172413793
 40
0.0689655172413793
 40
0.0689655172413793
 40
0.0689655172413793
 40
0.103448275862069
 40
0.103448275862069
 40
0.103448275862069
 40
0.103448275862069
 40
0.1379310344827586
 40
0.1379310344827586
 40
0.1379310344827586
 40
0.1379310344827586
 40
0.1724137931034483
 40
0.1724137931034483
 40
0.1724137931034483
 40
0.1724137931034483
 40
0.206896551724138
 40
0.206896551724138
 40
0.206896551724138
 40
0.206896551724138
 40
0.2413793103448276
 40
0.2413793103448276
 40
0.2413793103448276
 40
0.2413793103448276
 40
0.2758620689655173
 40
0.2758620689655173
 40
0.2758620689655173
 40
0.2758620689655173
 40
0.310344827586207
 40
0.310344827586207
 40
0.310344827586207
 40
0.310344827586207
 40
0.3448275862068966
 40
0.3448275862068966
 40
0.3448275862068966
 40
0.3448275862068966
 40
0.3793103448275863
 40
0.3793103448275863
 40
0.3793103448275863
 40
0.3793103448275863
 40
0.413793103448276
 40
0.413793103448276
 40
0.413793103448276
 40
0.413793103448276
 40
0.4482758620689656
 40
0.4482758620689656
 40
0.4482758620689656
 40
0.4482758620689656
 40
0.4827586206896553
 40
0.4827586206896553
 40
0.4827586206896553
 40
0.4827586206896553
 40
0.517241379310345
 40
0.517241379310345
 40
0.517241379310345
 40
0.517241379310345
 40
0.5517241379310346
 40
0.5517241379310346
 40
0.5517241379310346
 40
0.5517241379310346
 40
0.5862068965517242
 40
0.5862068965517242
 40
0.5862068965517242
 40
0.5862068965517242
 40
0.6206896551724138
 40
0.6206896551724138
 40
0.6206896551724138
 40
0.6206896551724138
 40
0.6551724137931034
 40
0.6551724137931034
 40
0.6551724137931034
 40
0.6551724137931034
 40
0.689655172413793
 40
0.689655172413793
 40
0.689655172413793
 40
0.689655172413793
 40
0.7241379310344827
 40
0.7241379310344827
 40
0.7241379310344827
 40
0.7241379310344827
 40
0.7586206896551723
 40
0.7586206896551723
 40
0.7586206896551723
 40
0.7586206896551723
 40
0.7931034482758619
 40
0.7931034482758619
 40
0.7931034482758619
 40
0.7931034482758619
 40
0.8275862068965515
 40
0.8275862068965515
 40
0.8275862068965515
 40
0.8275862068965515
 40
0.8620689655172411
 40
0.8620689655172411
 40
0.8620689655172411
 40
0.8620689655172411
 40
0.8965517241379307
 40
0.8965517241379307
 40
0.8965517241379307
 40
0.8965517241379307
 40
0.9310344827586203
 40
0.9310344827586203
 40
0.9310344827586203
 40
0.9310344827586203
 40
0.9655172413793099
 40
0.9655172413793099
 40
0.9655172413793099
 40
0.9655172413793099
 40
1.0
 40
1.0
 40
1.0
 40
1.0
 10
29.314800000000002
 20
68.602699999999999
 30
0.0
 10
29.314800000000002
 20
68.602699999999999
 30
0.0
 10
30.6798
 20
68.738200000000006
 30
0.0
 10
30.6798
 20
68.738200000000006
 30
0.0
 10
30.6798
 20
68.738200000000006
 30
0.0
 10
30.7089
 20
68.386600000000001
 30
0.0
 10
30.769400000000001
 20
68.119299999999996
 30
0.0
 10
30.860299999999999
 20
67.934200000000004
 30
0.0
 10
30.860299999999999
 20
67.934200000000004
 30
0.0
 10
31.007300000000001
 20
67.635999999999996
 30
0.0
 10
31.219100000000001
 20
67.488600000000005
 30
0.0
 10
31.4937
 20
67.488600000000005
 30
0.0
 10
31.4937
 20
67.488600000000005
 30
0.0
 10
31.697800000000001
 20
67.488600000000005
 30
0.0
 10
31.855699999999999
 20
67.563900000000004
 30
0.0
 10
31.966999999999999
 20
67.7166
 30
0.0
 10
31.966999999999999
 20
67.7166
 30
0.0
 10
32.077300000000001
 20
67.869
 30
0.0
 10
32.1325
 20
68.045599999999993
 30
0.0
 10
32.1325
 20
68.246200000000002
 30
0.0
 10
32.1325
 20
68.246200000000002
 30
0.0
 10
32.1325
 20
68.436499999999995
 30
0.0
 10
32.0807
 20
68.607699999999994
 30
0.0
 10
31.974599999999999
 20
68.758700000000005
 30
0.0
 10
31.974599999999999
 20
68.758700000000005
 30
0.0
 10
31.868600000000001
 20
68.909499999999994
 30
0.0
 10
31.624500000000001
 20
69.051699999999997
 30
0.0
 10
31.239599999999999
 20
69.185599999999994
 30
0.0
 10
31.239599999999999
 20
69.185599999999994
 30
0.0
 10
30.610700000000001
 20
69.409999999999997
 30
0.0
 10
30.161899999999999
 20
69.706599999999995
 30
0.0
 10
29.894100000000002
 20
70.078500000000005
 30
0.0
 10
29.894100000000002
 20
70.078500000000005
 30
0.0
 10
29.623999999999999
 20
70.450500000000005
 30
0.0
 10
29.488800000000001
 20
70.923500000000004
 30
0.0
 10
29.488800000000001
 20
71.499300000000005
 30
0.0
 10
29.488800000000001
 20
71.499300000000005
 30
0.0
 10
29.488800000000001
 20
71.878200000000007
 30
0.0
 10
29.558
 20
72.236500000000007
 30
0.0
 10
29.696300000000001
 20
72.572400000000002
 30
0.0
 10
29.696300000000001
 20
72.572400000000002
 30
0.0
 10
29.834499999999998
 20
72.908500000000004
 30
0.0
 10
30.042100000000001
 20
73.172300000000007
 30
0.0
 10
30.32
 20
73.365899999999996
 30
0.0
 10
30.32
 20
73.365899999999996
 30
0.0
 10
30.5977
 20
73.557900000000004
 30
0.0
 10
30.978100000000001
 20
73.653899999999993
 30
0.0
 10
31.461200000000002
 20
73.653899999999993
 30
0.0
 10
31.461200000000002
 20
73.653899999999993
 30
0.0
 10
32.054600000000001
 20
73.653899999999993
 30
0.0
 10
32.507599999999996
 20
73.479100000000003
 30
0.0
 10
32.818800000000003
 20
73.129499999999993
 30
0.0
 10
32.818800000000003
 20
73.129499999999993
 30
0.0
 10
33.130000000000003
 20
72.779799999999994
 30
0.0
 10
33.314799999999998
 20
72.222700000000003
 30
0.0
 10
33.374200000000002
 20
71.459999999999994
 30
0.0
 10
33.374200000000002
 20
71.459999999999994
 30
0.0
 10
33.374200000000002
 20
71.459999999999994
 30
0.0
 10
32.022199999999998
 20
71.334800000000001
 30
0.0
 10
32.022199999999998
 20
71.334800000000001
 30
0.0
 10
32.022199999999998
 20
71.334800000000001
 30
0.0
 10
31.986499999999999
 20
71.665700000000001
 30
0.0
 10
31.910799999999998
 20
71.907499999999999
 30
0.0
 10
31.795200000000001
 20
72.058199999999999
 30
0.0
 10
31.795200000000001
 20
72.058199999999999
 30
0.0
 10
31.680499999999999
 20
72.207400000000007
 30
0.0
 10
31.521799999999999
 20
72.282700000000006
 30
0.0
 10
31.319800000000001
 20
72.282700000000006
 30
0.0
 10
31.319800000000001
 20
72.282700000000006
 30
0.0
 10
31.1523
 20
72.282700000000006
 30
0.0
 10
31.026800000000001
 20
72.227800000000002
 30
0.0
 10
30.942499999999999
 20
72.114699999999999
 30
0.0
 10
30.942499999999999
 20
72.114699999999999
 30
0.0
 10
30.8581
 20
72.003399999999999
 30
0.0
 10
30.815899999999999
 20
71.866100000000003
 30
0.0
 10
30.815899999999999
 20
71.705100000000002
 30
0.0
 10
30.815899999999999
 20
71.705100000000002
 30
0.0
 10
30.815899999999999
 20
71.588700000000003
 30
0.0
 10
30.8506
 20
71.483999999999995
 30
0.0
 10
30.919799999999999
 20
71.389700000000005
 30
0.0
 10
30.919799999999999
 20
71.389700000000005
 30
0.0
 10
30.9878
 20
71.292000000000002
 30
0.0
 10
31.1477
 20
71.203000000000003
 30
0.0
 10
31.401800000000001
 20
71.119
 30
0.0
 10
31.401800000000001
 20
71.119
 30
0.0
 10
32.028599999999997
 20
70.904700000000005
 30
0.0
 10
32.4773
 20
70.686800000000005
 30
0.0
 10
32.748600000000003
 20
70.467500000000001
 30
0.0
 10
32.748600000000003
 20
70.467500000000001
 30
0.0
 10
33.019799999999996
 20
70.248199999999997
 30
0.0
 10
33.217500000000001
 20
69.9773
 30
0.0
 10
33.340800000000002
 20
69.651799999999994
 30
0.0
 10
33.340800000000002
 20
69.651799999999994
 30
0.0
 10
33.463999999999999
 20
69.327699999999993
 30
0.0
 10
33.526600000000002
 20
68.964399999999998
 30
0.0
 10
33.526600000000002
 20
68.561400000000006
 30
0.0
 10
33.526600000000002
 20
68.561400000000006
 30
0.0
 10
33.526600000000002
 20
68.090199999999996
 30
0.0
 10
33.443399999999997
 20
67.654899999999998
 30
0.0
 10
33.279200000000003
 20
67.257199999999997
 30
0.0
 10
33.279200000000003
 20
67.257199999999997
 30
0.0
 10
33.115000000000002
 20
66.857900000000001
 30
0.0
 10
32.884500000000003
 20
66.556200000000004
 30
0.0
 10
32.5886
 20
66.350300000000004
 30
0.0
 10
32.5886
 20
66.350300000000004
 30
0.0
 10
32.293500000000002
 20
66.144800000000004
 30
0.0
 10
31.9207
 20
66.042000000000002
 30
0.0
 10
31.4709
 20
66.042000000000002
 30
0.0
 10
31.4709
 20
66.042000000000002
 30
0.0
 10
30.682099999999998
 20
66.042000000000002
 30
0.0
 10
30.135100000000001
 20
66.281999999999996
 30
0.0
 10
29.831399999999999
 20
66.765199999999993
 30
0.0
 10
29.831399999999999
 20
66.765199999999993
 30
0.0
 10
29.526599999999998
 20
67.246899999999997
 30
0.0
 10
29.354700000000001
 20
67.858900000000006
 30
0.0
 10
29.314800000000002
 20
68.602699999999999
 30
0.0
  0
SPLINE
  5
30
100
AcDbEntity
  8
RÚteg 1
 62
     7
100
AcDbSpline
210
0.0
220
0.0
230
1.0
 70
     1
 71
     3
 72
    40
 73
    36
 74
     0
 42
0.0000000001
 43
0.0000000001
 40
0.0
 40
0.0
 40
0.0
 40
0.0
 40
0.1111111111111111
 40
0.1111111111111111
 40
0.1111111111111111
 40
0.1111111111111111
 40
0.2222222222222222
 40
0.2222222222222222
 40
0.2222222222222222
 40
0.2222222222222222
 40
0.3333333333333333
 40
0.3333333333333333
 40
0.3333333333333333
 40
0.3333333333333333
 40
0.4444444444444444
 40
0.4444444444444444
 40
0.4444444444444444
 40
0.4444444444444444
 40
0.5555555555555556
 40
0.5555555555555556
 40
0.5555555555555556
 40
0.5555555555555556
 40
0.6666666666666667
 40
0.6666666666666667
 40
0.6666666666666667
 40
0.6666666666666667
 40
0.7777777777777779
 40
0.7777777777777779
 40
0.7777777777777779
 40
0.7777777777777779
 40
0.8888888888888891
 40
0.8888888888888891
 40
0.8888888888888891
 40
0.8888888888888891
 40
1.0
 40
1.0
 40
1.0
 40
1.0
 10
50.162599999999998
 20
73.528800000000004
 30
0.0
 10
50.162599999999998
 20
73.528800000000004
 30
0.0
 10
51.755499999999998
 20
73.528800000000004
 30
0.0
 10
51.755499999999998
 20
73.528800000000004
 30
0.0
 10
51.755499999999998
 20
73.528800000000004
 30
0.0
 10
51.755499999999998
 20
73.528800000000004
 30
0.0
 10
52.692900000000002
 20
71.043599999999998
 30
0.0
 10
52.692900000000002
 20
71.043599999999998
 30
0.0
 10
52.692900000000002
 20
71.043599999999998
 30
0.0
 10
52.692900000000002
 20
71.043599999999998
 30
0.0
 10
53.629800000000003
 20
73.528800000000004
 30
0.0
 10
53.629800000000003
 20
73.528800000000004
 30
0.0
 10
53.629800000000003
 20
73.528800000000004
 30
0.0
 10
53.629800000000003
 20
73.528800000000004
 30
0.0
 10
55.213200000000001
 20
73.528800000000004
 30
0.0
 10
55.213200000000001
 20
73.528800000000004
 30
0.0
 10
55.213200000000001
 20
73.528800000000004
 30
0.0
 10
55.213200000000001
 20
73.528800000000004
 30
0.0
 10
53.408200000000001
 20
69.250699999999995
 30
0.0
 10
53.408200000000001
 20
69.250699999999995
 30
0.0
 10
53.408200000000001
 20
69.250699999999995
 30
0.0
 10
53.408200000000001
 20
69.250699999999995
 30
0.0
 10
53.408200000000001
 20
66.167100000000005
 30
0.0
 10
53.408200000000001
 20
66.167100000000005
 30
0.0
 10
53.408200000000001
 20
66.167100000000005
 30
0.0
 10
53.408200000000001
 20
66.167100000000005
 30
0.0
 10
51.970700000000001
 20
66.167100000000005
 30
0.0
 10
51.970700000000001
 20
66.167100000000005
 30
0.0
 10
51.970700000000001
 20
66.167100000000005
 30
0.0
 10
51.970700000000001
 20
66.167100000000005
 30
0.0
 10
51.970700000000001
 20
69.250699999999995
 30
0.0
 10
51.970700000000001
 20
69.250699999999995
 30
0.0
 10
51.970700000000001
 20
69.250699999999995
 30
0.0
 10
51.970700000000001
 20
69.250699999999995
 30
0.0
 10
50.162599999999998
 20
73.528800000000004
 30
0.0
 10
50.162599999999998
 20
73.528800000000004
 30
0.0
  0
SPLINE
  5
31
100
AcDbEntity
  8
RÚteg 1
 62
     7
100
AcDbSpline
210
0.0
220
0.0
230
1.0
 70
     1
 71
     3
 72
    36
 73
    32
 74
     0
 42
0.0000000001
 43
0.0000000001
 40
0.0
 40
0.0
 40
0.0
 40
0.0
 40
0.125
 40
0.125
 40
0.125
 40
0.125
 40
0.25
 40
0.25
 40
0.25
 40
0.25
 40
0.375
 40
0.375
 40
0.375
 40
0.375
 40
0.5
 40
0.5
 40
0.5
 40
0.5
 40
0.625
 40
0.625
 40
0.625
 40
0.625
 40
0.75
 40
0.75
 40
0.75
 40
0.75
 40
0.875
 40
0.875
 40
0.875
 40
0.875
 40
1.0
 40
1.0
 40
1.0
 40
1.0
 10
38.5015
 20
123.1403
 30
0.0
 10
54.639099999999999
 20
120.8334
 30
0.0
 10
67.0501
 20
106.9539
 30
0.0
 10
67.0501
 20
90.179400000000001
 30
0.0
 10
67.0501
 20
90.179400000000001
 30
0.0
 10
67.0501
 20
71.791499999999999
 30
0.0
 10
52.138100000000001
 20
56.879300000000001
 30
0.0
 10
33.75
 20
56.879300000000001
 30
0.0
 10
33.75
 20
56.879300000000001
 30
0.0
 10
15.362
 20
56.879300000000001
 30
0.0
 10
0.4501
 20
71.791499999999999
 30
0.0
 10
0.4501
 20
90.179400000000001
 30
0.0
 10
0.4501
 20
90.179400000000001
 30
0.0
 10
0.4501
 20
106.95399999999999
 30
0.0
 10
12.861000000000001
 20
120.8335
 30
0.0
 10
28.998699999999999
 20
123.1404
 30
0.0
 10
28.998699999999999
 20
123.1404
 30
0.0
 10
28.738700000000001
 20
123.7567
 30
0.0
 10
28.5944
 20
124.4337
 30
0.0
 10
28.5944
 20
125.1442
 30
0.0
 10
28.5944
 20
125.1442
 30
0.0
 10
28.5944
 20
127.9914
 30
0.0
 10
30.903199999999998
 20
130.30000000000001
 30
0.0
 10
33.750100000000003
 20
130.30000000000001
 30
0.0
 10
33.750100000000003
 20
130.30000000000001
 30
0.0
 10
36.596899999999998
 20
130.30000000000001
 30
0.0
 10
38.905700000000003
 20
127.9914
 30
0.0
 10
38.905700000000003
 20
125.1442
 30
0.0
 10
38.905700000000003
 20
125.1442
 30
0.0
 10
38.905700000000003
 20
124.4337
 30
0.0
 10
38.761699999999998
 20
123.7564
 30
0.0
 10
38.5015
 20
123.1403
 30
0.0
  0
SPLINE
  5
32
100
AcDbEntity
  8
RÚteg 1
 62
     7
100
AcDbSpline
210
0.0
220
0.0
230
1.0
 70
     1
 71
     3
 72
   572
 73
   568
 74
     0
 42
0.0000000001
 43
0.0000000001
 40
0.0
 40
0.0
 40
0.0
 40
0.0
 40
0.0070422535211268
 40
0.0070422535211268
 40
0.0070422535211268
 40
0.0070422535211268
 40
0.0140845070422535
 40
0.0140845070422535
 40
0.0140845070422535
 40
0.0140845070422535
 40
0.0211267605633803
 40
0.0211267605633803
 40
0.0211267605633803
 40
0.0211267605633803
 40
0.028169014084507
 40
0.028169014084507
 40
0.028169014084507
 40
0.028169014084507
 40
0.0352112676056338
 40
0.0352112676056338
 40
0.0352112676056338
 40
0.0352112676056338
 40
0.0422535211267606
 40
0.0422535211267606
 40
0.0422535211267606
 40
0.0422535211267606
 40
0.0492957746478873
 40
0.0492957746478873
 40
0.0492957746478873
 40
0.0492957746478873
 40
0.0563380281690141
 40
0.0563380281690141
 40
0.0563380281690141
 40
0.0563380281690141
 40
0.0633802816901408
 40
0.0633802816901408
 40
0.0633802816901408
 40
0.0633802816901408
 40
0.0704225352112676
 40
0.0704225352112676
 40
0.0704225352112676
 40
0.0704225352112676
 40
0.0774647887323944
 40
0.0774647887323944
 40
0.0774647887323944
 40
0.0774647887323944
 40
0.0845070422535211
 40
0.0845070422535211
 40
0.0845070422535211
 40
0.0845070422535211
 40
0.0915492957746479
 40
0.0915492957746479
 40
0.0915492957746479
 40
0.0915492957746479
 40
0.0985915492957747
 40
0.0985915492957747
 40
0.0985915492957747
 40
0.0985915492957747
 40
0.1056338028169014
 40
0.1056338028169014
 40
0.1056338028169014
 40
0.1056338028169014
 40
0.1126760563380282
 40
0.1126760563380282
 40
0.1126760563380282
 40
0.1126760563380282
 40
0.119718309859155
 40
0.119718309859155
 40
0.119718309859155
 40
0.119718309859155
 40
0.1267605633802817
 40
0.1267605633802817
 40
0.1267605633802817
 40
0.1267605633802817
 40
0.1338028169014085
 40
0.1338028169014085
 40
0.1338028169014085
 40
0.1338028169014085
 40
0.1408450704225352
 40
0.1408450704225352
 40
0.1408450704225352
 40
0.1408450704225352
 40
0.147887323943662
 40
0.147887323943662
 40
0.147887323943662
 40
0.147887323943662
 40
0.1549295774647887
 40
0.1549295774647887
 40
0.1549295774647887
 40
0.1549295774647887
 40
0.1619718309859155
 40
0.1619718309859155
 40
0.1619718309859155
 40
0.1619718309859155
 40
0.1690140845070422
 40
0.1690140845070422
 40
0.1690140845070422
 40
0.1690140845070422
 40
0.176056338028169
 40
0.176056338028169
 40
0.176056338028169
 40
0.176056338028169
 40
0.1830985915492957
 40
0.1830985915492957
 40
0.1830985915492957
 40
0.1830985915492957
 40
0.1901408450704225
 40
0.1901408450704225
 40
0.1901408450704225
 40
0.1901408450704225
 40
0.1971830985915492
 40
0.1971830985915492
 40
0.1971830985915492
 40
0.1971830985915492
 40
0.204225352112676
 40
0.204225352112676
 40
0.204225352112676
 40
0.204225352112676
 40
0.2112676056338027
 40
0.2112676056338027
 40
0.2112676056338027
 40
0.2112676056338027
 40
0.2183098591549295
 40
0.2183098591549295
 40
0.2183098591549295
 40
0.2183098591549295
 40
0.2253521126760562
 40
0.2253521126760562
 40
0.2253521126760562
 40
0.2253521126760562
 40
0.232394366197183
 40
0.232394366197183
 40
0.232394366197183
 40
0.232394366197183
 40
0.2394366197183097
 40
0.2394366197183097
 40
0.2394366197183097
 40
0.2394366197183097
 40
0.2464788732394365
 40
0.2464788732394365
 40
0.2464788732394365
 40
0.2464788732394365
 40
0.2535211267605633
 40
0.2535211267605633
 40
0.2535211267605633
 40
0.2535211267605633
 40
0.26056338028169
 40
0.26056338028169
 40
0.26056338028169
 40
0.26056338028169
 40
0.2676056338028168
 40
0.2676056338028168
 40
0.2676056338028168
 40
0.2676056338028168
 40
0.2746478873239435
 40
0.2746478873239435
 40
0.2746478873239435
 40
0.2746478873239435
 40
0.2816901408450703
 40
0.2816901408450703
 40
0.2816901408450703
 40
0.2816901408450703
 40
0.288732394366197
 40
0.288732394366197
 40
0.288732394366197
 40
0.288732394366197
 40
0.2957746478873238
 40
0.2957746478873238
 40
0.2957746478873238
 40
0.2957746478873238
 40
0.3028169014084505
 40
0.3028169014084505
 40
0.3028169014084505
 40
0.3028169014084505
 40
0.3098591549295773
 40
0.3098591549295773
 40
0.3098591549295773
 40
0.3098591549295773
 40
0.316901408450704
 40
0.316901408450704
 40
0.316901408450704
 40
0.316901408450704
 40
0.3239436619718308
 40
0.3239436619718308
 40
0.3239436619718308
 40
0.3239436619718308
 40
0.3309859154929575
 40
0.3309859154929575
 40
0.3309859154929575
 40
0.3309859154929575
 40
0.3380281690140843
 40
0.3380281690140843
 40
0.3380281690140843
 40
0.3380281690140843
 40
0.345070422535211
 40
0.345070422535211
 40
0.345070422535211
 40
0.345070422535211
 40
0.3521126760563378
 40
0.3521126760563378
 40
0.3521126760563378
 40
0.3521126760563378
 40
0.3591549295774645
 40
0.3591549295774645
 40
0.3591549295774645
 40
0.3591549295774645
 40
0.3661971830985913
 40
0.3661971830985913
 40
0.3661971830985913
 40
0.3661971830985913
 40
0.373239436619718
 40
0.373239436619718
 40
0.373239436619718
 40
0.373239436619718
 40
0.3802816901408448
 40
0.3802816901408448
 40
0.3802816901408448
 40
0.3802816901408448
 40
0.3873239436619715
 40
0.3873239436619715
 40
0.3873239436619715
 40
0.3873239436619715
 40
0.3943661971830983
 40
0.3943661971830983
 40
0.3943661971830983
 40
0.3943661971830983
 40
0.401408450704225
 40
0.401408450704225
 40
0.401408450704225
 40
0.401408450704225
 40
0.4084507042253518
 40
0.4084507042253518
 40
0.4084507042253518
 40
0.4084507042253518
 40
0.4154929577464785
 40
0.4154929577464785
 40
0.4154929577464785
 40
0.4154929577464785
 40
0.4225352112676053
 40
0.4225352112676053
 40
0.4225352112676053
 40
0.4225352112676053
 40
0.429577464788732
 40
0.429577464788732
 40
0.429577464788732
 40
0.429577464788732
 40
0.4366197183098588
 40
0.4366197183098588
 40
0.4366197183098588
 40
0.4366197183098588
 40
0.4436619718309856
 40
0.4436619718309856
 40
0.4436619718309856
 40
0.4436619718309856
 40
0.4507042253521123
 40
0.4507042253521123
 40
0.4507042253521123
 40
0.4507042253521123
 40
0.4577464788732391
 40
0.4577464788732391
 40
0.4577464788732391
 40
0.4577464788732391
 40
0.4647887323943658
 40
0.4647887323943658
 40
0.4647887323943658
 40
0.4647887323943658
 40
0.4718309859154926
 40
0.4718309859154926
 40
0.4718309859154926
 40
0.4718309859154926
 40
0.4788732394366193
 40
0.4788732394366193
 40
0.4788732394366193
 40
0.4788732394366193
 40
0.4859154929577461
 40
0.4859154929577461
 40
0.4859154929577461
 40
0.4859154929577461
 40
0.4929577464788728
 40
0.4929577464788728
 40
0.4929577464788728
 40
0.4929577464788728
 40
0.4999999999999996
 40
0.4999999999999996
 40
0.4999999999999996
 40
0.4999999999999996
 40
0.5070422535211263
 40
0.5070422535211263
 40
0.5070422535211263
 40
0.5070422535211263
 40
0.5140845070422531
 40
0.5140845070422531
 40
0.5140845070422531
 40
0.5140845070422531
 40
0.5211267605633798
 40
0.5211267605633798
 40
0.5211267605633798
 40
0.5211267605633798
 40
0.5281690140845066
 40
0.5281690140845066
 40
0.5281690140845066
 40
0.5281690140845066
 40
0.5352112676056333
 40
0.5352112676056333
 40
0.5352112676056333
 40
0.5352112676056333
 40
0.5422535211267601
 40
0.5422535211267601
 40
0.5422535211267601
 40
0.5422535211267601
 40
0.5492957746478868
 40
0.5492957746478868
 40
0.5492957746478868
 40
0.5492957746478868
 40
0.5563380281690136
 40
0.5563380281690136
 40
0.5563380281690136
 40
0.5563380281690136
 40
0.5633802816901403
 40
0.5633802816901403
 40
0.5633802816901403
 40
0.5633802816901403
 40
0.5704225352112671
 40
0.5704225352112671
 40
0.5704225352112671
 40
0.5704225352112671
 40
0.5774647887323938
 40
0.5774647887323938
 40
0.5774647887323938
 40
0.5774647887323938
 40
0.5845070422535206
 40
0.5845070422535206
 40
0.5845070422535206
 40
0.5845070422535206
 40
0.5915492957746473
 40
0.5915492957746473
 40
0.5915492957746473
 40
0.5915492957746473
 40
0.5985915492957741
 40
0.5985915492957741
 40
0.5985915492957741
 40
0.5985915492957741
 40
0.6056338028169008
 40
0.6056338028169008
 40
0.6056338028169008
 40
0.6056338028169008
 40
0.6126760563380276
 40
0.6126760563380276
 40
0.6126760563380276
 40
0.6126760563380276
 40
0.6197183098591543
 40
0.6197183098591543
 40
0.6197183098591543
 40
0.6197183098591543
 40
0.6267605633802811
 40
0.6267605633802811
 40
0.6267605633802811
 40
0.6267605633802811
 40
0.6338028169014078
 40
0.6338028169014078
 40
0.6338028169014078
 40
0.6338028169014078
 40
0.6408450704225346
 40
0.6408450704225346
 40
0.6408450704225346
 40
0.6408450704225346
 40
0.6478873239436613
 40
0.6478873239436613
 40
0.6478873239436613
 40
0.6478873239436613
 40
0.6549295774647881
 40
0.6549295774647881
 40
0.6549295774647881
 40
0.6549295774647881
 40
0.6619718309859148
 40
0.6619718309859148
 40
0.6619718309859148
 40
0.6619718309859148
 40
0.6690140845070416
 40
0.6690140845070416
 40
0.6690140845070416
 40
0.6690140845070416
 40
0.6760563380281683
 40
0.6760563380281683
 40
0.6760563380281683
 40
0.6760563380281683
 40
0.6830985915492951
 40
0.6830985915492951
 40
0.6830985915492951
 40
0.6830985915492951
 40
0.6901408450704218
 40
0.6901408450704218
 40
0.6901408450704218
 40
0.6901408450704218
 40
0.6971830985915486
 40
0.6971830985915486
 40
0.6971830985915486
 40
0.6971830985915486
 40
0.7042253521126753
 40
0.7042253521126753
 40
0.7042253521126753
 40
0.7042253521126753
 40
0.7112676056338021
 40
0.7112676056338021
 40
0.7112676056338021
 40
0.7112676056338021
 40
0.7183098591549288
 40
0.7183098591549288
 40
0.7183098591549288
 40
0.7183098591549288
 40
0.7253521126760556
 40
0.7253521126760556
 40
0.7253521126760556
 40
0.7253521126760556
 40
0.7323943661971823
 40
0.7323943661971823
 40
0.7323943661971823
 40
0.7323943661971823
 40
0.7394366197183091
 40
0.7394366197183091
 40
0.7394366197183091
 40
0.7394366197183091
 40
0.7464788732394359
 40
0.7464788732394359
 40
0.7464788732394359
 40
0.7464788732394359
 40
0.7535211267605626
 40
0.7535211267605626
 40
0.7535211267605626
 40
0.7535211267605626
 40
0.7605633802816894
 40
0.7605633802816894
 40
0.7605633802816894
 40
0.7605633802816894
 40
0.7676056338028161
 40
0.7676056338028161
 40
0.7676056338028161
 40
0.7676056338028161
 40
0.7746478873239429
 40
0.7746478873239429
 40
0.7746478873239429
 40
0.7746478873239429
 40
0.7816901408450696
 40
0.7816901408450696
 40
0.7816901408450696
 40
0.7816901408450696
 40
0.7887323943661964
 40
0.7887323943661964
 40
0.7887323943661964
 40
0.7887323943661964
 40
0.7957746478873231
 40
0.7957746478873231
 40
0.7957746478873231
 40
0.7957746478873231
 40
0.8028169014084499
 40
0.8028169014084499
 40
0.8028169014084499
 40
0.8028169014084499
 40
0.8098591549295766
 40
0.8098591549295766
 40
0.8098591549295766
 40
0.8098591549295766
 40
0.8169014084507034
 40
0.8169014084507034
 40
0.8169014084507034
 40
0.8169014084507034
 40
0.8239436619718301
 40
0.8239436619718301
 40
0.8239436619718301
 40
0.8239436619718301
 40
0.8309859154929569
 40
0.8309859154929569
 40
0.8309859154929569
 40
0.8309859154929569
 40
0.8380281690140836
 40
0.8380281690140836
 40
0.8380281690140836
 40
0.8380281690140836
 40
0.8450704225352104
 40
0.8450704225352104
 40
0.8450704225352104
 40
0.8450704225352104
 40
0.8521126760563371
 40
0.8521126760563371
 40
0.8521126760563371
 40
0.8521126760563371
 40
0.8591549295774639
 40
0.8591549295774639
 40
0.8591549295774639
 40
0.8591549295774639
 40
0.8661971830985906
 40
0.8661971830985906
 40
0.8661971830985906
 40
0.8661971830985906
 40
0.8732394366197174
 40
0.8732394366197174
 40
0.8732394366197174
 40
0.8732394366197174
 40
0.8802816901408441
 40
0.8802816901408441
 40
0.8802816901408441
 40
0.8802816901408441
 40
0.8873239436619709
 40
0.8873239436619709
 40
0.8873239436619709
 40
0.8873239436619709
 40
0.8943661971830976
 40
0.8943661971830976
 40
0.8943661971830976
 40
0.8943661971830976
 40
0.9014084507042244
 40
0.9014084507042244
 40
0.9014084507042244
 40
0.9014084507042244
 40
0.9084507042253511
 40
0.9084507042253511
 40
0.9084507042253511
 40
0.9084507042253511
 40
0.9154929577464779
 40
0.9154929577464779
 40
0.9154929577464779
 40
0.9154929577464779
 40
0.9225352112676046
 40
0.9225352112676046
 40
0.9225352112676046
 40
0.9225352112676046
 40
0.9295774647887314
 40
0.9295774647887314
 40
0.9295774647887314
 40
0.9295774647887314
 40
0.9366197183098581
 40
0.9366197183098581
 40
0.9366197183098581
 40
0.9366197183098581
 40
0.9436619718309849
 40
0.9436619718309849
 40
0.9436619718309849
 40
0.9436619718309849
 40
0.9507042253521116
 40
0.9507042253521116
 40
0.9507042253521116
 40
0.9507042253521116
 40
0.9577464788732384
 40
0.9577464788732384
 40
0.9577464788732384
 40
0.9577464788732384
 40
0.9647887323943651
 40
0.9647887323943651
 40
0.9647887323943651
 40
0.9647887323943651
 40
0.9718309859154919
 40
0.9718309859154919
 40
0.9718309859154919
 40
0.9718309859154919
 40
0.9788732394366186
 40
0.9788732394366186
 40
0.9788732394366186
 40
0.9788732394366186
 40
0.9859154929577454
 40
0.9859154929577454
 40
0.9859154929577454
 40
0.9859154929577454
 40
0.9929577464788721
 40
0.9929577464788721
 40
0.9929577464788721
 40
0.9929577464788721
 40
1.0
 40
1.0
 40
1.0
 40
1.0
 10
38.180100000000003
 20
97.021600000000007
 30
0.0
 10
38.230400000000003
 20
96.951999999999998
 30
0.0
 10
38.947000000000003
 20
96.731200000000001
 30
0.0
 10
38.997300000000003
 20
96.662199999999999
 30
0.0
 10
38.997300000000003
 20
96.662199999999999
 30
0.0
 10
40.057899999999997
 20
96.6143
 30
0.0
 10
41.020899999999997
 20
96.543700000000001
 30
0.0
 10
41.929200000000002
 20
97.054299999999998
 30
0.0
 10
41.929200000000002
 20
97.054299999999998
 30
0.0
 10
41.951999999999998
 20
96.989699999999999
 30
0.0
 10
41.975499999999997
 20
96.924199999999999
 30
0.0
 10
41.998600000000003
 20
96.859099999999998
 30
0.0
 10
41.998600000000003
 20
96.859099999999998
 30
0.0
 10
41.587000000000003
 20
96.319400000000002
 30
0.0
 10
40.994100000000003
 20
96.051000000000002
 30
0.0
 10
40.277799999999999
 20
95.968599999999995
 30
0.0
 10
40.277799999999999
 20
95.968599999999995
 30
0.0
 10
41.715299999999999
 20
93.956100000000006
 30
0.0
 10
43.338299999999997
 20
96.892399999999995
 30
0.0
 10
43.491199999999999
 20
96.579499999999996
 30
0.0
 10
43.491199999999999
 20
96.579499999999996
 30
0.0
 10
43.786000000000001
 20
96.140600000000006
 30
0.0
 10
43.456400000000002
 20
95.790899999999993
 30
0.0
 10
43.037100000000002
 20
95.453299999999999
 30
0.0
 10
43.037100000000002
 20
95.453299999999999
 30
0.0
 10
43.786299999999997
 20
95.4559
 30
0.0
 10
44.574399999999997
 20
95.783699999999996
 30
0.0
 10
45.056399999999996
 20
96.402799999999999
 30
0.0
 10
45.056399999999996
 20
96.402799999999999
 30
0.0
 10
45.632300000000001
 20
96.880399999999995
 30
0.0
 10
45.557200000000002
 20
97.397800000000004
 30
0.0
 10
46.160600000000002
 20
97.6447
 30
0.0
 10
46.160600000000002
 20
97.6447
 30
0.0
 10
46.193899999999999
 20
96.155799999999999
 30
0.0
 10
46.759300000000003
 20
94.479799999999997
 30
0.0
 10
46.797800000000002
 20
92.953800000000001
 30
0.0
 10
46.797800000000002
 20
92.953800000000001
 30
0.0
 10
46.836599999999997
 20
91.448599999999999
 30
0.0
 10
45.055700000000002
 20
89.082899999999995
 30
0.0
 10
45.881399999999999
 20
87.797799999999995
 30
0.0
 10
45.881399999999999
 20
87.797799999999995
 30
0.0
 10
48.671300000000002
 20
85.334400000000002
 30
0.0
 10
46.649799999999999
 20
83.6143
 30
0.0
 10
47.567999999999998
 20
82.164299999999997
 30
0.0
 10
47.567999999999998
 20
82.164299999999997
 30
0.0
 10
47.484299999999998
 20
81.911500000000004
 30
0.0
 10
47.401200000000003
 20
81.658000000000001
 30
0.0
 10
47.318300000000001
 20
81.404799999999994
 30
0.0
 10
47.318300000000001
 20
81.404799999999994
 30
0.0
 10
47.075200000000002
 20
80.880300000000005
 30
0.0
 10
46.821800000000003
 20
79.1755
 30
0.0
 10
46.862000000000002
 20
78.595500000000001
 30
0.0
 10
46.862000000000002
 20
78.595500000000001
 30
0.0
 10
46.9846
 20
76.832800000000006
 30
0.0
 10
46.6008
 20
77.126999999999995
 30
0.0
 10
46.473300000000002
 20
75.596999999999994
 30
0.0
 10
46.473300000000002
 20
75.596999999999994
 30
0.0
 10
46.316800000000001
 20
75.596999999999994
 30
0.0
 10
46.160600000000002
 20
75.596999999999994
 30
0.0
 10
46.004399999999997
 20
75.596999999999994
 30
0.0
 10
46.004399999999997
 20
75.596999999999994
 30
0.0
 10
45.378700000000002
 20
75.647900000000007
 30
0.0
 10
44.7532
 20
75.698499999999996
 30
0.0
 10
44.127400000000002
 20
75.749099999999999
 30
0.0
 10
44.127400000000002
 20
75.749099999999999
 30
0.0
 10
43.762799999999999
 20
75.750600000000006
 30
0.0
 10
43.398200000000003
 20
75.752099999999999
 30
0.0
 10
43.033000000000001
 20
75.753600000000006
 30
0.0
 10
43.033000000000001
 20
75.753600000000006
 30
0.0
 10
42.907299999999999
 20
77.264200000000002
 30
0.0
 10
41.128300000000003
 20
80.315700000000007
 30
0.0
 10
39.905900000000003
 20
80.600999999999999
 30
0.0
 10
39.905900000000003
 20
80.600999999999999
 30
0.0
 10
40.010599999999997
 20
80.808800000000005
 30
0.0
 10
40.115699999999997
 20
81.017099999999999
 30
0.0
 10
40.220399999999998
 20
81.224900000000005
 30
0.0
 10
40.220399999999998
 20
81.224900000000005
 30
0.0
 10
40.377099999999999
 20
81.849699999999999
 30
0.0
 10
40.451700000000002
 20
82.474800000000002
 30
0.0
 10
40.4054
 20
83.099299999999999
 30
0.0
 10
40.4054
 20
83.099299999999999
 30
0.0
 10
40.457299999999996
 20
83.811700000000002
 30
0.0
 10
39.905900000000003
 20
84.781800000000004
 30
0.0
 10
39.905900000000003
 20
84.979100000000003
 30
0.0
 10
39.905900000000003
 20
84.979100000000003
 30
0.0
 10
39.905900000000003
 20
85.031700000000001
 30
0.0
 10
39.905900000000003
 20
85.083500000000001
 30
0.0
 10
39.905900000000003
 20
85.135300000000001
 30
0.0
 10
39.905900000000003
 20
85.135300000000001
 30
0.0
 10
39.905900000000003
 20
85.648399999999995
 30
0.0
 10
41.904699999999998
 20
87.052599999999998
 30
0.0
 10
41.938800000000001
 20
88.575699999999998
 30
0.0
 10
41.938800000000001
 20
88.575699999999998
 30
0.0
 10
43.078000000000003
 20
89.178399999999996
 30
0.0
 10
46.219200000000001
 20
92.351699999999994
 30
0.0
 10
44.132599999999996
 20
93.431299999999993
 30
0.0
 10
44.132599999999996
 20
93.431299999999993
 30
0.0
 10
42.321399999999997
 20
93.001900000000006
 30
0.0
 10
40.553100000000001
 20
93.059200000000004
 30
0.0
 10
40.375300000000003
 20
90.9208
 30
0.0
 10
40.375300000000003
 20
90.9208
 30
0.0
 10
39.678400000000003
 20
90.417000000000002
 30
0.0
 10
38.981900000000003
 20
89.912800000000004
 30
0.0
 10
38.285499999999999
 20
89.408199999999994
 30
0.0
 10
38.285499999999999
 20
89.408199999999994
 30
0.0
 10
38.153100000000002
 20
89.779300000000006
 30
0.0
 10
37.573700000000002
 20
90.0745
 30
0.0
 10
37.383899999999997
 20
90.428200000000004
 30
0.0
 10
37.383899999999997
 20
90.428200000000004
 30
0.0
 10
37.590699999999998
 20
90.730500000000006
 30
0.0
 10
38.342300000000002
 20
91.626900000000006
 30
0.0
 10
38.342300000000002
 20
91.859499999999997
 30
0.0
 10
38.342300000000002
 20
91.859499999999997
 30
0.0
 10
38.342300000000002
 20
92.015600000000006
 30
0.0
 10
38.342300000000002
 20
92.171800000000005
 30
0.0
 10
38.342300000000002
 20
92.328199999999995
 30
0.0
 10
38.342300000000002
 20
92.328199999999995
 30
0.0
 10
38.342300000000002
 20
92.679100000000005
 30
0.0
 10
38.218400000000003
 20
92.671700000000001
 30
0.0
 10
38.029899999999998
 20
92.953800000000001
 30
0.0
 10
38.029899999999998
 20
92.953800000000001
 30
0.0
 10
38.029899999999998
 20
94.850099999999998
 30
0.0
 10
36.153799999999997
 20
96.195400000000006
 30
0.0
 10
34.712600000000002
 20
96.520200000000003
 30
0.0
 10
34.712600000000002
 20
96.520200000000003
 30
0.0
 10
33.787599999999998
 20
96.729299999999995
 30
0.0
 10
32.941699999999997
 20
96.482100000000003
 30
0.0
 10
32.146500000000003
 20
96.022300000000001
 30
0.0
 10
32.146500000000003
 20
96.022300000000001
 30
0.0
 10
31.689599999999999
 20
95.758799999999994
 30
0.0
 10
30.680599999999998
 20
94.659199999999998
 30
0.0
 10
30.680599999999998
 20
94.204700000000003
 30
0.0
 10
30.680599999999998
 20
94.204700000000003
 30
0.0
 10
30.680599999999998
 20
93.517099999999999
 30
0.0
 10
31.140499999999999
 20
92.506200000000007
 30
0.0
 10
31.405899999999999
 20
91.959100000000007
 30
0.0
 10
31.405899999999999
 20
91.959100000000007
 30
0.0
 10
31.592400000000001
 20
91.575000000000003
 30
0.0
 10
32.713500000000003
 20
90.468900000000005
 30
0.0
 10
32.713500000000003
 20
90.452200000000005
 30
0.0
 10
32.713500000000003
 20
90.452200000000005
 30
0.0
 10
32.713500000000003
 20
90.041499999999999
 30
0.0
 10
32.457700000000003
 20
90.046899999999994
 30
0.0
 10
32.400199999999998
 20
89.357399999999998
 30
0.0
 10
32.400199999999998
 20
89.357399999999998
 30
0.0
 10
30.198699999999999
 20
90.916499999999999
 30
0.0
 10
27.803000000000001
 20
91.169899999999998
 30
0.0
 10
25.396599999999999
 20
91.346800000000002
 30
0.0
 10
25.396599999999999
 20
91.346800000000002
 30
0.0
 10
25.427199999999999
 20
90.474699999999999
 30
0.0
 10
26.630700000000001
 20
89.811899999999994
 30
0.0
 10
27.240100000000002
 20
89.670400000000001
 30
0.0
 10
27.240100000000002
 20
89.670400000000001
 30
0.0
 10
27.240100000000002
 20
89.5655
 30
0.0
 10
27.240100000000002
 20
89.4619
 30
0.0
 10
27.240100000000002
 20
89.357399999999998
 30
0.0
 10
27.240100000000002
 20
89.357399999999998
 30
0.0
 10
26.189399999999999
 20
89.0548
 30
0.0
 10
25.056000000000001
 20
88.958799999999997
 30
0.0
 10
23.802
 20
89.164100000000005
 30
0.0
 10
23.802
 20
89.164100000000005
 30
0.0
 10
23.6112
 20
88.918599999999998
 30
0.0
 10
23.487500000000001
 20
88.926000000000002
 30
0.0
 10
23.487500000000001
 20
88.575699999999998
 30
0.0
 10
23.487500000000001
 20
88.575699999999998
 30
0.0
 10
23.487500000000001
 20
87.863399999999999
 30
0.0
 10
26.310199999999998
 20
87.949600000000004
 30
0.0
 10
27.240100000000002
 20
87.949600000000004
 30
0.0
 10
27.240100000000002
 20
87.949600000000004
 30
0.0
 10
26.4604
 20
87.363900000000001
 30
0.0
 10
25.552399999999999
 20
86.886499999999998
 30
0.0
 10
24.111899999999999
 20
86.859899999999996
 30
0.0
 10
24.111899999999999
 20
86.859899999999996
 30
0.0
 10
24.089600000000001
 20
86.618700000000004
 30
0.0
 10
24.2456
 20
86.421800000000005
 30
0.0
 10
24.427900000000001
 20
86.231499999999997
 30
0.0
 10
24.427900000000001
 20
86.231499999999997
 30
0.0
 10
25.002300000000002
 20
86.105500000000006
 30
0.0
 10
25.5761
 20
86.081800000000001
 30
0.0
 10
26.150500000000001
 20
86.159099999999995
 30
0.0
 10
26.150500000000001
 20
86.159099999999995
 30
0.0
 10
27.311699999999998
 20
86.159999999999997
 30
0.0
 10
28.2424
 20
86.430000000000007
 30
0.0
 10
29.098500000000001
 20
86.787099999999995
 30
0.0
 10
29.098500000000001
 20
86.787099999999995
 30
0.0
 10
29.122199999999999
 20
86.738200000000006
 30
0.0
 10
29.145700000000001
 20
86.689899999999994
 30
0.0
 10
29.1691
 20
86.641900000000007
 30
0.0
 10
29.1691
 20
86.641900000000007
 30
0.0
 10
28.537099999999999
 20
85.938900000000004
 30
0.0
 10
28.031600000000001
 20
85.236099999999993
 30
0.0
 10
27.8063
 20
84.533199999999994
 30
0.0
 10
27.8063
 20
84.533199999999994
 30
0.0
 10
27.856200000000001
 20
84.324100000000001
 30
0.0
 10
28.034199999999998
 20
84.266999999999996
 30
0.0
 10
28.338200000000001
 20
84.362300000000005
 30
0.0
 10
28.338200000000001
 20
84.362300000000005
 30
0.0
 10
28.6843
 20
84.594899999999996
 30
0.0
 10
29.0303
 20
84.827100000000002
 30
0.0
 10
29.376300000000001
 20
85.0595
 30
0.0
 10
29.376300000000001
 20
85.0595
 30
0.0
 10
29.249400000000001
 20
84.530199999999994
 30
0.0
 10
28.8552
 20
83.728200000000001
 30
0.0
 10
29.7424
 20
83.728200000000001
 30
0.0
 10
29.7424
 20
83.728200000000001
 30
0.0
 10
31.1721
 20
83.1922
 30
0.0
 10
33.324300000000001
 20
86.587800000000001
 30
0.0
 10
33.182299999999998
 20
87.3249
 30
0.0
 10
33.182299999999998
 20
87.3249
 30
0.0
 10
33.213900000000002
 20
85.904200000000003
 30
0.0
 10
34.433199999999999
 20
84.344499999999996
 30
0.0
 10
34.433199999999999
 20
82.946200000000005
 30
0.0
 10
34.433199999999999
 20
82.946200000000005
 30
0.0
 10
34.433199999999999
 20
82.894199999999998
 30
0.0
 10
34.433199999999999
 20
82.841999999999999
 30
0.0
 10
34.433199999999999
 20
82.7898
 30
0.0
 10
34.433199999999999
 20
82.7898
 30
0.0
 10
34.433199999999999
 20
81.790800000000004
 30
0.0
 10
34.120600000000003
 20
81.600300000000004
 30
0.0
 10
34.120600000000003
 20
80.600999999999999
 30
0.0
 10
34.120600000000003
 20
80.600999999999999
 30
0.0
 10
34.120600000000003
 20
80.5488
 30
0.0
 10
34.120600000000003
 20
80.496700000000004
 30
0.0
 10
34.120600000000003
 20
80.444900000000004
 30
0.0
 10
34.120600000000003
 20
80.444900000000004
 30
0.0
 10
34.120600000000003
 20
79.463200000000001
 30
0.0
 10
34.963000000000001
 20
79.021699999999996
 30
0.0
 10
35.371400000000001
 20
78.411500000000004
 30
0.0
 10
35.371400000000001
 20
78.411500000000004
 30
0.0
 10
34.051099999999998
 20
78.411500000000004
 30
0.0
 10
33.063099999999999
 20
77.786299999999997
 30
0.0
 10
32.713500000000003
 20
77.786299999999997
 30
0.0
 10
32.713500000000003
 20
77.786299999999997
 30
0.0
 10
32.761200000000002
 20
78.000600000000006
 30
0.0
 10
31.132300000000001
 20
78.329800000000006
 30
0.0
 10
30.992999999999999
 20
78.099100000000007
 30
0.0
 10
30.992999999999999
 20
78.099100000000007
 30
0.0
 10
30.6464
 20
77.581000000000003
 30
0.0
 10
28.530799999999999
 20
76.222700000000003
 30
0.0
 10
27.866099999999999
 20
76.222700000000003
 30
0.0
 10
27.866099999999999
 20
76.222700000000003
 30
0.0
 10
27.344799999999999
 20
76.222700000000003
 30
0.0
 10
26.8233
 20
76.222700000000003
 30
0.0
 10
26.302199999999999
 20
76.222700000000003
 30
0.0
 10
26.302199999999999
 20
76.222700000000003
 30
0.0
 10
24.9312
 20
76.222700000000003
 30
0.0
 10
24.679400000000001
 20
78.142899999999997
 30
0.0
 10
23.331399999999999
 20
78.255799999999994
 30
0.0
 10
23.331399999999999
 20
78.255799999999994
 30
0.0
 10
23.354900000000001
 20
80.113500000000002
 30
0.0
 10
23.677800000000001
 20
82.040499999999994
 30
0.0
 10
24.361999999999998
 20
84.051199999999994
 30
0.0
 10
24.361999999999998
 20
84.051199999999994
 30
0.0
 10
24.468499999999999
 20
84.310299999999998
 30
0.0
 10
22.715800000000002
 20
88.801599999999993
 30
0.0
 10
22.549600000000002
 20
89.5137
 30
0.0
 10
22.549600000000002
 20
89.5137
 30
0.0
 10
23.892299999999999
 20
89.543700000000001
 30
0.0
 10
25.130600000000001
 20
92.753699999999995
 30
0.0
 10
25.6767
 20
93.891999999999996
 30
0.0
 10
25.6767
 20
93.891999999999996
 30
0.0
 10
28.128499999999999
 20
94.255099999999999
 30
0.0
 10
33.807499999999997
 20
96.386799999999994
 30
0.0
 10
33.807499999999997
 20
99.364699999999999
 30
0.0
 10
33.807499999999997
 20
99.364699999999999
 30
0.0
 10
33.807499999999997
 20
99.469200000000001
 30
0.0
 10
33.807499999999997
 20
99.573300000000003
 30
0.0
 10
33.807499999999997
 20
99.677700000000002
 30
0.0
 10
33.807499999999997
 20
99.677700000000002
 30
0.0
 10
33.807499999999997
 20
100.3501
 30
0.0
 10
29.882899999999999
 20
101.0448
 30
0.0
 10
29.273199999999999
 20
98.426599999999993
 30
0.0
 10
29.273199999999999
 20
98.426599999999993
 30
0.0
 10
28.599
 20
98.258099999999999
 30
0.0
 10
27.924900000000001
 20
98.090000000000003
 30
0.0
 10
27.250399999999999
 20
97.921300000000002
 30
0.0
 10
27.250399999999999
 20
97.921300000000002
 30
0.0
 10
27.247199999999999
 20
98.037899999999993
 30
0.0
 10
27.243600000000001
 20
98.153800000000004
 30
0.0
 10
27.240100000000002
 20
98.270099999999999
 30
0.0
 10
27.240100000000002
 20
98.270099999999999
 30
0.0
 10
28.147500000000001
 20
98.512200000000007
 30
0.0
 10
29.399999999999999
 20
99.773099999999999
 30
0.0
 10
29.429400000000001
 20
101.0848
 30
0.0
 10
29.429400000000001
 20
101.0848
 30
0.0
 10
29.781700000000001
 20
101.2711
 30
0.0
 10
30.367599999999999
 20
101.5039
 30
0.0
 10
30.367599999999999
 20
102.0228
 30
0.0
 10
30.367599999999999
 20
102.0228
 30
0.0
 10
30.4817
 20
102.3592
 30
0.0
 10
30.456499999999998
 20
102.7308
 30
0.0
 10
30.367599999999999
 20
103.1174
 30
0.0
 10
30.367599999999999
 20
103.1174
 30
0.0
 10
30.367599999999999
 20
104.08069999999999
 30
0.0
 10
29.309699999999999
 20
105.7769
 30
0.0
 10
28.5886
 20
106.18600000000001
 30
0.0
 10
28.5886
 20
106.18600000000001
 30
0.0
 10
27.803699999999999
 20
106.63120000000001
 30
0.0
 10
26.162299999999998
 20
107.3395
 30
0.0
 10
25.051300000000001
 20
107.3395
 30
0.0
 10
25.051300000000001
 20
107.3395
 30
0.0
 10
22.779900000000001
 20
107.7002
 30
0.0
 10
20.957899999999999
 20
102.718
 30
0.0
 10
21.298200000000001
 20
101.8668
 30
0.0
 10
21.298200000000001
 20
101.8668
 30
0.0
 10
21.298200000000001
 20
101.6474
 30
0.0
 10
21.511399999999998
 20
101.5535
 30
0.0
 10
21.767499999999998
 20
101.5535
 30
0.0
 10
21.767499999999998
 20
101.5535
 30
0.0
 10
21.975999999999999
 20
101.5535
 30
0.0
 10
22.1844
 20
101.5535
 30
0.0
 10
22.392900000000001
 20
101.5535
 30
0.0
 10
22.392900000000001
 20
101.5535
 30
0.0
 10
22.165500000000002
 20
101.11750000000001
 30
0.0
 10
21.938099999999999
 20
100.6812
 30
0.0
 10
21.710100000000001
 20
100.2453
 30
0.0
 10
21.710100000000001
 20
100.2453
 30
0.0
 10
21.614699999999999
 20
100.9602
 30
0.0
 10
21.134699999999999
 20
101.2557
 30
0.0
 10
20.48
 20
101.3612
 30
0.0
 10
20.48
 20
101.3612
 30
0.0
 10
17.184799999999999
 20
101.39749999999999
 30
0.0
 10
12.640700000000001
 20
105.77549999999999
 30
0.0
 10
11.4474
 20
105.77549999999999
 30
0.0
 10
11.4474
 20
105.77549999999999
 30
0.0
 10
10.226000000000001
 20
105.77549999999999
 30
0.0
 10
13.7765
 20
102.7366
 30
0.0
 10
14.105700000000001
 20
102.64870000000001
 30
0.0
 10
14.105700000000001
 20
102.64870000000001
 30
0.0
 10
13.634399999999999
 20
102.0052
 30
0.0
 10
11.3703
 20
103.4301
 30
0.0
 10
10.039999999999999
 20
103.4301
 30
0.0
 10
10.039999999999999
 20
103.4301
 30
0.0
 10
9.8211999999999993
 20
103.4301
 30
0.0
 10
9.7276000000000007
 20
103.217
 30
0.0
 10
9.7276000000000007
 20
102.9611
 30
0.0
 10
9.7276000000000007
 20
102.9611
 30
0.0
 10
9.7276000000000007
 20
102.2546
 30
0.0
 10
12.8338
 20
101.2561
 30
0.0
 10
13.480499999999999
 20
101.0848
 30
0.0
 10
13.480499999999999
 20
101.0848
 30
0.0
 10
13.7341
 20
100.9807
 30
0.0
 10
13.7341
 20
100.8762
 30
0.0
 10
13.480499999999999
 20
100.77209999999999
 30
0.0
 10
13.480499999999999
 20
100.77209999999999
 30
0.0
 10
12.4694
 20
101.04049999999999
 30
0.0
 10
9.3348999999999993
 20
100.0069
 30
0.0
 10
12.3856
 20
99.521199999999993
 30
0.0
 10
12.3856
 20
99.521199999999993
 30
0.0
 10
12.906700000000001
 20
99.521199999999993
 30
0.0
 10
13.428000000000001
 20
99.521199999999993
 30
0.0
 10
13.9496
 20
99.521199999999993
 30
0.0
 10
13.9496
 20
99.521199999999993
 30
0.0
 10
14.416600000000001
 20
99.487899999999996
 30
0.0
 10
14.7727
 20
99.332700000000003
 30
0.0
 10
14.730700000000001
 20
98.739999999999995
 30
0.0
 10
14.730700000000001
 20
98.739999999999995
 30
0.0
 10
14.276400000000001
 20
98.549700000000001
 30
0.0
 10
13.821199999999999
 20
98.358500000000006
 30
0.0
 10
13.3673
 20
98.167400000000001
 30
0.0
 10
13.3673
 20
98.167400000000001
 30
0.0
 10
13.233599999999999
 20
97.582499999999996
 30
0.0
 10
13.5824
 20
97.352500000000006
 30
0.0
 10
14.413500000000001
 20
97.478200000000001
 30
0.0
 10
14.413500000000001
 20
97.478200000000001
 30
0.0
 10
14.7752
 20
97.563699999999997
 30
0.0
 10
15.1365
 20
97.649100000000004
 30
0.0
 10
15.4978
 20
97.734499999999997
 30
0.0
 10
15.4978
 20
97.734499999999997
 30
0.0
 10
15.4314
 20
97.293899999999994
 30
0.0
 10
15.3568
 20
97.285200000000003
 30
0.0
 10
15.3568
 20
96.862899999999996
 30
0.0
 10
15.3568
 20
96.862899999999996
 30
0.0
 10
14.402900000000001
 20
95.938100000000006
 30
0.0
 10
15.882300000000001
 20
94.478099999999998
 30
0.0
 10
17.077100000000002
 20
95.455600000000004
 30
0.0
 10
17.077100000000002
 20
95.455600000000004
 30
0.0
 10
17.546099999999999
 20
95.455600000000004
 30
0.0
 10
18.915600000000001
 20
97.237499999999997
 30
0.0
 10
20.047699999999999
 20
97.3322
 30
0.0
 10
20.047699999999999
 20
97.3322
 30
0.0
 10
19.514299999999999
 20
95.042699999999996
 30
0.0
 10
15.982200000000001
 20
91.634600000000006
 30
0.0
 10
15.982200000000001
 20
90.608099999999993
 30
0.0
 10
15.982200000000001
 20
90.608099999999993
 30
0.0
 10
15.822800000000001
 20
90.238299999999995
 30
0.0
 10
15.8865
 20
89.938299999999998
 30
0.0
 10
15.982200000000001
 20
89.670400000000001
 30
0.0
 10
15.982200000000001
 20
89.670400000000001
 30
0.0
 10
15.982200000000001
 20
88.722499999999997
 30
0.0
 10
19.422000000000001
 20
83.802300000000002
 30
0.0
 10
19.422000000000001
 20
83.728200000000001
 30
0.0
 10
19.422000000000001
 20
83.728200000000001
 30
0.0
 10
18.977699999999999
 20
81.496600000000001
 30
0.0
 10
19.167100000000001
 20
79.7517
 30
0.0
 10
19.578399999999998
 20
77.942899999999995
 30
0.0
 10
19.578399999999998
 20
77.942899999999995
 30
0.0
 10
18.8415
 20
77.676400000000001
 30
0.0
 10
19.093599999999999
 20
77.091200000000001
 30
0.0
 10
19.109100000000002
 20
76.379099999999994
 30
0.0
 10
19.109100000000002
 20
76.379099999999994
 30
0.0
 10
18.939499999999999
 20
76.233699999999999
 30
0.0
 10
18.770399999999999
 20
76.089100000000002
 30
0.0
 10
18.6007
 20
75.9435
 30
0.0
 10
18.6007
 20
75.9435
 30
0.0
 10
18.289300000000001
 20
75.991600000000005
 30
0.0
 10
18.280899999999999
 20
76.066299999999998
 30
0.0
 10
17.858499999999999
 20
76.066299999999998
 30
0.0
 10
17.858499999999999
 20
76.066299999999998
 30
0.0
 10
17.2331
 20
76.066299999999998
 30
0.0
 10
16.607399999999998
 20
76.066299999999998
 30
0.0
 10
15.982200000000001
 20
76.066299999999998
 30
0.0
 10
15.982200000000001
 20
76.066299999999998
 30
0.0
 10
12.6282
 20
76.066299999999998
 30
0.0
 10
13.154999999999999
 20
75.278999999999996
 30
0.0
 10
11.7601
 20
73.408199999999994
 30
0.0
 10
11.7601
 20
73.408199999999994
 30
0.0
 10
11.4186
 20
72.950000000000003
 30
0.0
 10
11.139699999999999
 20
72.514099999999999
 30
0.0
 10
10.916700000000001
 20
72.069299999999998
 30
0.0
 10
10.916700000000001
 20
72.069299999999998
 30
0.0
 10
6.9661999999999997
 20
77.043199999999999
 30
0.0
 10
4.6048999999999998
 20
83.335599999999999
 30
0.0
 10
4.6048999999999998
 20
90.179400000000001
 30
0.0
 10
4.6048999999999998
 20
90.179400000000001
 30
0.0
 10
4.6048999999999998
 20
106.2731
 30
0.0
 10
17.656500000000001
 20
119.32470000000001
 30
0.0
 10
33.750100000000003
 20
119.32470000000001
 30
0.0
 10
33.750100000000003
 20
119.32470000000001
 30
0.0
 10
49.843899999999998
 20
119.32470000000001
 30
0.0
 10
62.895299999999999
 20
106.2731
 30
0.0
 10
62.895299999999999
 20
90.179400000000001
 30
0.0
 10
62.895299999999999
 20
90.179400000000001
 30
0.0
 10
62.895299999999999
 20
84.274500000000003
 30
0.0
 10
61.136899999999997
 20
78.780500000000004
 30
0.0
 10
58.117100000000001
 20
74.189400000000006
 30
0.0
 10
58.117100000000001
 20
74.189400000000006
 30
0.0
 10
57.638599999999997
 20
74.496600000000001
 30
0.0
 10
57.1068
 20
74.747200000000007
 30
0.0
 10
56.636800000000001
 20
74.971800000000002
 30
0.0
 10
56.636800000000001
 20
74.971800000000002
 30
0.0
 10
55.7102
 20
75.1875
 30
0.0
 10
53.924999999999997
 20
75.268699999999995
 30
0.0
 10
53.139299999999999
 20
75.539400000000001
 30
0.0
 10
53.139299999999999
 20
75.539400000000001
 30
0.0
 10
52.046700000000001
 20
75.915499999999994
 30
0.0
 10
52.2898
 20
76.975300000000004
 30
0.0
 10
51.007899999999999
 20
77.317599999999999
 30
0.0
 10
51.007899999999999
 20
77.317599999999999
 30
0.0
 10
51.196199999999997
 20
78.038899999999998
 30
0.0
 10
51.3842
 20
78.760199999999998
 30
0.0
 10
51.572499999999998
 20
79.481800000000007
 30
0.0
 10
51.572499999999998
 20
79.481800000000007
 30
0.0
 10
51.882599999999996
 20
80.824799999999996
 30
0.0
 10
52.412300000000002
 20
86.511099999999999
 30
0.0
 10
51.946100000000001
 20
87.793599999999998
 30
0.0
 10
51.946100000000001
 20
87.793599999999998
 30
0.0
 10
52.478000000000002
 20
87.960599999999999
 30
0.0
 10
53.670900000000003
 20
90.426500000000004
 30
0.0
 10
53.672499999999999
 20
91.071200000000005
 30
0.0
 10
53.672499999999999
 20
91.071200000000005
 30
0.0
 10
53.677700000000002
 20
92.674400000000006
 30
0.0
 10
53.858899999999998
 20
93.332400000000007
 30
0.0
 10
53.509599999999999
 20
94.830299999999994
 30
0.0
 10
53.509599999999999
 20
94.830299999999994
 30
0.0
 10
54.040500000000002
 20
95.389600000000002
 30
0.0
 10
56.167900000000003
 20
98.677199999999999
 30
0.0
 10
56.167900000000003
 20
99.677700000000002
 30
0.0
 10
56.167900000000003
 20
99.677700000000002
 30
0.0
 10
56.167900000000003
 20
99.781800000000004
 30
0.0
 10
56.167900000000003
 20
99.885800000000003
 30
0.0
 10
56.167900000000003
 20
99.990200000000002
 30
0.0
 10
56.167900000000003
 20
99.990200000000002
 30
0.0
 10
56.167900000000003
 20
100.4186
 30
0.0
 10
55.867400000000004
 20
101.39749999999999
 30
0.0
 10
55.386200000000002
 20
101.39749999999999
 30
0.0
 10
55.386200000000002
 20
101.39749999999999
 30
0.0
 10
55.3339
 20
101.39749999999999
 30
0.0
 10
55.281999999999996
 20
101.39749999999999
 30
0.0
 10
55.229500000000002
 20
101.39749999999999
 30
0.0
 10
55.229500000000002
 20
101.39749999999999
 30
0.0
 10
54.2759
 20
101.39749999999999
 30
0.0
 10
52.814700000000002
 20
100.4308
 30
0.0
 10
52.5715
 20
99.521199999999993
 30
0.0
 10
52.5715
 20
99.521199999999993
 30
0.0
 10
52.074100000000001
 20
100.0177
 30
0.0
 10
51.576700000000002
 20
100.5145
 30
0.0
 10
51.079099999999997
 20
101.0112
 30
0.0
 10
51.079099999999997
 20
101.0112
 30
0.0
 10
53.686300000000003
 20
101.1409
 30
0.0
 10
53.040399999999998
 20
104.6036
 30
0.0
 10
53.040399999999998
 20
106.7135
 30
0.0
 10
53.040399999999998
 20
106.7135
 30
0.0
 10
52.414299999999997
 20
107.64960000000001
 30
0.0
 10
52.575000000000003
 20
108.648
 30
0.0
 10
51.573999999999998
 20
109.00020000000001
 30
0.0
 10
51.573999999999998
 20
109.00020000000001
 30
0.0
 10
50.5672
 20
109.35380000000001
 30
0.0
 10
49.695399999999999
 20
109.544
 30
0.0
 10
48.702100000000002
 20
109.33410000000001
 30
0.0
 10
48.702100000000002
 20
109.33410000000001
 30
0.0
 10
47.805799999999998
 20
109.1437
 30
0.0
 10
46.204300000000003
 20
109.2987
 30
0.0
 10
45.819099999999999
 20
108.4629
 30
0.0
 10
45.819099999999999
 20
108.4629
 30
0.0
 10
45.5199
 20
107.8139
 30
0.0
 10
44.817799999999998
 20
106.78440000000001
 30
0.0
 10
44.7532
 20
105.93210000000001
 30
0.0
 10
44.7532
 20
105.93210000000001
 30
0.0
 10
44.722700000000003
 20
105.0445
 30
0.0
 10
44.691899999999997
 20
104.1567
 30
0.0
 10
44.661299999999997
 20
103.2688
 30
0.0
 10
44.661299999999997
 20
103.2688
 30
0.0
 10
44.639499999999998
 20
103.2188
 30
0.0
 10
44.618499999999997
 20
103.1682
 30
0.0
 10
44.596800000000002
 20
103.1174
 30
0.0
 10
44.596800000000002
 20
103.1174
 30
0.0
 10
44.596800000000002
 20
102.75709999999999
 30
0.0
 10
44.705399999999997
 20
102.64870000000001
 30
0.0
 10
45.065899999999999
 20
102.64870000000001
 30
0.0
 10
45.065899999999999
 20
102.64870000000001
 30
0.0
 10
45.274799999999999
 20
102.64870000000001
 30
0.0
 10
45.482599999999998
 20
102.64870000000001
 30
0.0
 10
45.691400000000002
 20
102.64870000000001
 30
0.0
 10
45.691400000000002
 20
102.64870000000001
 30
0.0
 10
45.994
 20
102.0425
 30
0.0
 10
46.296100000000003
 20
101.4371
 30
0.0
 10
46.598500000000001
 20
100.831
 30
0.0
 10
46.598500000000001
 20
100.831
 30
0.0
 10
45.333599999999997
 20
100.7974
 30
0.0
 10
45.424199999999999
 20
101.4777
 30
0.0
 10
43.940199999999997
 20
101.8357
 30
0.0
 10
43.940199999999997
 20
101.8357
 30
0.0
 10
42.670200000000001
 20
102.1418
 30
0.0
 10
42.374499999999998
 20
102.35250000000001
 30
0.0
 10
41.470300000000002
 20
102.96169999999999
 30
0.0
 10
41.470300000000002
 20
102.96169999999999
 30
0.0
 10
40.226399999999998
 20
103.7989
 30
0.0
 10
38.139299999999999
 20
105.4629
 30
0.0
 10
36.622199999999999
 20
105.4629
 30
0.0
 10
36.622199999999999
 20
105.4629
 30
0.0
 10
36.915199999999999
 20
104.2058
 30
0.0
 10
38.738700000000001
 20
103.7131
 30
0.0
 10
39.124000000000002
 20
102.64870000000001
 30
0.0
 10
39.124000000000002
 20
102.64870000000001
 30
0.0
 10
37.961300000000001
 20
103.2443
 30
0.0
 10
36.797899999999998
 20
103.8407
 30
0.0
 10
35.634999999999998
 20
104.4367
 30
0.0
 10
35.634999999999998
 20
104.4367
 30
0.0
 10
35.174799999999998
 20
104.4083
 30
0.0
 10
35.096200000000003
 20
104.2283
 30
0.0
 10
35.3977
 20
103.8955
 30
0.0
 10
35.3977
 20
103.8955
 30
0.0
 10
36.655500000000004
 20
102.87350000000001
 30
0.0
 10
37.913699999999999
 20
101.85169999999999
 30
0.0
 10
39.1708
 20
100.8293
 30
0.0
 10
39.1708
 20
100.8293
 30
0.0
 10
37.874600000000001
 20
101.34569999999999
 30
0.0
 10
36.578899999999997
 20
101.8686
 30
0.0
 10
35.231900000000003
 20
101.9213
 30
0.0
 10
35.231900000000003
 20
101.9213
 30
0.0
 10
35.320799999999998
 20
100.5962
 30
0.0
 10
39.366900000000001
 20
98.549700000000001
 30
0.0
 10
40.8446
 20
98.426599999999993
 30
0.0
 10
40.8446
 20
98.426599999999993
 30
0.0
 10
39.8964
 20
98.009600000000006
 30
0.0
 10
38.307499999999997
 20
98.104799999999997
 30
0.0
 10
38.180100000000003
 20
97.021600000000007
 30
0.0
  0
SPLINE
  5
33
100
AcDbEntity
  8
RÚteg 1
 62
     7
100
AcDbSpline
210
0.0
220
0.0
230
1.0
 70
     1
 71
     3
 72
    28
 73
    24
 74
     0
 42
0.0000000001
 43
0.0000000001
 40
0.0
 40
0.0
 40
0.0
 40
0.0
 40
0.1666666666666667
 40
0.1666666666666667
 40
0.1666666666666667
 40
0.1666666666666667
 40
0.3333333333333333
 40
0.3333333333333333
 40
0.3333333333333333
 40
0.3333333333333333
 40
0.5
 40
0.5
 40
0.5
 40
0.5
 40
0.6666666666666666
 40
0.6666666666666666
 40
0.6666666666666666
 40
0.6666666666666666
 40
0.8333333333333333
 40
0.8333333333333333
 40
0.8333333333333333
 40
0.8333333333333333
 40
1.0
 40
1.0
 40
1.0
 40
1.0
 10
-42.810299999999998
 20
123.1026
 30
0.0
 10
-41.743200000000002
 20
123.1026
 30
0.0
 10
-40.687600000000003
 20
123.053
 30
0.0
 10
-39.645000000000003
 20
122.95910000000001
 30
0.0
 10
-39.645000000000003
 20
122.95910000000001
 30
0.0
 10
-39.3108
 20
123.5142
 30
0.0
 10
-39.118299999999998
 20
124.1644
 30
0.0
 10
-39.118299999999998
 20
124.8596
 30
0.0
 10
-39.118299999999998
 20
124.8596
 30
0.0
 10
-39.118299999999998
 20
126.8982
 30
0.0
 10
-40.771500000000003
 20
128.5514
 30
0.0
 10
-42.810299999999998
 20
128.5514
 30
0.0
 10
-42.810299999999998
 20
128.5514
 30
0.0
 10
-44.8489
 20
128.5514
 30
0.0
 10
-46.502099999999999
 20
126.8982
 30
0.0
 10
-46.502099999999999
 20
124.8596
 30
0.0
 10
-46.502099999999999
 20
124.8596
 30
0.0
 10
-46.502099999999999
 20
124.1644
 30
0.0
 10
-46.309699999999999
 20
123.5142
 30
0.0
 10
-45.9756
 20
122.95910000000001
 30
0.0
 10
-45.9756
 20
122.95910000000001
 30
0.0
 10
-44.9328
 20
123.053
 30
0.0
 10
-43.877400000000002
 20
123.1026
 30
0.0
 10
-42.810299999999998
 20
123.1026
 30
0.0
  0
SPLINE
  5
34
100
AcDbEntity
  8
RÚteg 1
 62
     7
100
AcDbSpline
210
0.0
220
0.0
230
1.0
 70
     1
 71
     3
 72
   212
 73
   208
 74
     0
 42
0.0000000001
 43
0.0000000001
 40
0.0
 40
0.0
 40
0.0
 40
0.0
 40
0.0192307692307692
 40
0.0192307692307692
 40
0.0192307692307692
 40
0.0192307692307692
 40
0.0384615384615385
 40
0.0384615384615385
 40
0.0384615384615385
 40
0.0384615384615385
 40
0.0576923076923077
 40
0.0576923076923077
 40
0.0576923076923077
 40
0.0576923076923077
 40
0.0769230769230769
 40
0.0769230769230769
 40
0.0769230769230769
 40
0.0769230769230769
 40
0.0961538461538462
 40
0.0961538461538462
 40
0.0961538461538462
 40
0.0961538461538462
 40
0.1153846153846154
 40
0.1153846153846154
 40
0.1153846153846154
 40
0.1153846153846154
 40
0.1346153846153846
 40
0.1346153846153846
 40
0.1346153846153846
 40
0.1346153846153846
 40
0.1538461538461539
 40
0.1538461538461539
 40
0.1538461538461539
 40
0.1538461538461539
 40
0.1730769230769231
 40
0.1730769230769231
 40
0.1730769230769231
 40
0.1730769230769231
 40
0.1923076923076923
 40
0.1923076923076923
 40
0.1923076923076923
 40
0.1923076923076923
 40
0.2115384615384615
 40
0.2115384615384615
 40
0.2115384615384615
 40
0.2115384615384615
 40
0.2307692307692307
 40
0.2307692307692307
 40
0.2307692307692307
 40
0.2307692307692307
 40
0.2499999999999999
 40
0.2499999999999999
 40
0.2499999999999999
 40
0.2499999999999999
 40
0.2692307692307692
 40
0.2692307692307692
 40
0.2692307692307692
 40
0.2692307692307692
 40
0.2884615384615384
 40
0.2884615384615384
 40
0.2884615384615384
 40
0.2884615384615384
 40
0.3076923076923076
 40
0.3076923076923076
 40
0.3076923076923076
 40
0.3076923076923076
 40
0.3269230769230768
 40
0.3269230769230768
 40
0.3269230769230768
 40
0.3269230769230768
 40
0.346153846153846
 40
0.346153846153846
 40
0.346153846153846
 40
0.346153846153846
 40
0.3653846153846153
 40
0.3653846153846153
 40
0.3653846153846153
 40
0.3653846153846153
 40
0.3846153846153845
 40
0.3846153846153845
 40
0.3846153846153845
 40
0.3846153846153845
 40
0.4038461538461537
 40
0.4038461538461537
 40
0.4038461538461537
 40
0.4038461538461537
 40
0.4230769230769229
 40
0.4230769230769229
 40
0.4230769230769229
 40
0.4230769230769229
 40
0.4423076923076921
 40
0.4423076923076921
 40
0.4423076923076921
 40
0.4423076923076921
 40
0.4615384615384613
 40
0.4615384615384613
 40
0.4615384615384613
 40
0.4615384615384613
 40
0.4807692307692306
 40
0.4807692307692306
 40
0.4807692307692306
 40
0.4807692307692306
 40
0.4999999999999998
 40
0.4999999999999998
 40
0.4999999999999998
 40
0.4999999999999998
 40
0.5192307692307691
 40
0.5192307692307691
 40
0.5192307692307691
 40
0.5192307692307691
 40
0.5384615384615383
 40
0.5384615384615383
 40
0.5384615384615383
 40
0.5384615384615383
 40
0.5576923076923076
 40
0.5576923076923076
 40
0.5576923076923076
 40
0.5576923076923076
 40
0.5769230769230769
 40
0.5769230769230769
 40
0.5769230769230769
 40
0.5769230769230769
 40
0.5961538461538462
 40
0.5961538461538462
 40
0.5961538461538462
 40
0.5961538461538462
 40
0.6153846153846154
 40
0.6153846153846154
 40
0.6153846153846154
 40
0.6153846153846154
 40
0.6346153846153847
 40
0.6346153846153847
 40
0.6346153846153847
 40
0.6346153846153847
 40
0.653846153846154
 40
0.653846153846154
 40
0.653846153846154
 40
0.653846153846154
 40
0.6730769230769232
 40
0.6730769230769232
 40
0.6730769230769232
 40
0.6730769230769232
 40
0.6923076923076925
 40
0.6923076923076925
 40
0.6923076923076925
 40
0.6923076923076925
 40
0.7115384615384618
 40
0.7115384615384618
 40
0.7115384615384618
 40
0.7115384615384618
 40
0.7307692307692311
 40
0.7307692307692311
 40
0.7307692307692311
 40
0.7307692307692311
 40
0.7500000000000003
 40
0.7500000000000003
 40
0.7500000000000003
 40
0.7500000000000003
 40
0.7692307692307696
 40
0.7692307692307696
 40
0.7692307692307696
 40
0.7692307692307696
 40
0.7884615384615389
 40
0.7884615384615389
 40
0.7884615384615389
 40
0.7884615384615389
 40
0.8076923076923082
 40
0.8076923076923082
 40
0.8076923076923082
 40
0.8076923076923082
 40
0.8269230769230774
 40
0.8269230769230774
 40
0.8269230769230774
 40
0.8269230769230774
 40
0.8461538461538467
 40
0.8461538461538467
 40
0.8461538461538467
 40
0.8461538461538467
 40
0.865384615384616
 40
0.865384615384616
 40
0.865384615384616
 40
0.865384615384616
 40
0.8846153846153853
 40
0.8846153846153853
 40
0.8846153846153853
 40
0.8846153846153853
 40
0.9038461538461545
 40
0.9038461538461545
 40
0.9038461538461545
 40
0.9038461538461545
 40
0.9230769230769238
 40
0.9230769230769238
 40
0.9230769230769238
 40
0.9230769230769238
 40
0.9423076923076931
 40
0.9423076923076931
 40
0.9423076923076931
 40
0.9423076923076931
 40
0.9615384615384623
 40
0.9615384615384623
 40
0.9615384615384623
 40
0.9615384615384623
 40
0.9807692307692316
 40
0.9807692307692316
 40
0.9807692307692316
 40
0.9807692307692316
 40
1.0
 40
1.0
 40
1.0
 40
1.0
 10
-42.7834
 20
18.531099999999999
 30
0.0
 10
-41.281300000000002
 20
20.758299999999998
 30
0.0
 10
-39.5321
 20
23.344899999999999
 30
0.0
 10
-37.239899999999999
 20
26.721800000000002
 30
0.0
 10
-37.239899999999999
 20
26.721800000000002
 30
0.0
 10
-34.194600000000001
 20
31.1266
 30
0.0
 10
-34.472999999999999
 20
35.446599999999997
 30
0.0
 10
-37.0246
 20
39.708199999999998
 30
0.0
 10
-37.0246
 20
39.708199999999998
 30
0.0
 10
-32.037399999999998
 20
36.8521
 30
0.0
 10
-27.911200000000001
 20
37.516500000000001
 30
0.0
 10
-24.646100000000001
 20
41.701999999999998
 30
0.0
 10
-24.646100000000001
 20
41.701999999999998
 30
0.0
 10
-22.865400000000001
 20
44.593800000000002
 30
0.0
 10
-22.372199999999999
 20
47.485700000000001
 30
0.0
 10
-22.600999999999999
 20
50.377899999999997
 30
0.0
 10
-22.600999999999999
 20
50.377899999999997
 30
0.0
 10
-29.495100000000001
 20
47.536000000000001
 30
0.0
 10
-34.576799999999999
 20
48.051000000000002
 30
0.0
 10
-37.110399999999998
 20
53.286000000000001
 30
0.0
 10
-37.110399999999998
 20
53.286000000000001
 30
0.0
 10
-20.416599999999999
 20
56.010800000000003
 30
0.0
 10
-7.6706000000000003
 20
70.5
 30
0.0
 10
-7.6706000000000003
 20
87.962800000000001
 30
0.0
 10
-7.6706000000000003
 20
87.962800000000001
 30
0.0
 10
-7.6706000000000003
 20
92.418099999999995
 30
0.0
 10
-8.5008999999999997
 20
96.679599999999994
 30
0.0
 10
-10.013999999999999
 20
100.6016
 30
0.0
 10
-10.013999999999999
 20
100.6016
 30
0.0
 10
-9.6471999999999998
 20
101.03789999999999
 30
0.0
 10
-9.2209000000000003
 20
101.48650000000001
 30
0.0
 10
-8.7169000000000008
 20
101.97069999999999
 30
0.0
 10
-8.7169000000000008
 20
101.97069999999999
 30
0.0
 10
-7.0107999999999997
 20
103.6108
 30
0.0
 10
-3.9698000000000002
 20
106.2345
 30
0.0
 10
-3.3046000000000002
 20
109.2816
 30
0.0
 10
-3.3046000000000002
 20
109.2816
 30
0.0
 10
-3.3046000000000002
 20
109.2816
 30
0.0
 10
-3.1027999999999998
 20
110.2068
 30
0.0
 10
-3.1027999999999998
 20
110.2068
 30
0.0
 10
-3.1027999999999998
 20
110.2068
 30
0.0
 10
-2.8296000000000001
 20
111.4579
 30
0.0
 10
-2.8081
 20
112.857
 30
0.0
 10
-4.0167000000000002
 20
113.1208
 30
0.0
 10
-4.0167000000000002
 20
113.1208
 30
0.0
 10
-6.2594000000000003
 20
113.6105
 30
0.0
 10
-10.4337
 20
110.58839999999999
 30
0.0
 10
-12.2409
 20
109.6996
 30
0.0
 10
-12.2409
 20
109.6996
 30
0.0
 10
-13.2338
 20
109.2116
 30
0.0
 10
-13.795500000000001
 20
108.94119999999999
 30
0.0
 10
-14.454800000000001
 20
108.7167
 30
0.0
 10
-14.454800000000001
 20
108.7167
 30
0.0
 10
-19.9146
 20
116.16160000000001
 30
0.0
 10
-28.235399999999998
 20
121.378
 30
0.0
 10
-37.796300000000002
 20
122.7448
 30
0.0
 10
-37.796300000000002
 20
122.7448
 30
0.0
 10
-37.521700000000003
 20
123.395
 30
0.0
 10
-37.369900000000001
 20
124.1096
 30
0.0
 10
-37.369900000000001
 20
124.8596
 30
0.0
 10
-37.369900000000001
 20
124.8596
 30
0.0
 10
-37.369900000000001
 20
127.86369999999999
 30
0.0
 10
-39.806199999999997
 20
130.30000000000001
 30
0.0
 10
-42.810299999999998
 20
130.30000000000001
 30
0.0
 10
-42.810299999999998
 20
130.30000000000001
 30
0.0
 10
-45.814399999999999
 20
130.30000000000001
 30
0.0
 10
-48.250700000000002
 20
127.86369999999999
 30
0.0
 10
-48.250700000000002
 20
124.8596
 30
0.0
 10
-48.250700000000002
 20
124.8596
 30
0.0
 10
-48.250700000000002
 20
124.1096
 30
0.0
 10
-48.098700000000001
 20
123.395
 30
0.0
 10
-47.824199999999998
 20
122.7448
 30
0.0
 10
-47.824199999999998
 20
122.7448
 30
0.0
 10
-51.9998
 20
122.1478
 30
0.0
 10
-55.938200000000002
 20
120.81529999999999
 30
0.0
 10
-59.505600000000001
 20
118.8848
 30
0.0
 10
-59.505600000000001
 20
118.8848
 30
0.0
 10
-59.616500000000002
 20
119.60509999999999
 30
0.0
 10
-59.763100000000001
 20
120.30070000000001
 30
0.0
 10
-59.9617
 20
120.87179999999999
 30
0.0
 10
-59.9617
 20
120.87179999999999
 30
0.0
 10
-60.278300000000002
 20
121.7837
 30
0.0
 10
-61.195300000000003
 20
123.6367
 30
0.0
 10
-61.783000000000001
 20
124.39660000000001
 30
0.0
 10
-61.783000000000001
 20
124.39660000000001
 30
0.0
 10
-62.233600000000003
 20
124.9794
 30
0.0
 10
-62.508099999999999
 20
125.4237
 30
0.0
 10
-63.009500000000003
 20
125.9957
 30
0.0
 10
-63.009500000000003
 20
125.9957
 30
0.0
 10
-63.273699999999998
 20
126.2972
 30
0.0
 10
-63.3262
 20
126.4714
 30
0.0
 10
-63.702300000000001
 20
126.744
 30
0.0
 10
-63.702300000000001
 20
126.744
 30
0.0
 10
-64.033199999999994
 20
126.9846
 30
0.0
 10
-64.279399999999995
 20
127.00960000000001
 30
0.0
 10
-64.563500000000005
 20
127.3051
 30
0.0
 10
-64.563500000000005
 20
127.3051
 30
0.0
 10
-64.563500000000005
 20
127.3051
 30
0.0
 10
-65.435400000000001
 20
127.2597
 30
0.0
 10
-65.435400000000001
 20
127.2597
 30
0.0
 10
-65.435400000000001
 20
127.2597
 30
0.0
 10
-65.945300000000003
 20
126.81180000000001
 30
0.0
 10
-65.901899999999998
 20
127.2471
 30
0.0
 10
-66.370199999999997
 20
126.40219999999999
 30
0.0
 10
-66.370199999999997
 20
126.40219999999999
 30
0.0
 10
-66.758799999999994
 20
125.7012
 30
0.0
 10
-66.758300000000006
 20
125.99769999999999
 30
0.0
 10
-66.817300000000003
 20
125.062
 30
0.0
 10
-66.817300000000003
 20
125.062
 30
0.0
 10
-66.901700000000005
 20
123.7256
 30
0.0
 10
-66.873199999999997
 20
123.3964
 30
0.0
 10
-66.799000000000007
 20
122.2094
 30
0.0
 10
-66.799000000000007
 20
122.2094
 30
0.0
 10
-66.655299999999997
 20
119.9105
 30
0.0
 10
-67.356499999999997
 20
118.6366
 30
0.0
 10
-68.549999999999997
 20
117.0262
 30
0.0
 10
-68.549999999999997
 20
117.0262
 30
0.0
 10
-70.605400000000003
 20
114.2522
 30
0.0
 10
-73.627499999999998
 20
112.8498
 30
0.0
 10
-74.606499999999997
 20
108.3638
 30
0.0
 10
-74.606499999999997
 20
108.3638
 30
0.0
 10
-74.606499999999997
 20
108.3638
 30
0.0
 10
-75.272800000000004
 20
105.31019999999999
 30
0.0
 10
-75.272800000000004
 20
105.31019999999999
 30
0.0
 10
-75.272800000000004
 20
105.31019999999999
 30
0.0
 10
-75.312700000000007
 20
105.1279
 30
0.0
 10
-75.384799999999998
 20
103.7615
 30
0.0
 10
-75.403800000000004
 20
103.47580000000001
 30
0.0
 10
-75.403800000000004
 20
103.47580000000001
 30
0.0
 10
-75.475200000000001
 20
102.3998
 30
0.0
 10
-75.527199999999993
 20
102.7683
 30
0.0
 10
-75.316599999999994
 20
101.8609
 30
0.0
 10
-75.316599999999994
 20
101.8609
 30
0.0
 10
-75.287899999999993
 20
101.73690000000001
 30
0.0
 10
-75.260900000000007
 20
101.6242
 30
0.0
 10
-75.235600000000005
 20
101.52
 30
0.0
 10
-75.235600000000005
 20
101.52
 30
0.0
 10
-76.982699999999994
 20
97.347999999999999
 30
0.0
 10
-77.950000000000003
 20
92.7684
 30
0.0
 10
-77.950000000000003
 20
87.962800000000001
 30
0.0
 10
-77.950000000000003
 20
87.962800000000001
 30
0.0
 10
-77.950000000000003
 20
77.864900000000006
 30
0.0
 10
-73.686899999999994
 20
68.761899999999997
 30
0.0
 10
-66.864400000000003
 20
62.351799999999997
 30
0.0
 10
-66.864400000000003
 20
62.351799999999997
 30
0.0
 10
-66.848699999999994
 20
61.174300000000002
 30
0.0
 10
-65.968800000000002
 20
59.831000000000003
 30
0.0
 10
-65.338200000000001
 20
59.258000000000003
 30
0.0
 10
-65.338200000000001
 20
59.258000000000003
 30
0.0
 10
-64.832499999999996
 20
58.7986
 30
0.0
 10
-62.129899999999999
 20
57.235700000000001
 30
0.0
 10
-62.224499999999999
 20
56.802700000000002
 30
0.0
 10
-62.224499999999999
 20
56.802700000000002
 30
0.0
 10
-62.224499999999999
 20
56.802700000000002
 30
0.0
 10
-62.244700000000002
 20
56.710000000000001
 30
0.0
 10
-62.244700000000002
 20
56.710000000000001
 30
0.0
 10
-62.244700000000002
 20
56.710000000000001
 30
0.0
 10
-62.335299999999997
 20
56.293199999999999
 30
0.0
 10
-63.033499999999997
 20
55.599200000000003
 30
0.0
 10
-63.206200000000003
 20
54.706000000000003
 30
0.0
 10
-63.206200000000003
 20
54.706000000000003
 30
0.0
 10
-63.307499999999997
 20
54.182000000000002
 30
0.0
 10
-63.064599999999999
 20
53.084200000000003
 30
0.0
 10
-62.845599999999997
 20
52.744
 30
0.0
 10
-62.845599999999997
 20
52.744
 30
0.0
 10
-61.971600000000002
 20
51.386600000000001
 30
0.0
 10
-60.874600000000001
 20
50.560299999999998
 30
0.0
 10
-60.321800000000003
 20
53.091500000000003
 30
0.0
 10
-60.321800000000003
 20
53.091500000000003
 30
0.0
 10
-60.088299999999997
 20
54.162300000000002
 30
0.0
 10
-60.7303
 20
54.327599999999997
 30
0.0
 10
-60.464399999999998
 20
55.546100000000003
 30
0.0
 10
-60.464399999999998
 20
55.546100000000003
 30
0.0
 10
-60.404400000000003
 20
55.8202
 30
0.0
 10
-60.118499999999997
 20
55.953899999999997
 30
0.0
 10
-59.953299999999999
 20
56.113100000000003
 30
0.0
 10
-59.953299999999999
 20
56.113100000000003
 30
0.0
 10
-59.112699999999997
 20
55.929699999999997
 30
0.0
 10
-59.1004
 20
56.283200000000001
 30
0.0
 10
-58.452500000000001
 20
56.254100000000001
 30
0.0
 10
-58.452500000000001
 20
56.254100000000001
 30
0.0
 10
-58.170000000000002
 20
56.241399999999999
 30
0.0
 10
-57.757199999999997
 20
56.093499999999999
 30
0.0
 10
-57.347499999999997
 20
55.964100000000002
 30
0.0
 10
-57.347499999999997
 20
55.964100000000002
 30
0.0
 10
-54.578000000000003
 20
54.703400000000002
 30
0.0
 10
-51.616300000000003
 20
53.791699999999999
 30
0.0
 10
-48.518700000000003
 20
53.2851
 30
0.0
 10
-48.518700000000003
 20
53.2851
 30
0.0
 10
-50.658799999999999
 20
48.232700000000001
 30
0.0
 10
-55.637599999999999
 20
47.502200000000002
 30
0.0
 10
-63.0199
 20
50.431699999999999
 30
0.0
 10
-63.0199
 20
50.431699999999999
 30
0.0
 10
-63.306899999999999
 20
46.915599999999998
 30
0.0
 10
-62.427799999999998
 20
43.457700000000003
 30
0.0
 10
-59.844499999999996
 20
40.0854
 30
0.0
 10
-59.844499999999996
 20
40.0854
 30
0.0
 10
-55.849800000000002
 20
36.798000000000002
 30
0.0
 10
-52.212699999999998
 20
37.685000000000002
 30
0.0
 10
-48.649799999999999
 20
39.438899999999997
 30
0.0
 10
-48.649799999999999
 20
39.438899999999997
 30
0.0
 10
-51.540399999999998
 20
35.2941
 30
0.0
 10
-51.213200000000001
 20
30.992100000000001
 30
0.0
 10
-48.219299999999997
 20
26.560199999999998
 30
0.0
 10
-48.219299999999997
 20
26.560199999999998
 30
0.0
 10
-46.407299999999999
 20
23.883800000000001
 30
0.0
 10
-44.595300000000002
 20
21.2073
 30
0.0
 10
-42.7834
 20
18.531099999999999
 30
0.0
  0
SPLINE
  5
35
100
AcDbEntity
  8
RÚteg 1
 62
     7
100
AcDbSpline
210
0.0
220
0.0
230
1.0
 70
     1
 71
     3
 72
   204
 73
   200
 74
     0
 42
0.0000000001
 43
0.0000000001
 40
0.0
 40
0.0
 40
0.0
 40
0.0
 40
0.02
 40
0.02
 40
0.02
 40
0.02
 40
0.04
 40
0.04
 40
0.04
 40
0.04
 40
0.06
 40
0.06
 40
0.06
 40
0.06
 40
0.08
 40
0.08
 40
0.08
 40
0.08
 40
0.1
 40
0.1
 40
0.1
 40
0.1
 40
0.12
 40
0.12
 40
0.12
 40
0.12
 40
0.14
 40
0.14
 40
0.14
 40
0.14
 40
0.16
 40
0.16
 40
0.16
 40
0.16
 40
0.18
 40
0.18
 40
0.18
 40
0.18
 40
0.2
 40
0.2
 40
0.2
 40
0.2
 40
0.22
 40
0.22
 40
0.22
 40
0.22
 40
0.24
 40
0.24
 40
0.24
 40
0.24
 40
0.26
 40
0.26
 40
0.26
 40
0.26
 40
0.28
 40
0.28
 40
0.28
 40
0.28
 40
0.3
 40
0.3
 40
0.3
 40
0.3
 40
0.32
 40
0.32
 40
0.32
 40
0.32
 40
0.34
 40
0.34
 40
0.34
 40
0.34
 40
0.36
 40
0.36
 40
0.36
 40
0.36
 40
0.3800000000000001
 40
0.3800000000000001
 40
0.3800000000000001
 40
0.3800000000000001
 40
0.4000000000000001
 40
0.4000000000000001
 40
0.4000000000000001
 40
0.4000000000000001
 40
0.4200000000000001
 40
0.4200000000000001
 40
0.4200000000000001
 40
0.4200000000000001
 40
0.4400000000000001
 40
0.4400000000000001
 40
0.4400000000000001
 40
0.4400000000000001
 40
0.4600000000000001
 40
0.4600000000000001
 40
0.4600000000000001
 40
0.4600000000000001
 40
0.4800000000000002
 40
0.4800000000000002
 40
0.4800000000000002
 40
0.4800000000000002
 40
0.5000000000000001
 40
0.5000000000000001
 40
0.5000000000000001
 40
0.5000000000000001
 40
0.5200000000000001
 40
0.5200000000000001
 40
0.5200000000000001
 40
0.5200000000000001
 40
0.5400000000000002
 40
0.5400000000000002
 40
0.5400000000000002
 40
0.5400000000000002
 40
0.5600000000000002
 40
0.5600000000000002
 40
0.5600000000000002
 40
0.5600000000000002
 40
0.5800000000000002
 40
0.5800000000000002
 40
0.5800000000000002
 40
0.5800000000000002
 40
0.6000000000000002
 40
0.6000000000000002
 40
0.6000000000000002
 40
0.6000000000000002
 40
0.6200000000000002
 40
0.6200000000000002
 40
0.6200000000000002
 40
0.6200000000000002
 40
0.6400000000000002
 40
0.6400000000000002
 40
0.6400000000000002
 40
0.6400000000000002
 40
0.6600000000000003
 40
0.6600000000000003
 40
0.6600000000000003
 40
0.6600000000000003
 40
0.6800000000000003
 40
0.6800000000000003
 40
0.6800000000000003
 40
0.6800000000000003
 40
0.7000000000000003
 40
0.7000000000000003
 40
0.7000000000000003
 40
0.7000000000000003
 40
0.7200000000000003
 40
0.7200000000000003
 40
0.7200000000000003
 40
0.7200000000000003
 40
0.7400000000000003
 40
0.7400000000000003
 40
0.7400000000000003
 40
0.7400000000000003
 40
0.7600000000000003
 40
0.7600000000000003
 40
0.7600000000000003
 40
0.7600000000000003
 40
0.7800000000000004
 40
0.7800000000000004
 40
0.7800000000000004
 40
0.7800000000000004
 40
0.8000000000000004
 40
0.8000000000000004
 40
0.8000000000000004
 40
0.8000000000000004
 40
0.8200000000000004
 40
0.8200000000000004
 40
0.8200000000000004
 40
0.8200000000000004
 40
0.8400000000000004
 40
0.8400000000000004
 40
0.8400000000000004
 40
0.8400000000000004
 40
0.8600000000000004
 40
0.8600000000000004
 40
0.8600000000000004
 40
0.8600000000000004
 40
0.8800000000000005
 40
0.8800000000000005
 40
0.8800000000000005
 40
0.8800000000000005
 40
0.9000000000000005
 40
0.9000000000000005
 40
0.9000000000000005
 40
0.9000000000000005
 40
0.9200000000000005
 40
0.9200000000000005
 40
0.9200000000000005
 40
0.9200000000000005
 40
0.9400000000000005
 40
0.9400000000000005
 40
0.9400000000000005
 40
0.9400000000000005
 40
0.9600000000000005
 40
0.9600000000000005
 40
0.9600000000000005
 40
0.9600000000000005
 40
0.9800000000000005
 40
0.9800000000000005
 40
0.9800000000000005
 40
0.9800000000000005
 40
1.0
 40
1.0
 40
1.0
 40
1.0
 10
-38.435000000000002
 20
98.336100000000002
 30
0.0
 10
-38.790399999999998
 20
98.159999999999997
 30
0.0
 10
-38.9345
 20
97.937600000000003
 30
0.0
 10
-38.867600000000003
 20
97.6691
 30
0.0
 10
-38.867600000000003
 20
97.6691
 30
0.0
 10
-38.756999999999998
 20
97.219200000000001
 30
0.0
 10
-38.530799999999999
 20
96.781599999999997
 30
0.0
 10
-38.049300000000002
 20
96.371700000000004
 30
0.0
 10
-38.049300000000002
 20
96.371700000000004
 30
0.0
 10
-37.997999999999998
 20
96.046899999999994
 30
0.0
 10
-38.4696
 20
95.950900000000004
 30
0.0
 10
-39.703600000000002
 20
96.188900000000004
 30
0.0
 10
-39.703600000000002
 20
96.188900000000004
 30
0.0
 10
-40.3611
 20
96.349100000000007
 30
0.0
 10
-40.743499999999997
 20
96.784099999999995
 30
0.0
 10
-40.9377
 20
97.407399999999996
 30
0.0
 10
-40.9377
 20
97.407399999999996
 30
0.0
 10
-40.9377
 20
97.407399999999996
 30
0.0
 10
-41.547199999999997
 20
95.634299999999996
 30
0.0
 10
-41.547199999999997
 20
95.634299999999996
 30
0.0
 10
-41.547199999999997
 20
95.634299999999996
 30
0.0
 10
-41.547199999999997
 20
95.634299999999996
 30
0.0
 10
-41.453699999999998
 20
95.602199999999996
 30
0.0
 10
-41.453699999999998
 20
95.602199999999996
 30
0.0
 10
-41.453699999999998
 20
95.602199999999996
 30
0.0
 10
-40.947000000000003
 20
95.5351
 30
0.0
 10
-41.142299999999999
 20
95.728300000000004
 30
0.0
 10
-40.950699999999998
 20
95.686400000000006
 30
0.0
 10
-40.950699999999998
 20
95.686400000000006
 30
0.0
 10
-40.459699999999998
 20
95.579099999999997
 30
0.0
 10
-40.442700000000002
 20
94.942400000000006
 30
0.0
 10
-39.367100000000001
 20
94.475899999999996
 30
0.0
 10
-39.367100000000001
 20
94.475899999999996
 30
0.0
 10
-38.499600000000001
 20
94.099599999999995
 30
0.0
 10
-38.156300000000002
 20
93.988600000000005
 30
0.0
 10
-37.309600000000003
 20
93.728200000000001
 30
0.0
 10
-37.309600000000003
 20
93.728200000000001
 30
0.0
 10
-37.221299999999999
 20
93.900099999999995
 30
0.0
 10
-36.460599999999999
 20
94.618600000000001
 30
0.0
 10
-36.086300000000001
 20
95.168700000000001
 30
0.0
 10
-36.086300000000001
 20
95.168700000000001
 30
0.0
 10
-35.356900000000003
 20
96.240700000000004
 30
0.0
 10
-35.814900000000002
 20
96.139600000000002
 30
0.0
 10
-35.557099999999998
 20
97.320599999999999
 30
0.0
 10
-35.557099999999998
 20
97.320599999999999
 30
0.0
 10
-34.768900000000002
 20
100.9311
 30
0.0
 10
-31.823799999999999
 20
102.76860000000001
 30
0.0
 10
-29.5318
 20
104.17100000000001
 30
0.0
 10
-29.5318
 20
104.17100000000001
 30
0.0
 10
-28.495699999999999
 20
104.8049
 30
0.0
 10
-26.747399999999999
 20
105.6615
 30
0.0
 10
-25.553899999999999
 20
106.0291
 30
0.0
 10
-25.553899999999999
 20
106.0291
 30
0.0
 10
-24.2361
 20
106.4357
 30
0.0
 10
-22.431899999999999
 20
107.0552
 30
0.0
 10
-21.0976
 20
107.2647
 30
0.0
 10
-21.0976
 20
107.2647
 30
0.0
 10
-20.873200000000001
 20
107.3
 30
0.0
 10
-19.748799999999999
 20
107.50109999999999
 30
0.0
 10
-19.164200000000001
 20
107.6262
 30
0.0
 10
-19.164200000000001
 20
107.6262
 30
0.0
 10
-24.8063
 20
114.4032
 30
0.0
 10
-33.304699999999997
 20
118.7183
 30
0.0
 10
-42.809899999999999
 20
118.7183
 30
0.0
 10
-42.809899999999999
 20
118.7183
 30
0.0
 10
-48.671799999999998
 20
118.7183
 30
0.0
 10
-54.150799999999997
 20
117.0771
 30
0.0
 10
-58.813200000000002
 20
114.2299
 30
0.0
 10
-58.813200000000002
 20
114.2299
 30
0.0
 10
-58.571599999999997
 20
113.7332
 30
0.0
 10
-58.235700000000001
 20
113.2075
 30
0.0
 10
-57.9223
 20
112.7931
 30
0.0
 10
-57.9223
 20
112.7931
 30
0.0
 10
-57.260100000000001
 20
111.91849999999999
 30
0.0
 10
-56.002200000000002
 20
110.73950000000001
 30
0.0
 10
-55.218200000000003
 20
109.83540000000001
 30
0.0
 10
-55.218200000000003
 20
109.83540000000001
 30
0.0
 10
-54.384999999999998
 20
108.87520000000001
 30
0.0
 10
-53.622900000000001
 20
107.64570000000001
 30
0.0
 10
-52.786000000000001
 20
106.7034
 30
0.0
 10
-52.786000000000001
 20
106.7034
 30
0.0
 10
-51.774799999999999
 20
105.5651
 30
0.0
 10
-48.508499999999998
 20
101.4469
 30
0.0
 10
-48.880400000000002
 20
99.743700000000004
 30
0.0
 10
-48.880400000000002
 20
99.743700000000004
 30
0.0
 10
-48.880400000000002
 20
99.743700000000004
 30
0.0
 10
-48.981200000000001
 20
99.280799999999999
 30
0.0
 10
-48.981200000000001
 20
99.280799999999999
 30
0.0
 10
-48.981200000000001
 20
99.280799999999999
 30
0.0
 10
-49.158299999999997
 20
98.470699999999994
 30
0.0
 10
-49.876100000000001
 20
98.732200000000006
 30
0.0
 10
-49.943199999999997
 20
98.424599999999998
 30
0.0
 10
-49.943199999999997
 20
98.424599999999998
 30
0.0
 10
-50.155700000000003
 20
97.451300000000003
 30
0.0
 10
-48.3703
 20
96.737899999999996
 30
0.0
 10
-47.3904
 20
96.404300000000006
 30
0.0
 10
-47.3904
 20
96.404300000000006
 30
0.0
 10
-45.955800000000004
 20
95.915999999999997
 30
0.0
 10
-45.339399999999998
 20
95.108699999999999
 30
0.0
 10
-44.857999999999997
 20
97.314499999999995
 30
0.0
 10
-44.857999999999997
 20
97.314499999999995
 30
0.0
 10
-45.562899999999999
 20
97.650099999999995
 30
0.0
 10
-46.064
 20
98.889200000000002
 30
0.0
 10
-45.852600000000002
 20
99.858400000000003
 30
0.0
 10
-45.852600000000002
 20
99.858400000000003
 30
0.0
 10
-46.157600000000002
 20
100.1759
 30
0.0
 10
-46.274000000000001
 20
100.5899
 30
0.0
 10
-46.1447
 20
101.1823
 30
0.0
 10
-46.1447
 20
101.1823
 30
0.0
 10
-46.107500000000002
 20
101.3524
 30
0.0
 10
-46.024299999999997
 20
101.51179999999999
 30
0.0
 10
-45.941200000000002
 20
101.6711
 30
0.0
 10
-45.941200000000002
 20
101.6711
 30
0.0
 10
-45.941200000000002
 20
101.6711
 30
0.0
 10
-45.941400000000002
 20
101.6711
 30
0.0
 10
-45.941400000000002
 20
101.6711
 30
0.0
 10
-45.941400000000002
 20
101.6711
 30
0.0
 10
-46.470399999999998
 20
101.215
 30
0.0
 10
-46.966700000000003
 20
101.002
 30
0.0
 10
-47.415999999999997
 20
101.1452
 30
0.0
 10
-47.415999999999997
 20
101.1452
 30
0.0
 10
-48.166499999999999
 20
101.4336
 30
0.0
 10
-48.397799999999997
 20
101.8386
 30
0.0
 10
-48.337299999999999
 20
102.3096
 30
0.0
 10
-48.337299999999999
 20
102.3096
 30
0.0
 10
-47.930399999999999
 20
102.3154
 30
0.0
 10
-47.581299999999999
 20
102.4106
 30
0.0
 10
-47.289200000000001
 20
102.5956
 30
0.0
 10
-47.289200000000001
 20
102.5956
 30
0.0
 10
-47.805
 20
102.7389
 30
0.0
 10
-48.313299999999998
 20
102.9158
 30
0.0
 10
-48.818300000000001
 20
103.1084
 30
0.0
 10
-48.818300000000001
 20
103.1084
 30
0.0
 10
-49.427599999999998
 20
103.3763
 30
0.0
 10
-49.708500000000001
 20
103.8552
 30
0.0
 10
-49.8401
 20
104.4298
 30
0.0
 10
-49.8401
 20
104.4298
 30
0.0
 10
-49.405900000000003
 20
104.3287
 30
0.0
 10
-48.983699999999999
 20
104.4097
 30
0.0
 10
-48.573
 20
104.6734
 30
0.0
 10
-48.573
 20
104.6734
 30
0.0
 10
-48.300699999999999
 20
104.9726
 30
0.0
 10
-48.028700000000001
 20
105.27200000000001
 30
0.0
 10
-47.756500000000003
 20
105.5711
 30
0.0
 10
-47.756500000000003
 20
105.5711
 30
0.0
 10
-47.756500000000003
 20
105.5711
 30
0.0
 10
-47.756100000000004
 20
105.5711
 30
0.0
 10
-47.756100000000004
 20
105.5711
 30
0.0
 10
-47.756100000000004
 20
105.5711
 30
0.0
 10
-47.483499999999999
 20
105.89319999999999
 30
0.0
 10
-47.043199999999999
 20
106.1019
 30
0.0
 10
-46.606999999999999
 20
106.10039999999999
 30
0.0
 10
-46.606999999999999
 20
106.10039999999999
 30
0.0
 10
-46.606999999999999
 20
106.10039999999999
 30
0.0
 10
-46.607199999999999
 20
106.1005
 30
0.0
 10
-46.607199999999999
 20
106.1005
 30
0.0
 10
-46.607199999999999
 20
106.1005
 30
0.0
 10
-46.607199999999999
 20
106.1005
 30
0.0
 10
-46.604300000000002
 20
106.09999999999999
 30
0.0
 10
-46.604300000000002
 20
106.09999999999999
 30
0.0
 10
-46.604300000000002
 20
106.09999999999999
 30
0.0
 10
-46.548200000000001
 20
106.09999999999999
 30
0.0
 10
-46.491799999999998
 20
106.0962
 30
0.0
 10
-46.436199999999999
 20
106.0886
 30
0.0
 10
-46.436199999999999
 20
106.0886
 30
0.0
 10
-44.935200000000002
 20
106.0055
 30
0.0
 10
-43.963900000000002
 20
106.3563
 30
0.0
 10
-42.716000000000001
 20
106.96299999999999
 30
0.0
 10
-42.716000000000001
 20
106.96299999999999
 30
0.0
 10
-42.328000000000003
 20
107.0423
 30
0.0
 10
-41.522300000000001
 20
107.0966
 30
0.0
 10
-41.0321
 20
107.059
 30
0.0
 10
-41.0321
 20
107.059
 30
0.0
 10
-40.506500000000003
 20
106.95440000000001
 30
0.0
 10
-39.816000000000003
 20
106.6174
 30
0.0
 10
-39.715899999999998
 20
106.24460000000001
 30
0.0
 10
-39.715899999999998
 20
106.24460000000001
 30
0.0
 10
-39.448700000000002
 20
105.81140000000001
 30
0.0
 10
-39.390700000000002
 20
105.71169999999999
 30
0.0
 10
-39.2346
 20
105.3032
 30
0.0
 10
-39.2346
 20
105.3032
 30
0.0
 10
-39.059699999999999
 20
104.9567
 30
0.0
 10
-39.137099999999997
 20
104.961
 30
0.0
 10
-38.781700000000001
 20
104.4271
 30
0.0
 10
-38.781700000000001
 20
104.4271
 30
0.0
 10
-38.449300000000001
 20
103.9273
 30
0.0
 10
-37.749299999999998
 20
103.0475
 30
0.0
 10
-38.0259
 20
102.1147
 30
0.0
 10
-38.0259
 20
102.1147
 30
0.0
 10
-38.0259
 20
102.1147
 30
0.0
 10
-38.9846
 20
99.813299999999998
 30
0.0
 10
-38.9846
 20
99.813299999999998
 30
0.0
 10
-38.9846
 20
99.813299999999998
 30
0.0
 10
-39.056100000000001
 20
99.622500000000002
 30
0.0
 10
-38.133600000000001
 20
99.274199999999993
 30
0.0
 10
-38.241599999999998
 20
98.778700000000001
 30
0.0
 10
-38.241599999999998
 20
98.778700000000001
 30
0.0
 10
-38.296300000000002
 20
98.528999999999996
 30
0.0
 10
-38.3414
 20
98.533600000000007
 30
0.0
 10
-38.435000000000002
 20
98.336100000000002
 30
0.0
  0
SPLINE
  5
36
100
AcDbEntity
  8
RÚteg 1
 62
     7
100
AcDbSpline
210
0.0
220
0.0
230
1.0
 70
     1
 71
     3
 72
   132
 73
   128
 74
     0
 42
0.0000000001
 43
0.0000000001
 40
0.0
 40
0.0
 40
0.0
 40
0.0
 40
0.03125
 40
0.03125
 40
0.03125
 40
0.03125
 40
0.0625
 40
0.0625
 40
0.0625
 40
0.0625
 40
0.09375
 40
0.09375
 40
0.09375
 40
0.09375
 40
0.125
 40
0.125
 40
0.125
 40
0.125
 40
0.15625
 40
0.15625
 40
0.15625
 40
0.15625
 40
0.1875
 40
0.1875
 40
0.1875
 40
0.1875
 40
0.21875
 40
0.21875
 40
0.21875
 40
0.21875
 40
0.25
 40
0.25
 40
0.25
 40
0.25
 40
0.28125
 40
0.28125
 40
0.28125
 40
0.28125
 40
0.3125
 40
0.3125
 40
0.3125
 40
0.3125
 40
0.34375
 40
0.34375
 40
0.34375
 40
0.34375
 40
0.375
 40
0.375
 40
0.375
 40
0.375
 40
0.40625
 40
0.40625
 40
0.40625
 40
0.40625
 40
0.4375
 40
0.4375
 40
0.4375
 40
0.4375
 40
0.46875
 40
0.46875
 40
0.46875
 40
0.46875
 40
0.5
 40
0.5
 40
0.5
 40
0.5
 40
0.53125
 40
0.53125
 40
0.53125
 40
0.53125
 40
0.5625
 40
0.5625
 40
0.5625
 40
0.5625
 40
0.59375
 40
0.59375
 40
0.59375
 40
0.59375
 40
0.625
 40
0.625
 40
0.625
 40
0.625
 40
0.65625
 40
0.65625
 40
0.65625
 40
0.65625
 40
0.6875
 40
0.6875
 40
0.6875
 40
0.6875
 40
0.71875
 40
0.71875
 40
0.71875
 40
0.71875
 40
0.75
 40
0.75
 40
0.75
 40
0.75
 40
0.78125
 40
0.78125
 40
0.78125
 40
0.78125
 40
0.8125
 40
0.8125
 40
0.8125
 40
0.8125
 40
0.84375
 40
0.84375
 40
0.84375
 40
0.84375
 40
0.875
 40
0.875
 40
0.875
 40
0.875
 40
0.90625
 40
0.90625
 40
0.90625
 40
0.90625
 40
0.9375
 40
0.9375
 40
0.9375
 40
0.9375
 40
0.96875
 40
0.96875
 40
0.96875
 40
0.96875
 40
1.0
 40
1.0
 40
1.0
 40
1.0
 10
-12.692600000000001
 20
94.219499999999996
 30
0.0
 10
-12.768000000000001
 20
93.883600000000001
 30
0.0
 10
-12.8451
 20
93.530299999999997
 30
0.0
 10
-12.9269
 20
93.156700000000001
 30
0.0
 10
-12.9269
 20
93.156700000000001
 30
0.0
 10
-12.9269
 20
93.156700000000001
 30
0.0
 10
-13.1288
 20
92.231300000000005
 30
0.0
 10
-13.1288
 20
92.231300000000005
 30
0.0
 10
-13.1288
 20
92.231300000000005
 30
0.0
 10
-13.4682
 20
90.676000000000002
 30
0.0
 10
-15.3696
 20
88.010199999999998
 30
0.0
 10
-16.218599999999999
 20
87.127600000000001
 30
0.0
 10
-16.218599999999999
 20
87.127600000000001
 30
0.0
 10
-16.912500000000001
 20
86.406199999999998
 30
0.0
 10
-17.4694
 20
85.924499999999995
 30
0.0
 10
-18.467199999999998
 20
85.673500000000004
 30
0.0
 10
-18.467199999999998
 20
85.673500000000004
 30
0.0
 10
-18.900600000000001
 20
85.564599999999999
 30
0.0
 10
-21.1587
 20
85.177499999999995
 30
0.0
 10
-21.222300000000001
 20
84.885400000000004
 30
0.0
 10
-21.222300000000001
 20
84.885400000000004
 30
0.0
 10
-21.3308
 20
84.388800000000003
 30
0.0
 10
-21.040400000000002
 20
84.3874
 30
0.0
 10
-21.106300000000001
 20
84.084500000000006
 30
0.0
 10
-21.106300000000001
 20
84.084500000000006
 30
0.0
 10
-21.106300000000001
 20
84.084500000000006
 30
0.0
 10
-21.167000000000002
 20
83.806899999999999
 30
0.0
 10
-21.167000000000002
 20
83.806899999999999
 30
0.0
 10
-21.167000000000002
 20
83.806899999999999
 30
0.0
 10
-21.2851
 20
83.266400000000004
 30
0.0
 10
-21.6478
 20
83.345200000000006
 30
0.0
 10
-22.0624
 20
83.244699999999995
 30
0.0
 10
-22.0624
 20
83.244699999999995
 30
0.0
 10
-22.0624
 20
83.244699999999995
 30
0.0
 10
-22.7879
 20
83.482200000000006
 30
0.0
 10
-22.7879
 20
83.482200000000006
 30
0.0
 10
-22.7879
 20
83.482200000000006
 30
0.0
 10
-23.024699999999999
 20
82.710599999999999
 30
0.0
 10
-24.7712
 20
80.703500000000005
 30
0.0
 10
-25.384499999999999
 20
80.461799999999997
 30
0.0
 10
-25.384499999999999
 20
80.461799999999997
 30
0.0
 10
-27.485800000000001
 20
80.920500000000004
 30
0.0
 10
-27.3766
 20
80.958600000000004
 30
0.0
 10
-28.360199999999999
 20
79.521799999999999
 30
0.0
 10
-28.360199999999999
 20
79.521799999999999
 30
0.0
 10
-28.955300000000001
 20
78.652199999999993
 30
0.0
 10
-29.7348
 20
77.630799999999994
 30
0.0
 10
-30.9802
 20
77.902600000000007
 30
0.0
 10
-30.9802
 20
77.902600000000007
 30
0.0
 10
-32.379199999999997
 20
78.207899999999995
 30
0.0
 10
-32.231499999999997
 20
78.980099999999993
 30
0.0
 10
-32.465899999999998
 20
79.971699999999998
 30
0.0
 10
-32.465899999999998
 20
79.971699999999998
 30
0.0
 10
-32.751399999999997
 20
79.967699999999994
 30
0.0
 10
-33.348599999999998
 20
79.873599999999996
 30
0.0
 10
-33.543599999999998
 20
79.9161
 30
0.0
 10
-33.543599999999998
 20
79.9161
 30
0.0
 10
-33.7806
 20
79.967699999999994
 30
0.0
 10
-33.762099999999997
 20
79.987099999999998
 30
0.0
 10
-33.893300000000004
 20
80.089299999999994
 30
0.0
 10
-33.893300000000004
 20
80.089299999999994
 30
0.0
 10
-33.962000000000003
 20
80.0702
 30
0.0
 10
-34.710799999999999
 20
79.880300000000005
 30
0.0
 10
-34.7136
 20
79.880799999999994
 30
0.0
 10
-34.7136
 20
79.880799999999994
 30
0.0
 10
-35.364899999999999
 20
80.022800000000004
 30
0.0
 10
-35.407299999999999
 20
80.375399999999999
 30
0.0
 10
-35.179299999999998
 20
80.854699999999994
 30
0.0
 10
-35.179299999999998
 20
80.854699999999994
 30
0.0
 10
-36.897199999999998
 20
82.642600000000002
 30
0.0
 10
-35.585299999999997
 20
86.319900000000004
 30
0.0
 10
-37.264299999999999
 20
86.835499999999996
 30
0.0
 10
-37.264299999999999
 20
86.835499999999996
 30
0.0
 10
-37.648499999999999
 20
85.584599999999995
 30
0.0
 10
-37.9938
 20
84.777100000000004
 30
0.0
 10
-38.720100000000002
 20
84.047899999999998
 30
0.0
 10
-38.720100000000002
 20
84.047899999999998
 30
0.0
 10
-38.720100000000002
 20
84.047899999999998
 30
0.0
 10
-39.037100000000002
 20
83.150999999999996
 30
0.0
 10
-39.037100000000002
 20
83.150999999999996
 30
0.0
 10
-39.037100000000002
 20
83.150999999999996
 30
0.0
 10
-39.073599999999999
 20
83.050200000000004
 30
0.0
 10
-39.125
 20
82.056200000000004
 30
0.0
 10
-39.118099999999998
 20
81.985200000000006
 30
0.0
 10
-39.118099999999998
 20
81.985200000000006
 30
0.0
 10
-39.072600000000001
 20
81.501999999999995
 30
0.0
 10
-38.854500000000002
 20
81.501900000000006
 30
0.0
 10
-38.518599999999999
 20
81.176699999999997
 30
0.0
 10
-38.518599999999999
 20
81.176699999999997
 30
0.0
 10
-37.977699999999999
 20
80.652299999999997
 30
0.0
 10
-37.718800000000002
 20
80.249700000000004
 30
0.0
 10
-37.410400000000003
 20
79.581000000000003
 30
0.0
 10
-37.410400000000003
 20
79.581000000000003
 30
0.0
 10
-36.864899999999999
 20
78.399100000000004
 30
0.0
 10
-36.830199999999998
 20
76.841200000000001
 30
0.0
 10
-37.211599999999997
 20
75.094200000000001
 30
0.0
 10
-37.211599999999997
 20
75.094200000000001
 30
0.0
 10
-38.0595
 20
71.210099999999997
 30
0.0
 10
-42.620199999999997
 20
64.818299999999994
 30
0.0
 10
-45.263100000000001
 20
63.093400000000003
 30
0.0
 10
-45.263100000000001
 20
63.093400000000003
 30
0.0
 10
-45.693399999999997
 20
62.8127
 30
0.0
 10
-46.114199999999997
 20
62.225700000000003
 30
0.0
 10
-46.502099999999999
 20
61.9253
 30
0.0
 10
-46.502099999999999
 20
61.9253
 30
0.0
 10
-46.9694
 20
61.563499999999998
 30
0.0
 10
-47.366900000000001
 20
61.311799999999998
 30
0.0
 10
-47.843699999999998
 20
60.9163
 30
0.0
 10
-47.843699999999998
 20
60.9163
 30
0.0
 10
-48.639299999999999
 20
60.2562
 30
0.0
 10
-49.737299999999998
 20
59.4833
 30
0.0
 10
-50.605400000000003
 20
58.897799999999997
 30
0.0
 10
-50.605400000000003
 20
58.897799999999997
 30
0.0
 10
-50.832299999999996
 20
58.744500000000002
 30
0.0
 10
-51.052199999999999
 20
58.571300000000001
 30
0.0
 10
-51.268900000000002
 20
58.386299999999999
 30
0.0
 10
-51.268900000000002
 20
58.386299999999999
 30
0.0
 10
-48.581299999999999
 20
57.618699999999997
 30
0.0
 10
-45.743899999999996
 20
57.2074
 30
0.0
 10
-42.809899999999999
 20
57.2074
 30
0.0
 10
-42.809899999999999
 20
57.2074
 30
0.0
 10
-25.827200000000001
 20
57.2074
 30
0.0
 10
-12.0547
 20
70.979900000000001
 30
0.0
 10
-12.0547
 20
87.962800000000001
 30
0.0
 10
-12.0547
 20
87.962800000000001
 30
0.0
 10
-12.0547
 20
90.106700000000004
 30
0.0
 10
-12.2746
 20
92.199299999999994
 30
0.0
 10
-12.692600000000001
 20
94.219499999999996
 30
0.0
  0
SPLINE
  5
37
100
AcDbEntity
  8
RÚteg 1
 62
     7
100
AcDbSpline
210
0.0
220
0.0
230
1.0
 70
     1
 71
     3
 72
   140
 73
   136
 74
     0
 42
0.0000000001
 43
0.0000000001
 40
0.0
 40
0.0
 40
0.0
 40
0.0
 40
0.0294117647058824
 40
0.0294117647058824
 40
0.0294117647058824
 40
0.0294117647058824
 40
0.0588235294117647
 40
0.0588235294117647
 40
0.0588235294117647
 40
0.0588235294117647
 40
0.0882352941176471
 40
0.0882352941176471
 40
0.0882352941176471
 40
0.0882352941176471
 40
0.1176470588235294
 40
0.1176470588235294
 40
0.1176470588235294
 40
0.1176470588235294
 40
0.1470588235294118
 40
0.1470588235294118
 40
0.1470588235294118
 40
0.1470588235294118
 40
0.1764705882352941
 40
0.1764705882352941
 40
0.1764705882352941
 40
0.1764705882352941
 40
0.2058823529411765
 40
0.2058823529411765
 40
0.2058823529411765
 40
0.2058823529411765
 40
0.2352941176470589
 40
0.2352941176470589
 40
0.2352941176470589
 40
0.2352941176470589
 40
0.2647058823529412
 40
0.2647058823529412
 40
0.2647058823529412
 40
0.2647058823529412
 40
0.2941176470588235
 40
0.2941176470588235
 40
0.2941176470588235
 40
0.2941176470588235
 40
0.3235294117647059
 40
0.3235294117647059
 40
0.3235294117647059
 40
0.3235294117647059
 40
0.3529411764705883
 40
0.3529411764705883
 40
0.3529411764705883
 40
0.3529411764705883
 40
0.3823529411764706
 40
0.3823529411764706
 40
0.3823529411764706
 40
0.3823529411764706
 40
0.411764705882353
 40
0.411764705882353
 40
0.411764705882353
 40
0.411764705882353
 40
0.4411764705882353
 40
0.4411764705882353
 40
0.4411764705882353
 40
0.4411764705882353
 40
0.4705882352941177
 40
0.4705882352941177
 40
0.4705882352941177
 40
0.4705882352941177
 40
0.5
 40
0.5
 40
0.5
 40
0.5
 40
0.5294117647058824
 40
0.5294117647058824
 40
0.5294117647058824
 40
0.5294117647058824
 40
0.5588235294117647
 40
0.5588235294117647
 40
0.5588235294117647
 40
0.5588235294117647
 40
0.5882352941176471
 40
0.5882352941176471
 40
0.5882352941176471
 40
0.5882352941176471
 40
0.6176470588235294
 40
0.6176470588235294
 40
0.6176470588235294
 40
0.6176470588235294
 40
0.6470588235294118
 40
0.6470588235294118
 40
0.6470588235294118
 40
0.6470588235294118
 40
0.6764705882352942
 40
0.6764705882352942
 40
0.6764705882352942
 40
0.6764705882352942
 40
0.7058823529411765
 40
0.7058823529411765
 40
0.7058823529411765
 40
0.7058823529411765
 40
0.7352941176470589
 40
0.7352941176470589
 40
0.7352941176470589
 40
0.7352941176470589
 40
0.7647058823529412
 40
0.7647058823529412
 40
0.7647058823529412
 40
0.7647058823529412
 40
0.7941176470588236
 40
0.7941176470588236
 40
0.7941176470588236
 40
0.7941176470588236
 40
0.823529411764706
 40
0.823529411764706
 40
0.823529411764706
 40
0.823529411764706
 40
0.8529411764705883
 40
0.8529411764705883
 40
0.8529411764705883
 40
0.8529411764705883
 40
0.8823529411764707
 40
0.8823529411764707
 40
0.8823529411764707
 40
0.8823529411764707
 40
0.911764705882353
 40
0.911764705882353
 40
0.911764705882353
 40
0.911764705882353
 40
0.9411764705882354
 40
0.9411764705882354
 40
0.9411764705882354
 40
0.9411764705882354
 40
0.9705882352941178
 40
0.9705882352941178
 40
0.9705882352941178
 40
0.9705882352941178
 40
1.0
 40
1.0
 40
1.0
 40
1.0
 10
-70.270799999999994
 20
74.104600000000005
 30
0.0
 10
-70.229699999999994
 20
74.1173
 30
0.0
 10
-70.192800000000005
 20
74.129900000000006
 30
0.0
 10
-70.160899999999998
 20
74.142499999999998
 30
0.0
 10
-70.160899999999998
 20
74.142499999999998
 30
0.0
 10
-70.000100000000003
 20
74.107299999999995
 30
0.0
 10
-68.352099999999993
 20
74.033900000000003
 30
0.0
 10
-68.278899999999993
 20
74.060199999999995
 30
0.0
 10
-68.278899999999993
 20
74.060199999999995
 30
0.0
 10
-68.044399999999996
 20
74.1434
 30
0.0
 10
-67.601299999999995
 20
75.553899999999999
 30
0.0
 10
-67.657200000000003
 20
75.829400000000007
 30
0.0
 10
-67.657200000000003
 20
75.829400000000007
 30
0.0
 10
-67.7376
 20
76.226699999999994
 30
0.0
 10
-67.773099999999999
 20
77.264099999999999
 30
0.0
 10
-67.899299999999997
 20
77.504400000000004
 30
0.0
 10
-67.899299999999997
 20
77.504400000000004
 30
0.0
 10
-68.070800000000006
 20
77.831199999999995
 30
0.0
 10
-68.746600000000001
 20
78.486999999999995
 30
0.0
 10
-69.191500000000005
 20
78.584100000000007
 30
0.0
 10
-69.191500000000005
 20
78.584100000000007
 30
0.0
 10
-69.191500000000005
 20
78.584100000000007
 30
0.0
 10
-69.376400000000004
 20
78.624499999999998
 30
0.0
 10
-69.376400000000004
 20
78.624499999999998
 30
0.0
 10
-69.376400000000004
 20
78.624499999999998
 30
0.0
 10
-69.747900000000001
 20
78.705699999999993
 30
0.0
 10
-70.048000000000002
 20
78.480099999999993
 30
0.0
 10
-70.361500000000007
 20
78.548699999999997
 30
0.0
 10
-70.361500000000007
 20
78.548699999999997
 30
0.0
 10
-70.573300000000003
 20
78.594899999999996
 30
0.0
 10
-70.462100000000007
 20
78.6036
 30
0.0
 10
-70.692499999999995
 20
78.724800000000002
 30
0.0
 10
-70.692499999999995
 20
78.724800000000002
 30
0.0
 10
-70.692499999999995
 20
78.724800000000002
 30
0.0
 10
-70.743099999999998
 20
79.0197
 30
0.0
 10
-70.743099999999998
 20
79.0197
 30
0.0
 10
-70.743099999999998
 20
79.0197
 30
0.0
 10
-69.605099999999993
 20
80.025899999999993
 30
0.0
 10
-66.904300000000006
 20
80.590199999999996
 30
0.0
 10
-65.148700000000005
 20
80.589200000000005
 30
0.0
 10
-65.148700000000005
 20
80.589200000000005
 30
0.0
 10
-64.167500000000004
 20
80.588399999999993
 30
0.0
 10
-62.710500000000003
 20
80.454700000000003
 30
0.0
 10
-61.757599999999996
 20
80.509399999999999
 30
0.0
 10
-61.757599999999996
 20
80.509399999999999
 30
0.0
 10
-60.545499999999997
 20
80.578999999999994
 30
0.0
 10
-59.726700000000001
 20
80.322199999999995
 30
0.0
 10
-58.419899999999998
 20
80.264899999999997
 30
0.0
 10
-58.419899999999998
 20
80.264899999999997
 30
0.0
 10
-57.128799999999998
 20
80.208399999999997
 30
0.0
 10
-56.156100000000002
 20
80.055199999999999
 30
0.0
 10
-55.139000000000003
 20
80.108699999999999
 30
0.0
 10
-55.139000000000003
 20
80.108699999999999
 30
0.0
 10
-54.730600000000003
 20
80.130300000000005
 30
0.0
 10
-53.322099999999999
 20
81.538200000000003
 30
0.0
 10
-52.935000000000002
 20
81.881
 30
0.0
 10
-52.935000000000002
 20
81.881
 30
0.0
 10
-52.579300000000003
 20
82.1952
 30
0.0
 10
-50.893099999999997
 20
82.819900000000004
 30
0.0
 10
-50.337600000000002
 20
83.039500000000004
 30
0.0
 10
-50.337600000000002
 20
83.039500000000004
 30
0.0
 10
-49.5931
 20
83.333799999999997
 30
0.0
 10
-48.1708
 20
83.4726
 30
0.0
 10
-47.147599999999997
 20
83.273099999999999
 30
0.0
 10
-47.147599999999997
 20
83.273099999999999
 30
0.0
 10
-46.997999999999998
 20
83.587699999999998
 30
0.0
 10
-46.867699999999999
 20
83.667400000000001
 30
0.0
 10
-46.7806
 20
84.0655
 30
0.0
 10
-46.7806
 20
84.0655
 30
0.0
 10
-46.7806
 20
84.0655
 30
0.0
 10
-46.7605
 20
84.158100000000005
 30
0.0
 10
-46.7605
 20
84.158100000000005
 30
0.0
 10
-46.7605
 20
84.158100000000005
 30
0.0
 10
-46.5426
 20
85.1571
 30
0.0
 10
-47.178100000000001
 20
86.022099999999995
 30
0.0
 10
-47.794899999999998
 20
86.516999999999996
 30
0.0
 10
-47.794899999999998
 20
86.516999999999996
 30
0.0
 10
-48.092500000000001
 20
86.755899999999997
 30
0.0
 10
-48.591200000000001
 20
87.083600000000004
 30
0.0
 10
-48.781300000000002
 20
87.395200000000003
 30
0.0
 10
-48.781300000000002
 20
87.395200000000003
 30
0.0
 10
-48.941000000000003
 20
87.656700000000001
 30
0.0
 10
-48.950800000000001
 20
88.416700000000006
 30
0.0
 10
-49.394199999999998
 20
88.5137
 30
0.0
 10
-49.394199999999998
 20
88.5137
 30
0.0
 10
-49.394199999999998
 20
88.5137
 30
0.0
 10
-49.579099999999997
 20
88.553899999999999
 30
0.0
 10
-49.579099999999997
 20
88.553899999999999
 30
0.0
 10
-49.579099999999997
 20
88.553899999999999
 30
0.0
 10
-49.835599999999999
 20
88.609999999999999
 30
0.0
 10
-50.835700000000003
 20
87.761899999999997
 30
0.0
 10
-51.650599999999997
 20
87.939700000000002
 30
0.0
 10
-51.650599999999997
 20
87.939700000000002
 30
0.0
 10
-51.951700000000002
 20
88.005300000000005
 30
0.0
 10
-52.1952
 20
88.111900000000006
 30
0.0
 10
-52.237200000000001
 20
88.358900000000006
 30
0.0
 10
-52.237200000000001
 20
88.358900000000006
 30
0.0
 10
-52.816099999999999
 20
88.331900000000005
 30
0.0
 10
-56.755299999999998
 20
85.0792
 30
0.0
 10
-59.135800000000003
 20
85.598799999999997
 30
0.0
 10
-59.135800000000003
 20
85.598799999999997
 30
0.0
 10
-60.1051
 20
85.810500000000005
 30
0.0
 10
-60.6571
 20
86.617199999999997
 30
0.0
 10
-60.456899999999997
 20
87.535300000000007
 30
0.0
 10
-60.456899999999997
 20
87.535300000000007
 30
0.0
 10
-60.348700000000001
 20
88.031199999999998
 30
0.0
 10
-60.132899999999999
 20
88.1327
 30
0.0
 10
-60.009399999999999
 20
88.697800000000001
 30
0.0
 10
-60.009399999999999
 20
88.697800000000001
 30
0.0
 10
-59.835799999999999
 20
89.492500000000007
 30
0.0
 10
-62.004399999999997
 20
89.745099999999994
 30
0.0
 10
-62.921999999999997
 20
90.013400000000004
 30
0.0
 10
-62.921999999999997
 20
90.013400000000004
 30
0.0
 10
-63.920200000000001
 20
90.305700000000002
 30
0.0
 10
-65.055400000000006
 20
90.680400000000006
 30
0.0
 10
-66.003699999999995
 20
90.970600000000005
 30
0.0
 10
-66.003699999999995
 20
90.970600000000005
 30
0.0
 10
-67.347899999999996
 20
91.381900000000002
 30
0.0
 10
-67.832499999999996
 20
91.867900000000006
 30
0.0
 10
-68.513000000000005
 20
92.704599999999999
 30
0.0
 10
-68.513000000000005
 20
92.704599999999999
 30
0.0
 10
-69.184600000000003
 20
93.529899999999998
 30
0.0
 10
-69.945599999999999
 20
94.011899999999997
 30
0.0
 10
-70.626300000000001
 20
94.768600000000006
 30
0.0
 10
-70.626300000000001
 20
94.768600000000006
 30
0.0
 10
-71.150899999999993
 20
95.352400000000003
 30
0.0
 10
-71.875
 20
95.852500000000006
 30
0.0
 10
-72.378900000000002
 20
96.448300000000003
 30
0.0
 10
-72.378900000000002
 20
96.448300000000003
 30
0.0
 10
-73.1511
 20
93.752799999999993
 30
0.0
 10
-73.565799999999996
 20
90.906199999999998
 30
0.0
 10
-73.565799999999996
 20
87.962800000000001
 30
0.0
 10
-73.565799999999996
 20
87.962800000000001
 30
0.0
 10
-73.565799999999996
 20
82.977400000000003
 30
0.0
 10
-72.377399999999994
 20
78.269400000000005
 30
0.0
 10
-70.270799999999994
 20
74.104600000000005
 30
0.0
  0
ENDSEC
  0
SECTION
  2
OBJECTS
  0
DICTIONARY
  5
19
100
AcDbDictionary
280
     0
281
     1
  3
ACAD_GROUP
350
1A
  3
ACAD_MLINESTYLE
350
1B
  3
ACAD_LAYOUT
350
1E
  3
ACAD_PLOTSETTINGS
350
22
  3
ACAD_PLOTSTYLENAME
350
1F
  3
ACAD_WIPEOUT_VARS
350
23
  0
DICTIONARY
  5
1A
102
{ACAD_REACTORS
330
19
102
}
100
AcDbDictionary
280
     0
281
     1
  0
DICTIONARY
  5
1B
102
{ACAD_REACTORS
330
19
102
}
100
AcDbDictionary
280
     0
281
     1
  3
Standard
350
1C
  0
MLINESTYLE
  5
1C
102
{ACAD_REACTORS
330
1B
102
}
100
AcDbMlineStyle
  2
Standard
 70
     0
  3

 62
     0
 51
90.0
 52
90.0
 71
     2
 49
0.5
 62
   256
  6
BYLAYER
 49
-0.5
 62
   256
  6
BYLAYER
  0
ACDBDICTIONARYWDFLT
  5
1F
102
{ACAD_REACTORS
330
19
102
}
100
AcDbDictionary
281
     1
  3
Normal
350
1D
100
AcDbDictionaryWithDefault
340
1D
  0
ACDBPLACEHOLDER
  5
1D
102
{ACAD_REACTORS
330
1F
102
}
  0
LAYOUT
  5
20
102
{ACAD_REACTORS
330
1E
102
}
100
AcDbPlotSettings
  1

  2

  4

  6

 40
0.0
 41
0.0
 42
0.0
 43
0.0
 44
0.0
 45
0.0
 46
0.0
 47
0.0
 48
0.0
 49
0.0
140
0.0
141
0.0
142
1.0
143
1.0
 70
  1024
 72
     0
 73
     0
 74
     0
  7

 75
     0
147
1.0
148
0.0
149
0.0
100
AcDbLayout
  1
Model
 70
     0
 71
     0
 10
0.0
 20
0.0
 11
0.0
 21
0.0
 12
0.0
 22
0.0
 32
0.0
 14
0.0
 24
0.0
 34
0.0
 15
0.0
 25
0.0
 35
0.0
146
0.0
 13
0.0
 23
0.0
 33
0.0
 16
0.0
 26
0.0
 36
0.0
 17
0.0
 27
0.0
 37
0.0
 76
     0
330
A
331
0
345
0
346
0
  0
LAYOUT
  5
21
102
{ACAD_REACTORS
330
1E
102
}
100
AcDbPlotSettings
  1

  2

  4

  6

 40
0.0
 41
0.0
 42
0.0
 43
0.0
 44
0.0
 45
0.0
 46
0.0
 47
0.0
 48
0.0
 49
0.0
140
0.0
141
0.0
142
1.0
143
1.0
 70
     0
 72
     0
 73
     0
 74
     0
  7

 75
     0
147
1.0
148
0.0
149
0.0
100
AcDbLayout
  1
Layout1
 70
     0
 71
     0
 10
0.0
 20
0.0
 11
0.0
 21
0.0
 12
0.0
 22
0.0
 32
0.0
 14
0.0
 24
0.0
 34
0.0
 15
0.0
 25
0.0
 35
0.0
146
0.0
 13
0.0
 23
0.0
 33
0.0
 16
0.0
 26
0.0
 36
0.0
 17
0.0
 27
0.0
 37
0.0
 76
     0
330
B
331
0
345
0
346
0
  0
DICTIONARY
  5
1E
102
{ACAD_REACTORS
330
19
102
}
100
AcDbDictionary
280
     0
281
     1
  3
Layout1
350
21
  3
Model
350
20
  0
DICTIONARY
  5
22
102
{ACAD_REACTORS
330
19
102
}
100
AcDbDictionary
280
     0
281
     1
  0
WIPEOUTVARIABLES
  5
23
100
AcDbWipeoutVariables
 70
     1
  0
ENDSEC
  0
EOF
