  0
SECTION
  2
HEADER
  9
$ACADVER
  1
AC1015
  9
$ACADMAINTVER
 70
     6
  9
$DWGCODEPAGE
  3
DOS850
  9
$INSBASE
 10
0.0
 20
0.0
 30
0.0
  9
$EXTMIN
 10
-87.9881
 20
35.467
 30
1.000000E+20
  9
$EXTMAX
 10
52.0881
 20
110.3381
 30
-1.000000E+20
  9
$LIMMIN
 10
0.0
 20
0.0
  9
$LIMMAX
 10
0.0
 20
0.0
  9
$ORTHOMODE
 70
     0
  9
$REGENMODE
 70
     1
  9
$FILLMODE
 70
     1
  9
$QTEXTMODE
 70
     0
  9
$MIRRTEXT
 70
     1
  9
$LTSCALE
 40
1.0
  9
$ATTMODE
 70
     1
  9
$TEXTSIZE
 40
0.2
  9
$TRACEWID
 40
0.05
  9
$TEXTSTYLE
  7
Standard
  9
$CLAYER
  8
0
  9
$CELTYPE
  6
Continuous
  9
$CECOLOR
 62
   256
  9
$CELTSCALE
 40
1.0
  9
$DISPSILH
 70
     0
  9
$DIMSCALE
 40
1.0
  9
$DIMASZ
 40
0.18
  9
$DIMEXO
 40
0.0625
  9
$DIMDLI
 40
0.38
  9
$DIMRND
 40
0.0
  9
$DIMDLE
 40
0.0
  9
$DIMEXE
 40
0.18
  9
$DIMTP
 40
0.0
  9
$DIMTM
 40
0.0
  9
$DIMTXT
 40
0.18
  9
$DIMCEN
 40
0.09
  9
$DIMTSZ
 40
0.0
  9
$DIMTOL
 70
     0
  9
$DIMLIM
 70
     0
  9
$DIMTIH
 70
     1
  9
$DIMTOH
 70
     1
  9
$DIMSE1
 70
     0
  9
$DIMSE2
 70
     0
  9
$DIMTAD
 70
     0
  9
$DIMZIN
 70
     0
  9
$DIMBLK
  1

  9
$DIMASO
 70
     1
  9
$DIMSHO
 70
     1
  9
$DIMPOST
  1

  9
$DIMAPOST
  1

  9
$DIMALT
 70
     0
  9
$DIMALTD
 70
     2
  9
$DIMALTF
 40
25.4
  9
$DIMLFAC
 40
1.0
  9
$DIMTOFL
 70
     0
  9
$DIMTVP
 40
0.0
  9
$DIMTIX
 70
     0
  9
$DIMSOXD
 70
     0
  9
$DIMSAH
 70
     0
  9
$DIMBLK1
  1

  9
$DIMBLK2
  1

  9
$DIMSTYLE
  2
Standard
  9
$DIMCLRD
 70
     0
  9
$DIMCLRE
 70
     0
  9
$DIMCLRT
 70
     0
  9
$DIMTFAC
 40
1.0
  9
$DIMGAP
 40
0.09
  9
$DIMJUST
 70
     0
  9
$DIMSD1
 70
     0
  9
$DIMSD2
 70
     0
  9
$DIMTOLJ
 70
     1
  9
$DIMTZIN
 70
     0
  9
$DIMALTZ
 70
     0
  9
$DIMALTTZ
 70
     0
  9
$DIMUPT
 70
     0
  9
$DIMDEC
 70
     4
  9
$DIMTDEC
 70
     4
  9
$DIMALTU
 70
     2
  9
$DIMALTTD
 70
     2
  9
$DIMTXSTY
  7
Standard
  9
$DIMAUNIT
 70
     0
  9
$DIMADEC
 70
     0
  9
$DIMALTRND
 40
0.0
  9
$DIMAZIN
 70
     0
  9
$DIMDSEP
 70
     0
  9
$DIMATFIT
 70
     3
  9
$DIMFRAC
 70
     0
  9
$DIMLDRBLK
  1

  9
$DIMLUNIT
 70
     2
  9
$DIMLWD
 70
     0
  9
$DIMLWE
 70
     0
  9
$DIMTMOVE
 70
     0
  9
$LUNITS
 70
     2
  9
$LUPREC
 70
     4
  9
$SKETCHINC
 40
0.1
  9
$FILLETRAD
 40
0.0
  9
$AUNITS
 70
     0
  9
$AUPREC
 70
     0
  9
$MENU
  1
acad
  9
$ELEVATION
 40
0.0
  9
$PELEVATION
 40
0.0
  9
$THICKNESS
 40
0.0
  9
$LIMCHECK
 70
     0
  9
$CHAMFERA
 40
0.0
  9
$CHAMFERB
 40
0.0
  9
$CHAMFERC
 40
0.0
  9
$CHAMFERD
 40
0.0
  9
$SKPOLY
 70
     0
  9
$TDCREATE
 40
0.000000000
  9
$TDUCREATE
 40
0.000000000
  9
$TDUPDATE
 40
0.000000000
  9
$TDUUPDATE
 40
0.000000000
  9
$TDINDWG
 40
0.0000000000
  9
$TDUSRTIMER
 40
0.0000000000
  9
$USRTIMER
 70
     1
  9
$ANGBASE
 50
0.0
  9
$ANGDIR
 70
     0
  9
$PDMODE
 70
     0
  9
$PDSIZE
 40
0.0
  9
$PLINEWID
 40
0.0
  9
$SPLFRAME
 70
     0
  9
$SPLINETYPE
 70
     6
  9
$SPLINESEGS
 70
     8
  9
$HANDSEED
  5
52
  9
$SURFTAB1
 70
     6
  9
$SURFTAB2
 70
     6
  9
$SURFTYPE
 70
     6
  9
$SURFU
 70
     6
  9
$SURFV
 70
     6
  9
$UCSBASE
  2

  9
$UCSNAME
  2

  9
$UCSORG
 10
0.0
 20
0.0
 30
0.0
  9
$UCSXDIR
 10
1.0
 20
0.0
 30
0.0
  9
$UCSYDIR
 10
0.0
 20
1.0
 30
0.0
  9
$UCSORTHOREF
  2

  9
$UCSORTHOVIEW
 70
     0
  9
$UCSORGTOP
 10
0.0
 20
0.0
 30
0.0
  9
$UCSORGBOTTOM
 10
0.0
 20
0.0
 30
0.0
  9
$UCSORGLEFT
 10
0.0
 20
0.0
 30
0.0
  9
$UCSORGRIGHT
 10
0.0
 20
0.0
 30
0.0
  9
$UCSORGFRONT
 10
0.0
 20
0.0
 30
0.0
  9
$UCSORGBACK
 10
0.0
 20
0.0
 30
0.0
  9
$PUCSBASE
  2

  9
$PUCSNAME
  2

  9
$PUCSORG
 10
0.0
 20
0.0
 30
0.0
  9
$PUCSXDIR
 10
1.0
 20
0.0
 30
0.0
  9
$PUCSYDIR
 10
0.0
 20
1.0
 30
0.0
  9
$PUCSORTHOREF
  2

  9
$PUCSORTHOVIEW
 70
     0
  9
$PUCSORGTOP
 10
0.0
 20
0.0
 30
0.0
  9
$PUCSORGBOTTOM
 10
0.0
 20
0.0
 30
0.0
  9
$PUCSORGLEFT
 10
0.0
 20
0.0
 30
0.0
  9
$PUCSORGRIGHT
 10
0.0
 20
0.0
 30
0.0
  9
$PUCSORGFRONT
 10
0.0
 20
0.0
 30
0.0
  9
$PUCSORGBACK
 10
0.0
 20
0.0
 30
0.0
  9
$USERI1
 70
     0
  9
$USERI2
 70
     0
  9
$USERI3
 70
     0
  9
$USERI4
 70
     0
  9
$USERI5
 70
     0
  9
$USERR1
 40
0.0
  9
$USERR2
 40
0.0
  9
$USERR3
 40
0.0
  9
$USERR4
 40
0.0
  9
$USERR5
 40
0.0
  9
$WORLDVIEW
 70
     1
  9
$SHADEDGE
 70
     3
  9
$SHADEDIF
 70
    70
  9
$TILEMODE
 70
     1
  9
$MAXACTVP
 70
    16
  9
$PINSBASE
 10
0.0
 20
0.0
 30
0.0
  9
$PLIMCHECK
 70
     0
  9
$PEXTMIN
 10
1.000000E+20
 20
1.000000E+20
 30
1.000000E+20
  9
$PEXTMAX
 10
-1.000000E+20
 20
-1.000000E+20
 30
-1.000000E+20
  9
$PLIMMIN
 10
0.0
 20
0.0
  9
$PLIMMAX
 10
12.0
 20
9.0
  9
$UNITMODE
 70
     0
  9
$VISRETAIN
 70
     0
  9
$PLINEGEN
 70
     1
  9
$PSLTSCALE
 70
     0
  9
$TREEDEPTH
 70
  3020
  9
$CMLSTYLE
  2
Standard
  9
$CMLJUST
 70
     0
  9
$CMLSCALE
 40
1.0
  9
$PROXYGRAPHICS
 70
     0
  9
$MEASUREMENT
 70
     0
  9
$CELWEIGHT
370
     0
  9
$ENDCAPS
280
     0
  9
$JOINSTYLE
280
     0
  9
$LWDISPLAY
290
     0
  9
$INSUNITS
 70
     4
  9
$HYPERLINKBASE
  1

  9
$XEDIT
290
     1
  9
$CEPSNTYPE
380
     0
  9
$PSTYLEMODE
290
     1
  9
$FINGERPRINTGUID
  2

  9
$VERSIONGUID
  2

  9
$EXTNAMES
290
     1
  9
$PSVPSCALE
 40
0.0
  0
ENDSEC
  0
SECTION
  2
CLASSES
  0
CLASS
  1
LWPOLYLINE
  2
AcDbPolyline
  3
AutoCAD 2000
 90
    32768
280
     0
281
     1
  0
CLASS
  1
IMAGE
  2
AcDbRasterImage
  3
ISM
 90
    32895
280
     0
281
     1
  0
CLASS
  1
OLE2FRAME
  2
AcDbOle2Frame
  3
AutoCAD 2000
 90
    32768
280
     0
281
     1
  0
CLASS
  1
HATCH
  2
AcDbHatch
  3
AutoCAD 2000
 90
    32768
280
     0
281
     1
  0
CLASS
  1
DICTIONARYVAR
  2
AcDbDictionaryVar
  3
AutoCAD 2000
 90
    32768
280
     0
281
     0
  0
CLASS
  1
RASTERVARIABLES
  2
AcDbRasterVariables
  3
ISM
 90
    32768
280
     0
281
     0
  0
CLASS
  1
IMAGEDEF
  2
AcDbRasterImageDef
  3
ISM
 90
    32768
280
     0
281
     0
  0
CLASS
  1
IMAGEDEF_REACTOR
  2
AcDbRasterImageDefReactor
  3
ISM
 90
    32769
280
     0
281
     0
  0
CLASS
  1
IDBUFFER
  2
AcDbIdBuffer
  3
AutoCAD 2000
 90
    32768
280
     0
281
     0
  0
CLASS
  1
SPATIAL_FILTER
  2
AcDbSpatialFilter
  3
AutoCAD 2000
 90
    32768
280
     0
281
     0
  0
CLASS
  1
XRECORD
  2
AcDbXrecord
  3
AutoCAD 2000
 90
    32768
280
     0
281
     0
  0
CLASS
  1
SORTENTSTABLE
  2
AcDbSortentsTable
  3
AutoCAD 2000
 90
    32768
280
     0
281
     0
  0
CLASS
  1
LAYER_INDEX
  2
AcDbLayerIndex
  3
AutoCAD 2000
 90
    32768
280
     0
281
     0
  0
CLASS
  1
SPATIAL_INDEX
  2
AcDbSpatialIndex
  3
AutoCAD 2000
 90
    32768
280
     0
281
     0
  0
CLASS
  1
OBJECT_PTR
  2
CAseDLPNTableRecord
  3
"ASE-LPNTableRecord"
 90
    32769
280
     0
281
     0
  0
CLASS
  1
LAYOUT
  2
AcDbLayout
  3
AutoCAD 2000
 90
        0
280
     0
281
     0
  0
CLASS
  1
PLOTSETTINGS
  2
AcDbPlotSettings
  3
AutoCAD 2000
 90
    32768
280
     0
281
     0
  0
CLASS
  1
ACDBDICTIONARYWDFLT
  2
AcDbDictionaryWithDefault
  3
AutoCAD 2000
 90
        0
280
     0
281
     0
  0
CLASS
  1
ACDBPLACEHOLDER
  2
AcDbPlaceHolder
  3
AutoCAD 2000
 90
        0
280
     0
281
     0
  0
CLASS
  1
VBA_PROJECT
  2
AcDbVbaProject
  3
acadvba
 90
    32768
280
     0
281
     0
  0
CLASS
  1
WIPEOUT
  2
AcDbWipeout
  3
WipeOut|AutoCAD Express Tool|expresstools@autodesk.com
 90
    32895
280
     0
281
     1
  0
CLASS
  1
WIPEOUTVARIABLES
  2
AcDbWipeoutVariables
  3
WipeOut|AutoCAD Express Tool|expresstools@autodesk.com
 90
        0
280
     0
281
     0
  0
CLASS
  1
RTEXT
  2
RText
  3
RText|AutoCAD Express Tool|expresstools@autodesk.com
 90
    32768
280
     0
281
     1
  0
CLASS
  1
ARCALIGNEDTEXT
  2
AcDbArcAlignedText
  3
ATEXT|AutoCAD Express Tool|expresstools@autodesk.com
 90
    32768
280
     0
281
     1
  0
ENDSEC
  0
SECTION
  2
TABLES
  0
TABLE
  2
VPORT
  5
7
100
AcDbSymbolTable
 70
     1
  0
VPORT
  5
15
100
AcDbSymbolTableRecord
100
AcDbViewportTableRecord
  2
*ACTIVE
 70
     0
 10
0.0
 20
0.0
 11
1.0
 21
1.0
 12
6.591288
 22
4.579184
 13
0.0
 23
0.0
 14
1.0
 24
1.0
 15
0.0
 25
0.0
 16
0.0
 26
0.0
 36
1.0
 17
0.0
 27
0.0
 37
0.0
 40
9.158369
 41
0.688564
 42
50.0
 43
0.0
 44
0.0
 50
0.0
 51
0.0
 71
     0
 72
   100
 73
     1
 74
     1
 75
     0
 76
     0
 77
     0
 78
     0
281
     0
 65
     0
110
0.0
120
0.0
130
0.0
111
1.0
121
0.0
131
0.0
112
0.0
122
1.0
132
0.0
345
0
346
0
 79
     0
146
0.0
  0
ENDTAB
  0
TABLE
  2
LTYPE
  5
4
100
AcDbSymbolTable
 70
     3
  0
LTYPE
  5
11
100
AcDbSymbolTableRecord
100
AcDbLinetypeTableRecord
  2
ByBlock
 70
    64
  3

 72
    65
 73
     0
 40
0.0
  0
LTYPE
  5
12
100
AcDbSymbolTableRecord
100
AcDbLinetypeTableRecord
  2
ByLayer
 70
    64
  3

 72
    65
 73
     0
 40
0.0
  0
LTYPE
  5
13
100
AcDbSymbolTableRecord
100
AcDbLinetypeTableRecord
  2
Continuous
 70
    64
  3
Solid line
 72
    65
 73
     0
 40
0.0
  0
ENDTAB
  0
TABLE
  2
LAYER
  5
2
100
AcDbSymbolTable
 70
     2
  0
LAYER
  5
14
100
AcDbSymbolTableRecord
100
AcDbLayerTableRecord
  2
0
 70
     0
 62
     7
  6
Continuous
290
     1
370
    -3
390
1D
  0
LAYER
  5
24
100
AcDbSymbolTableRecord
100
AcDbLayerTableRecord
  2
RÚteg 1
 70
     0
 62
     7
  6
Continuous
290
     1
370
    -3
390
1F
  0
ENDTAB
  0
TABLE
  2
STYLE
  5
3
100
AcDbSymbolTable
 70
     1
  0
STYLE
  5
17
100
AcDbSymbolTableRecord
100
AcDbTextStyleTableRecord
  2
Standard
 70
     0
 40
0.0
 41
1.0
 50
0.0
 71
     0
 42
0.0
  3
txt
  4

  0
ENDTAB
  0
TABLE
  2
VIEW
  5
5
100
AcDbSymbolTable
 70
     0
  0
ENDTAB
  0
TABLE
  2
UCS
  5
6
100
AcDbSymbolTable
 70
     0
  0
ENDTAB
  0
TABLE
  2
APPID
  5
8
100
AcDbSymbolTable
 70
     1
  0
APPID
  5
16
100
AcDbSymbolTableRecord
100
AcDbRegAppTableRecord
  2
ACAD
 70
     0
  0
ENDTAB
  0
TABLE
  2
DIMSTYLE
  5
9
100
AcDbSymbolTable
 70
     1
100
AcDbDimStyleTable
 71
     0
  0
DIMSTYLE
105
18
100
AcDbSymbolTableRecord
100
AcDbDimStyleTableRecord
  2
Standard
 70
     0
  3

  4

 40
1.0
 41
0.18
 42
0.0625
 43
0.38
 44
0.18
 45
0.0
 46
0.0
 47
0.0
 48
0.0
 71
     0
 72
     0
 73
     1
 74
     1
 75
     0
 76
     0
 77
     0
 78
     0
 79
     0
140
0.18
141
0.09
142
0.0
143
25.4
144
1.0
145
0.0
146
1.0
147
0.09
148
0.0
170
     0
171
     2
172
     0
173
     0
174
     0
175
     0
176
     0
177
     0
178
     0
179
     0
271
     4
272
     4
273
     2
274
     2
275
     0
276
     0
277
     2
278
    46
279
     0
280
     0
281
     0
282
     0
283
     1
284
     0
285
     0
286
     0
288
     0
340
17
341
0
342
0
343
0
344
0
371
    -2
372
    -2
  0
ENDTAB
  0
TABLE
  2
BLOCK_RECORD
  5
1
100
AcDbSymbolTable
 70
     0
  0
BLOCK_RECORD
  5
A
100
AcDbSymbolTableRecord
100
AcDbBlockTableRecord
  2
*MODEL_SPACE
340
20
  0
BLOCK_RECORD
  5
B
100
AcDbSymbolTableRecord
100
AcDbBlockTableRecord
  2
*PAPER_SPACE
340
21
  0
ENDTAB
  0
ENDSEC
  0
SECTION
  2
BLOCKS
  0
BLOCK
  5
D
100
AcDbEntity
  8
0
100
AcDbBlockBegin
  2
*MODEL_SPACE
 70
     0
 10
0.0
 20
0.0
 30
0.0
  3
*MODEL_SPACE
  1

  0
ENDBLK
  5
E
100
AcDbEntity
  8
0
100
AcDbBlockEnd
  0
BLOCK
  5
F
100
AcDbEntity
 67
     1
  8
0
100
AcDbBlockBegin
  2
*PAPER_SPACE
 70
     0
 10
0.0
 20
0.0
 30
0.0
  3
*PAPER_SPACE
  1

  0
ENDBLK
  5
10
100
AcDbEntity
 67
     1
  8
0
100
AcDbBlockEnd
  0
ENDSEC
  0
SECTION
  2
ENTITIES
  0
SPLINE
  5
25
100
AcDbEntity
  8
RÚteg 1
 62
     7
100
AcDbSpline
210
0.0
220
0.0
230
1.0
 70
     1
 71
     3
 72
    28
 73
    24
 74
     0
 42
0.0000000001
 43
0.0000000001
 40
0.0
 40
0.0
 40
0.0
 40
0.0
 40
0.1666666666666667
 40
0.1666666666666667
 40
0.1666666666666667
 40
0.1666666666666667
 40
0.3333333333333333
 40
0.3333333333333333
 40
0.3333333333333333
 40
0.3333333333333333
 40
0.5
 40
0.5
 40
0.5
 40
0.5
 40
0.6666666666666666
 40
0.6666666666666666
 40
0.6666666666666666
 40
0.6666666666666666
 40
0.8333333333333333
 40
0.8333333333333333
 40
0.8333333333333333
 40
0.8333333333333333
 40
1.0
 40
1.0
 40
1.0
 40
1.0
 10
-54.026899999999998
 20
103.3519
 30
0.0
 10
-52.996600000000001
 20
103.3519
 30
0.0
 10
-51.977699999999999
 20
103.3036
 30
0.0
 10
-50.970999999999997
 20
103.21339999999999
 30
0.0
 10
-50.970999999999997
 20
103.21339999999999
 30
0.0
 10
-50.648499999999999
 20
103.7495
 30
0.0
 10
-50.462800000000001
 20
104.3768
 30
0.0
 10
-50.462800000000001
 20
105.0478
 30
0.0
 10
-50.462800000000001
 20
105.0478
 30
0.0
 10
-50.462800000000001
 20
107.01600000000001
 30
0.0
 10
-52.058500000000002
 20
108.61190000000001
 30
0.0
 10
-54.026899999999998
 20
108.61190000000001
 30
0.0
 10
-54.026899999999998
 20
108.61190000000001
 30
0.0
 10
-55.994799999999998
 20
108.61190000000001
 30
0.0
 10
-57.590800000000002
 20
107.01600000000001
 30
0.0
 10
-57.590800000000002
 20
105.0478
 30
0.0
 10
-57.590800000000002
 20
105.0478
 30
0.0
 10
-57.590800000000002
 20
104.3768
 30
0.0
 10
-57.404899999999998
 20
103.7495
 30
0.0
 10
-57.082299999999996
 20
103.21339999999999
 30
0.0
 10
-57.082299999999996
 20
103.21339999999999
 30
0.0
 10
-56.075600000000001
 20
103.3036
 30
0.0
 10
-55.056899999999999
 20
103.3519
 30
0.0
 10
-54.026899999999998
 20
103.3519
 30
0.0
  0
SPLINE
  5
26
100
AcDbEntity
  8
RÚteg 1
 62
     7
100
AcDbSpline
210
0.0
220
0.0
230
1.0
 70
     1
 71
     3
 72
    16
 73
    12
 74
     0
 42
0.0000000001
 43
0.0000000001
 40
0.0
 40
0.0
 40
0.0
 40
0.0
 40
0.3333333333333333
 40
0.3333333333333333
 40
0.3333333333333333
 40
0.3333333333333333
 40
0.6666666666666666
 40
0.6666666666666666
 40
0.6666666666666666
 40
0.6666666666666666
 40
1.0
 40
1.0
 40
1.0
 40
1.0
 10
-58.439999999999998
 20
98.792500000000004
 30
0.0
 10
-59.879199999999997
 20
96.622500000000002
 30
0.0
 10
-60.803899999999999
 20
94.147599999999997
 30
0.0
 10
-61.214399999999998
 20
91.367800000000003
 30
0.0
 10
-61.214399999999998
 20
91.367800000000003
 30
0.0
 10
-63.297600000000003
 20
93.391900000000007
 30
0.0
 10
-65.508399999999995
 20
94.829999999999998
 30
0.0
 10
-67.849500000000006
 20
95.708600000000004
 30
0.0
 10
-67.849500000000006
 20
95.708600000000004
 30
0.0
 10
-64.961200000000005
 20
97.231200000000001
 30
0.0
 10
-61.792299999999997
 20
98.2928
 30
0.0
 10
-58.439999999999998
 20
98.792500000000004
 30
0.0
  0
SPLINE
  5
27
100
AcDbEntity
  8
RÚteg 1
 62
     7
100
AcDbSpline
210
0.0
220
0.0
230
1.0
 70
     1
 71
     3
 72
    16
 73
    12
 74
     0
 42
0.0000000001
 43
0.0000000001
 40
0.0
 40
0.0
 40
0.0
 40
0.0
 40
0.3333333333333333
 40
0.3333333333333333
 40
0.3333333333333333
 40
0.3333333333333333
 40
0.6666666666666666
 40
0.6666666666666666
 40
0.6666666666666666
 40
0.6666666666666666
 40
1.0
 40
1.0
 40
1.0
 40
1.0
 10
-74.809299999999993
 20
90.627799999999993
 30
0.0
 10
-74.701300000000003
 20
88.018699999999995
 30
0.0
 10
-73.994600000000005
 20
85.465599999999995
 30
0.0
 10
-72.688900000000004
 20
82.968299999999999
 30
0.0
 10
-72.688900000000004
 20
82.968299999999999
 30
0.0
 10
-75.582999999999998
 20
83.384299999999996
 30
0.0
 10
-78.232600000000005
 20
83.243600000000001
 30
0.0
 10
-80.655900000000003
 20
82.567099999999996
 30
0.0
 10
-80.655900000000003
 20
82.567099999999996
 30
0.0
 10
-79.166799999999995
 20
85.578100000000006
 30
0.0
 10
-77.183099999999996
 20
88.300899999999999
 30
0.0
 10
-74.809299999999993
 20
90.627799999999993
 30
0.0
  0
SPLINE
  5
28
100
AcDbEntity
  8
RÚteg 1
 62
     7
100
AcDbSpline
210
0.0
220
0.0
230
1.0
 70
     1
 71
     3
 72
    20
 73
    16
 74
     0
 42
0.0000000001
 43
0.0000000001
 40
0.0
 40
0.0
 40
0.0
 40
0.0
 40
0.25
 40
0.25
 40
0.25
 40
0.25
 40
0.5
 40
0.5
 40
0.5
 40
0.5
 40
0.75
 40
0.75
 40
0.75
 40
0.75
 40
1.0
 40
1.0
 40
1.0
 40
1.0
 10
-83.295000000000002
 20
74.432599999999994
 30
0.0
 10
-81.6678
 20
72.360399999999998
 30
0.0
 10
-79.581199999999995
 20
70.692499999999995
 30
0.0
 10
-77.035399999999996
 20
69.428799999999995
 30
0.0
 10
-77.035399999999996
 20
69.428799999999995
 30
0.0
 10
-79.644000000000005
 20
68.051699999999997
 30
0.0
 10
-81.718400000000003
 20
66.363100000000003
 30
0.0
 10
-83.285499999999999
 20
64.368499999999997
 30
0.0
 10
-83.285499999999999
 20
64.368499999999997
 30
0.0
 10
-83.568299999999994
 20
66.013199999999998
 30
0.0
 10
-83.716999999999999
 20
67.703500000000005
 30
0.0
 10
-83.716999999999999
 20
69.428700000000006
 30
0.0
 10
-83.716999999999999
 20
69.428700000000006
 30
0.0
 10
-83.716999999999999
 20
71.134
 30
0.0
 10
-83.571700000000007
 20
72.806200000000004
 30
0.0
 10
-83.295000000000002
 20
74.432599999999994
 30
0.0
  0
SPLINE
  5
29
100
AcDbEntity
  8
RÚteg 1
 62
     7
100
AcDbSpline
210
0.0
220
0.0
230
1.0
 70
     1
 71
     3
 72
    16
 73
    12
 74
     0
 42
0.0000000001
 43
0.0000000001
 40
0.0
 40
0.0
 40
0.0
 40
0.0
 40
0.3333333333333333
 40
0.3333333333333333
 40
0.3333333333333333
 40
0.3333333333333333
 40
0.6666666666666666
 40
0.6666666666666666
 40
0.6666666666666666
 40
0.6666666666666666
 40
1.0
 40
1.0
 40
1.0
 40
1.0
 10
-80.664599999999993
 20
56.308
 30
0.0
 10
-78.110200000000006
 20
55.570300000000003
 30
0.0
 10
-75.419899999999998
 20
55.441299999999998
 30
0.0
 10
-72.592799999999997
 20
55.920099999999998
 30
0.0
 10
-72.592799999999997
 20
55.920099999999998
 30
0.0
 10
-73.902699999999996
 20
53.2545
 30
0.0
 10
-74.588800000000006
 20
50.652099999999997
 30
0.0
 10
-74.677300000000002
 20
48.1008
 30
0.0
 10
-74.677300000000002
 20
48.1008
 30
0.0
 10
-77.114099999999993
 20
50.460599999999999
 30
0.0
 10
-79.147599999999997
 20
53.233499999999999
 30
0.0
 10
-80.664599999999993
 20
56.308
 30
0.0
  0
SPLINE
  5
2A
100
AcDbEntity
  8
RÚteg 1
 62
     7
100
AcDbSpline
210
0.0
220
0.0
230
1.0
 70
     1
 71
     3
 72
    16
 73
    12
 74
     0
 42
0.0000000001
 43
0.0000000001
 40
0.0
 40
0.0
 40
0.0
 40
0.0
 40
0.3333333333333333
 40
0.3333333333333333
 40
0.3333333333333333
 40
0.3333333333333333
 40
0.6666666666666666
 40
0.6666666666666666
 40
0.6666666666666666
 40
0.6666666666666666
 40
1.0
 40
1.0
 40
1.0
 40
1.0
 10
-67.861900000000006
 20
43.155500000000004
 30
0.0
 10
-65.344200000000001
 20
44.0593
 30
0.0
 10
-63.076500000000003
 20
45.541800000000002
 30
0.0
 10
-61.058799999999998
 20
47.602400000000003
 30
0.0
 10
-61.058799999999998
 20
47.602400000000003
 30
0.0
 10
-60.549999999999997
 20
44.662700000000001
 30
0.0
 10
-59.568300000000001
 20
42.143799999999999
 30
0.0
 10
-58.129300000000001
 20
40.021599999999999
 30
0.0
 10
-58.129300000000001
 20
40.021599999999999
 30
0.0
 10
-61.600999999999999
 20
40.502299999999998
 30
0.0
 10
-64.881600000000006
 20
41.5824
 30
0.0
 10
-67.861900000000006
 20
43.155500000000004
 30
0.0
  0
SPLINE
  5
2B
100
AcDbEntity
  8
RÚteg 1
 62
     7
100
AcDbSpline
210
0.0
220
0.0
230
1.0
 70
     1
 71
     3
 72
    16
 73
    12
 74
     0
 42
0.0000000001
 43
0.0000000001
 40
0.0
 40
0.0
 40
0.0
 40
0.0
 40
0.3333333333333333
 40
0.3333333333333333
 40
0.3333333333333333
 40
0.3333333333333333
 40
0.6666666666666666
 40
0.6666666666666666
 40
0.6666666666666666
 40
0.6666666666666666
 40
1.0
 40
1.0
 40
1.0
 40
1.0
 10
-49.735100000000003
 20
40.047800000000002
 30
0.0
 10
-48.226199999999999
 20
42.261000000000003
 30
0.0
 10
-47.261200000000002
 20
44.796100000000003
 30
0.0
 10
-46.838999999999999
 20
47.653100000000002
 30
0.0
 10
-46.838999999999999
 20
47.653100000000002
 30
0.0
 10
-44.701599999999999
 20
45.576099999999997
 30
0.0
 10
-42.4298
 20
44.116799999999998
 30
0.0
 10
-40.021299999999997
 20
43.245100000000001
 30
0.0
 10
-40.021299999999997
 20
43.245100000000001
 30
0.0
 10
-42.993000000000002
 20
41.652099999999997
 30
0.0
 10
-46.267000000000003
 20
40.550400000000003
 30
0.0
 10
-49.735100000000003
 20
40.047800000000002
 30
0.0
  0
SPLINE
  5
2C
100
AcDbEntity
  8
RÚteg 1
 62
     7
100
AcDbSpline
210
0.0
220
0.0
230
1.0
 70
     1
 71
     3
 72
    16
 73
    12
 74
     0
 42
0.0000000001
 43
0.0000000001
 40
0.0
 40
0.0
 40
0.0
 40
0.0
 40
0.3333333333333333
 40
0.3333333333333333
 40
0.3333333333333333
 40
0.3333333333333333
 40
0.6666666666666666
 40
0.6666666666666666
 40
0.6666666666666666
 40
0.6666666666666666
 40
1.0
 40
1.0
 40
1.0
 40
1.0
 10
-33.238599999999998
 20
48.234499999999997
 30
0.0
 10
-33.323900000000002
 20
50.8992
 30
0.0
 10
-34.032800000000002
 20
53.504899999999999
 30
0.0
 10
-35.364899999999999
 20
56.052300000000002
 30
0.0
 10
-35.364899999999999
 20
56.052300000000002
 30
0.0
 10
-32.4328
 20
55.631399999999999
 30
0.0
 10
-29.7514
 20
55.781599999999997
 30
0.0
 10
-27.302399999999999
 20
56.481099999999998
 30
0.0
 10
-27.302399999999999
 20
56.481099999999998
 30
0.0
 10
-28.800699999999999
 20
53.395899999999997
 30
0.0
 10
-30.8171
 20
50.609900000000003
 30
0.0
 10
-33.238599999999998
 20
48.234499999999997
 30
0.0
  0
SPLINE
  5
2D
100
AcDbEntity
  8
RÚteg 1
 62
     7
100
AcDbSpline
210
0.0
220
0.0
230
1.0
 70
     1
 71
     3
 72
    20
 73
    16
 74
     0
 42
0.0000000001
 43
0.0000000001
 40
0.0
 40
0.0
 40
0.0
 40
0.0
 40
0.25
 40
0.25
 40
0.25
 40
0.25
 40
0.5
 40
0.5
 40
0.5
 40
0.5
 40
0.75
 40
0.75
 40
0.75
 40
0.75
 40
1.0
 40
1.0
 40
1.0
 40
1.0
 10
-24.735900000000001
 20
64.559200000000004
 30
0.0
 10
-26.366099999999999
 20
66.645300000000006
 30
0.0
 10
-28.460599999999999
 20
68.322699999999998
 30
0.0
 10
-31.0182
 20
69.592299999999994
 30
0.0
 10
-31.0182
 20
69.592299999999994
 30
0.0
 10
-28.422000000000001
 20
70.962500000000006
 30
0.0
 10
-26.355
 20
72.642300000000006
 30
0.0
 10
-24.7898
 20
74.624200000000002
 30
0.0
 10
-24.7898
 20
74.624200000000002
 30
0.0
 10
-24.492100000000001
 20
72.936999999999998
 30
0.0
 10
-24.335999999999999
 20
71.201099999999997
 30
0.0
 10
-24.335999999999999
 20
69.428700000000006
 30
0.0
 10
-24.335999999999999
 20
69.428700000000006
 30
0.0
 10
-24.335999999999999
 20
67.769900000000007
 30
0.0
 10
-24.4742
 20
66.144099999999995
 30
0.0
 10
-24.735900000000001
 20
64.559200000000004
 30
0.0
  0
SPLINE
  5
2E
100
AcDbEntity
  8
RÚteg 1
 62
     7
100
AcDbSpline
210
0.0
220
0.0
230
1.0
 70
     1
 71
     3
 72
    16
 73
    12
 74
     0
 42
0.0000000001
 43
0.0000000001
 40
0.0
 40
0.0
 40
0.0
 40
0.0
 40
0.3333333333333333
 40
0.3333333333333333
 40
0.3333333333333333
 40
0.3333333333333333
 40
0.6666666666666666
 40
0.6666666666666666
 40
0.6666666666666666
 40
0.6666666666666666
 40
1.0
 40
1.0
 40
1.0
 40
1.0
 10
-27.482900000000001
 20
82.739699999999999
 30
0.0
 10
-30.0092
 20
83.453000000000003
 30
0.0
 10
-32.668399999999998
 20
83.573300000000003
 30
0.0
 10
-35.460599999999999
 20
83.100899999999996
 30
0.0
 10
-35.460599999999999
 20
83.100899999999996
 30
0.0
 10
-34.177799999999998
 20
85.711399999999998
 30
0.0
 10
-33.492899999999999
 20
88.261799999999994
 30
0.0
 10
-33.382599999999996
 20
90.763199999999998
 30
0.0
 10
-33.382599999999996
 20
90.763199999999998
 30
0.0
 10
-30.993300000000001
 20
88.450500000000005
 30
0.0
 10
-28.991199999999999
 20
85.740499999999997
 30
0.0
 10
-27.482900000000001
 20
82.739699999999999
 30
0.0
  0
SPLINE
  5
2F
100
AcDbEntity
  8
RÚteg 1
 62
     7
100
AcDbSpline
210
0.0
220
0.0
230
1.0
 70
     1
 71
     3
 72
    16
 73
    12
 74
     0
 42
0.0000000001
 43
0.0000000001
 40
0.0
 40
0.0
 40
0.0
 40
0.0
 40
0.3333333333333333
 40
0.3333333333333333
 40
0.3333333333333333
 40
0.3333333333333333
 40
0.6666666666666666
 40
0.6666666666666666
 40
0.6666666666666666
 40
0.6666666666666666
 40
1.0
 40
1.0
 40
1.0
 40
1.0
 10
-40.374099999999999
 20
95.798400000000001
 30
0.0
 10
-42.818800000000003
 20
94.889600000000002
 30
0.0
 10
-45.025599999999997
 20
93.429000000000002
 30
0.0
 10
-46.994500000000002
 20
91.418000000000006
 30
0.0
 10
-46.994500000000002
 20
91.418000000000006
 30
0.0
 10
-47.489600000000003
 20
94.275099999999995
 30
0.0
 10
-48.430700000000002
 20
96.734700000000004
 30
0.0
 10
-49.804299999999998
 20
98.818700000000007
 30
0.0
 10
-49.804299999999998
 20
98.818700000000007
 30
0.0
 10
-46.447899999999997
 20
98.340400000000002
 30
0.0
 10
-43.271000000000001
 20
97.302099999999996
 30
0.0
 10
-40.374099999999999
 20
95.798400000000001
 30
0.0
  0
SPLINE
  5
30
100
AcDbEntity
  8
RÚteg 1
 62
     7
100
AcDbSpline
210
0.0
220
0.0
230
1.0
 70
     1
 71
     3
 72
    44
 73
    40
 74
     0
 42
0.0000000001
 43
0.0000000001
 40
0.0
 40
0.0
 40
0.0
 40
0.0
 40
0.1
 40
0.1
 40
0.1
 40
0.1
 40
0.2
 40
0.2
 40
0.2
 40
0.2
 40
0.3
 40
0.3
 40
0.3
 40
0.3
 40
0.4
 40
0.4
 40
0.4
 40
0.4
 40
0.5
 40
0.5
 40
0.5
 40
0.5
 40
0.6
 40
0.6
 40
0.6
 40
0.6
 40
0.7
 40
0.7
 40
0.7
 40
0.7
 40
0.7999999999999999
 40
0.7999999999999999
 40
0.7999999999999999
 40
0.7999999999999999
 40
0.8999999999999999
 40
0.8999999999999999
 40
0.8999999999999999
 40
0.8999999999999999
 40
1.0
 40
1.0
 40
1.0
 40
1.0
 10
-54.026899999999998
 20
73.281499999999994
 30
0.0
 10
-53.903199999999998
 20
73.281499999999994
 30
0.0
 10
-53.781399999999998
 20
73.275800000000004
 30
0.0
 10
-53.661000000000001
 20
73.2637
 30
0.0
 10
-53.661000000000001
 20
73.2637
 30
0.0
 10
-53.843499999999999
 20
78.274900000000002
 30
0.0
 10
-52.529600000000002
 20
83.235200000000006
 30
0.0
 10
-49.681800000000003
 20
88.118899999999996
 30
0.0
 10
-49.681800000000003
 20
88.118899999999996
 30
0.0
 10
-49.124600000000001
 20
88.933199999999999
 30
0.0
 10
-48.543700000000001
 20
89.691800000000001
 30
0.0
 10
-47.937100000000001
 20
90.392799999999994
 30
0.0
 10
-47.937100000000001
 20
90.392799999999994
 30
0.0
 10
-48.374400000000001
 20
93.572299999999998
 30
0.0
 10
-49.393300000000004
 20
96.508099999999999
 30
0.0
 10
-51.258499999999998
 20
98.989800000000002
 30
0.0
 10
-51.258499999999998
 20
98.989800000000002
 30
0.0
 10
-52.170299999999997
 20
99.074799999999996
 30
0.0
 10
-53.0929
 20
99.119299999999996
 30
0.0
 10
-54.026899999999998
 20
99.119299999999996
 30
0.0
 10
-54.026899999999998
 20
99.119299999999996
 30
0.0
 10
-55.020099999999999
 20
99.119299999999996
 30
0.0
 10
-56.002099999999999
 20
99.069800000000001
 30
0.0
 10
-56.970100000000002
 20
98.974500000000006
 30
0.0
 10
-56.970100000000002
 20
98.974500000000006
 30
0.0
 10
-58.848500000000001
 20
96.474900000000005
 30
0.0
 10
-59.895699999999998
 20
93.578199999999995
 30
0.0
 10
-60.2408
 20
90.368499999999997
 30
0.0
 10
-60.2408
 20
90.368499999999997
 30
0.0
 10
-59.602899999999998
 20
89.678399999999996
 30
0.0
 10
-58.976700000000001
 20
88.931299999999993
 30
0.0
 10
-58.363300000000002
 20
88.125699999999995
 30
0.0
 10
-58.363300000000002
 20
88.125699999999995
 30
0.0
 10
-55.110500000000002
 20
83.329400000000007
 30
0.0
 10
-53.886499999999998
 20
78.367500000000007
 30
0.0
 10
-54.399000000000001
 20
73.2637
 30
0.0
 10
-54.399000000000001
 20
73.2637
 30
0.0
 10
-54.276800000000001
 20
73.275599999999997
 30
0.0
 10
-54.1524
 20
73.281499999999994
 30
0.0
 10
-54.026899999999998
 20
73.281499999999994
 30
0.0
  0
SPLINE
  5
31
100
AcDbEntity
  8
RÚteg 1
 62
     7
100
AcDbSpline
210
0.0
220
0.0
230
1.0
 70
     1
 71
     3
 72
    36
 73
    32
 74
     0
 42
0.0000000001
 43
0.0000000001
 40
0.0
 40
0.0
 40
0.0
 40
0.0
 40
0.125
 40
0.125
 40
0.125
 40
0.125
 40
0.25
 40
0.25
 40
0.25
 40
0.25
 40
0.375
 40
0.375
 40
0.375
 40
0.375
 40
0.5
 40
0.5
 40
0.5
 40
0.5
 40
0.625
 40
0.625
 40
0.625
 40
0.625
 40
0.75
 40
0.75
 40
0.75
 40
0.75
 40
0.875
 40
0.875
 40
0.875
 40
0.875
 40
1.0
 40
1.0
 40
1.0
 40
1.0
 10
-52.122100000000003
 20
72.765699999999995
 30
0.0
 10
-51.9084
 20
72.640799999999999
 30
0.0
 10
-51.7087
 20
72.494600000000005
 30
0.0
 10
-51.5244
 20
72.331699999999998
 30
0.0
 10
-51.5244
 20
72.331699999999998
 30
0.0
 10
-48.727499999999999
 20
76.493099999999998
 30
0.0
 10
-44.747999999999998
 20
79.733900000000006
 30
0.0
 10
-39.573
 20
82.010999999999996
 30
0.0
 10
-39.573
 20
82.010999999999996
 30
0.0
 10
-38.643900000000002
 20
82.342399999999998
 30
0.0
 10
-37.728499999999997
 20
82.614000000000004
 30
0.0
 10
-36.826000000000001
 20
82.824799999999996
 30
0.0
 10
-36.826000000000001
 20
82.824799999999996
 30
0.0
 10
-35.306600000000003
 20
85.661500000000004
 30
0.0
 10
-34.404699999999998
 20
88.643799999999999
 30
0.0
 10
-34.460500000000003
 20
91.756399999999999
 30
0.0
 10
-34.460500000000003
 20
91.756399999999999
 30
0.0
 10
-35.884399999999999
 20
93.005799999999994
 30
0.0
 10
-37.428899999999999
 20
94.1203
 30
0.0
 10
-39.0747
 20
95.081999999999994
 30
0.0
 10
-39.0747
 20
95.081999999999994
 30
0.0
 10
-42.07
 20
94.165199999999999
 30
0.0
 10
-44.6248
 20
92.435699999999997
 30
0.0
 10
-46.7943
 20
90.037700000000001
 30
0.0
 10
-46.7943
 20
90.037700000000001
 30
0.0
 10
-46.683500000000002
 20
89.103999999999999
 30
0.0
 10
-46.616300000000003
 20
88.131900000000002
 30
0.0
 10
-46.593200000000003
 20
87.119799999999998
 30
0.0
 10
-46.593200000000003
 20
87.119799999999998
 30
0.0
 10
-46.7806
 20
81.327399999999997
 30
0.0
 10
-48.707299999999996
 20
76.593500000000006
 30
0.0
 10
-52.122100000000003
 20
72.765699999999995
 30
0.0
  0
SPLINE
  5
32
100
AcDbEntity
  8
RÚteg 1
 62
     7
100
AcDbSpline
210
0.0
220
0.0
230
1.0
 70
     1
 71
     3
 72
    36
 73
    32
 74
     0
 42
0.0000000001
 43
0.0000000001
 40
0.0
 40
0.0
 40
0.0
 40
0.0
 40
0.125
 40
0.125
 40
0.125
 40
0.125
 40
0.25
 40
0.25
 40
0.25
 40
0.25
 40
0.375
 40
0.375
 40
0.375
 40
0.375
 40
0.5
 40
0.5
 40
0.5
 40
0.5
 40
0.625
 40
0.625
 40
0.625
 40
0.625
 40
0.75
 40
0.75
 40
0.75
 40
0.75
 40
0.875
 40
0.875
 40
0.875
 40
0.875
 40
1.0
 40
1.0
 40
1.0
 40
1.0
 10
-50.572299999999998
 20
71.025000000000006
 30
0.0
 10
-50.473599999999998
 20
70.801400000000001
 30
0.0
 10
-50.396799999999999
 20
70.566400000000002
 30
0.0
 10
-50.343200000000003
 20
70.322299999999998
 30
0.0
 10
-50.343200000000003
 20
70.322299999999998
 30
0.0
 10
-45.634799999999998
 20
72.044700000000006
 30
0.0
 10
-40.510100000000001
 20
72.3279
 30
0.0
 10
-34.985900000000001
 20
71.127799999999993
 30
0.0
 10
-34.985900000000001
 20
71.127799999999993
 30
0.0
 10
-34.039400000000001
 20
70.849699999999999
 30
0.0
 10
-33.139000000000003
 20
70.531599999999997
 30
0.0
 10
-32.285200000000003
 20
70.171899999999994
 30
0.0
 10
-32.285200000000003
 20
70.171899999999994
 30
0.0
 10
-29.366700000000002
 20
71.584599999999995
 30
0.0
 10
-26.8689
 20
73.484700000000004
 30
0.0
 10
-25.081399999999999
 20
76.064400000000006
 30
0.0
 10
-25.081399999999999
 20
76.064400000000006
 30
0.0
 10
-25.503599999999999
 20
77.911699999999996
 30
0.0
 10
-26.098700000000001
 20
79.692800000000005
 30
0.0
 10
-26.8475
 20
81.391400000000004
 30
0.0
 10
-26.8475
 20
81.391400000000004
 30
0.0
 10
-29.825900000000001
 20
82.427199999999999
 30
0.0
 10
-32.9268
 20
82.534400000000005
 30
0.0
 10
-36.109900000000003
 20
81.865799999999993
 30
0.0
 10
-36.109900000000003
 20
81.865799999999993
 30
0.0
 10
-36.569000000000003
 20
81.045900000000003
 30
0.0
 10
-37.086300000000001
 20
80.219300000000004
 30
0.0
 10
-37.662999999999997
 20
79.387200000000007
 30
0.0
 10
-37.662999999999997
 20
79.387200000000007
 30
0.0
 10
-41.218600000000002
 20
74.810900000000004
 30
0.0
 10
-45.559699999999999
 20
72.114400000000003
 30
0.0
 10
-50.572299999999998
 20
71.025000000000006
 30
0.0
  0
SPLINE
  5
33
100
AcDbEntity
  8
RÚteg 1
 62
     7
100
AcDbSpline
210
0.0
220
0.0
230
1.0
 70
     1
 71
     3
 72
    36
 73
    32
 74
     0
 42
0.0000000001
 43
0.0000000001
 40
0.0
 40
0.0
 40
0.0
 40
0.0
 40
0.125
 40
0.125
 40
0.125
 40
0.125
 40
0.25
 40
0.25
 40
0.25
 40
0.25
 40
0.375
 40
0.375
 40
0.375
 40
0.375
 40
0.5
 40
0.5
 40
0.5
 40
0.5
 40
0.625
 40
0.625
 40
0.625
 40
0.625
 40
0.75
 40
0.75
 40
0.75
 40
0.75
 40
0.875
 40
0.875
 40
0.875
 40
0.875
 40
1.0
 40
1.0
 40
1.0
 40
1.0
 10
-50.342300000000002
 20
68.704599999999999
 30
0.0
 10
-50.395200000000003
 20
68.460700000000003
 30
0.0
 10
-50.471699999999998
 20
68.225700000000003
 30
0.0
 10
-50.569699999999997
 20
68.001999999999995
 30
0.0
 10
-50.569699999999997
 20
68.001999999999995
 30
0.0
 10
-45.747900000000001
 20
66.627399999999994
 30
0.0
 10
-41.436
 20
63.844700000000003
 30
0.0
 10
-37.671100000000003
 20
59.627200000000002
 30
0.0
 10
-37.671100000000003
 20
59.627200000000002
 30
0.0
 10
-37.069099999999999
 20
58.8459
 30
0.0
 10
-36.528300000000002
 20
58.058999999999997
 30
0.0
 10
-36.048200000000001
 20
57.265999999999998
 30
0.0
 10
-36.048200000000001
 20
57.265999999999998
 30
0.0
 10
-32.834000000000003
 20
56.688899999999997
 30
0.0
 10
-29.6736
 20
56.763399999999997
 30
0.0
 10
-26.691700000000001
 20
57.821800000000003
 30
0.0
 10
-26.691700000000001
 20
57.821800000000003
 30
0.0
 10
-25.976600000000001
 20
59.503999999999998
 30
0.0
 10
-25.412700000000001
 20
61.266399999999997
 30
0.0
 10
-25.0168
 20
63.090499999999999
 30
0.0
 10
-25.0168
 20
63.090499999999999
 30
0.0
 10
-26.820799999999998
 20
65.707800000000006
 30
0.0
 10
-29.280100000000001
 20
67.635199999999998
 30
0.0
 10
-32.269799999999996
 20
68.974699999999999
 30
0.0
 10
-32.269799999999996
 20
68.974699999999999
 30
0.0
 10
-33.122799999999998
 20
68.581199999999995
 30
0.0
 10
-34.026899999999998
 20
68.2166
 30
0.0
 10
-34.982700000000001
 20
67.882300000000001
 30
0.0
 10
-34.982700000000001
 20
67.882300000000001
 30
0.0
 10
-40.549300000000002
 20
66.270099999999999
 30
0.0
 10
-45.646299999999997
 20
66.6404
 30
0.0
 10
-50.342300000000002
 20
68.704599999999999
 30
0.0
  0
SPLINE
  5
34
100
AcDbEntity
  8
RÚteg 1
 62
     7
100
AcDbSpline
210
0.0
220
0.0
230
1.0
 70
     1
 71
     3
 72
    36
 73
    32
 74
     0
 42
0.0000000001
 43
0.0000000001
 40
0.0
 40
0.0
 40
0.0
 40
0.0
 40
0.125
 40
0.125
 40
0.125
 40
0.125
 40
0.25
 40
0.25
 40
0.25
 40
0.25
 40
0.375
 40
0.375
 40
0.375
 40
0.375
 40
0.5
 40
0.5
 40
0.5
 40
0.5
 40
0.625
 40
0.625
 40
0.625
 40
0.625
 40
0.75
 40
0.75
 40
0.75
 40
0.75
 40
0.875
 40
0.875
 40
0.875
 40
0.875
 40
1.0
 40
1.0
 40
1.0
 40
1.0
 10
-51.519399999999997
 20
66.6935
 30
0.0
 10
-51.703200000000002
 20
66.530100000000004
 30
0.0
 10
-51.903199999999998
 20
66.383600000000001
 30
0.0
 10
-52.116700000000002
 20
66.257999999999996
 30
0.0
 10
-52.116700000000002
 20
66.257999999999996
 30
0.0
 10
-49.023600000000002
 20
62.311799999999998
 30
0.0
 10
-47.1708
 20
57.526499999999999
 30
0.0
 10
-46.604300000000002
 20
51.901000000000003
 30
0.0
 10
-46.604300000000002
 20
51.901000000000003
 30
0.0
 10
-46.575899999999997
 20
50.915199999999999
 30
0.0
 10
-46.601300000000002
 20
49.960299999999997
 30
0.0
 10
-46.678600000000003
 20
49.036900000000003
 30
0.0
 10
-46.678600000000003
 20
49.036900000000003
 30
0.0
 10
-44.406500000000001
 20
46.6693
 30
0.0
 10
-41.792099999999998
 20
44.866100000000003
 30
0.0
 10
-38.738599999999998
 20
43.974299999999999
 30
0.0
 10
-38.738599999999998
 20
43.974299999999999
 30
0.0
 10
-37.1691
 20
44.9193
 30
0.0
 10
-35.694400000000002
 20
46.005499999999998
 30
0.0
 10
-34.331499999999998
 20
47.215200000000003
 30
0.0
 10
-34.331499999999998
 20
47.215200000000003
 30
0.0
 10
-34.242600000000003
 20
50.411200000000001
 30
0.0
 10
-35.099800000000002
 20
53.432600000000001
 30
0.0
 10
-36.739600000000003
 20
56.2883
 30
0.0
 10
-36.739600000000003
 20
56.2883
 30
0.0
 10
-37.6616
 20
56.471400000000003
 30
0.0
 10
-38.606499999999997
 20
56.707500000000003
 30
0.0
 10
-39.576500000000003
 20
56.999499999999998
 30
0.0
 10
-39.576500000000003
 20
56.999499999999998
 30
0.0
 10
-45.027999999999999
 20
58.967399999999998
 30
0.0
 10
-48.9343
 20
62.262799999999999
 30
0.0
 10
-51.519399999999997
 20
66.6935
 30
0.0
  0
SPLINE
  5
35
100
AcDbEntity
  8
RÚteg 1
 62
     7
100
AcDbSpline
210
0.0
220
0.0
230
1.0
 70
     1
 71
     3
 72
    44
 73
    40
 74
     0
 42
0.0000000001
 43
0.0000000001
 40
0.0
 40
0.0
 40
0.0
 40
0.0
 40
0.1
 40
0.1
 40
0.1
 40
0.1
 40
0.2
 40
0.2
 40
0.2
 40
0.2
 40
0.3
 40
0.3
 40
0.3
 40
0.3
 40
0.4
 40
0.4
 40
0.4
 40
0.4
 40
0.5
 40
0.5
 40
0.5
 40
0.5
 40
0.6
 40
0.6
 40
0.6
 40
0.6
 40
0.7
 40
0.7
 40
0.7
 40
0.7
 40
0.7999999999999999
 40
0.7999999999999999
 40
0.7999999999999999
 40
0.7999999999999999
 40
0.8999999999999999
 40
0.8999999999999999
 40
0.8999999999999999
 40
0.8999999999999999
 40
1.0
 40
1.0
 40
1.0
 40
1.0
 10
-53.654699999999998
 20
65.757000000000005
 30
0.0
 10
-53.776899999999998
 20
65.745099999999994
 30
0.0
 10
-53.901800000000001
 20
65.738399999999999
 30
0.0
 10
-54.026899999999998
 20
65.738399999999999
 30
0.0
 10
-54.026899999999998
 20
65.738399999999999
 30
0.0
 10
-54.150399999999998
 20
65.738399999999999
 30
0.0
 10
-54.271999999999998
 20
65.745099999999994
 30
0.0
 10
-54.392899999999997
 20
65.756600000000006
 30
0.0
 10
-54.392899999999997
 20
65.756600000000006
 30
0.0
 10
-54.2104
 20
60.746099999999998
 30
0.0
 10
-55.524299999999997
 20
55.785400000000003
 30
0.0
 10
-58.371699999999997
 20
50.901200000000003
 30
0.0
 10
-58.371699999999997
 20
50.901200000000003
 30
0.0
 10
-58.928899999999999
 20
50.087299999999999
 30
0.0
 10
-59.509799999999998
 20
49.329500000000003
 30
0.0
 10
-60.115699999999997
 20
48.627699999999997
 30
0.0
 10
-60.115699999999997
 20
48.627699999999997
 30
0.0
 10
-59.668799999999997
 20
45.373100000000001
 30
0.0
 10
-58.611800000000002
 20
42.373899999999999
 30
0.0
 10
-56.6614
 20
39.855800000000002
 30
0.0
 10
-56.6614
 20
39.855800000000002
 30
0.0
 10
-55.793199999999999
 20
39.778599999999997
 30
0.0
 10
-54.914700000000003
 20
39.737900000000003
 30
0.0
 10
-54.026899999999998
 20
39.737900000000003
 30
0.0
 10
-54.026899999999998
 20
39.737900000000003
 30
0.0
 10
-53.079000000000001
 20
39.737900000000003
 30
0.0
 10
-52.142000000000003
 20
39.784100000000002
 30
0.0
 10
-51.217100000000002
 20
39.871299999999998
 30
0.0
 10
-51.217100000000002
 20
39.871299999999998
 30
0.0
 10
-49.254300000000001
 20
42.410299999999999
 30
0.0
 10
-48.165999999999997
 20
45.366999999999997
 30
0.0
 10
-47.813099999999999
 20
48.652099999999997
 30
0.0
 10
-47.813099999999999
 20
48.652099999999997
 30
0.0
 10
-48.450699999999998
 20
49.342500000000001
 30
0.0
 10
-49.076599999999999
 20
50.089199999999998
 30
0.0
 10
-49.690199999999997
 20
50.895099999999999
 30
0.0
 10
-49.690199999999997
 20
50.895099999999999
 30
0.0
 10
-52.943300000000001
 20
55.691499999999998
 30
0.0
 10
-54.167200000000001
 20
60.652999999999999
 30
0.0
 10
-53.654699999999998
 20
65.757000000000005
 30
0.0
  0
SPLINE
  5
36
100
AcDbEntity
  8
RÚteg 1
 62
     7
100
AcDbSpline
210
0.0
220
0.0
230
1.0
 70
     1
 71
     3
 72
    36
 73
    32
 74
     0
 42
0.0000000001
 43
0.0000000001
 40
0.0
 40
0.0
 40
0.0
 40
0.0
 40
0.125
 40
0.125
 40
0.125
 40
0.125
 40
0.25
 40
0.25
 40
0.25
 40
0.25
 40
0.375
 40
0.375
 40
0.375
 40
0.375
 40
0.5
 40
0.5
 40
0.5
 40
0.5
 40
0.625
 40
0.625
 40
0.625
 40
0.625
 40
0.75
 40
0.75
 40
0.75
 40
0.75
 40
0.875
 40
0.875
 40
0.875
 40
0.875
 40
1.0
 40
1.0
 40
1.0
 40
1.0
 10
-55.931399999999996
 20
66.255099999999999
 30
0.0
 10
-56.145299999999999
 20
66.380499999999998
 30
0.0
 10
-56.345100000000002
 20
66.525700000000001
 30
0.0
 10
-56.5291
 20
66.689700000000002
 30
0.0
 10
-56.5291
 20
66.689700000000002
 30
0.0
 10
-59.326099999999997
 20
62.527700000000003
 30
0.0
 10
-63.305599999999998
 20
59.286499999999997
 30
0.0
 10
-68.480599999999995
 20
57.009500000000003
 30
0.0
 10
-68.480599999999995
 20
57.009500000000003
 30
0.0
 10
-69.409499999999994
 20
56.677799999999998
 30
0.0
 10
-70.325000000000003
 20
56.4069
 30
0.0
 10
-71.227900000000005
 20
56.195599999999999
 30
0.0
 10
-71.227900000000005
 20
56.195599999999999
 30
0.0
 10
-72.7744
 20
53.308399999999999
 30
0.0
 10
-73.680700000000002
 20
50.270699999999998
 30
0.0
 10
-73.589500000000001
 20
47.097999999999999
 30
0.0
 10
-73.589500000000001
 20
47.097999999999999
 30
0.0
 10
-72.219200000000001
 20
45.896799999999999
 30
0.0
 10
-70.737499999999997
 20
44.819699999999997
 30
0.0
 10
-69.161900000000003
 20
43.884399999999999
 30
0.0
 10
-69.161900000000003
 20
43.884399999999999
 30
0.0
 10
-66.087500000000006
 20
44.785600000000002
 30
0.0
 10
-63.472999999999999
 20
46.536999999999999
 30
0.0
 10
-61.259500000000003
 20
48.983800000000002
 30
0.0
 10
-61.259500000000003
 20
48.983800000000002
 30
0.0
 10
-61.369900000000001
 20
49.916899999999998
 30
0.0
 10
-61.437199999999997
 20
50.888599999999997
 30
0.0
 10
-61.460099999999997
 20
51.901499999999999
 30
0.0
 10
-61.460099999999997
 20
51.901499999999999
 30
0.0
 10
-61.273099999999999
 20
57.693600000000004
 30
0.0
 10
-59.345999999999997
 20
62.427399999999999
 30
0.0
 10
-55.931399999999996
 20
66.255099999999999
 30
0.0
  0
SPLINE
  5
37
100
AcDbEntity
  8
RÚteg 1
 62
     7
100
AcDbSpline
210
0.0
220
0.0
230
1.0
 70
     1
 71
     3
 72
    36
 73
    32
 74
     0
 42
0.0000000001
 43
0.0000000001
 40
0.0
 40
0.0
 40
0.0
 40
0.0
 40
0.125
 40
0.125
 40
0.125
 40
0.125
 40
0.25
 40
0.25
 40
0.25
 40
0.25
 40
0.375
 40
0.375
 40
0.375
 40
0.375
 40
0.5
 40
0.5
 40
0.5
 40
0.5
 40
0.625
 40
0.625
 40
0.625
 40
0.625
 40
0.75
 40
0.75
 40
0.75
 40
0.75
 40
0.875
 40
0.875
 40
0.875
 40
0.875
 40
1.0
 40
1.0
 40
1.0
 40
1.0
 10
-57.481699999999996
 20
67.995800000000003
 30
0.0
 10
-57.579700000000003
 20
68.219899999999996
 30
0.0
 10
-57.656500000000001
 20
68.454599999999999
 30
0.0
 10
-57.7104
 20
68.6982
 30
0.0
 10
-57.7104
 20
68.6982
 30
0.0
 10
-62.4191
 20
66.976200000000006
 30
0.0
 10
-67.542699999999996
 20
66.692999999999998
 30
0.0
 10
-73.067400000000006
 20
67.892300000000006
 30
0.0
 10
-73.067400000000006
 20
67.892300000000006
 30
0.0
 10
-74.014300000000006
 20
68.170699999999997
 30
0.0
 10
-74.914900000000003
 20
68.489500000000007
 30
0.0
 10
-75.768100000000004
 20
68.848799999999997
 30
0.0
 10
-75.768100000000004
 20
68.848799999999997
 30
0.0
 10
-78.701300000000003
 20
67.429500000000004
 30
0.0
 10
-81.209500000000006
 20
65.517600000000002
 30
0.0
 10
-82.998800000000003
 20
62.917999999999999
 30
0.0
 10
-82.998800000000003
 20
62.917999999999999
 30
0.0
 10
-82.590999999999994
 20
61.096299999999999
 30
0.0
 10
-82.016099999999994
 20
59.337499999999999
 30
0.0
 10
-81.290099999999995
 20
57.659399999999998
 30
0.0
 10
-81.290099999999995
 20
57.659399999999998
 30
0.0
 10
-78.286000000000001
 20
56.595999999999997
 30
0.0
 10
-75.156099999999995
 20
56.4801
 30
0.0
 10
-71.9435
 20
57.154600000000002
 30
0.0
 10
-71.9435
 20
57.154600000000002
 30
0.0
 10
-71.484499999999997
 20
57.975499999999997
 30
0.0
 10
-70.967500000000001
 20
58.801099999999998
 30
0.0
 10
-70.390699999999995
 20
59.633800000000001
 30
0.0
 10
-70.390699999999995
 20
59.633800000000001
 30
0.0
 10
-66.835099999999997
 20
64.209599999999995
 30
0.0
 10
-62.493899999999996
 20
66.906599999999997
 30
0.0
 10
-57.481699999999996
 20
67.995800000000003
 30
0.0
  0
SPLINE
  5
38
100
AcDbEntity
  8
RÚteg 1
 62
     7
100
AcDbSpline
210
0.0
220
0.0
230
1.0
 70
     1
 71
     3
 72
    36
 73
    32
 74
     0
 42
0.0000000001
 43
0.0000000001
 40
0.0
 40
0.0
 40
0.0
 40
0.0
 40
0.125
 40
0.125
 40
0.125
 40
0.125
 40
0.25
 40
0.25
 40
0.25
 40
0.25
 40
0.375
 40
0.375
 40
0.375
 40
0.375
 40
0.5
 40
0.5
 40
0.5
 40
0.5
 40
0.625
 40
0.625
 40
0.625
 40
0.625
 40
0.75
 40
0.75
 40
0.75
 40
0.75
 40
0.875
 40
0.875
 40
0.875
 40
0.875
 40
1.0
 40
1.0
 40
1.0
 40
1.0
 10
-57.711500000000001
 20
70.316299999999998
 30
0.0
 10
-57.6584
 20
70.559899999999999
 30
0.0
 10
-57.582000000000001
 20
70.795000000000002
 30
0.0
 10
-57.483899999999998
 20
71.018699999999995
 30
0.0
 10
-57.483899999999998
 20
71.018699999999995
 30
0.0
 10
-62.305900000000001
 20
72.393600000000006
 30
0.0
 10
-66.6173
 20
75.175399999999996
 30
0.0
 10
-70.382099999999994
 20
79.393600000000006
 30
0.0
 10
-70.382099999999994
 20
79.393600000000006
 30
0.0
 10
-70.9846
 20
80.174899999999994
 30
0.0
 10
-71.525099999999995
 20
80.961799999999997
 30
0.0
 10
-72.005300000000005
 20
81.754800000000003
 30
0.0
 10
-72.005300000000005
 20
81.754800000000003
 30
0.0
 10
-75.188800000000001
 20
82.326300000000003
 30
0.0
 10
-78.319500000000005
 20
82.259299999999996
 30
0.0
 10
-81.276499999999999
 20
81.229399999999998
 30
0.0
 10
-81.276499999999999
 20
81.229399999999998
 30
0.0
 10
-82.015100000000004
 20
79.526499999999999
 30
0.0
 10
-82.598600000000005
 20
77.741
 30
0.0
 10
-83.009900000000002
 20
75.890699999999995
 30
0.0
 10
-83.009900000000002
 20
75.890699999999995
 30
0.0
 10
-81.208100000000002
 20
73.293999999999997
 30
0.0
 10
-78.758099999999999
 20
71.378799999999998
 30
0.0
 10
-75.783900000000003
 20
70.046000000000006
 30
0.0
 10
-75.783900000000003
 20
70.046000000000006
 30
0.0
 10
-74.930800000000005
 20
70.439700000000002
 30
0.0
 10
-74.026600000000002
 20
70.803899999999999
 30
0.0
 10
-73.071100000000001
 20
71.138199999999998
 30
0.0
 10
-73.071100000000001
 20
71.138199999999998
 30
0.0
 10
-67.504199999999997
 20
72.750500000000002
 30
0.0
 10
-62.407299999999999
 20
72.380899999999997
 30
0.0
 10
-57.711500000000001
 20
70.316299999999998
 30
0.0
  0
SPLINE
  5
39
100
AcDbEntity
  8
RÚteg 1
 62
     7
100
AcDbSpline
210
0.0
220
0.0
230
1.0
 70
     1
 71
     3
 72
    36
 73
    32
 74
     0
 42
0.0000000001
 43
0.0000000001
 40
0.0
 40
0.0
 40
0.0
 40
0.0
 40
0.125
 40
0.125
 40
0.125
 40
0.125
 40
0.25
 40
0.25
 40
0.25
 40
0.25
 40
0.375
 40
0.375
 40
0.375
 40
0.375
 40
0.5
 40
0.5
 40
0.5
 40
0.5
 40
0.625
 40
0.625
 40
0.625
 40
0.625
 40
0.75
 40
0.75
 40
0.75
 40
0.75
 40
0.875
 40
0.875
 40
0.875
 40
0.875
 40
1.0
 40
1.0
 40
1.0
 40
1.0
 10
-56.533900000000003
 20
72.3279
 30
0.0
 10
-56.350200000000001
 20
72.491399999999999
 30
0.0
 10
-56.150199999999998
 20
72.637200000000007
 30
0.0
 10
-55.936399999999999
 20
72.762900000000002
 30
0.0
 10
-55.936399999999999
 20
72.762900000000002
 30
0.0
 10
-59.030099999999997
 20
76.709100000000007
 30
0.0
 10
-60.883099999999999
 20
81.494200000000006
 30
0.0
 10
-61.449300000000001
 20
87.119799999999998
 30
0.0
 10
-61.449300000000001
 20
87.119799999999998
 30
0.0
 10
-61.477600000000002
 20
88.105599999999995
 30
0.0
 10
-61.452500000000001
 20
89.059700000000007
 30
0.0
 10
-61.374699999999997
 20
89.983699999999999
 30
0.0
 10
-61.374699999999997
 20
89.983699999999999
 30
0.0
 10
-63.601399999999998
 20
92.303700000000006
 30
0.0
 10
-66.156199999999998
 20
94.082300000000004
 30
0.0
 10
-69.130600000000001
 20
94.991900000000001
 30
0.0
 10
-69.130600000000001
 20
94.991900000000001
 30
0.0
 10
-70.770700000000005
 20
94.020899999999997
 30
0.0
 10
-72.308599999999998
 20
92.896600000000007
 30
0.0
 10
-73.725700000000003
 20
91.638800000000003
 30
0.0
 10
-73.725700000000003
 20
91.638800000000003
 30
0.0
 10
-73.780900000000003
 20
88.504499999999993
 30
0.0
 10
-72.9255
 20
85.538300000000007
 30
0.0
 10
-71.313999999999993
 20
82.732500000000002
 30
0.0
 10
-71.313999999999993
 20
82.732500000000002
 30
0.0
 10
-70.391900000000007
 20
82.549499999999995
 30
0.0
 10
-69.447000000000003
 20
82.312600000000003
 30
0.0
 10
-68.476399999999998
 20
82.020899999999997
 30
0.0
 10
-68.476399999999998
 20
82.020899999999997
 30
0.0
 10
-63.025399999999998
 20
80.053600000000003
 30
0.0
 10
-59.118899999999996
 20
76.757800000000003
 30
0.0
 10
-56.533900000000003
 20
72.3279
 30
0.0
  0
SPLINE
  5
3A
100
AcDbEntity
  8
RÚteg 1
 62
     7
100
AcDbSpline
210
0.0
220
0.0
230
1.0
 70
     1
 71
     3
 72
    20
 73
    16
 74
     0
 42
0.0000000001
 43
0.0000000001
 40
0.0
 40
0.0
 40
0.0
 40
0.0
 40
0.25
 40
0.25
 40
0.25
 40
0.25
 40
0.5
 40
0.5
 40
0.5
 40
0.5
 40
0.75
 40
0.75
 40
0.75
 40
0.75
 40
1.0
 40
1.0
 40
1.0
 40
1.0
 10
-48.759900000000002
 20
87.536299999999997
 30
0.0
 10
-51.248600000000003
 20
83.255600000000001
 30
0.0
 10
-52.642299999999999
 20
78.706000000000003
 30
0.0
 10
-52.585500000000003
 20
73.893199999999993
 30
0.0
 10
-52.585500000000003
 20
73.893199999999993
 30
0.0
 10
-49.443600000000004
 20
77.5959
 30
0.0
 10
-47.854999999999997
 20
82.006699999999995
 30
0.0
 10
-47.683999999999997
 20
87.124799999999993
 30
0.0
 10
-47.683999999999997
 20
87.124799999999993
 30
0.0
 10
-47.697699999999998
 20
87.714600000000004
 30
0.0
 10
-47.727400000000003
 20
88.299400000000006
 30
0.0
 10
-47.773699999999998
 20
88.877200000000002
 30
0.0
 10
-47.773699999999998
 20
88.877200000000002
 30
0.0
 10
-48.112499999999997
 20
88.447699999999998
 30
0.0
 10
-48.440899999999999
 20
87.999899999999997
 30
0.0
 10
-48.759900000000002
 20
87.536299999999997
 30
0.0
  0
SPLINE
  5
3B
100
AcDbEntity
  8
RÚteg 1
 62
     7
100
AcDbSpline
210
0.0
220
0.0
230
1.0
 70
     1
 71
     3
 72
    20
 73
    16
 74
     0
 42
0.0000000001
 43
0.0000000001
 40
0.0
 40
0.0
 40
0.0
 40
0.0
 40
0.25
 40
0.25
 40
0.25
 40
0.25
 40
0.5
 40
0.5
 40
0.5
 40
0.5
 40
0.75
 40
0.75
 40
0.75
 40
0.75
 40
1.0
 40
1.0
 40
1.0
 40
1.0
 10
-50.284500000000001
 20
72.209900000000005
 30
0.0
 10
-45.566000000000003
 20
73.357600000000005
 30
0.0
 10
-41.688200000000002
 20
75.992500000000007
 30
0.0
 10
-38.541600000000003
 20
80.032499999999999
 30
0.0
 10
-38.541600000000003
 20
80.032499999999999
 30
0.0
 10
-38.205800000000004
 20
80.517499999999998
 30
0.0
 10
-37.886699999999998
 20
81.008200000000002
 30
0.0
 10
-37.584800000000001
 20
81.502799999999993
 30
0.0
 10
-37.584800000000001
 20
81.502799999999993
 30
0.0
 10
-38.111199999999997
 20
81.354500000000002
 30
0.0
 10
-38.639600000000002
 20
81.185900000000004
 30
0.0
 10
-39.170099999999998
 20
80.997299999999996
 30
0.0
 10
-39.170099999999998
 20
80.997299999999996
 30
0.0
 10
-43.699800000000003
 20
78.997600000000006
 30
0.0
 10
-47.501199999999997
 20
76.135800000000003
 30
0.0
 10
-50.284500000000001
 20
72.209900000000005
 30
0.0
  0
SPLINE
  5
3C
100
AcDbEntity
  8
RÚteg 1
 62
     7
100
AcDbSpline
210
0.0
220
0.0
230
1.0
 70
     1
 71
     3
 72
    20
 73
    16
 74
     0
 42
0.0000000001
 43
0.0000000001
 40
0.0
 40
0.0
 40
0.0
 40
0.0
 40
0.25
 40
0.25
 40
0.25
 40
0.25
 40
0.5
 40
0.5
 40
0.5
 40
0.5
 40
0.75
 40
0.75
 40
0.75
 40
0.75
 40
1.0
 40
1.0
 40
1.0
 40
1.0
 10
-49.411999999999999
 20
69.494200000000006
 30
0.0
 10
-44.920499999999997
 20
67.649500000000003
 30
0.0
 10
-40.2348
 20
67.5017
 30
0.0
 10
-35.3142
 20
68.9208
 30
0.0
 10
-35.3142
 20
68.9208
 30
0.0
 10
-34.757300000000001
 20
69.116399999999999
 30
0.0
 10
-34.210599999999999
 20
69.325299999999999
 30
0.0
 10
-33.675800000000002
 20
69.547799999999995
 30
0.0
 10
-33.675800000000002
 20
69.547799999999995
 30
0.0
 10
-34.189100000000003
 20
69.737300000000005
 30
0.0
 10
-34.716000000000001
 20
69.911699999999996
 30
0.0
 10
-35.255699999999997
 20
70.071100000000001
 30
0.0
 10
-35.255699999999997
 20
70.071100000000001
 30
0.0
 10
-40.094900000000003
 20
71.115799999999993
 30
0.0
 10
-44.853099999999998
 20
71.035399999999996
 30
0.0
 10
-49.411999999999999
 20
69.494200000000006
 30
0.0
  0
SPLINE
  5
3D
100
AcDbEntity
  8
RÚteg 1
 62
     7
100
AcDbSpline
210
0.0
220
0.0
230
1.0
 70
     1
 71
     3
 72
    20
 73
    16
 74
     0
 42
0.0000000001
 43
0.0000000001
 40
0.0
 40
0.0
 40
0.0
 40
0.0
 40
0.25
 40
0.25
 40
0.25
 40
0.25
 40
0.5
 40
0.5
 40
0.5
 40
0.5
 40
0.75
 40
0.75
 40
0.75
 40
0.75
 40
1.0
 40
1.0
 40
1.0
 40
1.0
 10
-50.303199999999997
 20
66.785200000000003
 30
0.0
 10
-47.7532
 20
62.652299999999997
 30
0.0
 10
-44.049500000000002
 20
59.778500000000001
 30
0.0
 10
-39.234200000000001
 20
58.035200000000003
 30
0.0
 10
-39.234200000000001
 20
58.035200000000003
 30
0.0
 10
-38.669600000000003
 20
57.865400000000001
 30
0.0
 10
-38.104700000000001
 20
57.712699999999998
 30
0.0
 10
-37.540599999999998
 20
57.578499999999998
 30
0.0
 10
-37.540599999999998
 20
57.578499999999998
 30
0.0
 10
-37.844099999999997
 20
58.0336
 30
0.0
 10
-38.167999999999999
 20
58.483899999999998
 30
0.0
 10
-38.510899999999999
 20
58.930799999999998
 30
0.0
 10
-38.510899999999999
 20
58.930799999999998
 30
0.0
 10
-41.811999999999998
 20
62.619999999999997
 30
0.0
 10
-45.709000000000003
 20
65.351900000000001
 30
0.0
 10
-50.303199999999997
 20
66.785200000000003
 30
0.0
  0
SPLINE
  5
3E
100
AcDbEntity
  8
RÚteg 1
 62
     7
100
AcDbSpline
210
0.0
220
0.0
230
1.0
 70
     1
 71
     3
 72
    20
 73
    16
 74
     0
 42
0.0000000001
 43
0.0000000001
 40
0.0
 40
0.0
 40
0.0
 40
0.0
 40
0.25
 40
0.25
 40
0.25
 40
0.25
 40
0.5
 40
0.5
 40
0.5
 40
0.5
 40
0.75
 40
0.75
 40
0.75
 40
0.75
 40
1.0
 40
1.0
 40
1.0
 40
1.0
 10
-52.616500000000002
 20
65.116600000000005
 30
0.0
 10
-52.982599999999998
 20
60.274999999999999
 30
0.0
 10
-51.674799999999998
 20
55.772300000000001
 30
0.0
 10
-48.804900000000004
 20
51.531199999999998
 30
0.0
 10
-48.804900000000004
 20
51.531199999999998
 30
0.0
 10
-48.447000000000003
 20
51.062199999999997
 30
0.0
 10
-48.079700000000003
 20
50.607100000000003
 30
0.0
 10
-47.702399999999997
 20
50.167200000000001
 30
0.0
 10
-47.702399999999997
 20
50.167200000000001
 30
0.0
 10
-47.680700000000002
 20
50.7134
 30
0.0
 10
-47.677500000000002
 20
51.2684
 30
0.0
 10
-47.692799999999998
 20
51.830599999999997
 30
0.0
 10
-47.692799999999998
 20
51.830599999999997
 30
0.0
 10
-48.195
 20
56.756399999999999
 30
0.0
 10
-49.741900000000001
 20
61.256900000000002
 30
0.0
 10
-52.616500000000002
 20
65.116600000000005
 30
0.0
  0
SPLINE
  5
3F
100
AcDbEntity
  8
RÚteg 1
 62
     7
100
AcDbSpline
210
0.0
220
0.0
230
1.0
 70
     1
 71
     3
 72
    20
 73
    16
 74
     0
 42
0.0000000001
 43
0.0000000001
 40
0.0
 40
0.0
 40
0.0
 40
0.0
 40
0.25
 40
0.25
 40
0.25
 40
0.25
 40
0.5
 40
0.5
 40
0.5
 40
0.5
 40
0.75
 40
0.75
 40
0.75
 40
0.75
 40
1.0
 40
1.0
 40
1.0
 40
1.0
 10
-55.468400000000003
 20
65.1267
 30
0.0
 10
-58.610199999999999
 20
61.424999999999997
 30
0.0
 10
-60.198799999999999
 20
57.013199999999998
 30
0.0
 10
-60.369799999999998
 20
51.895200000000003
 30
0.0
 10
-60.369799999999998
 20
51.895200000000003
 30
0.0
 10
-60.355899999999998
 20
51.306199999999997
 30
0.0
 10
-60.326500000000003
 20
50.721499999999999
 30
0.0
 10
-60.280000000000001
 20
50.143599999999999
 30
0.0
 10
-60.280000000000001
 20
50.143599999999999
 30
0.0
 10
-59.940800000000003
 20
50.573399999999999
 30
0.0
 10
-59.6126
 20
51.020400000000002
 30
0.0
 10
-59.293999999999997
 20
51.4846
 30
0.0
 10
-59.293999999999997
 20
51.4846
 30
0.0
 10
-56.804699999999997
 20
55.764499999999998
 30
0.0
 10
-55.4114
 20
60.314599999999999
 30
0.0
 10
-55.468400000000003
 20
65.1267
 30
0.0
  0
SPLINE
  5
40
100
AcDbEntity
  8
RÚteg 1
 62
     7
100
AcDbSpline
210
0.0
220
0.0
230
1.0
 70
     1
 71
     3
 72
    20
 73
    16
 74
     0
 42
0.0000000001
 43
0.0000000001
 40
0.0
 40
0.0
 40
0.0
 40
0.0
 40
0.25
 40
0.25
 40
0.25
 40
0.25
 40
0.5
 40
0.5
 40
0.5
 40
0.5
 40
0.75
 40
0.75
 40
0.75
 40
0.75
 40
1.0
 40
1.0
 40
1.0
 40
1.0
 10
-57.769300000000001
 20
66.811000000000007
 30
0.0
 10
-62.487900000000003
 20
65.663399999999996
 30
0.0
 10
-66.365099999999998
 20
63.028500000000001
 30
0.0
 10
-69.511799999999994
 20
58.987900000000003
 30
0.0
 10
-69.511799999999994
 20
58.987900000000003
 30
0.0
 10
-69.848100000000002
 20
58.503
 30
0.0
 10
-70.167299999999997
 20
58.012700000000002
 30
0.0
 10
-70.469099999999997
 20
57.5182
 30
0.0
 10
-70.469099999999997
 20
57.5182
 30
0.0
 10
-69.942099999999996
 20
57.666400000000003
 30
0.0
 10
-69.414100000000005
 20
57.834600000000002
 30
0.0
 10
-68.883200000000002
 20
58.023400000000002
 30
0.0
 10
-68.883200000000002
 20
58.023400000000002
 30
0.0
 10
-64.353999999999999
 20
60.023200000000003
 30
0.0
 10
-60.552399999999999
 20
62.884700000000002
 30
0.0
 10
-57.769300000000001
 20
66.811000000000007
 30
0.0
  0
SPLINE
  5
41
100
AcDbEntity
  8
RÚteg 1
 62
     7
100
AcDbSpline
210
0.0
220
0.0
230
1.0
 70
     1
 71
     3
 72
    20
 73
    16
 74
     0
 42
0.0000000001
 43
0.0000000001
 40
0.0
 40
0.0
 40
0.0
 40
0.0
 40
0.25
 40
0.25
 40
0.25
 40
0.25
 40
0.5
 40
0.5
 40
0.5
 40
0.5
 40
0.75
 40
0.75
 40
0.75
 40
0.75
 40
1.0
 40
1.0
 40
1.0
 40
1.0
 10
-58.640799999999999
 20
69.526700000000005
 30
0.0
 10
-63.132899999999999
 20
71.370900000000006
 30
0.0
 10
-67.818899999999999
 20
71.518600000000006
 30
0.0
 10
-72.739599999999996
 20
70.099900000000005
 30
0.0
 10
-72.739599999999996
 20
70.099900000000005
 30
0.0
 10
-73.296099999999996
 20
69.904300000000006
 30
0.0
 10
-73.843000000000004
 20
69.696100000000001
 30
0.0
 10
-74.377799999999993
 20
69.472800000000007
 30
0.0
 10
-74.377799999999993
 20
69.472800000000007
 30
0.0
 10
-73.864699999999999
 20
69.283500000000004
 30
0.0
 10
-73.337699999999998
 20
69.109099999999998
 30
0.0
 10
-72.797799999999995
 20
68.9495
 30
0.0
 10
-72.797799999999995
 20
68.9495
 30
0.0
 10
-67.958399999999997
 20
67.904399999999995
 30
0.0
 10
-63.200200000000002
 20
67.985399999999998
 30
0.0
 10
-58.640799999999999
 20
69.526700000000005
 30
0.0
  0
SPLINE
  5
42
100
AcDbEntity
  8
RÚteg 1
 62
     7
100
AcDbSpline
210
0.0
220
0.0
230
1.0
 70
     1
 71
     3
 72
    20
 73
    16
 74
     0
 42
0.0000000001
 43
0.0000000001
 40
0.0
 40
0.0
 40
0.0
 40
0.0
 40
0.25
 40
0.25
 40
0.25
 40
0.25
 40
0.5
 40
0.5
 40
0.5
 40
0.5
 40
0.75
 40
0.75
 40
0.75
 40
0.75
 40
1.0
 40
1.0
 40
1.0
 40
1.0
 10
-57.7502
 20
72.235600000000005
 30
0.0
 10
-60.3001
 20
76.368499999999997
 30
0.0
 10
-64.004199999999997
 20
79.241600000000005
 30
0.0
 10
-68.819299999999998
 20
80.9863
 30
0.0
 10
-68.819299999999998
 20
80.9863
 30
0.0
 10
-69.384200000000007
 20
81.154799999999994
 30
0.0
 10
-69.948800000000006
 20
81.3078
 30
0.0
 10
-70.512799999999999
 20
81.4422
 30
0.0
 10
-70.512799999999999
 20
81.4422
 30
0.0
 10
-70.209699999999998
 20
80.987300000000005
 30
0.0
 10
-69.885900000000007
 20
80.536100000000005
 30
0.0
 10
-69.542400000000001
 20
80.0899
 30
0.0
 10
-69.542400000000001
 20
80.0899
 30
0.0
 10
-66.241299999999995
 20
76.400300000000001
 30
0.0
 10
-62.3446
 20
73.668700000000001
 30
0.0
 10
-57.7502
 20
72.235600000000005
 30
0.0
  0
SPLINE
  5
43
100
AcDbEntity
  8
RÚteg 1
 62
     7
100
AcDbSpline
210
0.0
220
0.0
230
1.0
 70
     1
 71
     3
 72
    20
 73
    16
 74
     0
 42
0.0000000001
 43
0.0000000001
 40
0.0
 40
0.0
 40
0.0
 40
0.0
 40
0.25
 40
0.25
 40
0.25
 40
0.25
 40
0.5
 40
0.5
 40
0.5
 40
0.5
 40
0.75
 40
0.75
 40
0.75
 40
0.75
 40
1.0
 40
1.0
 40
1.0
 40
1.0
 10
-55.437100000000001
 20
73.903899999999993
 30
0.0
 10
-55.071199999999997
 20
78.745999999999995
 30
0.0
 10
-56.378500000000003
 20
83.248099999999994
 30
0.0
 10
-59.248800000000003
 20
87.4893
 30
0.0
 10
-59.248800000000003
 20
87.4893
 30
0.0
 10
-59.606900000000003
 20
87.957899999999995
 30
0.0
 10
-59.9741
 20
88.413899999999998
 30
0.0
 10
-60.351199999999999
 20
88.854100000000003
 30
0.0
 10
-60.351199999999999
 20
88.854100000000003
 30
0.0
 10
-60.372799999999998
 20
88.307400000000001
 30
0.0
 10
-60.375500000000002
 20
87.751999999999995
 30
0.0
 10
-60.360599999999998
 20
87.189300000000003
 30
0.0
 10
-60.360599999999998
 20
87.189300000000003
 30
0.0
 10
-59.859099999999998
 20
82.264200000000002
 30
0.0
 10
-58.312100000000001
 20
77.764099999999999
 30
0.0
 10
-55.437100000000001
 20
73.903899999999993
 30
0.0
  0
SPLINE
  5
44
100
AcDbEntity
  8
RÚteg 1
 62
     7
100
AcDbSpline
210
0.0
220
0.0
230
1.0
 70
     1
 71
     3
 72
    36
 73
    32
 74
     0
 42
0.0000000001
 43
0.0000000001
 40
0.0
 40
0.0
 40
0.0
 40
0.0
 40
0.125
 40
0.125
 40
0.125
 40
0.125
 40
0.25
 40
0.25
 40
0.25
 40
0.25
 40
0.375
 40
0.375
 40
0.375
 40
0.375
 40
0.5
 40
0.5
 40
0.5
 40
0.5
 40
0.625
 40
0.625
 40
0.625
 40
0.625
 40
0.75
 40
0.75
 40
0.75
 40
0.75
 40
0.875
 40
0.875
 40
0.875
 40
0.875
 40
1.0
 40
1.0
 40
1.0
 40
1.0
 10
-49.186399999999999
 20
103.0063
 30
0.0
 10
-32.746600000000001
 20
100.6563
 30
0.0
 10
-20.1035
 20
86.517099999999999
 30
0.0
 10
-20.1035
 20
69.428700000000006
 30
0.0
 10
-20.1035
 20
69.428700000000006
 30
0.0
 10
-20.1035
 20
50.6965
 30
0.0
 10
-35.294699999999999
 20
35.505099999999999
 30
0.0
 10
-54.026899999999998
 20
35.505099999999999
 30
0.0
 10
-54.026899999999998
 20
35.505099999999999
 30
0.0
 10
-72.758600000000001
 20
35.505099999999999
 30
0.0
 10
-87.950000000000003
 20
50.6965
 30
0.0
 10
-87.950000000000003
 20
69.428700000000006
 30
0.0
 10
-87.950000000000003
 20
69.428700000000006
 30
0.0
 10
-87.950000000000003
 20
86.517099999999999
 30
0.0
 10
-75.306799999999996
 20
100.6563
 30
0.0
 10
-58.866999999999997
 20
103.0063
 30
0.0
 10
-58.866999999999997
 20
103.0063
 30
0.0
 10
-59.132100000000001
 20
103.634
 30
0.0
 10
-59.278599999999997
 20
104.32389999999999
 30
0.0
 10
-59.278599999999997
 20
105.0478
 30
0.0
 10
-59.278599999999997
 20
105.0478
 30
0.0
 10
-59.278599999999997
 20
107.94799999999999
 30
0.0
 10
-56.926699999999997
 20
110.3
 30
0.0
 10
-54.026899999999998
 20
110.3
 30
0.0
 10
-54.026899999999998
 20
110.3
 30
0.0
 10
-51.1265
 20
110.3
 30
0.0
 10
-48.7746
 20
107.94799999999999
 30
0.0
 10
-48.7746
 20
105.0478
 30
0.0
 10
-48.7746
 20
105.0478
 30
0.0
 10
-48.7746
 20
104.32389999999999
 30
0.0
 10
-48.921399999999998
 20
103.634
 30
0.0
 10
-49.186399999999999
 20
103.0063
 30
0.0
  0
SPLINE
  5
45
100
AcDbEntity
  8
RÚteg 1
 62
     7
100
AcDbSpline
210
0.0
220
0.0
230
1.0
 70
     1
 71
     3
 72
    28
 73
    24
 74
     0
 42
0.0000000001
 43
0.0000000001
 40
0.0
 40
0.0
 40
0.0
 40
0.0
 40
0.1666666666666667
 40
0.1666666666666667
 40
0.1666666666666667
 40
0.1666666666666667
 40
0.3333333333333333
 40
0.3333333333333333
 40
0.3333333333333333
 40
0.3333333333333333
 40
0.5
 40
0.5
 40
0.5
 40
0.5
 40
0.6666666666666666
 40
0.6666666666666666
 40
0.6666666666666666
 40
0.6666666666666666
 40
0.8333333333333333
 40
0.8333333333333333
 40
0.8333333333333333
 40
0.8333333333333333
 40
1.0
 40
1.0
 40
1.0
 40
1.0
 10
18.126899999999999
 20
103.3519
 30
0.0
 10
19.1569
 20
103.3519
 30
0.0
 10
20.175599999999999
 20
103.304
 30
0.0
 10
21.182099999999998
 20
103.21339999999999
 30
0.0
 10
21.182099999999998
 20
103.21339999999999
 30
0.0
 10
21.504899999999999
 20
103.74939999999999
 30
0.0
 10
21.690799999999999
 20
104.377
 30
0.0
 10
21.690799999999999
 20
105.04810000000001
 30
0.0
 10
21.690799999999999
 20
105.04810000000001
 30
0.0
 10
21.690799999999999
 20
107.01600000000001
 30
0.0
 10
20.094799999999999
 20
108.6122
 30
0.0
 10
18.126899999999999
 20
108.6122
 30
0.0
 10
18.126899999999999
 20
108.6122
 30
0.0
 10
16.1585
 20
108.6122
 30
0.0
 10
14.5627
 20
107.01600000000001
 30
0.0
 10
14.5627
 20
105.04810000000001
 30
0.0
 10
14.5627
 20
105.04810000000001
 30
0.0
 10
14.5627
 20
104.377
 30
0.0
 10
14.7485
 20
103.74939999999999
 30
0.0
 10
15.0709
 20
103.21339999999999
 30
0.0
 10
15.0709
 20
103.21339999999999
 30
0.0
 10
16.077500000000001
 20
103.304
 30
0.0
 10
17.096399999999999
 20
103.3519
 30
0.0
 10
18.126899999999999
 20
103.3519
 30
0.0
  0
SPLINE
  5
46
100
AcDbEntity
  8
RÚteg 1
 62
     7
100
AcDbSpline
210
0.0
220
0.0
230
1.0
 70
     1
 71
     3
 72
    44
 73
    40
 74
     0
 42
0.0000000001
 43
0.0000000001
 40
0.0
 40
0.0
 40
0.0
 40
0.0
 40
0.1
 40
0.1
 40
0.1
 40
0.1
 40
0.2
 40
0.2
 40
0.2
 40
0.2
 40
0.3
 40
0.3
 40
0.3
 40
0.3
 40
0.4
 40
0.4
 40
0.4
 40
0.4
 40
0.5
 40
0.5
 40
0.5
 40
0.5
 40
0.6
 40
0.6
 40
0.6
 40
0.6
 40
0.7
 40
0.7
 40
0.7
 40
0.7
 40
0.7999999999999999
 40
0.7999999999999999
 40
0.7999999999999999
 40
0.7999999999999999
 40
0.8999999999999999
 40
0.8999999999999999
 40
0.8999999999999999
 40
0.8999999999999999
 40
1.0
 40
1.0
 40
1.0
 40
1.0
 10
9.8709000000000007
 20
76.180599999999998
 30
0.0
 10
7.8029000000000002
 20
77.253699999999995
 30
0.0
 10
5.6272000000000002
 20
76.284300000000002
 30
0.0
 10
3.4312999999999998
 20
74.933700000000002
 30
0.0
 10
3.4312999999999998
 20
74.933700000000002
 30
0.0
 10
5.6737000000000002
 20
74.556200000000004
 30
0.0
 10
6.6818999999999997
 20
73.274299999999997
 30
0.0
 10
5.468
 20
71.086299999999994
 30
0.0
 10
5.468
 20
71.086299999999994
 30
0.0
 10
4.3869999999999996
 20
70.072699999999998
 30
0.0
 10
3.3593000000000002
 20
69.543000000000006
 30
0.0
 10
2.3854000000000002
 20
69.4983
 30
0.0
 10
2.3854000000000002
 20
69.4983
 30
0.0
 10
3.2787999999999999
 20
69.376499999999993
 30
0.0
 10
4.2164999999999999
 20
68.855599999999995
 30
0.0
 10
5.1988000000000003
 20
67.934600000000003
 30
0.0
 10
5.1988000000000003
 20
67.934600000000003
 30
0.0
 10
6.4126000000000003
 20
65.746899999999997
 30
0.0
 10
5.4047000000000001
 20
64.464500000000001
 30
0.0
 10
3.1619999999999999
 20
64.087100000000007
 30
0.0
 10
3.1619999999999999
 20
64.087100000000007
 30
0.0
 10
5.3577000000000004
 20
62.736499999999999
 30
0.0
 10
7.5331000000000001
 20
61.767499999999998
 30
0.0
 10
9.6016999999999992
 20
62.840499999999999
 30
0.0
 10
9.6016999999999992
 20
62.840499999999999
 30
0.0
 10
9.0238999999999994
 20
63.660200000000003
 30
0.0
 10
8.7002000000000006
 20
64.576300000000003
 30
0.0
 10
8.7002000000000006
 20
65.543199999999999
 30
0.0
 10
8.7002000000000006
 20
65.543199999999999
 30
0.0
 10
8.7002000000000006
 20
67.097499999999997
 30
0.0
 10
9.5353999999999992
 20
68.520899999999997
 30
0.0
 10
10.920199999999999
 20
69.622699999999995
 30
0.0
 10
10.920199999999999
 20
69.622699999999995
 30
0.0
 10
9.6974
 20
70.690399999999997
 30
0.0
 10
8.9693000000000005
 20
72.027299999999997
 30
0.0
 10
8.9693000000000005
 20
73.477699999999999
 30
0.0
 10
8.9693000000000005
 20
73.477699999999999
 30
0.0
 10
8.9693000000000005
 20
74.444800000000001
 30
0.0
 10
9.2932000000000006
 20
75.360600000000005
 30
0.0
 10
9.8709000000000007
 20
76.180599999999998
 30
0.0
  0
SPLINE
  5
47
100
AcDbEntity
  8
RÚteg 1
 62
     7
100
AcDbSpline
210
0.0
220
0.0
230
1.0
 70
     1
 71
     3
 72
    36
 73
    32
 74
     0
 42
0.0000000001
 43
0.0000000001
 40
0.0
 40
0.0
 40
0.0
 40
0.0
 40
0.125
 40
0.125
 40
0.125
 40
0.125
 40
0.25
 40
0.25
 40
0.25
 40
0.25
 40
0.375
 40
0.375
 40
0.375
 40
0.375
 40
0.5
 40
0.5
 40
0.5
 40
0.5
 40
0.625
 40
0.625
 40
0.625
 40
0.625
 40
0.75
 40
0.75
 40
0.75
 40
0.75
 40
0.875
 40
0.875
 40
0.875
 40
0.875
 40
1.0
 40
1.0
 40
1.0
 40
1.0
 10
1.8509
 20
69.5227
 30
0.0
 10
1.3842000000000001
 20
69.588700000000003
 30
0.0
 10
0.9298
 20
69.770200000000003
 30
0.0
 10
0.4888
 20
70.067800000000005
 30
0.0
 10
0.4888
 20
70.067800000000005
 30
0.0
 10
-0.1892
 20
71.047399999999996
 30
0.0
 10
-0.6039
 20
72.1404
 30
0.0
 10
-0.0769
 20
74.028700000000001
 30
0.0
 10
-0.0769
 20
74.028700000000001
 30
0.0
 10
-2.0903
 20
71.972700000000003
 30
0.0
 10
-4.5136000000000003
 20
70.463999999999999
 30
0.0
 10
-7.4328000000000003
 20
69.614999999999995
 30
0.0
 10
-7.4328000000000003
 20
69.614999999999995
 30
0.0
 10
-7.5998000000000001
 20
69.562100000000001
 30
0.0
 10
-7.7648999999999999
 20
69.515100000000004
 30
0.0
 10
-7.9283000000000001
 20
69.474400000000003
 30
0.0
 10
-7.9283000000000001
 20
69.474400000000003
 30
0.0
 10
-7.8532000000000002
 20
69.4529
 30
0.0
 10
-7.7777000000000003
 20
69.430099999999996
 30
0.0
 10
-7.7016999999999998
 20
69.405799999999999
 30
0.0
 10
-7.7016999999999998
 20
69.405799999999999
 30
0.0
 10
-4.7828999999999997
 20
68.556700000000006
 30
0.0
 10
-2.3592
 20
67.048199999999994
 30
0.0
 10
-0.3464
 20
64.992500000000007
 30
0.0
 10
-0.3464
 20
64.992500000000007
 30
0.0
 10
-0.8734
 20
66.880399999999995
 30
0.0
 10
-0.4585
 20
67.973600000000005
 30
0.0
 10
0.2195
 20
68.953199999999995
 30
0.0
 10
0.2195
 20
68.953199999999995
 30
0.0
 10
0.7449
 20
69.307900000000004
 30
0.0
 10
1.2889999999999999
 20
69.497399999999999
 30
0.0
 10
1.8509
 20
69.5227
 30
0.0
  0
SPLINE
  5
48
100
AcDbEntity
  8
RÚteg 1
 62
     7
100
AcDbSpline
210
0.0
220
0.0
230
1.0
 70
     1
 71
     3
 72
    64
 73
    60
 74
     0
 42
0.0000000001
 43
0.0000000001
 40
0.0
 40
0.0
 40
0.0
 40
0.0
 40
0.0666666666666667
 40
0.0666666666666667
 40
0.0666666666666667
 40
0.0666666666666667
 40
0.1333333333333333
 40
0.1333333333333333
 40
0.1333333333333333
 40
0.1333333333333333
 40
0.2
 40
0.2
 40
0.2
 40
0.2
 40
0.2666666666666667
 40
0.2666666666666667
 40
0.2666666666666667
 40
0.2666666666666667
 40
0.3333333333333333
 40
0.3333333333333333
 40
0.3333333333333333
 40
0.3333333333333333
 40
0.4
 40
0.4
 40
0.4
 40
0.4
 40
0.4666666666666666
 40
0.4666666666666666
 40
0.4666666666666666
 40
0.4666666666666666
 40
0.5333333333333333
 40
0.5333333333333333
 40
0.5333333333333333
 40
0.5333333333333333
 40
0.6
 40
0.6
 40
0.6
 40
0.6
 40
0.6666666666666666
 40
0.6666666666666666
 40
0.6666666666666666
 40
0.6666666666666666
 40
0.7333333333333333
 40
0.7333333333333333
 40
0.7333333333333333
 40
0.7333333333333333
 40
0.7999999999999999
 40
0.7999999999999999
 40
0.7999999999999999
 40
0.7999999999999999
 40
0.8666666666666666
 40
0.8666666666666666
 40
0.8666666666666666
 40
0.8666666666666666
 40
0.9333333333333332
 40
0.9333333333333332
 40
0.9333333333333332
 40
0.9333333333333332
 40
1.0
 40
1.0
 40
1.0
 40
1.0
 10
-10.9803
 20
75.308899999999994
 30
0.0
 10
-10.858499999999999
 20
75.336699999999993
 30
0.0
 10
-10.732799999999999
 20
75.3626
 30
0.0
 10
-10.6008
 20
75.386499999999998
 30
0.0
 10
-10.6008
 20
75.386499999999998
 30
0.0
 10
-7.7271000000000001
 20
75.465900000000005
 30
0.0
 10
-7.2396000000000003
 20
73.955600000000004
 30
0.0
 10
-7.093
 20
72.217799999999997
 30
0.0
 10
-7.093
 20
72.217799999999997
 30
0.0
 10
-3.1374
 20
73.902500000000003
 30
0.0
 10
0.3974
 20
76.861500000000007
 30
0.0
 10
4.3364000000000003
 20
78.441699999999997
 30
0.0
 10
4.3364000000000003
 20
78.441699999999997
 30
0.0
 10
7.3483000000000001
 20
79.306899999999999
 30
0.0
 10
9.4194999999999993
 20
78.693700000000007
 30
0.0
 10
11.123799999999999
 20
77.504400000000004
 30
0.0
 10
11.123799999999999
 20
77.504400000000004
 30
0.0
 10
11.5608
 20
77.859899999999996
 30
0.0
 10
12.0547
 20
78.1828
 30
0.0
 10
12.5959
 20
78.466899999999995
 30
0.0
 10
12.5959
 20
78.466899999999995
 30
0.0
 10
10.722799999999999
 20
80.867699999999999
 30
0.0
 10
8.4535999999999998
 20
82.129000000000005
 30
0.0
 10
5.6951000000000001
 20
82.233999999999995
 30
0.0
 10
5.6951000000000001
 20
82.233999999999995
 30
0.0
 10
-0.6416
 20
82.628299999999996
 30
0.0
 10
-2.7927
 20
80.579899999999995
 30
0.0
 10
-0.982
 20
76.970600000000005
 30
0.0
 10
-0.982
 20
76.970600000000005
 30
0.0
 10
-4.4146999999999998
 20
74.066000000000003
 30
0.0
 10
-6.7911000000000001
 20
74.782700000000006
 30
0.0
 10
-8.1115999999999993
 20
79.120699999999999
 30
0.0
 10
-8.1115999999999993
 20
79.120699999999999
 30
0.0
 10
-8.2395999999999994
 20
85.533699999999996
 30
0.0
 10
-3.0655999999999999
 20
87.007499999999993
 30
0.0
 10
2.8654000000000002
 20
87.042299999999997
 30
0.0
 10
2.8654000000000002
 20
87.042299999999997
 30
0.0
 10
11.5601
 20
85.963899999999995
 30
0.0
 10
13.586
 20
82.474800000000002
 30
0.0
 10
14.3878
 20
79.207499999999996
 30
0.0
 10
14.3878
 20
79.207499999999996
 30
0.0
 10
14.6715
 20
79.297300000000007
 30
0.0
 10
14.963200000000001
 20
79.377300000000005
 30
0.0
 10
15.2616
 20
79.448300000000003
 30
0.0
 10
15.2616
 20
79.448300000000003
 30
0.0
 10
13.6004
 20
83.909899999999993
 30
0.0
 10
10.3469
 20
88.562899999999999
 30
0.0
 10
6.5995999999999997
 20
89.758099999999999
 30
0.0
 10
6.5995999999999997
 20
89.758099999999999
 30
0.0
 10
2.3368000000000002
 20
90.493799999999993
 30
0.0
 10
0.1491
 20
89.361900000000006
 30
0.0
 10
-1.095
 20
87.381600000000006
 30
0.0
 10
-1.095
 20
87.381600000000006
 30
0.0
 10
-2.6301999999999999
 20
87.504400000000004
 30
0.0
 10
-3.6778
 20
88.114099999999993
 30
0.0
 10
-4.2465000000000002
 20
88.943899999999999
 30
0.0
 10
-4.2465000000000002
 20
88.943899999999999
 30
0.0
 10
-7.5746000000000002
 20
85.131399999999999
 30
0.0
 10
-9.9448000000000008
 20
80.461399999999998
 30
0.0
 10
-10.9803
 20
75.308899999999994
 30
0.0
  0
SPLINE
  5
49
100
AcDbEntity
  8
RÚteg 1
 62
     7
100
AcDbSpline
210
0.0
220
0.0
230
1.0
 70
     1
 71
     3
 72
    64
 73
    60
 74
     0
 42
0.0000000001
 43
0.0000000001
 40
0.0
 40
0.0
 40
0.0
 40
0.0
 40
0.0666666666666667
 40
0.0666666666666667
 40
0.0666666666666667
 40
0.0666666666666667
 40
0.1333333333333333
 40
0.1333333333333333
 40
0.1333333333333333
 40
0.1333333333333333
 40
0.2
 40
0.2
 40
0.2
 40
0.2
 40
0.2666666666666667
 40
0.2666666666666667
 40
0.2666666666666667
 40
0.2666666666666667
 40
0.3333333333333333
 40
0.3333333333333333
 40
0.3333333333333333
 40
0.3333333333333333
 40
0.4
 40
0.4
 40
0.4
 40
0.4
 40
0.4666666666666666
 40
0.4666666666666666
 40
0.4666666666666666
 40
0.4666666666666666
 40
0.5333333333333333
 40
0.5333333333333333
 40
0.5333333333333333
 40
0.5333333333333333
 40
0.6
 40
0.6
 40
0.6
 40
0.6
 40
0.6666666666666666
 40
0.6666666666666666
 40
0.6666666666666666
 40
0.6666666666666666
 40
0.7333333333333333
 40
0.7333333333333333
 40
0.7333333333333333
 40
0.7333333333333333
 40
0.7999999999999999
 40
0.7999999999999999
 40
0.7999999999999999
 40
0.7999999999999999
 40
0.8666666666666666
 40
0.8666666666666666
 40
0.8666666666666666
 40
0.8666666666666666
 40
0.9333333333333332
 40
0.9333333333333332
 40
0.9333333333333332
 40
0.9333333333333332
 40
1.0
 40
1.0
 40
1.0
 40
1.0
 10
3.9335
 20
95.511899999999997
 30
0.0
 10
5.8521999999999998
 20
95.247299999999996
 30
0.0
 10
7.9188000000000001
 20
94.509699999999995
 30
0.0
 10
10.107900000000001
 20
93.379099999999994
 30
0.0
 10
10.107900000000001
 20
93.379099999999994
 30
0.0
 10
14.975
 20
89.285799999999995
 30
0.0
 10
16.250299999999999
 20
84.398799999999994
 30
0.0
 10
16.508099999999999
 20
79.680300000000003
 30
0.0
 10
16.508099999999999
 20
79.680300000000003
 30
0.0
 10
16.800899999999999
 20
79.720399999999998
 30
0.0
 10
17.099399999999999
 20
79.751099999999994
 30
0.0
 10
17.401800000000001
 20
79.772400000000005
 30
0.0
 10
17.401800000000001
 20
79.772400000000005
 30
0.0
 10
17.715499999999999
 20
82.679199999999994
 30
0.0
 10
17.100999999999999
 20
85.991399999999999
 30
0.0
 10
14.294600000000001
 20
90.550299999999993
 30
0.0
 10
14.294600000000001
 20
90.550299999999993
 30
0.0
 10
14.2568
 20
92.625
 30
0.0
 10
14.973599999999999
 20
94.133700000000005
 30
0.0
 10
17.350100000000001
 20
94.397800000000004
 30
0.0
 10
17.350100000000001
 20
94.397800000000004
 30
0.0
 10
17.350100000000001
 20
94.850399999999993
 30
0.0
 10
17.350100000000001
 20
95.302700000000002
 30
0.0
 10
17.350100000000001
 20
95.755600000000001
 30
0.0
 10
17.350100000000001
 20
95.755600000000001
 30
0.0
 10
18.292200000000001
 20
96.992000000000004
 30
0.0
 10
19.084399999999999
 20
96.954300000000003
 30
0.0
 10
19.726600000000001
 20
95.642399999999995
 30
0.0
 10
19.726600000000001
 20
95.642399999999995
 30
0.0
 10
19.651
 20
95.189899999999994
 30
0.0
 10
19.575600000000001
 20
94.736999999999995
 30
0.0
 10
19.500399999999999
 20
94.284400000000005
 30
0.0
 10
19.500399999999999
 20
94.284400000000005
 30
0.0
 10
22.065300000000001
 20
94.095699999999994
 30
0.0
 10
22.970600000000001
 20
92.6999
 30
0.0
 10
22.216100000000001
 20
90.0976
 30
0.0
 10
22.216100000000001
 20
90.0976
 30
0.0
 10
20.767299999999999
 20
86.955799999999996
 30
0.0
 10
19.851900000000001
 20
83.458100000000002
 30
0.0
 10
19.1999
 20
79.784599999999998
 30
0.0
 10
19.1999
 20
79.784599999999998
 30
0.0
 10
19.4345
 20
79.771500000000003
 30
0.0
 10
19.6663
 20
79.752499999999998
 30
0.0
 10
19.895099999999999
 20
79.727599999999995
 30
0.0
 10
19.895099999999999
 20
79.727599999999995
 30
0.0
 10
21.607099999999999
 20
87.786900000000003
 30
0.0
 10
25.1541
 20
92.866699999999994
 30
0.0
 10
30.703499999999998
 20
95.416399999999996
 30
0.0
 10
30.703499999999998
 20
95.416399999999996
 30
0.0
 10
31.219200000000001
 20
95.484300000000005
 30
0.0
 10
31.719000000000001
 20
95.537599999999998
 30
0.0
 10
32.2029
 20
95.575000000000003
 30
0.0
 10
32.2029
 20
95.575000000000003
 30
0.0
 10
28.013500000000001
 20
97.835800000000006
 30
0.0
 10
23.219999999999999
 20
99.119299999999996
 30
0.0
 10
18.126899999999999
 20
99.119299999999996
 30
0.0
 10
18.126899999999999
 20
99.119299999999996
 30
0.0
 10
12.9861
 20
99.119299999999996
 30
0.0
 10
8.1502999999999997
 20
97.812100000000001
 30
0.0
 10
3.9335
 20
95.511899999999997
 30
0.0
  0
SPLINE
  5
4A
100
AcDbEntity
  8
RÚteg 1
 62
     7
100
AcDbSpline
210
0.0
220
0.0
230
1.0
 70
     1
 71
     3
 72
    32
 73
    28
 74
     0
 42
0.0000000001
 43
0.0000000001
 40
0.0
 40
0.0
 40
0.0
 40
0.0
 40
0.1428571428571429
 40
0.1428571428571429
 40
0.1428571428571429
 40
0.1428571428571429
 40
0.2857142857142857
 40
0.2857142857142857
 40
0.2857142857142857
 40
0.2857142857142857
 40
0.4285714285714286
 40
0.4285714285714286
 40
0.4285714285714286
 40
0.4285714285714286
 40
0.5714285714285714
 40
0.5714285714285714
 40
0.5714285714285714
 40
0.5714285714285714
 40
0.7142857142857142
 40
0.7142857142857142
 40
0.7142857142857142
 40
0.7142857142857142
 40
0.857142857142857
 40
0.857142857142857
 40
0.857142857142857
 40
0.857142857142857
 40
1.0
 40
1.0
 40
1.0
 40
1.0
 10
40.815199999999997
 20
88.575500000000005
 30
0.0
 10
40.2896
 20
87.888999999999996
 30
0.0
 10
39.378799999999998
 20
87.471199999999996
 30
0.0
 10
38.058900000000001
 20
87.381600000000006
 30
0.0
 10
38.058900000000001
 20
87.381600000000006
 30
0.0
 10
35.853400000000001
 20
91.179400000000001
 30
0.0
 10
32.231900000000003
 20
90.922700000000006
 30
0.0
 10
28.213699999999999
 20
88.626400000000004
 30
0.0
 10
28.213699999999999
 20
88.626400000000004
 30
0.0
 10
24.991199999999999
 20
86.709400000000002
 30
0.0
 10
23.061399999999999
 20
83.386700000000005
 30
0.0
 10
21.644400000000001
 20
79.421999999999997
 30
0.0
 10
21.644400000000001
 20
79.421999999999997
 30
0.0
 10
22.0123
 20
79.331599999999995
 30
0.0
 10
22.369199999999999
 20
79.225700000000003
 30
0.0
 10
22.713899999999999
 20
79.106099999999998
 30
0.0
 10
22.713899999999999
 20
79.106099999999998
 30
0.0
 10
25.981000000000002
 20
84.284000000000006
 30
0.0
 10
31.246200000000002
 20
87.212000000000003
 30
0.0
 10
39.416899999999998
 20
86.702600000000004
 30
0.0
 10
39.416899999999998
 20
86.702600000000004
 30
0.0
 10
41.501399999999997
 20
86.020399999999995
 30
0.0
 10
42.990900000000003
 20
85.123699999999999
 30
0.0
 10
43.960299999999997
 20
84.067899999999995
 30
0.0
 10
43.960299999999997
 20
84.067899999999995
 30
0.0
 10
43.050699999999999
 20
85.669300000000007
 30
0.0
 10
41.996299999999998
 20
87.177499999999995
 30
0.0
 10
40.815199999999997
 20
88.575500000000005
 30
0.0
  0
SPLINE
  5
4B
100
AcDbEntity
  8
RÚteg 1
 62
     7
100
AcDbSpline
210
0.0
220
0.0
230
1.0
 70
     1
 71
     3
 72
    40
 73
    36
 74
     0
 42
0.0000000001
 43
0.0000000001
 40
0.0
 40
0.0
 40
0.0
 40
0.0
 40
0.1111111111111111
 40
0.1111111111111111
 40
0.1111111111111111
 40
0.1111111111111111
 40
0.2222222222222222
 40
0.2222222222222222
 40
0.2222222222222222
 40
0.2222222222222222
 40
0.3333333333333333
 40
0.3333333333333333
 40
0.3333333333333333
 40
0.3333333333333333
 40
0.4444444444444444
 40
0.4444444444444444
 40
0.4444444444444444
 40
0.4444444444444444
 40
0.5555555555555556
 40
0.5555555555555556
 40
0.5555555555555556
 40
0.5555555555555556
 40
0.6666666666666667
 40
0.6666666666666667
 40
0.6666666666666667
 40
0.6666666666666667
 40
0.7777777777777779
 40
0.7777777777777779
 40
0.7777777777777779
 40
0.7777777777777779
 40
0.8888888888888891
 40
0.8888888888888891
 40
0.8888888888888891
 40
0.8888888888888891
 40
1.0
 40
1.0
 40
1.0
 40
1.0
 10
45.305
 20
81.393000000000001
 30
0.0
 10
45.441000000000003
 20
80.601299999999995
 30
0.0
 10
45.396500000000003
 20
79.7637
 30
0.0
 10
45.188299999999998
 20
78.894400000000005
 30
0.0
 10
45.188299999999998
 20
78.894400000000005
 30
0.0
 10
44.288400000000003
 20
74.314499999999995
 30
0.0
 10
41.268700000000003
 20
75.301400000000001
 30
0.0
 10
37.945700000000002
 20
77.083500000000001
 30
0.0
 10
37.945700000000002
 20
77.083500000000001
 30
0.0
 10
39.285200000000003
 20
80.252600000000001
 30
0.0
 10
37.512300000000003
 20
81.761399999999995
 30
0.0
 10
34.324599999999997
 20
82.515600000000006
 30
0.0
 10
34.324599999999997
 20
82.515600000000006
 30
0.0
 10
29.873100000000001
 20
82.298000000000002
 30
0.0
 10
26.834900000000001
 20
80.667400000000001
 30
0.0
 10
24.573599999999999
 20
78.259699999999995
 30
0.0
 10
24.573599999999999
 20
78.259699999999995
 30
0.0
 10
24.959099999999999
 20
78.034899999999993
 30
0.0
 10
25.3172
 20
77.789299999999997
 30
0.0
 10
25.644300000000001
 20
77.525599999999997
 30
0.0
 10
25.644300000000001
 20
77.525599999999997
 30
0.0
 10
28.2759
 20
79.705600000000004
 30
0.0
 10
31.539999999999999
 20
79.966999999999999
 30
0.0
 10
34.7774
 20
77.989099999999993
 30
0.0
 10
34.7774
 20
77.989099999999993
 30
0.0
 10
37.850999999999999
 20
76.150000000000006
 30
0.0
 10
40.7438
 20
73.862700000000004
 30
0.0
 10
44.282899999999998
 20
71.878200000000007
 30
0.0
 10
44.282899999999998
 20
71.878200000000007
 30
0.0
 10
43.907499999999999
 20
74.333799999999997
 30
0.0
 10
44.734900000000003
 20
75.587199999999996
 30
0.0
 10
47.267299999999999
 20
75.135499999999993
 30
0.0
 10
47.267299999999999
 20
75.135499999999993
 30
0.0
 10
46.841799999999999
 20
77.315700000000007
 30
0.0
 10
46.179200000000002
 20
79.411199999999994
 30
0.0
 10
45.305
 20
81.393000000000001
 30
0.0
  0
SPLINE
  5
4C
100
AcDbEntity
  8
RÚteg 1
 62
     7
100
AcDbSpline
210
0.0
220
0.0
230
1.0
 70
     1
 71
     3
 72
    60
 73
    56
 74
     0
 42
0.0000000001
 43
0.0000000001
 40
0.0
 40
0.0
 40
0.0
 40
0.0
 40
0.0714285714285714
 40
0.0714285714285714
 40
0.0714285714285714
 40
0.0714285714285714
 40
0.1428571428571429
 40
0.1428571428571429
 40
0.1428571428571429
 40
0.1428571428571429
 40
0.2142857142857143
 40
0.2142857142857143
 40
0.2142857142857143
 40
0.2142857142857143
 40
0.2857142857142857
 40
0.2857142857142857
 40
0.2857142857142857
 40
0.2857142857142857
 40
0.3571428571428571
 40
0.3571428571428571
 40
0.3571428571428571
 40
0.3571428571428571
 40
0.4285714285714285
 40
0.4285714285714285
 40
0.4285714285714285
 40
0.4285714285714285
 40
0.4999999999999999
 40
0.4999999999999999
 40
0.4999999999999999
 40
0.4999999999999999
 40
0.5714285714285713
 40
0.5714285714285713
 40
0.5714285714285713
 40
0.5714285714285713
 40
0.6428571428571427
 40
0.6428571428571427
 40
0.6428571428571427
 40
0.6428571428571427
 40
0.7142857142857141
 40
0.7142857142857141
 40
0.7142857142857141
 40
0.7142857142857141
 40
0.7857142857142855
 40
0.7857142857142855
 40
0.7857142857142855
 40
0.7857142857142855
 40
0.8571428571428569
 40
0.8571428571428569
 40
0.8571428571428569
 40
0.8571428571428569
 40
0.9285714285714283
 40
0.9285714285714283
 40
0.9285714285714283
 40
0.9285714285714283
 40
1.0
 40
1.0
 40
1.0
 40
1.0
 10
47.310499999999998
 20
63.948099999999997
 30
0.0
 10
44.534199999999998
 20
63.335700000000003
 30
0.0
 10
43.622999999999998
 20
64.5886
 30
0.0
 10
44.013399999999997
 20
67.142399999999995
 30
0.0
 10
44.013399999999997
 20
67.142399999999995
 30
0.0
 10
40.474499999999999
 20
65.158199999999994
 30
0.0
 10
37.581699999999998
 20
62.870899999999999
 30
0.0
 10
34.5077
 20
61.031599999999997
 30
0.0
 10
34.5077
 20
61.031599999999997
 30
0.0
 10
31.270900000000001
 20
59.053699999999999
 30
0.0
 10
28.006599999999999
 20
59.315100000000001
 30
0.0
 10
25.3748
 20
61.495100000000001
 30
0.0
 10
25.3748
 20
61.495100000000001
 30
0.0
 10
25.047999999999998
 20
61.231499999999997
 30
0.0
 10
24.690000000000001
 20
60.985900000000001
 30
0.0
 10
24.304099999999998
 20
60.761200000000002
 30
0.0
 10
24.304099999999998
 20
60.761200000000002
 30
0.0
 10
26.5654
 20
58.353700000000003
 30
0.0
 10
29.6036
 20
56.722999999999999
 30
0.0
 10
34.055100000000003
 20
56.505299999999998
 30
0.0
 10
34.055100000000003
 20
56.505299999999998
 30
0.0
 10
37.242800000000003
 20
57.259599999999999
 30
0.0
 10
39.015799999999999
 20
58.768000000000001
 30
0.0
 10
37.676099999999998
 20
61.936999999999998
 30
0.0
 10
37.676099999999998
 20
61.936999999999998
 30
0.0
 10
40.999099999999999
 20
63.719499999999996
 30
0.0
 10
44.019199999999998
 20
64.706699999999998
 30
0.0
 10
44.918700000000001
 20
60.126399999999997
 30
0.0
 10
44.918700000000001
 20
60.126399999999997
 30
0.0
 10
45.714799999999997
 20
56.804000000000002
 30
0.0
 10
44.128599999999999
 20
53.948500000000003
 30
0.0
 10
39.147300000000001
 20
52.317900000000002
 30
0.0
 10
39.147300000000001
 20
52.317900000000002
 30
0.0
 10
30.976800000000001
 20
51.808700000000002
 30
0.0
 10
25.711300000000001
 20
54.737000000000002
 30
0.0
 10
22.444700000000001
 20
59.9146
 30
0.0
 10
22.444700000000001
 20
59.9146
 30
0.0
 10
22.099599999999999
 20
59.795400000000001
 30
0.0
 10
21.742899999999999
 20
59.689599999999999
 30
0.0
 10
21.3751
 20
59.598700000000001
 30
0.0
 10
21.3751
 20
59.598700000000001
 30
0.0
 10
22.792000000000002
 20
55.634300000000003
 30
0.0
 10
24.721499999999999
 20
52.311700000000002
 30
0.0
 10
27.944299999999998
 20
50.3947
 30
0.0
 10
27.944299999999998
 20
50.3947
 30
0.0
 10
31.962299999999999
 20
48.097999999999999
 30
0.0
 10
35.584099999999999
 20
47.841500000000003
 30
0.0
 10
37.789299999999997
 20
51.639299999999999
 30
0.0
 10
37.789299999999997
 20
51.639299999999999
 30
0.0
 10
39.274700000000003
 20
51.538600000000002
 30
0.0
 10
40.241700000000002
 20
51.023200000000003
 30
0.0
 10
40.724699999999999
 20
50.175400000000003
 30
0.0
 10
40.724699999999999
 20
50.175400000000003
 30
0.0
 10
44.018999999999998
 20
54.0383
 30
0.0
 10
46.340800000000002
 20
58.755400000000002
 30
0.0
 10
47.310499999999998
 20
63.948099999999997
 30
0.0
  0
SPLINE
  5
4D
100
AcDbEntity
  8
RÚteg 1
 62
     7
100
AcDbSpline
210
0.0
220
0.0
230
1.0
 70
     1
 71
     3
 72
    64
 73
    60
 74
     0
 42
0.0000000001
 43
0.0000000001
 40
0.0
 40
0.0
 40
0.0
 40
0.0
 40
0.0666666666666667
 40
0.0666666666666667
 40
0.0666666666666667
 40
0.0666666666666667
 40
0.1333333333333333
 40
0.1333333333333333
 40
0.1333333333333333
 40
0.1333333333333333
 40
0.2
 40
0.2
 40
0.2
 40
0.2
 40
0.2666666666666667
 40
0.2666666666666667
 40
0.2666666666666667
 40
0.2666666666666667
 40
0.3333333333333333
 40
0.3333333333333333
 40
0.3333333333333333
 40
0.3333333333333333
 40
0.4
 40
0.4
 40
0.4
 40
0.4
 40
0.4666666666666666
 40
0.4666666666666666
 40
0.4666666666666666
 40
0.4666666666666666
 40
0.5333333333333333
 40
0.5333333333333333
 40
0.5333333333333333
 40
0.5333333333333333
 40
0.6
 40
0.6
 40
0.6
 40
0.6
 40
0.6666666666666666
 40
0.6666666666666666
 40
0.6666666666666666
 40
0.6666666666666666
 40
0.7333333333333333
 40
0.7333333333333333
 40
0.7333333333333333
 40
0.7333333333333333
 40
0.7999999999999999
 40
0.7999999999999999
 40
0.7999999999999999
 40
0.7999999999999999
 40
0.8666666666666666
 40
0.8666666666666666
 40
0.8666666666666666
 40
0.8666666666666666
 40
0.9333333333333332
 40
0.9333333333333332
 40
0.9333333333333332
 40
0.9333333333333332
 40
1.0
 40
1.0
 40
1.0
 40
1.0
 10
32.439500000000002
 20
43.412599999999998
 30
0.0
 10
31.8002
 20
43.448
 30
0.0
 10
31.132000000000001
 20
43.512500000000003
 30
0.0
 10
30.433900000000001
 20
43.604799999999997
 30
0.0
 10
30.433900000000001
 20
43.604799999999997
 30
0.0
 10
24.884699999999999
 20
46.1541
 30
0.0
 10
21.337499999999999
 20
51.233800000000002
 30
0.0
 10
19.626200000000001
 20
59.293100000000003
 30
0.0
 10
19.626200000000001
 20
59.293100000000003
 30
0.0
 10
19.396699999999999
 20
59.268599999999999
 30
0.0
 10
19.165199999999999
 20
59.249600000000001
 30
0.0
 10
18.930800000000001
 20
59.2361
 30
0.0
 10
18.930800000000001
 20
59.2361
 30
0.0
 10
19.582699999999999
 20
55.563000000000002
 30
0.0
 10
20.497599999999998
 20
52.065300000000001
 30
0.0
 10
21.9467
 20
48.923400000000001
 30
0.0
 10
21.9467
 20
48.923400000000001
 30
0.0
 10
22.7011
 20
46.320999999999998
 30
0.0
 10
21.796099999999999
 20
44.9253
 30
0.0
 10
19.230899999999998
 20
44.736400000000003
 30
0.0
 10
19.230899999999998
 20
44.736400000000003
 30
0.0
 10
19.3065
 20
44.2836
 30
0.0
 10
19.382100000000001
 20
43.831099999999999
 30
0.0
 10
19.4572
 20
43.378500000000003
 30
0.0
 10
19.4572
 20
43.378500000000003
 30
0.0
 10
18.814900000000002
 20
42.066800000000001
 30
0.0
 10
18.0227
 20
42.028500000000001
 30
0.0
 10
17.0806
 20
43.2652
 30
0.0
 10
17.0806
 20
43.2652
 30
0.0
 10
17.0806
 20
43.717700000000001
 30
0.0
 10
17.0806
 20
44.170400000000001
 30
0.0
 10
17.0806
 20
44.623199999999997
 30
0.0
 10
17.0806
 20
44.623199999999997
 30
0.0
 10
14.7041
 20
44.887500000000003
 30
0.0
 10
13.987500000000001
 20
46.395899999999997
 30
0.0
 10
14.025399999999999
 20
48.470399999999998
 30
0.0
 10
14.025399999999999
 20
48.470399999999998
 30
0.0
 10
16.831499999999998
 20
53.029400000000003
 30
0.0
 10
17.446200000000001
 20
56.341700000000003
 30
0.0
 10
17.132200000000001
 20
59.248199999999997
 30
0.0
 10
17.132200000000001
 20
59.248199999999997
 30
0.0
 10
16.829899999999999
 20
59.2697
 30
0.0
 10
16.531700000000001
 20
59.300600000000003
 30
0.0
 10
16.238499999999998
 20
59.340600000000002
 30
0.0
 10
16.238499999999998
 20
59.340600000000002
 30
0.0
 10
15.9811
 20
54.622300000000003
 30
0.0
 10
14.706
 20
49.734999999999999
 30
0.0
 10
9.8384
 20
45.642000000000003
 30
0.0
 10
9.8384
 20
45.642000000000003
 30
0.0
 10
7.6421999999999999
 20
44.5077
 30
0.0
 10
5.5696000000000003
 20
43.768999999999998
 30
0.0
 10
3.6459999999999999
 20
43.506700000000002
 30
0.0
 10
3.6459999999999999
 20
43.506700000000002
 30
0.0
 10
7.9299999999999997
 20
41.107700000000001
 30
0.0
 10
12.868499999999999
 20
39.738100000000003
 30
0.0
 10
18.126899999999999
 20
39.738100000000003
 30
0.0
 10
18.126899999999999
 20
39.738100000000003
 30
0.0
 10
23.316400000000002
 20
39.738100000000003
 30
0.0
 10
28.194700000000001
 20
41.071100000000001
 30
0.0
 10
32.439500000000002
 20
43.412599999999998
 30
0.0
  0
SPLINE
  5
4E
100
AcDbEntity
  8
RÚteg 1
 62
     7
100
AcDbSpline
210
0.0
220
0.0
230
1.0
 70
     1
 71
     3
 72
    64
 73
    60
 74
     0
 42
0.0000000001
 43
0.0000000001
 40
0.0
 40
0.0
 40
0.0
 40
0.0
 40
0.0666666666666667
 40
0.0666666666666667
 40
0.0666666666666667
 40
0.0666666666666667
 40
0.1333333333333333
 40
0.1333333333333333
 40
0.1333333333333333
 40
0.1333333333333333
 40
0.2
 40
0.2
 40
0.2
 40
0.2
 40
0.2666666666666667
 40
0.2666666666666667
 40
0.2666666666666667
 40
0.2666666666666667
 40
0.3333333333333333
 40
0.3333333333333333
 40
0.3333333333333333
 40
0.3333333333333333
 40
0.4
 40
0.4
 40
0.4
 40
0.4
 40
0.4666666666666666
 40
0.4666666666666666
 40
0.4666666666666666
 40
0.4666666666666666
 40
0.5333333333333333
 40
0.5333333333333333
 40
0.5333333333333333
 40
0.5333333333333333
 40
0.6
 40
0.6
 40
0.6
 40
0.6
 40
0.6666666666666666
 40
0.6666666666666666
 40
0.6666666666666666
 40
0.6666666666666666
 40
0.7333333333333333
 40
0.7333333333333333
 40
0.7333333333333333
 40
0.7333333333333333
 40
0.7999999999999999
 40
0.7999999999999999
 40
0.7999999999999999
 40
0.7999999999999999
 40
0.8666666666666666
 40
0.8666666666666666
 40
0.8666666666666666
 40
0.8666666666666666
 40
0.9333333333333332
 40
0.9333333333333332
 40
0.9333333333333332
 40
0.9333333333333332
 40
1.0
 40
1.0
 40
1.0
 40
1.0
 10
-4.4576000000000002
 20
50.159300000000002
 30
0.0
 10
-3.8767
 20
50.947099999999999
 30
0.0
 10
-2.8487
 20
51.520699999999998
 30
0.0
 10
-1.3648
 20
51.639299999999999
 30
0.0
 10
-1.3648
 20
51.639299999999999
 30
0.0
 10
-0.1198
 20
49.658799999999999
 30
0.0
 10
2.0676000000000001
 20
48.527299999999997
 30
0.0
 10
6.3303000000000003
 20
49.263100000000001
 30
0.0
 10
6.3303000000000003
 20
49.263100000000001
 30
0.0
 10
10.077500000000001
 20
50.457799999999999
 30
0.0
 10
13.3309
 20
55.1111
 30
0.0
 10
14.9923
 20
59.572499999999998
 30
0.0
 10
14.9923
 20
59.572499999999998
 30
0.0
 10
14.6936
 20
59.6432
 30
0.0
 10
14.4023
 20
59.723700000000001
 30
0.0
 10
14.1183
 20
59.813400000000001
 30
0.0
 10
14.1183
 20
59.813400000000001
 30
0.0
 10
13.316700000000001
 20
56.546399999999998
 30
0.0
 10
11.290800000000001
 20
53.057000000000002
 30
0.0
 10
2.5956999999999999
 20
51.978700000000003
 30
0.0
 10
2.5956999999999999
 20
51.978700000000003
 30
0.0
 10
-3.3348
 20
52.013599999999997
 30
0.0
 10
-8.5089000000000006
 20
53.487200000000001
 30
0.0
 10
-8.3806999999999992
 20
59.900100000000002
 30
0.0
 10
-8.3806999999999992
 20
59.900100000000002
 30
0.0
 10
-7.0605000000000002
 20
64.238299999999995
 30
0.0
 10
-4.6840000000000002
 20
64.955100000000002
 30
0.0
 10
-1.2516
 20
62.0503
 30
0.0
 10
-1.2516
 20
62.0503
 30
0.0
 10
-3.0619000000000001
 20
58.441200000000002
 30
0.0
 10
-0.9111
 20
56.392400000000002
 30
0.0
 10
5.4256000000000002
 20
56.786999999999999
 30
0.0
 10
5.4256000000000002
 20
56.786999999999999
 30
0.0
 10
8.1843000000000004
 20
56.892099999999999
 30
0.0
 10
10.4533
 20
58.153199999999998
 30
0.0
 10
12.326599999999999
 20
60.554000000000002
 30
0.0
 10
12.326599999999999
 20
60.554000000000002
 30
0.0
 10
11.785399999999999
 20
60.838099999999997
 30
0.0
 10
11.2913
 20
61.160600000000002
 30
0.0
 10
10.854200000000001
 20
61.516500000000001
 30
0.0
 10
10.854200000000001
 20
61.516500000000001
 30
0.0
 10
9.1500000000000004
 20
60.327399999999997
 30
0.0
 10
7.0791000000000004
 20
59.713999999999999
 30
0.0
 10
4.0673000000000004
 20
60.579000000000001
 30
0.0
 10
4.0673000000000004
 20
60.579000000000001
 30
0.0
 10
0.128
 20
62.159500000000001
 30
0.0
 10
-3.4064999999999999
 20
65.118099999999998
 30
0.0
 10
-7.3624000000000001
 20
66.803100000000001
 30
0.0
 10
-7.3624000000000001
 20
66.803100000000001
 30
0.0
 10
-7.5090000000000003
 20
65.065100000000001
 30
0.0
 10
-7.9965000000000002
 20
63.554900000000004
 30
0.0
 10
-10.8704
 20
63.634500000000003
 30
0.0
 10
-10.8704
 20
63.634500000000003
 30
0.0
 10
-10.9147
 20
63.642800000000001
 30
0.0
 10
-10.9582
 20
63.651000000000003
 30
0.0
 10
-11.0016
 20
63.659399999999998
 30
0.0
 10
-11.0016
 20
63.659399999999998
 30
0.0
 10
-9.9990000000000006
 20
58.573500000000003
 30
0.0
 10
-7.6984000000000004
 20
53.9529
 30
0.0
 10
-4.4576000000000002
 20
50.159300000000002
 30
0.0
  0
SPLINE
  5
4F
100
AcDbEntity
  8
RÚteg 1
 62
     7
100
AcDbSpline
210
0.0
220
0.0
230
1.0
 70
     1
 71
     3
 72
    24
 73
    20
 74
     0
 42
0.0000000001
 43
0.0000000001
 40
0.0
 40
0.0
 40
0.0
 40
0.0
 40
0.2
 40
0.2
 40
0.2
 40
0.2
 40
0.4
 40
0.4
 40
0.4
 40
0.4
 40
0.6000000000000001
 40
0.6000000000000001
 40
0.6000000000000001
 40
0.6000000000000001
 40
0.8
 40
0.8
 40
0.8
 40
0.8
 40
1.0
 40
1.0
 40
1.0
 40
1.0
 10
43.838900000000002
 20
69.5625
 30
0.0
 10
41.656500000000001
 20
70.833399999999997
 30
0.0
 10
39.726199999999999
 20
72.356300000000005
 30
0.0
 10
37.832500000000003
 20
73.915300000000002
 30
0.0
 10
37.832500000000003
 20
73.915300000000002
 30
0.0
 10
38.238500000000002
 20
71.246200000000002
 30
0.0
 10
37.682499999999997
 20
69.913600000000002
 30
0.0
 10
36.7331
 20
69.425700000000006
 30
0.0
 10
36.7331
 20
69.425700000000006
 30
0.0
 10
37.5137
 20
68.831400000000002
 30
0.0
 10
37.929400000000001
 20
67.511200000000002
 30
0.0
 10
37.563200000000002
 20
65.105699999999999
 30
0.0
 10
37.563200000000002
 20
65.105699999999999
 30
0.0
 10
39.487000000000002
 20
66.689499999999995
 30
0.0
 10
41.448599999999999
 20
68.235900000000001
 30
0.0
 10
43.673900000000003
 20
69.519099999999995
 30
0.0
 10
43.673900000000003
 20
69.519099999999995
 30
0.0
 10
43.729199999999999
 20
69.533600000000007
 30
0.0
 10
43.783999999999999
 20
69.548199999999994
 30
0.0
 10
43.838900000000002
 20
69.5625
 30
0.0
  0
SPLINE
  5
50
100
AcDbEntity
  8
RÚteg 1
 62
     7
100
AcDbSpline
210
0.0
220
0.0
230
1.0
 70
     1
 71
     3
 72
    36
 73
    32
 74
     0
 42
0.0000000001
 43
0.0000000001
 40
0.0
 40
0.0
 40
0.0
 40
0.0
 40
0.125
 40
0.125
 40
0.125
 40
0.125
 40
0.25
 40
0.25
 40
0.25
 40
0.25
 40
0.375
 40
0.375
 40
0.375
 40
0.375
 40
0.5
 40
0.5
 40
0.5
 40
0.5
 40
0.625
 40
0.625
 40
0.625
 40
0.625
 40
0.75
 40
0.75
 40
0.75
 40
0.75
 40
0.875
 40
0.875
 40
0.875
 40
0.875
 40
1.0
 40
1.0
 40
1.0
 40
1.0
 10
34.144500000000001
 20
69.563299999999998
 30
0.0
 10
31.183700000000002
 20
70.816000000000003
 30
0.0
 10
28.4316
 20
74.884900000000002
 30
0.0
 10
33.984900000000003
 20
74.820599999999999
 30
0.0
 10
33.984900000000003
 20
74.820599999999999
 30
0.0
 10
31.510899999999999
 20
77.292299999999997
 30
0.0
 10
29.152100000000001
 20
78.207999999999998
 30
0.0
 10
27.015799999999999
 20
76.0458
 30
0.0
 10
27.015799999999999
 20
76.0458
 30
0.0
 10
27.535699999999999
 20
75.260800000000003
 30
0.0
 10
27.825299999999999
 20
74.391999999999996
 30
0.0
 10
27.825299999999999
 20
73.477699999999999
 30
0.0
 10
27.825299999999999
 20
73.477699999999999
 30
0.0
 10
27.825299999999999
 20
71.923500000000004
 30
0.0
 10
26.989699999999999
 20
70.500100000000003
 30
0.0
 10
25.604900000000001
 20
69.398300000000006
 30
0.0
 10
25.604900000000001
 20
69.398300000000006
 30
0.0
 10
26.8278
 20
68.330799999999996
 30
0.0
 10
27.555700000000002
 20
66.993799999999993
 30
0.0
 10
27.555700000000002
 20
65.543199999999999
 30
0.0
 10
27.555700000000002
 20
65.543199999999999
 30
0.0
 10
27.555700000000002
 20
64.628900000000002
 30
0.0
 10
27.266300000000001
 20
63.759999999999998
 30
0.0
 10
26.746500000000001
 20
62.974800000000002
 30
0.0
 10
26.746500000000001
 20
62.974800000000002
 30
0.0
 10
28.882100000000001
 20
60.812899999999999
 30
0.0
 10
31.241599999999998
 20
61.728700000000003
 30
0.0
 10
33.715699999999998
 20
64.200299999999999
 30
0.0
 10
33.715699999999998
 20
64.200299999999999
 30
0.0
 10
27.994
 20
64.133899999999997
 30
0.0
 10
31.088200000000001
 20
68.454400000000007
 30
0.0
 10
34.144500000000001
 20
69.563299999999998
 30
0.0
  0
SPLINE
  5
51
100
AcDbEntity
  8
RÚteg 1
 62
     7
100
AcDbSpline
210
0.0
220
0.0
230
1.0
 70
     1
 71
     3
 72
    36
 73
    32
 74
     0
 42
0.0000000001
 43
0.0000000001
 40
0.0
 40
0.0
 40
0.0
 40
0.0
 40
0.125
 40
0.125
 40
0.125
 40
0.125
 40
0.25
 40
0.25
 40
0.25
 40
0.25
 40
0.375
 40
0.375
 40
0.375
 40
0.375
 40
0.5
 40
0.5
 40
0.5
 40
0.5
 40
0.625
 40
0.625
 40
0.625
 40
0.625
 40
0.75
 40
0.75
 40
0.75
 40
0.75
 40
0.875
 40
0.875
 40
0.875
 40
0.875
 40
1.0
 40
1.0
 40
1.0
 40
1.0
 10
22.966999999999999
 20
103.0063
 30
0.0
 10
39.406799999999997
 20
100.6566
 30
0.0
 10
52.049999999999997
 20
86.517300000000006
 30
0.0
 10
52.049999999999997
 20
69.428700000000006
 30
0.0
 10
52.049999999999997
 20
69.428700000000006
 30
0.0
 10
52.049999999999997
 20
50.696300000000001
 30
0.0
 10
36.858600000000003
 20
35.505499999999998
 30
0.0
 10
18.126899999999999
 20
35.505499999999998
 30
0.0
 10
18.126899999999999
 20
35.505499999999998
 30
0.0
 10
-0.6053
 20
35.505499999999998
 30
0.0
 10
-15.7965
 20
50.696300000000001
 30
0.0
 10
-15.7965
 20
69.428700000000006
 30
0.0
 10
-15.7965
 20
69.428700000000006
 30
0.0
 10
-15.7965
 20
86.517300000000006
 30
0.0
 10
-3.1534
 20
100.6566
 30
0.0
 10
13.2864
 20
103.0063
 30
0.0
 10
13.2864
 20
103.0063
 30
0.0
 10
13.0214
 20
103.63420000000001
 30
0.0
 10
12.874499999999999
 20
104.3241
 30
0.0
 10
12.874499999999999
 20
105.04810000000001
 30
0.0
 10
12.874499999999999
 20
105.04810000000001
 30
0.0
 10
12.874499999999999
 20
107.94799999999999
 30
0.0
 10
15.2263
 20
110.3
 30
0.0
 10
18.126899999999999
 20
110.3
 30
0.0
 10
18.126899999999999
 20
110.3
 30
0.0
 10
21.026700000000002
 20
110.3
 30
0.0
 10
23.378599999999999
 20
107.94799999999999
 30
0.0
 10
23.378599999999999
 20
105.04810000000001
 30
0.0
 10
23.378599999999999
 20
105.04810000000001
 30
0.0
 10
23.378599999999999
 20
104.3241
 30
0.0
 10
23.232099999999999
 20
103.63420000000001
 30
0.0
 10
22.966999999999999
 20
103.0063
 30
0.0
  0
ENDSEC
  0
SECTION
  2
OBJECTS
  0
DICTIONARY
  5
19
100
AcDbDictionary
280
     0
281
     1
  3
ACAD_GROUP
350
1A
  3
ACAD_MLINESTYLE
350
1B
  3
ACAD_LAYOUT
350
1E
  3
ACAD_PLOTSETTINGS
350
22
  3
ACAD_PLOTSTYLENAME
350
1F
  3
ACAD_WIPEOUT_VARS
350
23
  0
DICTIONARY
  5
1A
102
{ACAD_REACTORS
330
19
102
}
100
AcDbDictionary
280
     0
281
     1
  0
DICTIONARY
  5
1B
102
{ACAD_REACTORS
330
19
102
}
100
AcDbDictionary
280
     0
281
     1
  3
Standard
350
1C
  0
MLINESTYLE
  5
1C
102
{ACAD_REACTORS
330
1B
102
}
100
AcDbMlineStyle
  2
Standard
 70
     0
  3

 62
     0
 51
90.0
 52
90.0
 71
     2
 49
0.5
 62
   256
  6
BYLAYER
 49
-0.5
 62
   256
  6
BYLAYER
  0
ACDBDICTIONARYWDFLT
  5
1F
102
{ACAD_REACTORS
330
19
102
}
100
AcDbDictionary
281
     1
  3
Normal
350
1D
100
AcDbDictionaryWithDefault
340
1D
  0
ACDBPLACEHOLDER
  5
1D
102
{ACAD_REACTORS
330
1F
102
}
  0
LAYOUT
  5
20
102
{ACAD_REACTORS
330
1E
102
}
100
AcDbPlotSettings
  1

  2

  4

  6

 40
0.0
 41
0.0
 42
0.0
 43
0.0
 44
0.0
 45
0.0
 46
0.0
 47
0.0
 48
0.0
 49
0.0
140
0.0
141
0.0
142
1.0
143
1.0
 70
  1024
 72
     0
 73
     0
 74
     0
  7

 75
     0
147
1.0
148
0.0
149
0.0
100
AcDbLayout
  1
Model
 70
     0
 71
     0
 10
0.0
 20
0.0
 11
0.0
 21
0.0
 12
0.0
 22
0.0
 32
0.0
 14
0.0
 24
0.0
 34
0.0
 15
0.0
 25
0.0
 35
0.0
146
0.0
 13
0.0
 23
0.0
 33
0.0
 16
0.0
 26
0.0
 36
0.0
 17
0.0
 27
0.0
 37
0.0
 76
     0
330
A
331
0
345
0
346
0
  0
LAYOUT
  5
21
102
{ACAD_REACTORS
330
1E
102
}
100
AcDbPlotSettings
  1

  2

  4

  6

 40
0.0
 41
0.0
 42
0.0
 43
0.0
 44
0.0
 45
0.0
 46
0.0
 47
0.0
 48
0.0
 49
0.0
140
0.0
141
0.0
142
1.0
143
1.0
 70
     0
 72
     0
 73
     0
 74
     0
  7

 75
     0
147
1.0
148
0.0
149
0.0
100
AcDbLayout
  1
Layout1
 70
     0
 71
     0
 10
0.0
 20
0.0
 11
0.0
 21
0.0
 12
0.0
 22
0.0
 32
0.0
 14
0.0
 24
0.0
 34
0.0
 15
0.0
 25
0.0
 35
0.0
146
0.0
 13
0.0
 23
0.0
 33
0.0
 16
0.0
 26
0.0
 36
0.0
 17
0.0
 27
0.0
 37
0.0
 76
     0
330
B
331
0
345
0
346
0
  0
DICTIONARY
  5
1E
102
{ACAD_REACTORS
330
19
102
}
100
AcDbDictionary
280
     0
281
     1
  3
Layout1
350
21
  3
Model
350
20
  0
DICTIONARY
  5
22
102
{ACAD_REACTORS
330
19
102
}
100
AcDbDictionary
280
     0
281
     1
  0
WIPEOUTVARIABLES
  5
23
100
AcDbWipeoutVariables
 70
     1
  0
ENDSEC
  0
EOF
