  0
SECTION
  2
HEADER
  9
$ACADVER
  1
AC1015
  9
$ACADMAINTVER
 70
     6
  9
$DWGCODEPAGE
  3
DOS850
  9
$INSBASE
 10
0.0
 20
0.0
 30
0.0
  9
$EXTMIN
 10
-82.9881
 20
26.3488
 30
1.000000E+20
  9
$EXTMAX
 10
57.0881
 20
126.6344
 30
-1.000000E+20
  9
$LIMMIN
 10
0.0
 20
0.0
  9
$LIMMAX
 10
0.0
 20
0.0
  9
$ORTHOMODE
 70
     0
  9
$REGENMODE
 70
     1
  9
$FILLMODE
 70
     1
  9
$QTEXTMODE
 70
     0
  9
$MIRRTEXT
 70
     1
  9
$LTSCALE
 40
1.0
  9
$ATTMODE
 70
     1
  9
$TEXTSIZE
 40
0.2
  9
$TRACEWID
 40
0.05
  9
$TEXTSTYLE
  7
Standard
  9
$CLAYER
  8
0
  9
$CELTYPE
  6
Continuous
  9
$CECOLOR
 62
   256
  9
$CELTSCALE
 40
1.0
  9
$DISPSILH
 70
     0
  9
$DIMSCALE
 40
1.0
  9
$DIMASZ
 40
0.18
  9
$DIMEXO
 40
0.0625
  9
$DIMDLI
 40
0.38
  9
$DIMRND
 40
0.0
  9
$DIMDLE
 40
0.0
  9
$DIMEXE
 40
0.18
  9
$DIMTP
 40
0.0
  9
$DIMTM
 40
0.0
  9
$DIMTXT
 40
0.18
  9
$DIMCEN
 40
0.09
  9
$DIMTSZ
 40
0.0
  9
$DIMTOL
 70
     0
  9
$DIMLIM
 70
     0
  9
$DIMTIH
 70
     1
  9
$DIMTOH
 70
     1
  9
$DIMSE1
 70
     0
  9
$DIMSE2
 70
     0
  9
$DIMTAD
 70
     0
  9
$DIMZIN
 70
     0
  9
$DIMBLK
  1

  9
$DIMASO
 70
     1
  9
$DIMSHO
 70
     1
  9
$DIMPOST
  1

  9
$DIMAPOST
  1

  9
$DIMALT
 70
     0
  9
$DIMALTD
 70
     2
  9
$DIMALTF
 40
25.4
  9
$DIMLFAC
 40
1.0
  9
$DIMTOFL
 70
     0
  9
$DIMTVP
 40
0.0
  9
$DIMTIX
 70
     0
  9
$DIMSOXD
 70
     0
  9
$DIMSAH
 70
     0
  9
$DIMBLK1
  1

  9
$DIMBLK2
  1

  9
$DIMSTYLE
  2
Standard
  9
$DIMCLRD
 70
     0
  9
$DIMCLRE
 70
     0
  9
$DIMCLRT
 70
     0
  9
$DIMTFAC
 40
1.0
  9
$DIMGAP
 40
0.09
  9
$DIMJUST
 70
     0
  9
$DIMSD1
 70
     0
  9
$DIMSD2
 70
     0
  9
$DIMTOLJ
 70
     1
  9
$DIMTZIN
 70
     0
  9
$DIMALTZ
 70
     0
  9
$DIMALTTZ
 70
     0
  9
$DIMUPT
 70
     0
  9
$DIMDEC
 70
     4
  9
$DIMTDEC
 70
     4
  9
$DIMALTU
 70
     2
  9
$DIMALTTD
 70
     2
  9
$DIMTXSTY
  7
Standard
  9
$DIMAUNIT
 70
     0
  9
$DIMADEC
 70
     0
  9
$DIMALTRND
 40
0.0
  9
$DIMAZIN
 70
     0
  9
$DIMDSEP
 70
     0
  9
$DIMATFIT
 70
     3
  9
$DIMFRAC
 70
     0
  9
$DIMLDRBLK
  1

  9
$DIMLUNIT
 70
     2
  9
$DIMLWD
 70
     0
  9
$DIMLWE
 70
     0
  9
$DIMTMOVE
 70
     0
  9
$LUNITS
 70
     2
  9
$LUPREC
 70
     4
  9
$SKETCHINC
 40
0.1
  9
$FILLETRAD
 40
0.0
  9
$AUNITS
 70
     0
  9
$AUPREC
 70
     0
  9
$MENU
  1
acad
  9
$ELEVATION
 40
0.0
  9
$PELEVATION
 40
0.0
  9
$THICKNESS
 40
0.0
  9
$LIMCHECK
 70
     0
  9
$CHAMFERA
 40
0.0
  9
$CHAMFERB
 40
0.0
  9
$CHAMFERC
 40
0.0
  9
$CHAMFERD
 40
0.0
  9
$SKPOLY
 70
     0
  9
$TDCREATE
 40
0.000000000
  9
$TDUCREATE
 40
0.000000000
  9
$TDUPDATE
 40
0.000000000
  9
$TDUUPDATE
 40
0.000000000
  9
$TDINDWG
 40
0.0000000000
  9
$TDUSRTIMER
 40
0.0000000000
  9
$USRTIMER
 70
     1
  9
$ANGBASE
 50
0.0
  9
$ANGDIR
 70
     0
  9
$PDMODE
 70
     0
  9
$PDSIZE
 40
0.0
  9
$PLINEWID
 40
0.0
  9
$SPLFRAME
 70
     0
  9
$SPLINETYPE
 70
     6
  9
$SPLINESEGS
 70
     8
  9
$HANDSEED
  5
3E
  9
$SURFTAB1
 70
     6
  9
$SURFTAB2
 70
     6
  9
$SURFTYPE
 70
     6
  9
$SURFU
 70
     6
  9
$SURFV
 70
     6
  9
$UCSBASE
  2

  9
$UCSNAME
  2

  9
$UCSORG
 10
0.0
 20
0.0
 30
0.0
  9
$UCSXDIR
 10
1.0
 20
0.0
 30
0.0
  9
$UCSYDIR
 10
0.0
 20
1.0
 30
0.0
  9
$UCSORTHOREF
  2

  9
$UCSORTHOVIEW
 70
     0
  9
$UCSORGTOP
 10
0.0
 20
0.0
 30
0.0
  9
$UCSORGBOTTOM
 10
0.0
 20
0.0
 30
0.0
  9
$UCSORGLEFT
 10
0.0
 20
0.0
 30
0.0
  9
$UCSORGRIGHT
 10
0.0
 20
0.0
 30
0.0
  9
$UCSORGFRONT
 10
0.0
 20
0.0
 30
0.0
  9
$UCSORGBACK
 10
0.0
 20
0.0
 30
0.0
  9
$PUCSBASE
  2

  9
$PUCSNAME
  2

  9
$PUCSORG
 10
0.0
 20
0.0
 30
0.0
  9
$PUCSXDIR
 10
1.0
 20
0.0
 30
0.0
  9
$PUCSYDIR
 10
0.0
 20
1.0
 30
0.0
  9
$PUCSORTHOREF
  2

  9
$PUCSORTHOVIEW
 70
     0
  9
$PUCSORGTOP
 10
0.0
 20
0.0
 30
0.0
  9
$PUCSORGBOTTOM
 10
0.0
 20
0.0
 30
0.0
  9
$PUCSORGLEFT
 10
0.0
 20
0.0
 30
0.0
  9
$PUCSORGRIGHT
 10
0.0
 20
0.0
 30
0.0
  9
$PUCSORGFRONT
 10
0.0
 20
0.0
 30
0.0
  9
$PUCSORGBACK
 10
0.0
 20
0.0
 30
0.0
  9
$USERI1
 70
     0
  9
$USERI2
 70
     0
  9
$USERI3
 70
     0
  9
$USERI4
 70
     0
  9
$USERI5
 70
     0
  9
$USERR1
 40
0.0
  9
$USERR2
 40
0.0
  9
$USERR3
 40
0.0
  9
$USERR4
 40
0.0
  9
$USERR5
 40
0.0
  9
$WORLDVIEW
 70
     1
  9
$SHADEDGE
 70
     3
  9
$SHADEDIF
 70
    70
  9
$TILEMODE
 70
     1
  9
$MAXACTVP
 70
    16
  9
$PINSBASE
 10
0.0
 20
0.0
 30
0.0
  9
$PLIMCHECK
 70
     0
  9
$PEXTMIN
 10
1.000000E+20
 20
1.000000E+20
 30
1.000000E+20
  9
$PEXTMAX
 10
-1.000000E+20
 20
-1.000000E+20
 30
-1.000000E+20
  9
$PLIMMIN
 10
0.0
 20
0.0
  9
$PLIMMAX
 10
12.0
 20
9.0
  9
$UNITMODE
 70
     0
  9
$VISRETAIN
 70
     0
  9
$PLINEGEN
 70
     1
  9
$PSLTSCALE
 70
     0
  9
$TREEDEPTH
 70
  3020
  9
$CMLSTYLE
  2
Standard
  9
$CMLJUST
 70
     0
  9
$CMLSCALE
 40
1.0
  9
$PROXYGRAPHICS
 70
     0
  9
$MEASUREMENT
 70
     0
  9
$CELWEIGHT
370
     0
  9
$ENDCAPS
280
     0
  9
$JOINSTYLE
280
     0
  9
$LWDISPLAY
290
     0
  9
$INSUNITS
 70
     4
  9
$HYPERLINKBASE
  1

  9
$XEDIT
290
     1
  9
$CEPSNTYPE
380
     0
  9
$PSTYLEMODE
290
     1
  9
$FINGERPRINTGUID
  2

  9
$VERSIONGUID
  2

  9
$EXTNAMES
290
     1
  9
$PSVPSCALE
 40
0.0
  0
ENDSEC
  0
SECTION
  2
CLASSES
  0
CLASS
  1
LWPOLYLINE
  2
AcDbPolyline
  3
AutoCAD 2000
 90
    32768
280
     0
281
     1
  0
CLASS
  1
IMAGE
  2
AcDbRasterImage
  3
ISM
 90
    32895
280
     0
281
     1
  0
CLASS
  1
OLE2FRAME
  2
AcDbOle2Frame
  3
AutoCAD 2000
 90
    32768
280
     0
281
     1
  0
CLASS
  1
HATCH
  2
AcDbHatch
  3
AutoCAD 2000
 90
    32768
280
     0
281
     1
  0
CLASS
  1
DICTIONARYVAR
  2
AcDbDictionaryVar
  3
AutoCAD 2000
 90
    32768
280
     0
281
     0
  0
CLASS
  1
RASTERVARIABLES
  2
AcDbRasterVariables
  3
ISM
 90
    32768
280
     0
281
     0
  0
CLASS
  1
IMAGEDEF
  2
AcDbRasterImageDef
  3
ISM
 90
    32768
280
     0
281
     0
  0
CLASS
  1
IMAGEDEF_REACTOR
  2
AcDbRasterImageDefReactor
  3
ISM
 90
    32769
280
     0
281
     0
  0
CLASS
  1
IDBUFFER
  2
AcDbIdBuffer
  3
AutoCAD 2000
 90
    32768
280
     0
281
     0
  0
CLASS
  1
SPATIAL_FILTER
  2
AcDbSpatialFilter
  3
AutoCAD 2000
 90
    32768
280
     0
281
     0
  0
CLASS
  1
XRECORD
  2
AcDbXrecord
  3
AutoCAD 2000
 90
    32768
280
     0
281
     0
  0
CLASS
  1
SORTENTSTABLE
  2
AcDbSortentsTable
  3
AutoCAD 2000
 90
    32768
280
     0
281
     0
  0
CLASS
  1
LAYER_INDEX
  2
AcDbLayerIndex
  3
AutoCAD 2000
 90
    32768
280
     0
281
     0
  0
CLASS
  1
SPATIAL_INDEX
  2
AcDbSpatialIndex
  3
AutoCAD 2000
 90
    32768
280
     0
281
     0
  0
CLASS
  1
OBJECT_PTR
  2
CAseDLPNTableRecord
  3
"ASE-LPNTableRecord"
 90
    32769
280
     0
281
     0
  0
CLASS
  1
LAYOUT
  2
AcDbLayout
  3
AutoCAD 2000
 90
        0
280
     0
281
     0
  0
CLASS
  1
PLOTSETTINGS
  2
AcDbPlotSettings
  3
AutoCAD 2000
 90
    32768
280
     0
281
     0
  0
CLASS
  1
ACDBDICTIONARYWDFLT
  2
AcDbDictionaryWithDefault
  3
AutoCAD 2000
 90
        0
280
     0
281
     0
  0
CLASS
  1
ACDBPLACEHOLDER
  2
AcDbPlaceHolder
  3
AutoCAD 2000
 90
        0
280
     0
281
     0
  0
CLASS
  1
VBA_PROJECT
  2
AcDbVbaProject
  3
acadvba
 90
    32768
280
     0
281
     0
  0
CLASS
  1
WIPEOUT
  2
AcDbWipeout
  3
WipeOut|AutoCAD Express Tool|expresstools@autodesk.com
 90
    32895
280
     0
281
     1
  0
CLASS
  1
WIPEOUTVARIABLES
  2
AcDbWipeoutVariables
  3
WipeOut|AutoCAD Express Tool|expresstools@autodesk.com
 90
        0
280
     0
281
     0
  0
CLASS
  1
RTEXT
  2
RText
  3
RText|AutoCAD Express Tool|expresstools@autodesk.com
 90
    32768
280
     0
281
     1
  0
CLASS
  1
ARCALIGNEDTEXT
  2
AcDbArcAlignedText
  3
ATEXT|AutoCAD Express Tool|expresstools@autodesk.com
 90
    32768
280
     0
281
     1
  0
ENDSEC
  0
SECTION
  2
TABLES
  0
TABLE
  2
VPORT
  5
7
100
AcDbSymbolTable
 70
     1
  0
VPORT
  5
15
100
AcDbSymbolTableRecord
100
AcDbViewportTableRecord
  2
*ACTIVE
 70
     0
 10
0.0
 20
0.0
 11
1.0
 21
1.0
 12
6.591288
 22
4.579184
 13
0.0
 23
0.0
 14
1.0
 24
1.0
 15
0.0
 25
0.0
 16
0.0
 26
0.0
 36
1.0
 17
0.0
 27
0.0
 37
0.0
 40
9.158369
 41
0.688564
 42
50.0
 43
0.0
 44
0.0
 50
0.0
 51
0.0
 71
     0
 72
   100
 73
     1
 74
     1
 75
     0
 76
     0
 77
     0
 78
     0
281
     0
 65
     0
110
0.0
120
0.0
130
0.0
111
1.0
121
0.0
131
0.0
112
0.0
122
1.0
132
0.0
345
0
346
0
 79
     0
146
0.0
  0
ENDTAB
  0
TABLE
  2
LTYPE
  5
4
100
AcDbSymbolTable
 70
     3
  0
LTYPE
  5
11
100
AcDbSymbolTableRecord
100
AcDbLinetypeTableRecord
  2
ByBlock
 70
    64
  3

 72
    65
 73
     0
 40
0.0
  0
LTYPE
  5
12
100
AcDbSymbolTableRecord
100
AcDbLinetypeTableRecord
  2
ByLayer
 70
    64
  3

 72
    65
 73
     0
 40
0.0
  0
LTYPE
  5
13
100
AcDbSymbolTableRecord
100
AcDbLinetypeTableRecord
  2
Continuous
 70
    64
  3
Solid line
 72
    65
 73
     0
 40
0.0
  0
ENDTAB
  0
TABLE
  2
LAYER
  5
2
100
AcDbSymbolTable
 70
     2
  0
LAYER
  5
14
100
AcDbSymbolTableRecord
100
AcDbLayerTableRecord
  2
0
 70
     0
 62
     7
  6
Continuous
290
     1
370
    -3
390
1D
  0
LAYER
  5
24
100
AcDbSymbolTableRecord
100
AcDbLayerTableRecord
  2
RÚteg 1
 70
     0
 62
     7
  6
Continuous
290
     1
370
    -3
390
1F
  0
ENDTAB
  0
TABLE
  2
STYLE
  5
3
100
AcDbSymbolTable
 70
     1
  0
STYLE
  5
17
100
AcDbSymbolTableRecord
100
AcDbTextStyleTableRecord
  2
Standard
 70
     0
 40
0.0
 41
1.0
 50
0.0
 71
     0
 42
0.0
  3
txt
  4

  0
ENDTAB
  0
TABLE
  2
VIEW
  5
5
100
AcDbSymbolTable
 70
     0
  0
ENDTAB
  0
TABLE
  2
UCS
  5
6
100
AcDbSymbolTable
 70
     0
  0
ENDTAB
  0
TABLE
  2
APPID
  5
8
100
AcDbSymbolTable
 70
     1
  0
APPID
  5
16
100
AcDbSymbolTableRecord
100
AcDbRegAppTableRecord
  2
ACAD
 70
     0
  0
ENDTAB
  0
TABLE
  2
DIMSTYLE
  5
9
100
AcDbSymbolTable
 70
     1
100
AcDbDimStyleTable
 71
     0
  0
DIMSTYLE
105
18
100
AcDbSymbolTableRecord
100
AcDbDimStyleTableRecord
  2
Standard
 70
     0
  3

  4

 40
1.0
 41
0.18
 42
0.0625
 43
0.38
 44
0.18
 45
0.0
 46
0.0
 47
0.0
 48
0.0
 71
     0
 72
     0
 73
     1
 74
     1
 75
     0
 76
     0
 77
     0
 78
     0
 79
     0
140
0.18
141
0.09
142
0.0
143
25.4
144
1.0
145
0.0
146
1.0
147
0.09
148
0.0
170
     0
171
     2
172
     0
173
     0
174
     0
175
     0
176
     0
177
     0
178
     0
179
     0
271
     4
272
     4
273
     2
274
     2
275
     0
276
     0
277
     2
278
    46
279
     0
280
     0
281
     0
282
     0
283
     1
284
     0
285
     0
286
     0
288
     0
340
17
341
0
342
0
343
0
344
0
371
    -2
372
    -2
  0
ENDTAB
  0
TABLE
  2
BLOCK_RECORD
  5
1
100
AcDbSymbolTable
 70
     0
  0
BLOCK_RECORD
  5
A
100
AcDbSymbolTableRecord
100
AcDbBlockTableRecord
  2
*MODEL_SPACE
340
20
  0
BLOCK_RECORD
  5
B
100
AcDbSymbolTableRecord
100
AcDbBlockTableRecord
  2
*PAPER_SPACE
340
21
  0
ENDTAB
  0
ENDSEC
  0
SECTION
  2
BLOCKS
  0
BLOCK
  5
D
100
AcDbEntity
  8
0
100
AcDbBlockBegin
  2
*MODEL_SPACE
 70
     0
 10
0.0
 20
0.0
 30
0.0
  3
*MODEL_SPACE
  1

  0
ENDBLK
  5
E
100
AcDbEntity
  8
0
100
AcDbBlockEnd
  0
BLOCK
  5
F
100
AcDbEntity
 67
     1
  8
0
100
AcDbBlockBegin
  2
*PAPER_SPACE
 70
     0
 10
0.0
 20
0.0
 30
0.0
  3
*PAPER_SPACE
  1

  0
ENDBLK
  5
10
100
AcDbEntity
 67
     1
  8
0
100
AcDbBlockEnd
  0
ENDSEC
  0
SECTION
  2
ENTITIES
  0
SPLINE
  5
25
100
AcDbEntity
  8
RÚteg 1
 62
     7
100
AcDbSpline
210
0.0
220
0.0
230
1.0
 70
     1
 71
     3
 72
    28
 73
    24
 74
     0
 42
0.0000000001
 43
0.0000000001
 40
0.0
 40
0.0
 40
0.0
 40
0.0
 40
0.1666666666666667
 40
0.1666666666666667
 40
0.1666666666666667
 40
0.1666666666666667
 40
0.3333333333333333
 40
0.3333333333333333
 40
0.3333333333333333
 40
0.3333333333333333
 40
0.5
 40
0.5
 40
0.5
 40
0.5
 40
0.6666666666666666
 40
0.6666666666666666
 40
0.6666666666666666
 40
0.6666666666666666
 40
0.8333333333333333
 40
0.8333333333333333
 40
0.8333333333333333
 40
0.8333333333333333
 40
1.0
 40
1.0
 40
1.0
 40
1.0
 10
-48.856699999999996
 20
118.3172
 30
0.0
 10
-47.821399999999997
 20
118.3172
 30
0.0
 10
-46.797400000000003
 20
118.2688
 30
0.0
 10
-45.785800000000002
 20
118.1776
 30
0.0
 10
-45.785800000000002
 20
118.1776
 30
0.0
 10
-45.461399999999998
 20
118.7165
 30
0.0
 10
-45.274700000000003
 20
119.34699999999999
 30
0.0
 10
-45.274700000000003
 20
120.02160000000001
 30
0.0
 10
-45.274700000000003
 20
120.02160000000001
 30
0.0
 10
-45.274700000000003
 20
121.9995
 30
0.0
 10
-46.878799999999998
 20
123.6035
 30
0.0
 10
-48.856699999999996
 20
123.6035
 30
0.0
 10
-48.856699999999996
 20
123.6035
 30
0.0
 10
-50.834499999999998
 20
123.6035
 30
0.0
 10
-52.438600000000001
 20
121.9995
 30
0.0
 10
-52.438600000000001
 20
120.02160000000001
 30
0.0
 10
-52.438600000000001
 20
120.02160000000001
 30
0.0
 10
-52.438600000000001
 20
119.34699999999999
 30
0.0
 10
-52.251899999999999
 20
118.7165
 30
0.0
 10
-51.927700000000002
 20
118.1776
 30
0.0
 10
-51.927700000000002
 20
118.1776
 30
0.0
 10
-50.9161
 20
118.2688
 30
0.0
 10
-49.892000000000003
 20
118.3172
 30
0.0
 10
-48.856699999999996
 20
118.3172
 30
0.0
  0
SPLINE
  5
26
100
AcDbEntity
  8
RÚteg 1
 62
     7
100
AcDbSpline
210
0.0
220
0.0
230
1.0
 70
     1
 71
     3
 72
    56
 73
    52
 74
     0
 42
0.0000000001
 43
0.0000000001
 40
0.0
 40
0.0
 40
0.0
 40
0.0
 40
0.0769230769230769
 40
0.0769230769230769
 40
0.0769230769230769
 40
0.0769230769230769
 40
0.1538461538461539
 40
0.1538461538461539
 40
0.1538461538461539
 40
0.1538461538461539
 40
0.2307692307692308
 40
0.2307692307692308
 40
0.2307692307692308
 40
0.2307692307692308
 40
0.3076923076923077
 40
0.3076923076923077
 40
0.3076923076923077
 40
0.3076923076923077
 40
0.3846153846153846
 40
0.3846153846153846
 40
0.3846153846153846
 40
0.3846153846153846
 40
0.4615384615384616
 40
0.4615384615384616
 40
0.4615384615384616
 40
0.4615384615384616
 40
0.5384615384615386
 40
0.5384615384615386
 40
0.5384615384615386
 40
0.5384615384615386
 40
0.6153846153846154
 40
0.6153846153846154
 40
0.6153846153846154
 40
0.6153846153846154
 40
0.6923076923076923
 40
0.6923076923076923
 40
0.6923076923076923
 40
0.6923076923076923
 40
0.7692307692307692
 40
0.7692307692307692
 40
0.7692307692307692
 40
0.7692307692307692
 40
0.846153846153846
 40
0.846153846153846
 40
0.846153846153846
 40
0.846153846153846
 40
0.9230769230769229
 40
0.9230769230769229
 40
0.9230769230769229
 40
0.9230769230769229
 40
1.0
 40
1.0
 40
1.0
 40
1.0
 10
-23.153500000000001
 20
94.325000000000003
 30
0.0
 10
-23.153500000000001
 20
94.325000000000003
 30
0.0
 10
-21.463899999999999
 20
96.0732
 30
0.0
 10
-21.463899999999999
 20
96.0732
 30
0.0
 10
-21.463899999999999
 20
96.0732
 30
0.0
 10
-21.808299999999999
 20
96.867999999999995
 30
0.0
 10
-22.186
 20
97.644599999999997
 30
0.0
 10
-22.5959
 20
98.401899999999998
 30
0.0
 10
-22.5959
 20
98.401899999999998
 30
0.0
 10
-22.5959
 20
98.401899999999998
 30
0.0
 10
-23.2423
 20
98.401899999999998
 30
0.0
 10
-23.2423
 20
98.401899999999998
 30
0.0
 10
-23.2423
 20
98.401899999999998
 30
0.0
 10
-23.786999999999999
 20
97.466399999999993
 30
0.0
 10
-24.130299999999998
 20
96.894400000000005
 30
0.0
 10
-24.272200000000002
 20
96.685400000000001
 30
0.0
 10
-24.272200000000002
 20
96.685400000000001
 30
0.0
 10
-24.272200000000002
 20
96.685400000000001
 30
0.0
 10
-24.272200000000002
 20
96.685400000000001
 30
0.0
 10
-24.272200000000002
 20
96.685400000000001
 30
0.0
 10
-24.272200000000002
 20
96.685400000000001
 30
0.0
 10
-24.272200000000002
 20
96.712999999999994
 30
0.0
 10
-24.185500000000001
 20
96.870900000000006
 30
0.0
 10
-24.015899999999998
 20
97.158900000000003
 30
0.0
 10
-24.015899999999998
 20
97.158900000000003
 30
0.0
 10
-24.015899999999998
 20
97.158900000000003
 30
0.0
 10
-24.015899999999998
 20
97.158900000000003
 30
0.0
 10
-24.015899999999998
 20
97.158900000000003
 30
0.0
 10
-24.015899999999998
 20
97.158900000000003
 30
0.0
 10
-24.015899999999998
 20
97.158900000000003
 30
0.0
 10
-24.311699999999998
 20
96.590500000000006
 30
0.0
 10
-24.907800000000002
 20
95.462000000000003
 30
0.0
 10
-24.907800000000002
 20
95.462000000000003
 30
0.0
 10
-25.499400000000001
 20
94.329400000000007
 30
0.0
 10
-25.826799999999999
 20
93.6785
 30
0.0
 10
-25.886099999999999
 20
93.504900000000006
 30
0.0
 10
-25.886099999999999
 20
93.504900000000006
 30
0.0
 10
-26.0716
 20
93.019499999999994
 30
0.0
 10
-26.047799999999999
 20
92.711799999999997
 30
0.0
 10
-25.819099999999999
 20
92.581500000000005
 30
0.0
 10
-25.819099999999999
 20
92.581500000000005
 30
0.0
 10
-25.747900000000001
 20
92.5381
 30
0.0
 10
-25.605899999999998
 20
92.549800000000005
 30
0.0
 10
-25.3888
 20
92.613100000000003
 30
0.0
 10
-25.3888
 20
92.613100000000003
 30
0.0
 10
-25.175699999999999
 20
92.679900000000004
 30
0.0
 10
-25.010000000000002
 20
92.766900000000007
 30
0.0
 10
-24.895700000000001
 20
92.881399999999999
 30
0.0
 10
-24.895700000000001
 20
92.881399999999999
 30
0.0
 10
-24.389199999999999
 20
93.281700000000001
 30
0.0
 10
-23.807300000000001
 20
93.764200000000002
 30
0.0
 10
-23.153500000000001
 20
94.325000000000003
 30
0.0
  0
SPLINE
  5
27
100
AcDbEntity
  8
RÚteg 1
 62
     7
100
AcDbSpline
210
0.0
220
0.0
230
1.0
 70
     1
 71
     3
 72
   572
 73
   568
 74
     0
 42
0.0000000001
 43
0.0000000001
 40
0.0
 40
0.0
 40
0.0
 40
0.0
 40
0.0070422535211268
 40
0.0070422535211268
 40
0.0070422535211268
 40
0.0070422535211268
 40
0.0140845070422535
 40
0.0140845070422535
 40
0.0140845070422535
 40
0.0140845070422535
 40
0.0211267605633803
 40
0.0211267605633803
 40
0.0211267605633803
 40
0.0211267605633803
 40
0.028169014084507
 40
0.028169014084507
 40
0.028169014084507
 40
0.028169014084507
 40
0.0352112676056338
 40
0.0352112676056338
 40
0.0352112676056338
 40
0.0352112676056338
 40
0.0422535211267606
 40
0.0422535211267606
 40
0.0422535211267606
 40
0.0422535211267606
 40
0.0492957746478873
 40
0.0492957746478873
 40
0.0492957746478873
 40
0.0492957746478873
 40
0.0563380281690141
 40
0.0563380281690141
 40
0.0563380281690141
 40
0.0563380281690141
 40
0.0633802816901408
 40
0.0633802816901408
 40
0.0633802816901408
 40
0.0633802816901408
 40
0.0704225352112676
 40
0.0704225352112676
 40
0.0704225352112676
 40
0.0704225352112676
 40
0.0774647887323944
 40
0.0774647887323944
 40
0.0774647887323944
 40
0.0774647887323944
 40
0.0845070422535211
 40
0.0845070422535211
 40
0.0845070422535211
 40
0.0845070422535211
 40
0.0915492957746479
 40
0.0915492957746479
 40
0.0915492957746479
 40
0.0915492957746479
 40
0.0985915492957747
 40
0.0985915492957747
 40
0.0985915492957747
 40
0.0985915492957747
 40
0.1056338028169014
 40
0.1056338028169014
 40
0.1056338028169014
 40
0.1056338028169014
 40
0.1126760563380282
 40
0.1126760563380282
 40
0.1126760563380282
 40
0.1126760563380282
 40
0.119718309859155
 40
0.119718309859155
 40
0.119718309859155
 40
0.119718309859155
 40
0.1267605633802817
 40
0.1267605633802817
 40
0.1267605633802817
 40
0.1267605633802817
 40
0.1338028169014085
 40
0.1338028169014085
 40
0.1338028169014085
 40
0.1338028169014085
 40
0.1408450704225352
 40
0.1408450704225352
 40
0.1408450704225352
 40
0.1408450704225352
 40
0.147887323943662
 40
0.147887323943662
 40
0.147887323943662
 40
0.147887323943662
 40
0.1549295774647887
 40
0.1549295774647887
 40
0.1549295774647887
 40
0.1549295774647887
 40
0.1619718309859155
 40
0.1619718309859155
 40
0.1619718309859155
 40
0.1619718309859155
 40
0.1690140845070422
 40
0.1690140845070422
 40
0.1690140845070422
 40
0.1690140845070422
 40
0.176056338028169
 40
0.176056338028169
 40
0.176056338028169
 40
0.176056338028169
 40
0.1830985915492957
 40
0.1830985915492957
 40
0.1830985915492957
 40
0.1830985915492957
 40
0.1901408450704225
 40
0.1901408450704225
 40
0.1901408450704225
 40
0.1901408450704225
 40
0.1971830985915492
 40
0.1971830985915492
 40
0.1971830985915492
 40
0.1971830985915492
 40
0.204225352112676
 40
0.204225352112676
 40
0.204225352112676
 40
0.204225352112676
 40
0.2112676056338027
 40
0.2112676056338027
 40
0.2112676056338027
 40
0.2112676056338027
 40
0.2183098591549295
 40
0.2183098591549295
 40
0.2183098591549295
 40
0.2183098591549295
 40
0.2253521126760562
 40
0.2253521126760562
 40
0.2253521126760562
 40
0.2253521126760562
 40
0.232394366197183
 40
0.232394366197183
 40
0.232394366197183
 40
0.232394366197183
 40
0.2394366197183097
 40
0.2394366197183097
 40
0.2394366197183097
 40
0.2394366197183097
 40
0.2464788732394365
 40
0.2464788732394365
 40
0.2464788732394365
 40
0.2464788732394365
 40
0.2535211267605633
 40
0.2535211267605633
 40
0.2535211267605633
 40
0.2535211267605633
 40
0.26056338028169
 40
0.26056338028169
 40
0.26056338028169
 40
0.26056338028169
 40
0.2676056338028168
 40
0.2676056338028168
 40
0.2676056338028168
 40
0.2676056338028168
 40
0.2746478873239435
 40
0.2746478873239435
 40
0.2746478873239435
 40
0.2746478873239435
 40
0.2816901408450703
 40
0.2816901408450703
 40
0.2816901408450703
 40
0.2816901408450703
 40
0.288732394366197
 40
0.288732394366197
 40
0.288732394366197
 40
0.288732394366197
 40
0.2957746478873238
 40
0.2957746478873238
 40
0.2957746478873238
 40
0.2957746478873238
 40
0.3028169014084505
 40
0.3028169014084505
 40
0.3028169014084505
 40
0.3028169014084505
 40
0.3098591549295773
 40
0.3098591549295773
 40
0.3098591549295773
 40
0.3098591549295773
 40
0.316901408450704
 40
0.316901408450704
 40
0.316901408450704
 40
0.316901408450704
 40
0.3239436619718308
 40
0.3239436619718308
 40
0.3239436619718308
 40
0.3239436619718308
 40
0.3309859154929575
 40
0.3309859154929575
 40
0.3309859154929575
 40
0.3309859154929575
 40
0.3380281690140843
 40
0.3380281690140843
 40
0.3380281690140843
 40
0.3380281690140843
 40
0.345070422535211
 40
0.345070422535211
 40
0.345070422535211
 40
0.345070422535211
 40
0.3521126760563378
 40
0.3521126760563378
 40
0.3521126760563378
 40
0.3521126760563378
 40
0.3591549295774645
 40
0.3591549295774645
 40
0.3591549295774645
 40
0.3591549295774645
 40
0.3661971830985913
 40
0.3661971830985913
 40
0.3661971830985913
 40
0.3661971830985913
 40
0.373239436619718
 40
0.373239436619718
 40
0.373239436619718
 40
0.373239436619718
 40
0.3802816901408448
 40
0.3802816901408448
 40
0.3802816901408448
 40
0.3802816901408448
 40
0.3873239436619715
 40
0.3873239436619715
 40
0.3873239436619715
 40
0.3873239436619715
 40
0.3943661971830983
 40
0.3943661971830983
 40
0.3943661971830983
 40
0.3943661971830983
 40
0.401408450704225
 40
0.401408450704225
 40
0.401408450704225
 40
0.401408450704225
 40
0.4084507042253518
 40
0.4084507042253518
 40
0.4084507042253518
 40
0.4084507042253518
 40
0.4154929577464785
 40
0.4154929577464785
 40
0.4154929577464785
 40
0.4154929577464785
 40
0.4225352112676053
 40
0.4225352112676053
 40
0.4225352112676053
 40
0.4225352112676053
 40
0.429577464788732
 40
0.429577464788732
 40
0.429577464788732
 40
0.429577464788732
 40
0.4366197183098588
 40
0.4366197183098588
 40
0.4366197183098588
 40
0.4366197183098588
 40
0.4436619718309856
 40
0.4436619718309856
 40
0.4436619718309856
 40
0.4436619718309856
 40
0.4507042253521123
 40
0.4507042253521123
 40
0.4507042253521123
 40
0.4507042253521123
 40
0.4577464788732391
 40
0.4577464788732391
 40
0.4577464788732391
 40
0.4577464788732391
 40
0.4647887323943658
 40
0.4647887323943658
 40
0.4647887323943658
 40
0.4647887323943658
 40
0.4718309859154926
 40
0.4718309859154926
 40
0.4718309859154926
 40
0.4718309859154926
 40
0.4788732394366193
 40
0.4788732394366193
 40
0.4788732394366193
 40
0.4788732394366193
 40
0.4859154929577461
 40
0.4859154929577461
 40
0.4859154929577461
 40
0.4859154929577461
 40
0.4929577464788728
 40
0.4929577464788728
 40
0.4929577464788728
 40
0.4929577464788728
 40
0.4999999999999996
 40
0.4999999999999996
 40
0.4999999999999996
 40
0.4999999999999996
 40
0.5070422535211263
 40
0.5070422535211263
 40
0.5070422535211263
 40
0.5070422535211263
 40
0.5140845070422531
 40
0.5140845070422531
 40
0.5140845070422531
 40
0.5140845070422531
 40
0.5211267605633798
 40
0.5211267605633798
 40
0.5211267605633798
 40
0.5211267605633798
 40
0.5281690140845066
 40
0.5281690140845066
 40
0.5281690140845066
 40
0.5281690140845066
 40
0.5352112676056333
 40
0.5352112676056333
 40
0.5352112676056333
 40
0.5352112676056333
 40
0.5422535211267601
 40
0.5422535211267601
 40
0.5422535211267601
 40
0.5422535211267601
 40
0.5492957746478868
 40
0.5492957746478868
 40
0.5492957746478868
 40
0.5492957746478868
 40
0.5563380281690136
 40
0.5563380281690136
 40
0.5563380281690136
 40
0.5563380281690136
 40
0.5633802816901403
 40
0.5633802816901403
 40
0.5633802816901403
 40
0.5633802816901403
 40
0.5704225352112671
 40
0.5704225352112671
 40
0.5704225352112671
 40
0.5704225352112671
 40
0.5774647887323938
 40
0.5774647887323938
 40
0.5774647887323938
 40
0.5774647887323938
 40
0.5845070422535206
 40
0.5845070422535206
 40
0.5845070422535206
 40
0.5845070422535206
 40
0.5915492957746473
 40
0.5915492957746473
 40
0.5915492957746473
 40
0.5915492957746473
 40
0.5985915492957741
 40
0.5985915492957741
 40
0.5985915492957741
 40
0.5985915492957741
 40
0.6056338028169008
 40
0.6056338028169008
 40
0.6056338028169008
 40
0.6056338028169008
 40
0.6126760563380276
 40
0.6126760563380276
 40
0.6126760563380276
 40
0.6126760563380276
 40
0.6197183098591543
 40
0.6197183098591543
 40
0.6197183098591543
 40
0.6197183098591543
 40
0.6267605633802811
 40
0.6267605633802811
 40
0.6267605633802811
 40
0.6267605633802811
 40
0.6338028169014078
 40
0.6338028169014078
 40
0.6338028169014078
 40
0.6338028169014078
 40
0.6408450704225346
 40
0.6408450704225346
 40
0.6408450704225346
 40
0.6408450704225346
 40
0.6478873239436613
 40
0.6478873239436613
 40
0.6478873239436613
 40
0.6478873239436613
 40
0.6549295774647881
 40
0.6549295774647881
 40
0.6549295774647881
 40
0.6549295774647881
 40
0.6619718309859148
 40
0.6619718309859148
 40
0.6619718309859148
 40
0.6619718309859148
 40
0.6690140845070416
 40
0.6690140845070416
 40
0.6690140845070416
 40
0.6690140845070416
 40
0.6760563380281683
 40
0.6760563380281683
 40
0.6760563380281683
 40
0.6760563380281683
 40
0.6830985915492951
 40
0.6830985915492951
 40
0.6830985915492951
 40
0.6830985915492951
 40
0.6901408450704218
 40
0.6901408450704218
 40
0.6901408450704218
 40
0.6901408450704218
 40
0.6971830985915486
 40
0.6971830985915486
 40
0.6971830985915486
 40
0.6971830985915486
 40
0.7042253521126753
 40
0.7042253521126753
 40
0.7042253521126753
 40
0.7042253521126753
 40
0.7112676056338021
 40
0.7112676056338021
 40
0.7112676056338021
 40
0.7112676056338021
 40
0.7183098591549288
 40
0.7183098591549288
 40
0.7183098591549288
 40
0.7183098591549288
 40
0.7253521126760556
 40
0.7253521126760556
 40
0.7253521126760556
 40
0.7253521126760556
 40
0.7323943661971823
 40
0.7323943661971823
 40
0.7323943661971823
 40
0.7323943661971823
 40
0.7394366197183091
 40
0.7394366197183091
 40
0.7394366197183091
 40
0.7394366197183091
 40
0.7464788732394359
 40
0.7464788732394359
 40
0.7464788732394359
 40
0.7464788732394359
 40
0.7535211267605626
 40
0.7535211267605626
 40
0.7535211267605626
 40
0.7535211267605626
 40
0.7605633802816894
 40
0.7605633802816894
 40
0.7605633802816894
 40
0.7605633802816894
 40
0.7676056338028161
 40
0.7676056338028161
 40
0.7676056338028161
 40
0.7676056338028161
 40
0.7746478873239429
 40
0.7746478873239429
 40
0.7746478873239429
 40
0.7746478873239429
 40
0.7816901408450696
 40
0.7816901408450696
 40
0.7816901408450696
 40
0.7816901408450696
 40
0.7887323943661964
 40
0.7887323943661964
 40
0.7887323943661964
 40
0.7887323943661964
 40
0.7957746478873231
 40
0.7957746478873231
 40
0.7957746478873231
 40
0.7957746478873231
 40
0.8028169014084499
 40
0.8028169014084499
 40
0.8028169014084499
 40
0.8028169014084499
 40
0.8098591549295766
 40
0.8098591549295766
 40
0.8098591549295766
 40
0.8098591549295766
 40
0.8169014084507034
 40
0.8169014084507034
 40
0.8169014084507034
 40
0.8169014084507034
 40
0.8239436619718301
 40
0.8239436619718301
 40
0.8239436619718301
 40
0.8239436619718301
 40
0.8309859154929569
 40
0.8309859154929569
 40
0.8309859154929569
 40
0.8309859154929569
 40
0.8380281690140836
 40
0.8380281690140836
 40
0.8380281690140836
 40
0.8380281690140836
 40
0.8450704225352104
 40
0.8450704225352104
 40
0.8450704225352104
 40
0.8450704225352104
 40
0.8521126760563371
 40
0.8521126760563371
 40
0.8521126760563371
 40
0.8521126760563371
 40
0.8591549295774639
 40
0.8591549295774639
 40
0.8591549295774639
 40
0.8591549295774639
 40
0.8661971830985906
 40
0.8661971830985906
 40
0.8661971830985906
 40
0.8661971830985906
 40
0.8732394366197174
 40
0.8732394366197174
 40
0.8732394366197174
 40
0.8732394366197174
 40
0.8802816901408441
 40
0.8802816901408441
 40
0.8802816901408441
 40
0.8802816901408441
 40
0.8873239436619709
 40
0.8873239436619709
 40
0.8873239436619709
 40
0.8873239436619709
 40
0.8943661971830976
 40
0.8943661971830976
 40
0.8943661971830976
 40
0.8943661971830976
 40
0.9014084507042244
 40
0.9014084507042244
 40
0.9014084507042244
 40
0.9014084507042244
 40
0.9084507042253511
 40
0.9084507042253511
 40
0.9084507042253511
 40
0.9084507042253511
 40
0.9154929577464779
 40
0.9154929577464779
 40
0.9154929577464779
 40
0.9154929577464779
 40
0.9225352112676046
 40
0.9225352112676046
 40
0.9225352112676046
 40
0.9225352112676046
 40
0.9295774647887314
 40
0.9295774647887314
 40
0.9295774647887314
 40
0.9295774647887314
 40
0.9366197183098581
 40
0.9366197183098581
 40
0.9366197183098581
 40
0.9366197183098581
 40
0.9436619718309849
 40
0.9436619718309849
 40
0.9436619718309849
 40
0.9436619718309849
 40
0.9507042253521116
 40
0.9507042253521116
 40
0.9507042253521116
 40
0.9507042253521116
 40
0.9577464788732384
 40
0.9577464788732384
 40
0.9577464788732384
 40
0.9577464788732384
 40
0.9647887323943651
 40
0.9647887323943651
 40
0.9647887323943651
 40
0.9647887323943651
 40
0.9718309859154919
 40
0.9718309859154919
 40
0.9718309859154919
 40
0.9718309859154919
 40
0.9788732394366186
 40
0.9788732394366186
 40
0.9788732394366186
 40
0.9788732394366186
 40
0.9859154929577454
 40
0.9859154929577454
 40
0.9859154929577454
 40
0.9859154929577454
 40
0.9929577464788721
 40
0.9929577464788721
 40
0.9929577464788721
 40
0.9929577464788721
 40
1.0
 40
1.0
 40
1.0
 40
1.0
 10
-21.0474
 20
95.061700000000002
 30
0.0
 10
-21.0474
 20
95.061700000000002
 30
0.0
 10
-22.597300000000001
 20
93.383600000000001
 30
0.0
 10
-22.597300000000001
 20
93.383600000000001
 30
0.0
 10
-22.597300000000001
 20
93.383600000000001
 30
0.0
 10
-22.597300000000001
 20
93.383600000000001
 30
0.0
 10
-22.5975
 20
93.383799999999994
 30
0.0
 10
-22.5975
 20
93.383799999999994
 30
0.0
 10
-22.5975
 20
93.383799999999994
 30
0.0
 10
-23.164400000000001
 20
92.769900000000007
 30
0.0
 10
-23.960899999999999
 20
92.094700000000003
 30
0.0
 10
-24.982500000000002
 20
91.358099999999993
 30
0.0
 10
-24.982500000000002
 20
91.358099999999993
 30
0.0
 10
-26.371400000000001
 20
90.367699999999999
 30
0.0
 10
-27.409199999999998
 20
89.874700000000004
 30
0.0
 10
-28.096
 20
89.874700000000004
 30
0.0
 10
-28.096
 20
89.874700000000004
 30
0.0
 10
-28.655999999999999
 20
89.874700000000004
 30
0.0
 10
-29.106100000000001
 20
90.083699999999993
 30
0.0
 10
-29.449400000000001
 20
90.497900000000001
 30
0.0
 10
-29.449400000000001
 20
90.497900000000001
 30
0.0
 10
-29.7653
 20
90.856800000000007
 30
0.0
 10
-29.895199999999999
 20
91.235900000000001
 30
0.0
 10
-29.836200000000002
 20
91.634299999999996
 30
0.0
 10
-29.836200000000002
 20
91.634299999999996
 30
0.0
 10
-29.709900000000001
 20
92.624799999999993
 30
0.0
 10
-29.050999999999998
 20
94.136200000000002
 30
0.0
 10
-27.859000000000002
 20
96.168300000000002
 30
0.0
 10
-27.859000000000002
 20
96.168300000000002
 30
0.0
 10
-28.4194
 20
95.454099999999997
 30
0.0
 10
-29.1219
 20
94.609800000000007
 30
0.0
 10
-29.9663
 20
93.635099999999994
 30
0.0
 10
-29.9663
 20
93.635099999999994
 30
0.0
 10
-30.040800000000001
 20
93.560500000000005
 30
0.0
 10
-30.1143
 20
93.503200000000007
 30
0.0
 10
-30.186299999999999
 20
93.463200000000001
 30
0.0
 10
-30.186299999999999
 20
93.463200000000001
 30
0.0
 10
-30.226900000000001
 20
93.413700000000006
 30
0.0
 10
-30.270600000000002
 20
93.363299999999995
 30
0.0
 10
-30.317599999999999
 20
93.311499999999995
 30
0.0
 10
-30.317599999999999
 20
93.311499999999995
 30
0.0
 10
-30.668800000000001
 20
92.924700000000001
 30
0.0
 10
-31.272300000000001
 20
92.364400000000003
 30
0.0
 10
-32.132800000000003
 20
91.634299999999996
 30
0.0
 10
-32.132800000000003
 20
91.634299999999996
 30
0.0
 10
-33.107199999999999
 20
90.805800000000005
 30
0.0
 10
-33.770200000000003
 20
90.3125
 30
0.0
 10
-34.121400000000001
 20
90.162499999999994
 30
0.0
 10
-34.121400000000001
 20
90.162499999999994
 30
0.0
 10
-34.4726
 20
90.012699999999995
 30
0.0
 10
-34.839500000000001
 20
89.937600000000003
 30
0.0
 10
-35.226300000000002
 20
89.937600000000003
 30
0.0
 10
-35.226300000000002
 20
89.937600000000003
 30
0.0
 10
-36.058900000000001
 20
89.937600000000003
 30
0.0
 10
-36.5246
 20
90.261099999999999
 30
0.0
 10
-36.623100000000001
 20
90.904300000000006
 30
0.0
 10
-36.623100000000001
 20
90.904300000000006
 30
0.0
 10
-36.721899999999998
 20
91.535700000000006
 30
0.0
 10
-36.070799999999998
 20
93.161500000000004
 30
0.0
 10
-34.665999999999997
 20
95.781499999999994
 30
0.0
 10
-34.665999999999997
 20
95.781499999999994
 30
0.0
 10
-34.610900000000001
 20
95.884399999999999
 30
0.0
 10
-34.582999999999998
 20
95.967299999999994
 30
0.0
 10
-34.582999999999998
 20
96.042199999999994
 30
0.0
 10
-34.582999999999998
 20
96.042199999999994
 30
0.0
 10
-34.582999999999998
 20
96.113100000000003
 30
0.0
 10
-34.630400000000002
 20
96.148600000000002
 30
0.0
 10
-34.733199999999997
 20
96.148600000000002
 30
0.0
 10
-34.733199999999997
 20
96.148600000000002
 30
0.0
 10
-34.977600000000002
 20
96.148600000000002
 30
0.0
 10
-35.238100000000003
 20
96.006500000000003
 30
0.0
 10
-35.518300000000004
 20
95.730400000000003
 30
0.0
 10
-35.518300000000004
 20
95.730400000000003
 30
0.0
 10
-35.794400000000003
 20
95.450100000000006
 30
0.0
 10
-36.331299999999999
 20
94.850499999999997
 30
0.0
 10
-37.116399999999999
 20
93.935000000000002
 30
0.0
 10
-37.116399999999999
 20
93.935000000000002
 30
0.0
 10
-38.020000000000003
 20
92.888999999999996
 30
0.0
 10
-38.643300000000004
 20
92.123599999999996
 30
0.0
 10
-38.986699999999999
 20
91.638400000000004
 30
0.0
 10
-38.986699999999999
 20
91.638400000000004
 30
0.0
 10
-39.330100000000002
 20
91.149199999999993
 30
0.0
 10
-39.760100000000001
 20
90.722700000000003
 30
0.0
 10
-40.277200000000001
 20
90.359800000000007
 30
0.0
 10
-40.277200000000001
 20
90.359800000000007
 30
0.0
 10
-40.790199999999999
 20
89.992900000000006
 30
0.0
 10
-41.243899999999996
 20
89.811400000000006
 30
0.0
 10
-41.630699999999997
 20
89.811400000000006
 30
0.0
 10
-41.630699999999997
 20
89.811400000000006
 30
0.0
 10
-42.143599999999999
 20
89.811400000000006
 30
0.0
 10
-42.404200000000003
 20
90.075699999999998
 30
0.0
 10
-42.404200000000003
 20
90.604500000000002
 30
0.0
 10
-42.404200000000003
 20
90.604500000000002
 30
0.0
 10
-42.404200000000003
 20
90.849100000000007
 30
0.0
 10
-42.2898
 20
91.156800000000004
 30
0.0
 10
-42.056899999999999
 20
91.527799999999999
 30
0.0
 10
-42.056899999999999
 20
91.527799999999999
 30
0.0
 10
-41.701599999999999
 20
92.115899999999996
 30
0.0
 10
-41.512300000000003
 20
92.431600000000003
 30
0.0
 10
-41.500500000000002
 20
92.474900000000005
 30
0.0
 10
-41.500500000000002
 20
92.474900000000005
 30
0.0
 10
-41.243899999999996
 20
93.003600000000006
 30
0.0
 10
-40.6126
 20
94.266400000000004
 30
0.0
 10
-39.610300000000002
 20
96.255200000000002
 30
0.0
 10
-39.610300000000002
 20
96.255200000000002
 30
0.0
 10
-40.431899999999999
 20
95.284700000000001
 30
0.0
 10
-41.0867
 20
94.552999999999997
 30
0.0
 10
-41.574800000000003
 20
94.059299999999993
 30
0.0
 10
-41.574800000000003
 20
94.059299999999993
 30
0.0
 10
-41.638599999999997
 20
93.726200000000006
 30
0.0
 10
-42.137099999999997
 20
93.125299999999996
 30
0.0
 10
-43.071100000000001
 20
92.257900000000006
 30
0.0
 10
-43.071100000000001
 20
92.257900000000006
 30
0.0
 10
-44.9176
 20
90.553200000000004
 30
0.0
 10
-46.606699999999996
 20
89.700900000000004
 30
0.0
 10
-48.1417
 20
89.700900000000004
 30
0.0
 10
-48.1417
 20
89.700900000000004
 30
0.0
 10
-48.611199999999997
 20
89.700900000000004
 30
0.0
 10
-49.029400000000003
 20
89.799499999999995
 30
0.0
 10
-49.384599999999999
 20
90.000699999999995
 30
0.0
 10
-49.384599999999999
 20
90.000699999999995
 30
0.0
 10
-49.874000000000002
 20
90.272900000000007
 30
0.0
 10
-50.252600000000001
 20
90.695400000000006
 30
0.0
 10
-50.524999999999999
 20
91.2714
 30
0.0
 10
-50.524999999999999
 20
91.2714
 30
0.0
 10
-50.753799999999998
 20
91.741
 30
0.0
 10
-50.840600000000002
 20
92.143199999999993
 30
0.0
 10
-50.781500000000001
 20
92.474900000000005
 30
0.0
 10
-50.781500000000001
 20
92.474900000000005
 30
0.0
 10
-50.726399999999998
 20
92.829899999999995
 30
0.0
 10
-50.682899999999997
 20
93.066900000000004
 30
0.0
 10
-50.655099999999997
 20
93.181200000000004
 30
0.0
 10
-50.655099999999997
 20
93.181200000000004
 30
0.0
 10
-50.568399999999997
 20
93.414199999999994
 30
0.0
 10
-50.410499999999999
 20
93.619299999999996
 30
0.0
 10
-50.181600000000003
 20
93.8048
 30
0.0
 10
-50.181600000000003
 20
93.8048
 30
0.0
 10
-50.494
 20
93.492400000000004
 30
0.0
 10
-50.730699999999999
 20
93.311499999999995
 30
0.0
 10
-50.892000000000003
 20
93.2624
 30
0.0
 10
-50.892000000000003
 20
93.2624
 30
0.0
 10
-51.119100000000003
 20
93.016499999999994
 30
0.0
 10
-51.346699999999998
 20
92.769000000000005
 30
0.0
 10
-51.5747
 20
92.518299999999996
 30
0.0
 10
-51.5747
 20
92.518299999999996
 30
0.0
 10
-52.434800000000003
 20
91.630300000000005
 30
0.0
 10
-53.074100000000001
 20
91.058199999999999
 30
0.0
 10
-53.488100000000003
 20
90.797799999999995
 30
0.0
 10
-53.488100000000003
 20
90.797799999999995
 30
0.0
 10
-54.3919
 20
90.209999999999994
 30
0.0
 10
-55.169400000000003
 20
89.918000000000006
 30
0.0
 10
-55.828299999999999
 20
89.918000000000006
 30
0.0
 10
-55.828299999999999
 20
89.918000000000006
 30
0.0
 10
-56.503100000000003
 20
89.918000000000006
 30
0.0
 10
-56.996200000000002
 20
90.225399999999993
 30
0.0
 10
-57.312199999999997
 20
90.841300000000004
 30
0.0
 10
-57.312199999999997
 20
90.841300000000004
 30
0.0
 10
-57.371200000000002
 20
90.943899999999999
 30
0.0
 10
-57.398800000000001
 20
91.078000000000003
 30
0.0
 10
-57.398800000000001
 20
91.251800000000003
 30
0.0
 10
-57.398800000000001
 20
91.251800000000003
 30
0.0
 10
-57.398800000000001
 20
92.194699999999997
 30
0.0
 10
-56.625599999999999
 20
93.970500000000001
 30
0.0
 10
-55.078699999999998
 20
96.578699999999998
 30
0.0
 10
-55.078699999999998
 20
96.578699999999998
 30
0.0
 10
-55.9495
 20
95.317999999999998
 30
0.0
 10
-56.635100000000001
 20
94.420699999999997
 30
0.0
 10
-57.134300000000003
 20
93.885599999999997
 30
0.0
 10
-57.134300000000003
 20
93.885599999999997
 30
0.0
 10
-57.134300000000003
 20
93.885599999999997
 30
0.0
 10
-57.142099999999999
 20
93.871700000000004
 30
0.0
 10
-57.142099999999999
 20
93.871700000000004
 30
0.0
 10
-57.142099999999999
 20
93.871700000000004
 30
0.0
 10
-57.513199999999998
 20
93.240300000000005
 30
0.0
 10
-58.322099999999999
 20
92.431600000000003
 30
0.0
 10
-59.569099999999999
 20
91.441000000000003
 30
0.0
 10
-59.569099999999999
 20
91.441000000000003
 30
0.0
 10
-60.9148
 20
90.367699999999999
 30
0.0
 10
-61.908799999999999
 20
89.831100000000006
 30
0.0
 10
-62.556100000000001
 20
89.831100000000006
 30
0.0
 10
-62.556100000000001
 20
89.831100000000006
 30
0.0
 10
-62.986400000000003
 20
89.831100000000006
 30
0.0
 10
-63.337499999999999
 20
90.004599999999996
 30
0.0
 10
-63.610100000000003
 20
90.347999999999999
 30
0.0
 10
-63.610100000000003
 20
90.347999999999999
 30
0.0
 10
-63.822899999999997
 20
90.620400000000004
 30
0.0
 10
-63.929299999999998
 20
90.884600000000006
 30
0.0
 10
-63.929299999999998
 20
91.141300000000001
 30
0.0
 10
-63.929299999999998
 20
91.141300000000001
 30
0.0
 10
-63.929299999999998
 20
91.669899999999998
 30
0.0
 10
-63.795400000000001
 20
92.265900000000002
 30
0.0
 10
-63.523000000000003
 20
92.924700000000001
 30
0.0
 10
-63.523000000000003
 20
92.924700000000001
 30
0.0
 10
-63.377099999999999
 20
93.283799999999999
 30
0.0
 10
-62.883600000000001
 20
94.329400000000007
 30
0.0
 10
-62.039299999999997
 20
96.061800000000005
 30
0.0
 10
-62.039299999999997
 20
96.061800000000005
 30
0.0
 10
-62.339300000000001
 20
95.6875
 30
0.0
 10
-62.660600000000002
 20
95.2971
 30
0.0
 10
-63.004399999999997
 20
94.890299999999996
 30
0.0
 10
-63.004399999999997
 20
94.890299999999996
 30
0.0
 10
-63.004399999999997
 20
94.890299999999996
 30
0.0
 10
-63.004399999999997
 20
94.890299999999996
 30
0.0
 10
-63.004399999999997
 20
94.890299999999996
 30
0.0
 10
-63.004399999999997
 20
94.890299999999996
 30
0.0
 10
-63.004399999999997
 20
94.890299999999996
 30
0.0
 10
-63.0075
 20
94.886600000000001
 30
0.0
 10
-63.0075
 20
94.886600000000001
 30
0.0
 10
-63.0075
 20
94.886600000000001
 30
0.0
 10
-63.318800000000003
 20
94.518199999999993
 30
0.0
 10
-63.648499999999999
 20
94.136399999999995
 30
0.0
 10
-63.996499999999997
 20
93.741799999999998
 30
0.0
 10
-63.996499999999997
 20
93.741799999999998
 30
0.0
 10
-65.402199999999993
 20
91.483599999999996
 30
0.0
 10
-67.562100000000001
 20
90.733699999999999
 30
0.0
 10
-69.746200000000002
 20
90.032300000000006
 30
0.0
 10
-69.746200000000002
 20
90.032300000000006
 30
0.0
 10
-69.746200000000002
 20
90.032300000000006
 30
0.0
 10
-69.745500000000007
 20
90.033199999999994
 30
0.0
 10
-69.745500000000007
 20
90.033199999999994
 30
0.0
 10
-69.745500000000007
 20
90.033199999999994
 30
0.0
 10
-70.734700000000004
 20
89.656400000000005
 30
0.0
 10
-71.868799999999993
 20
89.468100000000007
 30
0.0
 10
-73.147300000000001
 20
89.468100000000007
 30
0.0
 10
-73.147300000000001
 20
89.468100000000007
 30
0.0
 10
-75.065100000000001
 20
89.468100000000007
 30
0.0
 10
-76.485500000000002
 20
89.953500000000005
 30
0.0
 10
-77.401200000000003
 20
90.928100000000001
 30
0.0
 10
-77.401200000000003
 20
90.928100000000001
 30
0.0
 10
-77.556899999999999
 20
91.094300000000004
 30
0.0
 10
-77.694000000000003
 20
91.269300000000001
 30
0.0
 10
-77.811899999999994
 20
91.452799999999996
 30
0.0
 10
-77.811899999999994
 20
91.452799999999996
 30
0.0
 10
-78.388300000000001
 20
89.137900000000002
 30
0.0
 10
-78.696200000000005
 20
86.716800000000006
 30
0.0
 10
-78.696200000000005
 20
84.223600000000005
 30
0.0
 10
-78.696200000000005
 20
84.223600000000005
 30
0.0
 10
-78.696200000000005
 20
78.439499999999995
 30
0.0
 10
-77.048000000000002
 20
73.040400000000005
 30
0.0
 10
-74.197900000000004
 20
68.467500000000001
 30
0.0
 10
-74.197900000000004
 20
68.467500000000001
 30
0.0
 10
-74.013400000000004
 20
68.838300000000004
 30
0.0
 10
-73.805400000000006
 20
69.243600000000001
 30
0.0
 10
-73.571799999999996
 20
69.682199999999995
 30
0.0
 10
-73.571799999999996
 20
69.682199999999995
 30
0.0
 10
-74.802899999999994
 20
70.854299999999995
 30
0.0
 10
-75.363100000000003
 20
72.156400000000005
 30
0.0
 10
-75.248900000000006
 20
73.588800000000006
 30
0.0
 10
-75.248900000000006
 20
73.588800000000006
 30
0.0
 10
-74.9923
 20
76.998099999999994
 30
0.0
 10
-73.587699999999998
 20
79.578999999999994
 30
0.0
 10
-71.038399999999996
 20
81.322999999999993
 30
0.0
 10
-71.038399999999996
 20
81.322999999999993
 30
0.0
 10
-70.3202
 20
81.824100000000001
 30
0.0
 10
-69.483800000000002
 20
82.061000000000007
 30
0.0
 10
-68.524799999999999
 20
82.033299999999997
 30
0.0
 10
-68.524799999999999
 20
82.033299999999997
 30
0.0
 10
-66.820099999999996
 20
81.989900000000006
 30
0.0
 10
-65.9679
 20
80.971999999999994
 30
0.0
 10
-65.9679
 20
78.9833
 30
0.0
 10
-65.9679
 20
78.9833
 30
0.0
 10
-65.9679
 20
78.438400000000001
 30
0.0
 10
-66.031000000000006
 20
77.972899999999996
 30
0.0
 10
-66.161199999999994
 20
77.586399999999998
 30
0.0
 10
-66.161199999999994
 20
77.586399999999998
 30
0.0
 10
-66.275700000000001
 20
77.270499999999998
 30
0.0
 10
-66.670100000000005
 20
76.363
 30
0.0
 10
-67.340999999999994
 20
74.859399999999994
 30
0.0
 10
-67.340999999999994
 20
74.859399999999994
 30
0.0
 10
-66.153300000000002
 20
76.189400000000006
 30
0.0
 10
-65.001199999999997
 20
77.266599999999997
 30
0.0
 10
-63.884399999999999
 20
78.079499999999996
 30
0.0
 10
-63.884399999999999
 20
78.079499999999996
 30
0.0
 10
-62.708399999999997
 20
78.911900000000003
 30
0.0
 10
-61.7575
 20
79.326300000000003
 30
0.0
 10
-61.0274
 20
79.326300000000003
 30
0.0
 10
-61.0274
 20
79.326300000000003
 30
0.0
 10
-59.851500000000001
 20
79.326300000000003
 30
0.0
 10
-59.263500000000001
 20
78.825199999999995
 30
0.0
 10
-59.263500000000001
 20
77.822900000000004
 30
0.0
 10
-59.263500000000001
 20
77.822900000000004
 30
0.0
 10
-59.263500000000001
 20
77.451999999999998
 30
0.0
 10
-59.350299999999997
 20
77.0655
 30
0.0
 10
-59.524099999999997
 20
76.662800000000004
 30
0.0
 10
-59.524099999999997
 20
76.662800000000004
 30
0.0
 10
-60.609200000000001
 20
74.484700000000004
 30
0.0
 10
-61.828499999999998
 20
71.994900000000001
 30
0.0
 10
-63.174199999999999
 20
69.185299999999998
 30
0.0
 10
-63.174199999999999
 20
69.185299999999998
 30
0.0
 10
-63.316099999999999
 20
68.841899999999995
 30
0.0
 10
-63.391199999999998
 20
68.561700000000002
 30
0.0
 10
-63.391199999999998
 20
68.348500000000001
 30
0.0
 10
-63.391199999999998
 20
68.348500000000001
 30
0.0
 10
-63.391199999999998
 20
68.103899999999996
 30
0.0
 10
-63.304299999999998
 20
67.9816
 30
0.0
 10
-63.130600000000001
 20
67.9816
 30
0.0
 10
-63.130600000000001
 20
67.9816
 30
0.0
 10
-62.944899999999997
 20
67.9816
 30
0.0
 10
-62.672800000000002
 20
68.135499999999993
 30
0.0
 10
-62.313800000000001
 20
68.435599999999994
 30
0.0
 10
-62.313800000000001
 20
68.435599999999994
 30
0.0
 10
-61.9587
 20
68.735399999999998
 30
0.0
 10
-61.493099999999998
 20
69.165400000000005
 30
0.0
 10
-60.917000000000002
 20
69.721800000000002
 30
0.0
 10
-60.917000000000002
 20
69.721800000000002
 30
0.0
 10
-60.822400000000002
 20
69.819000000000003
 30
0.0
 10
-60.7014
 20
69.882900000000006
 30
0.0
 10
-60.555700000000002
 20
69.915000000000006
 30
0.0
 10
-60.555700000000002
 20
69.915000000000006
 30
0.0
 10
-60.540500000000002
 20
69.957599999999999
 30
0.0
 10
-60.518999999999998
 20
70.000799999999998
 30
0.0
 10
-60.4908
 20
70.045500000000004
 30
0.0
 10
-60.4908
 20
70.045500000000004
 30
0.0
 10
-60.202599999999997
 20
70.376900000000006
 30
0.0
 10
-59.610900000000001
 20
71.106999999999999
 30
0.0
 10
-58.707299999999996
 20
72.239599999999996
 30
0.0
 10
-58.707299999999996
 20
72.239599999999996
 30
0.0
 10
-58.249499999999998
 20
72.910200000000003
 30
0.0
 10
-57.783900000000003
 20
73.584900000000005
 30
0.0
 10
-57.310200000000002
 20
74.255799999999994
 30
0.0
 10
-57.310200000000002
 20
74.255799999999994
 30
0.0
 10
-56.781500000000001
 20
75.001499999999993
 30
0.0
 10
-56.371099999999998
 20
75.412000000000006
 30
0.0
 10
-56.087200000000003
 20
75.482900000000001
 30
0.0
 10
-56.087200000000003
 20
75.482900000000001
 30
0.0
 10
-55.998800000000003
 20
75.505499999999998
 30
0.0
 10
-55.918799999999997
 20
75.525899999999993
 30
0.0
 10
-55.846800000000002
 20
75.543400000000005
 30
0.0
 10
-55.846800000000002
 20
75.543400000000005
 30
0.0
 10
-56.028799999999997
 20
75.864900000000006
 30
0.0
 10
-56.132899999999999
 20
76.2363
 30
0.0
 10
-56.132899999999999
 20
76.632000000000005
 30
0.0
 10
-56.132899999999999
 20
76.632000000000005
 30
0.0
 10
-56.132899999999999
 20
77.856099999999998
 30
0.0
 10
-55.140300000000003
 20
78.848699999999994
 30
0.0
 10
-53.916200000000003
 20
78.848699999999994
 30
0.0
 10
-53.916200000000003
 20
78.848699999999994
 30
0.0
 10
-52.692300000000003
 20
78.848699999999994
 30
0.0
 10
-51.6997
 20
77.856099999999998
 30
0.0
 10
-51.6997
 20
76.632000000000005
 30
0.0
 10
-51.6997
 20
76.632000000000005
 30
0.0
 10
-51.6997
 20
75.408100000000005
 30
0.0
 10
-52.692300000000003
 20
74.415499999999994
 30
0.0
 10
-53.916200000000003
 20
74.415499999999994
 30
0.0
 10
-53.916200000000003
 20
74.415499999999994
 30
0.0
 10
-54.047899999999998
 20
74.415499999999994
 30
0.0
 10
-54.176699999999997
 20
74.427099999999996
 30
0.0
 10
-54.302399999999999
 20
74.449299999999994
 30
0.0
 10
-54.302399999999999
 20
74.449299999999994
 30
0.0
 10
-54.131599999999999
 20
74.164299999999997
 30
0.0
 10
-54.046900000000001
 20
73.935299999999998
 30
0.0
 10
-54.046900000000001
 20
73.762500000000003
 30
0.0
 10
-54.046900000000001
 20
73.762500000000003
 30
0.0
 10
-54.046900000000001
 20
73.375900000000001
 30
0.0
 10
-54.339100000000002
 20
72.539400000000001
 30
0.0
 10
-54.9268
 20
71.248999999999995
 30
0.0
 10
-54.9268
 20
71.248999999999995
 30
0.0
 10
-55.471499999999999
 20
70.045500000000004
 30
0.0
 10
-55.743899999999996
 20
69.272000000000006
 30
0.0
 10
-55.743899999999996
 20
68.928700000000006
 30
0.0
 10
-55.743899999999996
 20
68.928700000000006
 30
0.0
 10
-55.743899999999996
 20
68.770700000000005
 30
0.0
 10
-55.676600000000001
 20
68.691900000000004
 30
0.0
 10
-55.5505
 20
68.691900000000004
 30
0.0
 10
-55.5505
 20
68.691900000000004
 30
0.0
 10
-55.392499999999998
 20
68.691900000000004
 30
0.0
 10
-55.0334
 20
68.987799999999993
 30
0.0
 10
-54.472999999999999
 20
69.572100000000006
 30
0.0
 10
-54.472999999999999
 20
69.572100000000006
 30
0.0
 10
-54.066600000000001
 20
70.004199999999997
 30
0.0
 10
-53.734699999999997
 20
70.309399999999997
 30
0.0
 10
-53.4786
 20
70.486099999999993
 30
0.0
 10
-53.4786
 20
70.486099999999993
 30
0.0
 10
-53.188000000000002
 20
70.833299999999994
 30
0.0
 10
-52.823999999999998
 20
71.259
 30
0.0
 10
-52.385800000000003
 20
71.765900000000002
 30
0.0
 10
-52.385800000000003
 20
71.765900000000002
 30
0.0
 10
-51.324399999999997
 20
72.926000000000002
 30
0.0
 10
-50.665199999999999
 20
73.6203
 30
0.0
 10
-50.408900000000003
 20
73.849299999999999
 30
0.0
 10
-50.408900000000003
 20
73.849299999999999
 30
0.0
 10
-49.260399999999997
 20
74.879400000000004
 30
0.0
 10
-48.293799999999997
 20
75.396299999999997
 30
0.0
 10
-47.508499999999998
 20
75.396299999999997
 30
0.0
 10
-47.508499999999998
 20
75.396299999999997
 30
0.0
 10
-45.886699999999998
 20
75.396299999999997
 30
0.0
 10
-45.077800000000003
 20
75.143699999999995
 30
0.0
 10
-45.077800000000003
 20
74.642499999999998
 30
0.0
 10
-45.077800000000003
 20
74.642499999999998
 30
0.0
 10
-44.493699999999997
 20
76.118200000000002
 30
0.0
 10
-43.988399999999999
 20
76.856200000000001
 30
0.0
 10
-43.574199999999998
 20
76.856200000000001
 30
0.0
 10
-43.574199999999998
 20
76.856200000000001
 30
0.0
 10
-43.317900000000002
 20
76.856200000000001
 30
0.0
 10
-43.021900000000002
 20
76.6036
 30
0.0
 10
-42.694400000000002
 20
76.102599999999995
 30
0.0
 10
-42.694400000000002
 20
76.102599999999995
 30
0.0
 10
-42.552300000000002
 20
75.905199999999994
 30
0.0
 10
-42.406399999999998
 20
75.696100000000001
 30
0.0
 10
-42.264299999999999
 20
75.482900000000001
 30
0.0
 10
-42.264299999999999
 20
75.482900000000001
 30
0.0
 10
-42.0946
 20
75.194900000000004
 30
0.0
 10
-42.027500000000003
 20
74.958200000000005
 30
0.0
 10
-42.070900000000002
 20
74.7727
 30
0.0
 10
-42.070900000000002
 20
74.7727
 30
0.0
 10
-42.745600000000003
 20
73.356099999999998
 30
0.0
 10
-43.889899999999997
 20
70.921499999999995
 30
0.0
 10
-45.507899999999999
 20
67.468599999999995
 30
0.0
 10
-45.507899999999999
 20
67.468599999999995
 30
0.0
 10
-45.022399999999998
 20
67.784400000000005
 30
0.0
 10
-44.647599999999997
 20
68.068399999999997
 30
0.0
 10
-44.391100000000002
 20
68.328900000000004
 30
0.0
 10
-44.391100000000002
 20
68.328900000000004
 30
0.0
 10
-43.404800000000002
 20
69.315399999999997
 30
0.0
 10
-42.868099999999998
 20
69.843999999999994
 30
0.0
 10
-42.781100000000002
 20
69.915199999999999
 30
0.0
 10
-42.781100000000002
 20
69.915199999999999
 30
0.0
 10
-42.5852
 20
70.105199999999996
 30
0.0
 10
-42.4146
 20
70.246499999999997
 30
0.0
 10
-42.269799999999996
 20
70.3399
 30
0.0
 10
-42.269799999999996
 20
70.3399
 30
0.0
 10
-41.951999999999998
 20
70.6952
 30
0.0
 10
-41.286000000000001
 20
71.420000000000002
 30
0.0
 10
-40.271599999999999
 20
72.515600000000006
 30
0.0
 10
-40.271599999999999
 20
72.515600000000006
 30
0.0
 10
-39.943899999999999
 20
72.874600000000001
 30
0.0
 10
-39.407200000000003
 20
73.608699999999999
 30
0.0
 10
-38.6616
 20
74.717299999999994
 30
0.0
 10
-38.6616
 20
74.717299999999994
 30
0.0
 10
-37.915799999999997
 20
75.826300000000003
 30
0.0
 10
-37.316099999999999
 20
76.7971
 30
0.0
 10
-36.858199999999997
 20
77.629499999999993
 30
0.0
 10
-36.858199999999997
 20
77.629499999999993
 30
0.0
 10
-36.526800000000001
 20
78.3005
 30
0.0
 10
-36.199399999999997
 20
78.967399999999998
 30
0.0
 10
-35.867800000000003
 20
79.626099999999994
 30
0.0
 10
-35.867800000000003
 20
79.626099999999994
 30
0.0
 10
-35.3232
 20
80.656099999999995
 30
0.0
 10
-34.893099999999997
 20
81.173000000000002
 30
0.0
 10
-34.581499999999998
 20
81.173000000000002
 30
0.0
 10
-34.581499999999998
 20
81.173000000000002
 30
0.0
 10
-34.064500000000002
 20
81.173000000000002
 30
0.0
 10
-33.583199999999998
 20
80.435100000000006
 30
0.0
 10
-33.141100000000002
 20
78.959400000000002
 30
0.0
 10
-33.141100000000002
 20
78.959400000000002
 30
0.0
 10
-33.125500000000002
 20
78.915999999999997
 30
0.0
 10
-33.117400000000004
 20
78.860799999999998
 30
0.0
 10
-33.117400000000004
 20
78.7898
 30
0.0
 10
-33.117400000000004
 20
78.7898
 30
0.0
 10
-33.117400000000004
 20
78.474100000000007
 30
0.0
 10
-33.405500000000004
 20
77.779799999999994
 30
0.0
 10
-33.977699999999999
 20
76.706299999999999
 30
0.0
 10
-33.977699999999999
 20
76.706299999999999
 30
0.0
 10
-34.810400000000001
 20
75.131900000000002
 30
0.0
 10
-35.382399999999997
 20
73.983400000000003
 30
0.0
 10
-35.698099999999997
 20
73.269300000000001
 30
0.0
 10
-35.698099999999997
 20
73.269300000000001
 30
0.0
 10
-33.460599999999999
 20
74.701700000000002
 30
0.0
 10
-31.894200000000001
 20
75.415899999999993
 30
0.0
 10
-30.990600000000001
 20
75.415899999999993
 30
0.0
 10
-30.990600000000001
 20
75.415899999999993
 30
0.0
 10
-30.6907
 20
75.415899999999993
 30
0.0
 10
-30.4421
 20
75.309399999999997
 30
0.0
 10
-30.240600000000001
 20
75.092299999999994
 30
0.0
 10
-30.240600000000001
 20
75.092299999999994
 30
0.0
 10
-30.0396
 20
74.879400000000004
 30
0.0
 10
-29.940799999999999
 20
74.614800000000002
 30
0.0
 10
-29.940799999999999
 20
74.299099999999996
 30
0.0
 10
-29.940799999999999
 20
74.299099999999996
 30
0.0
 10
-29.940799999999999
 20
74.085999999999999
 30
0.0
 10
-29.9803
 20
73.841700000000003
 30
0.0
 10
-30.0671
 20
73.569199999999995
 30
0.0
 10
-30.0671
 20
73.569199999999995
 30
0.0
 10
-30.169799999999999
 20
73.253600000000006
 30
0.0
 10
-30.848400000000002
 20
71.959100000000007
 30
0.0
 10
-32.107199999999999
 20
69.682199999999995
 30
0.0
 10
-32.107199999999999
 20
69.682199999999995
 30
0.0
 10
-32.209899999999998
 20
69.492999999999995
 30
0.0
 10
-32.261200000000002
 20
69.331199999999995
 30
0.0
 10
-32.261200000000002
 20
69.185299999999998
 30
0.0
 10
-32.261200000000002
 20
69.185299999999998
 30
0.0
 10
-32.261200000000002
 20
68.956500000000005
 30
0.0
 10
-32.107199999999999
 20
68.841899999999995
 30
0.0
 10
-31.807500000000001
 20
68.841899999999995
 30
0.0
 10
-31.807500000000001
 20
68.841899999999995
 30
0.0
 10
-31.550799999999999
 20
68.841899999999995
 30
0.0
 10
-31.3416
 20
68.908900000000003
 30
0.0
 10
-31.183800000000002
 20
69.035300000000007
 30
0.0
 10
-31.183800000000002
 20
69.035300000000007
 30
0.0
 10
-30.866399999999999
 20
69.295000000000002
 30
0.0
 10
-30.573899999999998
 20
69.570499999999996
 30
0.0
 10
-30.304300000000001
 20
69.863500000000002
 30
0.0
 10
-30.304300000000001
 20
69.863500000000002
 30
0.0
 10
-30.2852
 20
69.888300000000001
 30
0.0
 10
-30.263999999999999
 20
69.9131
 30
0.0
 10
-30.2409
 20
69.938900000000004
 30
0.0
 10
-30.2409
 20
69.938900000000004
 30
0.0
 10
-30.2409
 20
69.938900000000004
 30
0.0
 10
-30.071400000000001
 20
70.128100000000003
 30
0.0
 10
-30.071400000000001
 20
70.128100000000003
 30
0.0
 10
-30.071400000000001
 20
70.128100000000003
 30
0.0
 10
-30.034199999999998
 20
70.172600000000003
 30
0.0
 10
-29.9971
 20
70.217299999999994
 30
0.0
 10
-29.960799999999999
 20
70.262500000000003
 30
0.0
 10
-29.960799999999999
 20
70.262500000000003
 30
0.0
 10
-29.879799999999999
 20
70.361500000000007
 30
0.0
 10
-29.803599999999999
 20
70.444299999999998
 30
0.0
 10
-29.731200000000001
 20
70.510499999999993
 30
0.0
 10
-29.731200000000001
 20
70.510499999999993
 30
0.0
 10
-28.8279
 20
71.528999999999996
 30
0.0
 10
-27.758500000000002
 20
72.763000000000005
 30
0.0
 10
-26.523599999999998
 20
74.212500000000006
 30
0.0
 10
-26.523599999999998
 20
74.212500000000006
 30
0.0
 10
-26.9815
 20
74.212500000000006
 30
0.0
 10
-27.2104
 20
74.393900000000002
 30
0.0
 10
-27.2104
 20
74.749099999999999
 30
0.0
 10
-27.2104
 20
74.749099999999999
 30
0.0
 10
-27.2104
 20
74.863399999999999
 30
0.0
 10
-27.174800000000001
 20
74.993700000000004
 30
0.0
 10
-27.1038
 20
75.135800000000003
 30
0.0
 10
-27.1038
 20
75.135800000000003
 30
0.0
 10
-26.946000000000002
 20
75.408100000000005
 30
0.0
 10
-26.3935
 20
75.546099999999996
 30
0.0
 10
-25.450399999999998
 20
75.546099999999996
 30
0.0
 10
-25.450399999999998
 20
75.546099999999996
 30
0.0
 10
-25.276700000000002
 20
75.743499999999997
 30
0.0
 10
-25.150300000000001
 20
75.9011
 30
0.0
 10
-25.063700000000001
 20
76.015699999999995
 30
0.0
 10
-25.063700000000001
 20
76.015699999999995
 30
0.0
 10
-24.961099999999998
 20
76.189400000000006
 30
0.0
 10
-24.432400000000001
 20
77.069299999999998
 30
0.0
 10
-23.473400000000002
 20
78.659599999999998
 30
0.0
 10
-23.473400000000002
 20
78.659599999999998
 30
0.0
 10
-23.3156
 20
78.915999999999997
 30
0.0
 10
-23.1419
 20
79.046199999999999
 30
0.0
 10
-22.956399999999999
 20
79.046199999999999
 30
0.0
 10
-22.956399999999999
 20
79.046199999999999
 30
0.0
 10
-22.786799999999999
 20
79.046199999999999
 30
0.0
 10
-22.585699999999999
 20
78.915999999999997
 30
0.0
 10
-22.3568
 20
78.659599999999998
 30
0.0
 10
-22.3568
 20
78.659599999999998
 30
0.0
 10
-22.171199999999999
 20
78.446399999999997
 30
0.0
 10
-21.989799999999999
 20
78.229500000000002
 30
0.0
 10
-21.82
 20
78.016400000000004
 30
0.0
 10
-21.82
 20
78.016400000000004
 30
0.0
 10
-21.619
 20
77.728099999999998
 30
0.0
 10
-21.516300000000001
 20
77.4285
 30
0.0
 10
-21.516300000000001
 20
77.1126
 30
0.0
 10
-21.516300000000001
 20
77.1126
 30
0.0
 10
-21.516300000000001
 20
76.769599999999997
 30
0.0
 10
-21.619
 20
76.382599999999996
 30
0.0
 10
-21.82
 20
75.952600000000004
 30
0.0
 10
-21.82
 20
75.952600000000004
 30
0.0
 10
-21.82
 20
75.968400000000003
 30
0.0
 10
-21.899000000000001
 20
75.8185
 30
0.0
 10
-22.056899999999999
 20
75.502700000000004
 30
0.0
 10
-22.056899999999999
 20
75.502700000000004
 30
0.0
 10
-21.1691
 20
75.502700000000004
 30
0.0
 10
-20.608000000000001
 20
75.436300000000003
 30
0.0
 10
-20.374400000000001
 20
75.303299999999993
 30
0.0
 10
-20.374400000000001
 20
75.303299999999993
 30
0.0
 10
-19.492799999999999
 20
78.1203
 30
0.0
 10
-19.0168
 20
81.116299999999995
 30
0.0
 10
-19.0168
 20
84.223600000000005
 30
0.0
 10
-19.0168
 20
84.223600000000005
 30
0.0
 10
-19.0168
 20
88.046499999999995
 30
0.0
 10
-19.736699999999999
 20
91.701899999999995
 30
0.0
 10
-21.0474
 20
95.061700000000002
 30
0.0
  0
SPLINE
  5
28
100
AcDbEntity
  8
RÚteg 1
 62
     7
100
AcDbSpline
210
0.0
220
0.0
230
1.0
 70
     1
 71
     3
 72
    76
 73
    72
 74
     0
 42
0.0000000001
 43
0.0000000001
 40
0.0
 40
0.0
 40
0.0
 40
0.0
 40
0.0555555555555556
 40
0.0555555555555556
 40
0.0555555555555556
 40
0.0555555555555556
 40
0.1111111111111111
 40
0.1111111111111111
 40
0.1111111111111111
 40
0.1111111111111111
 40
0.1666666666666667
 40
0.1666666666666667
 40
0.1666666666666667
 40
0.1666666666666667
 40
0.2222222222222222
 40
0.2222222222222222
 40
0.2222222222222222
 40
0.2222222222222222
 40
0.2777777777777778
 40
0.2777777777777778
 40
0.2777777777777778
 40
0.2777777777777778
 40
0.3333333333333334
 40
0.3333333333333334
 40
0.3333333333333334
 40
0.3333333333333334
 40
0.388888888888889
 40
0.388888888888889
 40
0.388888888888889
 40
0.388888888888889
 40
0.4444444444444445
 40
0.4444444444444445
 40
0.4444444444444445
 40
0.4444444444444445
 40
0.5000000000000001
 40
0.5000000000000001
 40
0.5000000000000001
 40
0.5000000000000001
 40
0.5555555555555557
 40
0.5555555555555557
 40
0.5555555555555557
 40
0.5555555555555557
 40
0.6111111111111113
 40
0.6111111111111113
 40
0.6111111111111113
 40
0.6111111111111113
 40
0.6666666666666669
 40
0.6666666666666669
 40
0.6666666666666669
 40
0.6666666666666669
 40
0.7222222222222224
 40
0.7222222222222224
 40
0.7222222222222224
 40
0.7222222222222224
 40
0.777777777777778
 40
0.777777777777778
 40
0.777777777777778
 40
0.777777777777778
 40
0.8333333333333336
 40
0.8333333333333336
 40
0.8333333333333336
 40
0.8333333333333336
 40
0.8888888888888892
 40
0.8888888888888892
 40
0.8888888888888892
 40
0.8888888888888892
 40
0.9444444444444448
 40
0.9444444444444448
 40
0.9444444444444448
 40
0.9444444444444448
 40
1.0
 40
1.0
 40
1.0
 40
1.0
 10
-48.836799999999997
 20
26.370100000000001
 30
0.0
 10
-47.735199999999999
 20
28.003299999999999
 30
0.0
 10
-46.452500000000001
 20
29.900400000000001
 30
0.0
 10
-44.771500000000003
 20
32.376899999999999
 30
0.0
 10
-44.771500000000003
 20
32.376899999999999
 30
0.0
 10
-42.5379
 20
35.607599999999998
 30
0.0
 10
-42.7423
 20
38.775700000000001
 30
0.0
 10
-44.613599999999998
 20
41.901200000000003
 30
0.0
 10
-44.613599999999998
 20
41.901200000000003
 30
0.0
 10
-40.956000000000003
 20
39.8063
 30
0.0
 10
-37.9298
 20
40.293700000000001
 30
0.0
 10
-35.534999999999997
 20
43.363300000000002
 30
0.0
 10
-35.534999999999997
 20
43.363300000000002
 30
0.0
 10
-34.229199999999999
 20
45.484200000000001
 30
0.0
 10
-33.867600000000003
 20
47.604900000000001
 30
0.0
 10
-34.035299999999999
 20
49.726100000000002
 30
0.0
 10
-34.035299999999999
 20
49.726100000000002
 30
0.0
 10
-38.414299999999997
 20
47.9208
 30
0.0
 10
-41.796500000000002
 20
47.962400000000002
 30
0.0
 10
-43.831000000000003
 20
50.499899999999997
 30
0.0
 10
-43.831000000000003
 20
50.499899999999997
 30
0.0
 10
-27.3872
 20
52.930900000000001
 30
0.0
 10
-14.763299999999999
 20
67.105099999999993
 30
0.0
 10
-14.763299999999999
 20
84.223600000000005
 30
0.0
 10
-14.763299999999999
 20
84.223600000000005
 30
0.0
 10
-14.763299999999999
 20
101.3978
 30
0.0
 10
-27.469899999999999
 20
115.6079
 30
0.0
 10
-43.992100000000001
 20
117.96980000000001
 30
0.0
 10
-43.992100000000001
 20
117.96980000000001
 30
0.0
 10
-43.7258
 20
118.6006
 30
0.0
 10
-43.578200000000002
 20
119.29389999999999
 30
0.0
 10
-43.578200000000002
 20
120.02160000000001
 30
0.0
 10
-43.578200000000002
 20
120.02160000000001
 30
0.0
 10
-43.578200000000002
 20
122.9363
 30
0.0
 10
-45.941899999999997
 20
125.3
 30
0.0
 10
-48.856699999999996
 20
125.3
 30
0.0
 10
-48.856699999999996
 20
125.3
 30
0.0
 10
-51.771500000000003
 20
125.3
 30
0.0
 10
-54.135100000000001
 20
122.9363
 30
0.0
 10
-54.135100000000001
 20
120.02160000000001
 30
0.0
 10
-54.135100000000001
 20
120.02160000000001
 30
0.0
 10
-54.135100000000001
 20
119.29389999999999
 30
0.0
 10
-53.987499999999997
 20
118.6006
 30
0.0
 10
-53.721200000000003
 20
117.96980000000001
 30
0.0
 10
-53.721200000000003
 20
117.96980000000001
 30
0.0
 10
-70.243399999999994
 20
115.6079
 30
0.0
 10
-82.950000000000003
 20
101.3978
 30
0.0
 10
-82.950000000000003
 20
84.223600000000005
 30
0.0
 10
-82.950000000000003
 20
84.223600000000005
 30
0.0
 10
-82.950000000000003
 20
67.083699999999993
 30
0.0
 10
-70.294700000000006
 20
52.896099999999997
 30
0.0
 10
-53.820799999999998
 20
50.491500000000002
 30
0.0
 10
-53.820799999999998
 20
50.491500000000002
 30
0.0
 10
-55.665900000000001
 20
48.055799999999998
 30
0.0
 10
-59.019399999999997
 20
47.916899999999998
 30
0.0
 10
-63.677999999999997
 20
49.7654
 30
0.0
 10
-63.677999999999997
 20
49.7654
 30
0.0
 10
-63.888500000000001
 20
47.186799999999998
 30
0.0
 10
-63.244
 20
44.650799999999997
 30
0.0
 10
-61.349400000000003
 20
42.177700000000002
 30
0.0
 10
-61.349400000000003
 20
42.177700000000002
 30
0.0
 10
-58.419499999999999
 20
39.766800000000003
 30
0.0
 10
-55.752299999999998
 20
40.417499999999997
 30
0.0
 10
-53.139400000000002
 20
41.703499999999998
 30
0.0
 10
-53.139400000000002
 20
41.703499999999998
 30
0.0
 10
-55.259300000000003
 20
38.663899999999998
 30
0.0
 10
-55.019100000000002
 20
35.508699999999997
 30
0.0
 10
-52.823599999999999
 20
32.258499999999998
 30
0.0
 10
-52.823599999999999
 20
32.258499999999998
 30
0.0
 10
-51.494599999999998
 20
30.2956
 30
0.0
 10
-50.165599999999998
 20
28.332799999999999
 30
0.0
 10
-48.836799999999997
 20
26.370100000000001
 30
0.0
  0
SPLINE
  5
29
100
AcDbEntity
  8
RÚteg 1
 62
     7
100
AcDbSpline
210
0.0
220
0.0
230
1.0
 70
     1
 71
     3
 72
   320
 73
   316
 74
     0
 42
0.0000000001
 43
0.0000000001
 40
0.0
 40
0.0
 40
0.0
 40
0.0
 40
0.0126582278481013
 40
0.0126582278481013
 40
0.0126582278481013
 40
0.0126582278481013
 40
0.0253164556962025
 40
0.0253164556962025
 40
0.0253164556962025
 40
0.0253164556962025
 40
0.0379746835443038
 40
0.0379746835443038
 40
0.0379746835443038
 40
0.0379746835443038
 40
0.0506329113924051
 40
0.0506329113924051
 40
0.0506329113924051
 40
0.0506329113924051
 40
0.0632911392405063
 40
0.0632911392405063
 40
0.0632911392405063
 40
0.0632911392405063
 40
0.0759493670886076
 40
0.0759493670886076
 40
0.0759493670886076
 40
0.0759493670886076
 40
0.0886075949367089
 40
0.0886075949367089
 40
0.0886075949367089
 40
0.0886075949367089
 40
0.1012658227848101
 40
0.1012658227848101
 40
0.1012658227848101
 40
0.1012658227848101
 40
0.1139240506329114
 40
0.1139240506329114
 40
0.1139240506329114
 40
0.1139240506329114
 40
0.1265822784810127
 40
0.1265822784810127
 40
0.1265822784810127
 40
0.1265822784810127
 40
0.1392405063291139
 40
0.1392405063291139
 40
0.1392405063291139
 40
0.1392405063291139
 40
0.1518987341772152
 40
0.1518987341772152
 40
0.1518987341772152
 40
0.1518987341772152
 40
0.1645569620253165
 40
0.1645569620253165
 40
0.1645569620253165
 40
0.1645569620253165
 40
0.1772151898734178
 40
0.1772151898734178
 40
0.1772151898734178
 40
0.1772151898734178
 40
0.1898734177215191
 40
0.1898734177215191
 40
0.1898734177215191
 40
0.1898734177215191
 40
0.2025316455696203
 40
0.2025316455696203
 40
0.2025316455696203
 40
0.2025316455696203
 40
0.2151898734177216
 40
0.2151898734177216
 40
0.2151898734177216
 40
0.2151898734177216
 40
0.2278481012658229
 40
0.2278481012658229
 40
0.2278481012658229
 40
0.2278481012658229
 40
0.2405063291139242
 40
0.2405063291139242
 40
0.2405063291139242
 40
0.2405063291139242
 40
0.2531645569620254
 40
0.2531645569620254
 40
0.2531645569620254
 40
0.2531645569620254
 40
0.2658227848101267
 40
0.2658227848101267
 40
0.2658227848101267
 40
0.2658227848101267
 40
0.278481012658228
 40
0.278481012658228
 40
0.278481012658228
 40
0.278481012658228
 40
0.2911392405063293
 40
0.2911392405063293
 40
0.2911392405063293
 40
0.2911392405063293
 40
0.3037974683544306
 40
0.3037974683544306
 40
0.3037974683544306
 40
0.3037974683544306
 40
0.3164556962025318
 40
0.3164556962025318
 40
0.3164556962025318
 40
0.3164556962025318
 40
0.3291139240506331
 40
0.3291139240506331
 40
0.3291139240506331
 40
0.3291139240506331
 40
0.3417721518987344
 40
0.3417721518987344
 40
0.3417721518987344
 40
0.3417721518987344
 40
0.3544303797468357
 40
0.3544303797468357
 40
0.3544303797468357
 40
0.3544303797468357
 40
0.3670886075949369
 40
0.3670886075949369
 40
0.3670886075949369
 40
0.3670886075949369
 40
0.3797468354430382
 40
0.3797468354430382
 40
0.3797468354430382
 40
0.3797468354430382
 40
0.3924050632911395
 40
0.3924050632911395
 40
0.3924050632911395
 40
0.3924050632911395
 40
0.4050632911392408
 40
0.4050632911392408
 40
0.4050632911392408
 40
0.4050632911392408
 40
0.4177215189873421
 40
0.4177215189873421
 40
0.4177215189873421
 40
0.4177215189873421
 40
0.4303797468354433
 40
0.4303797468354433
 40
0.4303797468354433
 40
0.4303797468354433
 40
0.4430379746835446
 40
0.4430379746835446
 40
0.4430379746835446
 40
0.4430379746835446
 40
0.4556962025316459
 40
0.4556962025316459
 40
0.4556962025316459
 40
0.4556962025316459
 40
0.4683544303797472
 40
0.4683544303797472
 40
0.4683544303797472
 40
0.4683544303797472
 40
0.4810126582278484
 40
0.4810126582278484
 40
0.4810126582278484
 40
0.4810126582278484
 40
0.4936708860759497
 40
0.4936708860759497
 40
0.4936708860759497
 40
0.4936708860759497
 40
0.506329113924051
 40
0.506329113924051
 40
0.506329113924051
 40
0.506329113924051
 40
0.5189873417721522
 40
0.5189873417721522
 40
0.5189873417721522
 40
0.5189873417721522
 40
0.5316455696202534
 40
0.5316455696202534
 40
0.5316455696202534
 40
0.5316455696202534
 40
0.5443037974683547
 40
0.5443037974683547
 40
0.5443037974683547
 40
0.5443037974683547
 40
0.5569620253164559
 40
0.5569620253164559
 40
0.5569620253164559
 40
0.5569620253164559
 40
0.5696202531645571
 40
0.5696202531645571
 40
0.5696202531645571
 40
0.5696202531645571
 40
0.5822784810126583
 40
0.5822784810126583
 40
0.5822784810126583
 40
0.5822784810126583
 40
0.5949367088607596
 40
0.5949367088607596
 40
0.5949367088607596
 40
0.5949367088607596
 40
0.6075949367088608
 40
0.6075949367088608
 40
0.6075949367088608
 40
0.6075949367088608
 40
0.620253164556962
 40
0.620253164556962
 40
0.620253164556962
 40
0.620253164556962
 40
0.6329113924050632
 40
0.6329113924050632
 40
0.6329113924050632
 40
0.6329113924050632
 40
0.6455696202531644
 40
0.6455696202531644
 40
0.6455696202531644
 40
0.6455696202531644
 40
0.6582278481012657
 40
0.6582278481012657
 40
0.6582278481012657
 40
0.6582278481012657
 40
0.6708860759493669
 40
0.6708860759493669
 40
0.6708860759493669
 40
0.6708860759493669
 40
0.6835443037974681
 40
0.6835443037974681
 40
0.6835443037974681
 40
0.6835443037974681
 40
0.6962025316455693
 40
0.6962025316455693
 40
0.6962025316455693
 40
0.6962025316455693
 40
0.7088607594936706
 40
0.7088607594936706
 40
0.7088607594936706
 40
0.7088607594936706
 40
0.7215189873417718
 40
0.7215189873417718
 40
0.7215189873417718
 40
0.7215189873417718
 40
0.734177215189873
 40
0.734177215189873
 40
0.734177215189873
 40
0.734177215189873
 40
0.7468354430379742
 40
0.7468354430379742
 40
0.7468354430379742
 40
0.7468354430379742
 40
0.7594936708860754
 40
0.7594936708860754
 40
0.7594936708860754
 40
0.7594936708860754
 40
0.7721518987341767
 40
0.7721518987341767
 40
0.7721518987341767
 40
0.7721518987341767
 40
0.7848101265822779
 40
0.7848101265822779
 40
0.7848101265822779
 40
0.7848101265822779
 40
0.7974683544303791
 40
0.7974683544303791
 40
0.7974683544303791
 40
0.7974683544303791
 40
0.8101265822784803
 40
0.8101265822784803
 40
0.8101265822784803
 40
0.8101265822784803
 40
0.8227848101265816
 40
0.8227848101265816
 40
0.8227848101265816
 40
0.8227848101265816
 40
0.8354430379746828
 40
0.8354430379746828
 40
0.8354430379746828
 40
0.8354430379746828
 40
0.848101265822784
 40
0.848101265822784
 40
0.848101265822784
 40
0.848101265822784
 40
0.8607594936708852
 40
0.8607594936708852
 40
0.8607594936708852
 40
0.8607594936708852
 40
0.8734177215189865
 40
0.8734177215189865
 40
0.8734177215189865
 40
0.8734177215189865
 40
0.8860759493670877
 40
0.8860759493670877
 40
0.8860759493670877
 40
0.8860759493670877
 40
0.8987341772151889
 40
0.8987341772151889
 40
0.8987341772151889
 40
0.8987341772151889
 40
0.9113924050632901
 40
0.9113924050632901
 40
0.9113924050632901
 40
0.9113924050632901
 40
0.9240506329113913
 40
0.9240506329113913
 40
0.9240506329113913
 40
0.9240506329113913
 40
0.9367088607594926
 40
0.9367088607594926
 40
0.9367088607594926
 40
0.9367088607594926
 40
0.9493670886075938
 40
0.9493670886075938
 40
0.9493670886075938
 40
0.9493670886075938
 40
0.962025316455695
 40
0.962025316455695
 40
0.962025316455695
 40
0.962025316455695
 40
0.9746835443037962
 40
0.9746835443037962
 40
0.9746835443037962
 40
0.9746835443037962
 40
0.9873417721518975
 40
0.9873417721518975
 40
0.9873417721518975
 40
0.9873417721518975
 40
1.0
 40
1.0
 40
1.0
 40
1.0
 10
-57.747
 20
102.65309999999999
 30
0.0
 10
-56.589599999999997
 20
102.65309999999999
 30
0.0
 10
-55.651000000000003
 20
101.7146
 30
0.0
 10
-55.651000000000003
 20
100.55710000000001
 30
0.0
 10
-55.651000000000003
 20
100.55710000000001
 30
0.0
 10
-55.651000000000003
 20
99.399600000000007
 30
0.0
 10
-56.589599999999997
 20
98.460800000000006
 30
0.0
 10
-57.747
 20
98.460800000000006
 30
0.0
 10
-57.747
 20
98.460800000000006
 30
0.0
 10
-58.039299999999997
 20
98.460800000000006
 30
0.0
 10
-58.317300000000003
 20
98.521000000000001
 30
0.0
 10
-58.57
 20
98.628900000000002
 30
0.0
 10
-58.57
 20
98.628900000000002
 30
0.0
 10
-58.420099999999998
 20
98.368399999999994
 30
0.0
 10
-58.3459
 20
98.157399999999996
 30
0.0
 10
-58.3459
 20
97.995400000000004
 30
0.0
 10
-58.3459
 20
97.995400000000004
 30
0.0
 10
-58.3459
 20
97.608599999999996
 30
0.0
 10
-58.637700000000002
 20
96.772000000000006
 30
0.0
 10
-59.2256
 20
95.481800000000007
 30
0.0
 10
-59.2256
 20
95.481800000000007
 30
0.0
 10
-59.770299999999999
 20
94.278199999999998
 30
0.0
 10
-60.042499999999997
 20
93.504900000000006
 30
0.0
 10
-60.042499999999997
 20
93.161500000000004
 30
0.0
 10
-60.042499999999997
 20
93.161500000000004
 30
0.0
 10
-60.042499999999997
 20
93.003600000000006
 30
0.0
 10
-59.975700000000003
 20
92.924700000000001
 30
0.0
 10
-59.849200000000003
 20
92.924700000000001
 30
0.0
 10
-59.849200000000003
 20
92.924700000000001
 30
0.0
 10
-59.691299999999998
 20
92.924700000000001
 30
0.0
 10
-59.332299999999996
 20
93.220600000000005
 30
0.0
 10
-58.771999999999998
 20
93.8048
 30
0.0
 10
-58.771999999999998
 20
93.8048
 30
0.0
 10
-58.161200000000001
 20
94.454099999999997
 30
0.0
 10
-57.718899999999998
 20
94.816400000000002
 30
0.0
 10
-57.448099999999997
 20
94.888300000000001
 30
0.0
 10
-57.448099999999997
 20
94.888300000000001
 30
0.0
 10
-57.151699999999998
 20
95.212900000000005
 30
0.0
 10
-56.7986
 20
95.603899999999996
 30
0.0
 10
-56.3887
 20
96.061800000000005
 30
0.0
 10
-56.3887
 20
96.061800000000005
 30
0.0
 10
-55.986199999999997
 20
96.5471
 30
0.0
 10
-55.319200000000002
 20
97.490300000000005
 30
0.0
 10
-54.380299999999998
 20
98.887100000000004
 30
0.0
 10
-54.380299999999998
 20
98.887100000000004
 30
0.0
 10
-53.441000000000003
 20
100.28400000000001
 30
0.0
 10
-52.813699999999997
 20
101.2744
 30
0.0
 10
-52.497999999999998
 20
101.86239999999999
 30
0.0
 10
-52.497999999999998
 20
101.86239999999999
 30
0.0
 10
-51.223300000000002
 20
104.2813
 30
0.0
 10
-50.473599999999998
 20
105.4415
 30
0.0
 10
-50.244799999999998
 20
105.3429
 30
0.0
 10
-50.244799999999998
 20
105.3429
 30
0.0
 10
-50.0276
 20
105.25620000000001
 30
0.0
 10
-49.7791
 20
105.0705
 30
0.0
 10
-49.491199999999999
 20
104.7824
 30
0.0
 10
-49.491199999999999
 20
104.7824
 30
0.0
 10
-49.206800000000001
 20
104.4984
 30
0.0
 10
-49.0137
 20
104.21810000000001
 30
0.0
 10
-48.911000000000001
 20
103.94589999999999
 30
0.0
 10
-48.911000000000001
 20
103.94589999999999
 30
0.0
 10
-48.768799999999999
 20
103.5869
 30
0.0
 10
-48.698
 20
103.33799999999999
 30
0.0
 10
-48.698
 20
103.196
 30
0.0
 10
-48.698
 20
103.196
 30
0.0
 10
-48.698
 20
102.97929999999999
 30
0.0
 10
-48.781100000000002
 20
102.6951
 30
0.0
 10
-48.954599999999999
 20
102.3359
 30
0.0
 10
-48.954599999999999
 20
102.3359
 30
0.0
 10
-50.228900000000003
 20
99.771000000000001
 30
0.0
 10
-51.582500000000003
 20
97.008899999999997
 30
0.0
 10
-53.015000000000001
 20
94.041499999999999
 30
0.0
 10
-53.015000000000001
 20
94.041499999999999
 30
0.0
 10
-53.172699999999999
 20
93.642700000000005
 30
0.0
 10
-53.251600000000003
 20
93.362799999999993
 30
0.0
 10
-53.251600000000003
 20
93.204999999999998
 30
0.0
 10
-53.251600000000003
 20
93.204999999999998
 30
0.0
 10
-53.251600000000003
 20
92.976100000000002
 30
0.0
 10
-53.113399999999999
 20
92.888999999999996
 30
0.0
 10
-52.841200000000001
 20
92.948400000000007
 30
0.0
 10
-52.841200000000001
 20
92.948400000000007
 30
0.0
 10
-52.628300000000003
 20
92.987899999999996
 30
0.0
 10
-52.257199999999997
 20
93.279700000000005
 30
0.0
 10
-51.724600000000002
 20
93.816599999999994
 30
0.0
 10
-51.724600000000002
 20
93.816599999999994
 30
0.0
 10
-51.380099999999999
 20
94.166200000000003
 30
0.0
 10
-51.107700000000001
 20
94.401899999999998
 30
0.0
 10
-50.908299999999997
 20
94.523700000000005
 30
0.0
 10
-50.908299999999997
 20
94.523700000000005
 30
0.0
 10
-50.674999999999997
 20
94.757400000000004
 30
0.0
 10
-50.249499999999998
 20
95.242199999999997
 30
0.0
 10
-49.633000000000003
 20
95.974900000000005
 30
0.0
 10
-49.633000000000003
 20
95.974900000000005
 30
0.0
 10
-48.839799999999997
 20
96.921999999999997
 30
0.0
 10
-48.027099999999997
 20
97.699399999999997
 30
0.0
 10
-47.194699999999997
 20
98.318799999999996
 30
0.0
 10
-47.194699999999997
 20
98.318799999999996
 30
0.0
 10
-46.018599999999999
 20
99.206699999999998
 30
0.0
 10
-44.972900000000003
 20
99.648700000000005
 30
0.0
 10
-44.057499999999997
 20
99.648700000000005
 30
0.0
 10
-44.057499999999997
 20
99.648700000000005
 30
0.0
 10
-43.457700000000003
 20
99.648700000000005
 30
0.0
 10
-42.976399999999998
 20
99.471199999999996
 30
0.0
 10
-42.6173
 20
99.111999999999995
 30
0.0
 10
-42.6173
 20
99.111999999999995
 30
0.0
 10
-42.218800000000002
 20
98.709599999999995
 30
0.0
 10
-42.017499999999998
 20
98.279600000000002
 30
0.0
 10
-42.017499999999998
 20
97.821899999999999
 30
0.0
 10
-42.017499999999998
 20
97.821899999999999
 30
0.0
 10
-42.017499999999998
 20
97.135000000000005
 30
0.0
 10
-42.447499999999998
 20
96.334000000000003
 30
0.0
 10
-43.3078
 20
95.418800000000005
 30
0.0
 10
-43.3078
 20
95.418800000000005
 30
0.0
 10
-44.4955
 20
94.156000000000006
 30
0.0
 10
-45.864699999999999
 20
93.283799999999999
 30
0.0
 10
-47.411499999999997
 20
92.794399999999996
 30
0.0
 10
-47.411499999999997
 20
92.794399999999996
 30
0.0
 10
-47.482500000000002
 20
92.009200000000007
 30
0.0
 10
-47.194699999999997
 20
91.606899999999996
 30
0.0
 10
-46.551200000000001
 20
91.594899999999996
 30
0.0
 10
-46.551200000000001
 20
91.594899999999996
 30
0.0
 10
-46.149000000000001
 20
91.5792
 30
0.0
 10
-45.639800000000001
 20
91.752799999999993
 30
0.0
 10
-45.024299999999997
 20
92.107900000000001
 30
0.0
 10
-45.024299999999997
 20
92.107900000000001
 30
0.0
 10
-44.467799999999997
 20
92.451400000000007
 30
0.0
 10
-43.9786
 20
92.837900000000005
 30
0.0
 10
-43.564399999999999
 20
93.268100000000004
 30
0.0
 10
-43.564399999999999
 20
93.268100000000004
 30
0.0
 10
-43.0197
 20
93.856200000000001
 30
0.0
 10
-42.6526
 20
94.211200000000005
 30
0.0
 10
-42.459400000000002
 20
94.333500000000001
 30
0.0
 10
-42.459400000000002
 20
94.333500000000001
 30
0.0
 10
-42.338700000000003
 20
94.409899999999993
 30
0.0
 10
-42.247100000000003
 20
94.461799999999997
 30
0.0
 10
-42.184899999999999
 20
94.489800000000002
 30
0.0
 10
-42.184899999999999
 20
94.489800000000002
 30
0.0
 10
-41.519399999999997
 20
95.321299999999994
 30
0.0
 10
-40.732700000000001
 20
96.333200000000005
 30
0.0
 10
-39.823399999999999
 20
97.521699999999996
 30
0.0
 10
-39.823399999999999
 20
97.521699999999996
 30
0.0
 10
-38.765799999999999
 20
99.155500000000004
 30
0.0
 10
-38.047800000000002
 20
99.928899999999999
 30
0.0
 10
-37.676900000000003
 20
99.841999999999999
 30
0.0
 10
-37.676900000000003
 20
99.841999999999999
 30
0.0
 10
-37.416400000000003
 20
99.783000000000001
 30
0.0
 10
-37.155999999999999
 20
99.621099999999998
 30
0.0
 10
-36.891599999999997
 20
99.348799999999997
 30
0.0
 10
-36.891599999999997
 20
99.348799999999997
 30
0.0
 10
-36.627200000000002
 20
99.076400000000007
 30
0.0
 10
-36.465200000000003
 20
98.812299999999993
 30
0.0
 10
-36.406300000000002
 20
98.5518
 30
0.0
 10
-36.406300000000002
 20
98.5518
 30
0.0
 10
-36.279899999999998
 20
97.995400000000004
 30
0.0
 10
-36.279899999999998
 20
97.494399999999999
 30
0.0
 10
-36.406300000000002
 20
97.048299999999998
 30
0.0
 10
-36.406300000000002
 20
97.048299999999998
 30
0.0
 10
-36.481099999999998
 20
96.791700000000006
 30
0.0
 10
-36.745600000000003
 20
96.326099999999997
 30
0.0
 10
-37.203299999999999
 20
95.655600000000007
 30
0.0
 10
-37.203299999999999
 20
95.655600000000007
 30
0.0
 10
-36.702199999999998
 20
96.140900000000002
 30
0.0
 10
-36.236499999999999
 20
96.578699999999998
 30
0.0
 10
-35.806399999999996
 20
96.965500000000006
 30
0.0
 10
-35.806399999999996
 20
96.965500000000006
 30
0.0
 10
-34.788400000000003
 20
97.896600000000007
 30
0.0
 10
-34.038699999999999
 20
98.504300000000001
 30
0.0
 10
-33.549300000000002
 20
98.788499999999999
 30
0.0
 10
-33.549300000000002
 20
98.788499999999999
 30
0.0
 10
-33.2376
 20
98.989800000000002
 30
0.0
 10
-32.914099999999998
 20
99.191000000000003
 30
0.0
 10
-32.582700000000003
 20
99.392399999999995
 30
0.0
 10
-32.582700000000003
 20
99.392399999999995
 30
0.0
 10
-32.255099999999999
 20
99.593400000000003
 30
0.0
 10
-31.966999999999999
 20
99.6922
 30
0.0
 10
-31.726299999999998
 20
99.6922
 30
0.0
 10
-31.726299999999998
 20
99.6922
 30
0.0
 10
-31.339600000000001
 20
99.6922
 30
0.0
 10
-30.964600000000001
 20
99.447400000000002
 30
0.0
 10
-30.605599999999999
 20
98.962100000000007
 30
0.0
 10
-30.605599999999999
 20
98.962100000000007
 30
0.0
 10
-30.5505
 20
98.875200000000007
 30
0.0
 10
-30.5227
 20
98.768900000000002
 30
0.0
 10
-30.5227
 20
98.638400000000004
 30
0.0
 10
-30.5227
 20
98.638400000000004
 30
0.0
 10
-30.5227
 20
98.295299999999997
 30
0.0
 10
-30.8581
 20
97.478499999999997
 30
0.0
 10
-31.532800000000002
 20
96.191999999999993
 30
0.0
 10
-31.532800000000002
 20
96.191999999999993
 30
0.0
 10
-32.476100000000002
 20
94.384699999999995
 30
0.0
 10
-32.949599999999997
 20
93.327299999999994
 30
0.0
 10
-32.949599999999997
 20
93.011600000000001
 30
0.0
 10
-32.949599999999997
 20
93.011600000000001
 30
0.0
 10
-32.949599999999997
 20
92.869699999999995
 30
0.0
 10
-32.8902
 20
92.794399999999996
 30
0.0
 10
-32.775700000000001
 20
92.794399999999996
 30
0.0
 10
-32.775700000000001
 20
92.794399999999996
 30
0.0
 10
-32.404899999999998
 20
92.794399999999996
 30
0.0
 10
-31.832899999999999
 20
93.133799999999994
 30
0.0
 10
-31.059100000000001
 20
93.8048
 30
0.0
 10
-31.059100000000001
 20
93.8048
 30
0.0
 10
-31.043600000000001
 20
93.820499999999996
 30
0.0
 10
-30.8856
 20
94.006
 30
0.0
 10
-30.585699999999999
 20
94.364999999999995
 30
0.0
 10
-30.585699999999999
 20
94.364999999999995
 30
0.0
 10
-30.5002
 20
94.468999999999994
 30
0.0
 10
-30.421399999999998
 20
94.550299999999993
 30
0.0
 10
-30.3491
 20
94.609399999999994
 30
0.0
 10
-30.3491
 20
94.609399999999994
 30
0.0
 10
-29.4209
 20
95.653000000000006
 30
0.0
 10
-28.311900000000001
 20
96.931600000000003
 30
0.0
 10
-27.022600000000001
 20
98.445300000000003
 30
0.0
 10
-27.022600000000001
 20
98.445300000000003
 30
0.0
 10
-27.4801
 20
98.445300000000003
 30
0.0
 10
-27.709299999999999
 20
98.626599999999996
 30
0.0
 10
-27.709299999999999
 20
98.981899999999996
 30
0.0
 10
-27.709299999999999
 20
98.981899999999996
 30
0.0
 10
-27.709299999999999
 20
99.096100000000007
 30
0.0
 10
-27.6736
 20
99.226299999999995
 30
0.0
 10
-27.602599999999999
 20
99.368600000000001
 30
0.0
 10
-27.602599999999999
 20
99.368600000000001
 30
0.0
 10
-27.444900000000001
 20
99.640799999999999
 30
0.0
 10
-26.892499999999998
 20
99.778899999999993
 30
0.0
 10
-25.949400000000001
 20
99.778899999999993
 30
0.0
 10
-25.949400000000001
 20
99.778899999999993
 30
0.0
 10
-25.775600000000001
 20
99.976299999999995
 30
0.0
 10
-25.6492
 20
100.134
 30
0.0
 10
-25.5625
 20
100.24850000000001
 30
0.0
 10
-25.5625
 20
100.24850000000001
 30
0.0
 10
-25.488900000000001
 20
100.3732
 30
0.0
 10
-25.196100000000001
 20
100.8616
 30
0.0
 10
-24.682300000000001
 20
101.7146
 30
0.0
 10
-24.682300000000001
 20
101.7146
 30
0.0
 10
-30.1051
 20
109.19540000000001
 30
0.0
 10
-38.9129
 20
114.06310000000001
 30
0.0
 10
-48.8566
 20
114.06310000000001
 30
0.0
 10
-48.8566
 20
114.06310000000001
 30
0.0
 10
-58.379899999999999
 20
114.06310000000001
 30
0.0
 10
-66.863299999999995
 20
109.5997
 30
0.0
 10
-72.326700000000002
 20
102.6504
 30
0.0
 10
-72.326700000000002
 20
102.6504
 30
0.0
 10
-72.242699999999999
 20
102.4081
 30
0.0
 10
-72.156999999999996
 20
102.1584
 30
0.0
 10
-72.073999999999998
 20
101.90600000000001
 30
0.0
 10
-72.073999999999998
 20
101.90600000000001
 30
0.0
 10
-71.715000000000003
 20
100.8758
 30
0.0
 10
-70.803299999999993
 20
100.1143
 30
0.0
 10
-69.343299999999999
 20
99.629199999999997
 30
0.0
 10
-69.343299999999999
 20
99.629199999999997
 30
0.0
 10
-69.059299999999993
 20
101.7362
 30
0.0
 10
-68.305499999999995
 20
103.35809999999999
 30
0.0
 10
-67.085999999999999
 20
104.5063
 30
0.0
 10
-67.085999999999999
 20
104.5063
 30
0.0
 10
-66.028700000000001
 20
105.5085
 30
0.0
 10
-64.7226
 20
106.0609
 30
0.0
 10
-63.175699999999999
 20
106.1598
 30
0.0
 10
-63.175699999999999
 20
106.1598
 30
0.0
 10
-62.347299999999997
 20
106.2189
 30
0.0
 10
-61.6173
 20
106.0176
 30
0.0
 10
-60.985900000000001
 20
105.5598
 30
0.0
 10
-60.985900000000001
 20
105.5598
 30
0.0
 10
-60.212400000000002
 20
105.0153
 30
0.0
 10
-59.825600000000001
 20
104.1906
 30
0.0
 10
-59.825600000000001
 20
103.0896
 30
0.0
 10
-59.825600000000001
 20
103.0896
 30
0.0
 10
-59.825600000000001
 20
102.0835
 30
0.0
 10
-60.378
 20
101.1009
 30
0.0
 10
-61.478999999999999
 20
100.134
 30
0.0
 10
-61.478999999999999
 20
100.134
 30
0.0
 10
-62.5839
 20
99.167299999999997
 30
0.0
 10
-63.874299999999998
 20
98.5321
 30
0.0
 10
-65.349999999999994
 20
98.232200000000006
 30
0.0
 10
-65.349999999999994
 20
98.232200000000006
 30
0.0
 10
-65.263099999999994
 20
96.172200000000004
 30
0.0
 10
-65.448999999999998
 20
94.653000000000006
 30
0.0
 10
-65.910399999999996
 20
93.6785
 30
0.0
 10
-65.910399999999996
 20
93.6785
 30
0.0
 10
-66.091300000000004
 20
93.296599999999998
 30
0.0
 10
-66.292299999999997
 20
92.940899999999999
 30
0.0
 10
-66.513800000000003
 20
92.611000000000004
 30
0.0
 10
-66.513800000000003
 20
92.611000000000004
 30
0.0
 10
-66.513800000000003
 20
92.611000000000004
 30
0.0
 10
-66.513199999999998
 20
92.6113
 30
0.0
 10
-66.513199999999998
 20
92.6113
 30
0.0
 10
-66.513199999999998
 20
92.6113
 30
0.0
 10
-66.513199999999998
 20
92.6113
 30
0.0
 10
-63.891399999999997
 20
95.367800000000003
 30
0.0
 10
-63.891399999999997
 20
95.367800000000003
 30
0.0
 10
-63.891399999999997
 20
95.367800000000003
 30
0.0
 10
-63.891399999999997
 20
95.367800000000003
 30
0.0
 10
-63.8902
 20
95.369
 30
0.0
 10
-63.8902
 20
95.369
 30
0.0
 10
-63.8902
 20
95.369
 30
0.0
 10
-63.639299999999999
 20
95.680400000000006
 30
0.0
 10
-63.3446
 20
96.048199999999994
 30
0.0
 10
-63.0062
 20
96.472200000000001
 30
0.0
 10
-63.0062
 20
96.472200000000001
 30
0.0
 10
-62.548299999999998
 20
97.143000000000001
 30
0.0
 10
-62.082599999999999
 20
97.817700000000002
 30
0.0
 10
-61.609000000000002
 20
98.488799999999998
 30
0.0
 10
-61.609000000000002
 20
98.488799999999998
 30
0.0
 10
-61.080399999999997
 20
99.234499999999997
 30
0.0
 10
-60.670000000000002
 20
99.644999999999996
 30
0.0
 10
-60.386000000000003
 20
99.715900000000005
 30
0.0
 10
-60.386000000000003
 20
99.715900000000005
 30
0.0
 10
-60.038699999999999
 20
99.804500000000004
 30
0.0
 10
-59.8185
 20
99.854900000000001
 30
0.0
 10
-59.7258
 20
99.8643
 30
0.0
 10
-59.7258
 20
99.8643
 30
0.0
 10
-59.8018
 20
100.081
 30
0.0
 10
-59.843299999999999
 20
100.3142
 30
0.0
 10
-59.843299999999999
 20
100.55710000000001
 30
0.0
 10
-59.843299999999999
 20
100.55710000000001
 30
0.0
 10
-59.843299999999999
 20
101.7146
 30
0.0
 10
-58.904699999999998
 20
102.65309999999999
 30
0.0
 10
-57.747
 20
102.65309999999999
 30
0.0
  0
SPLINE
  5
2A
100
AcDbEntity
  8
RÚteg 1
 62
     7
100
AcDbSpline
210
0.0
220
0.0
230
1.0
 70
     1
 71
     3
 72
    68
 73
    64
 74
     0
 42
0.0000000001
 43
0.0000000001
 40
0.0
 40
0.0
 40
0.0
 40
0.0
 40
0.0625
 40
0.0625
 40
0.0625
 40
0.0625
 40
0.125
 40
0.125
 40
0.125
 40
0.125
 40
0.1875
 40
0.1875
 40
0.1875
 40
0.1875
 40
0.25
 40
0.25
 40
0.25
 40
0.25
 40
0.3125
 40
0.3125
 40
0.3125
 40
0.3125
 40
0.375
 40
0.375
 40
0.375
 40
0.375
 40
0.4375
 40
0.4375
 40
0.4375
 40
0.4375
 40
0.5
 40
0.5
 40
0.5
 40
0.5
 40
0.5625
 40
0.5625
 40
0.5625
 40
0.5625
 40
0.625
 40
0.625
 40
0.625
 40
0.625
 40
0.6875
 40
0.6875
 40
0.6875
 40
0.6875
 40
0.75
 40
0.75
 40
0.75
 40
0.75
 40
0.8125
 40
0.8125
 40
0.8125
 40
0.8125
 40
0.875
 40
0.875
 40
0.875
 40
0.875
 40
0.9375
 40
0.9375
 40
0.9375
 40
0.9375
 40
1.0
 40
1.0
 40
1.0
 40
1.0
 10
-20.675699999999999
 20
74.397300000000001
 30
0.0
 10
-20.720800000000001
 20
74.332099999999997
 30
0.0
 10
-20.742899999999999
 20
74.299099999999996
 30
0.0
 10
-20.742899999999999
 20
74.299099999999996
 30
0.0
 10
-20.742899999999999
 20
74.299099999999996
 30
0.0
 10
-20.845300000000002
 20
74.212500000000006
 30
0.0
 10
-21.054500000000001
 20
74.168899999999994
 30
0.0
 10
-21.366199999999999
 20
74.168899999999994
 30
0.0
 10
-21.366199999999999
 20
74.168899999999994
 30
0.0
 10
-21.468900000000001
 20
74.168899999999994
 30
0.0
 10
-21.6739
 20
74.168899999999994
 30
0.0
 10
-21.981999999999999
 20
74.168899999999994
 30
0.0
 10
-21.981999999999999
 20
74.168899999999994
 30
0.0
 10
-22.2896
 20
74.168899999999994
 30
0.0
 10
-22.542200000000001
 20
74.168899999999994
 30
0.0
 10
-22.743400000000001
 20
74.168899999999994
 30
0.0
 10
-22.743400000000001
 20
74.168899999999994
 30
0.0
 10
-23.2879
 20
73.233699999999999
 30
0.0
 10
-23.6312
 20
72.661600000000007
 30
0.0
 10
-23.773299999999999
 20
72.452399999999997
 30
0.0
 10
-23.773299999999999
 20
72.452399999999997
 30
0.0
 10
-23.773299999999999
 20
72.452399999999997
 30
0.0
 10
-23.773299999999999
 20
72.452399999999997
 30
0.0
 10
-23.773299999999999
 20
72.452399999999997
 30
0.0
 10
-23.773299999999999
 20
72.452399999999997
 30
0.0
 10
-23.773299999999999
 20
72.480099999999993
 30
0.0
 10
-23.686499999999999
 20
72.637900000000002
 30
0.0
 10
-23.5167
 20
72.926000000000002
 30
0.0
 10
-23.5167
 20
72.926000000000002
 30
0.0
 10
-23.5167
 20
72.926000000000002
 30
0.0
 10
-23.5167
 20
72.926000000000002
 30
0.0
 10
-23.5167
 20
72.926000000000002
 30
0.0
 10
-23.5167
 20
72.926000000000002
 30
0.0
 10
-23.5167
 20
72.926000000000002
 30
0.0
 10
-23.812799999999999
 20
72.357699999999994
 30
0.0
 10
-24.4087
 20
71.229200000000006
 30
0.0
 10
-24.4087
 20
71.229200000000006
 30
0.0
 10
-25.000599999999999
 20
70.096800000000002
 30
0.0
 10
-25.327999999999999
 20
69.445700000000002
 30
0.0
 10
-25.3871
 20
69.272000000000006
 30
0.0
 10
-25.3871
 20
69.272000000000006
 30
0.0
 10
-25.572600000000001
 20
68.786600000000007
 30
0.0
 10
-25.548999999999999
 20
68.478800000000007
 30
0.0
 10
-25.3202
 20
68.348500000000001
 30
0.0
 10
-25.3202
 20
68.348500000000001
 30
0.0
 10
-25.249099999999999
 20
68.305199999999999
 30
0.0
 10
-25.106999999999999
 20
68.316900000000004
 30
0.0
 10
-24.890000000000001
 20
68.380300000000005
 30
0.0
 10
-24.890000000000001
 20
68.380300000000005
 30
0.0
 10
-24.677199999999999
 20
68.447199999999995
 30
0.0
 10
-24.511399999999998
 20
68.534000000000006
 30
0.0
 10
-24.396799999999999
 20
68.648600000000002
 30
0.0
 10
-24.396799999999999
 20
68.648600000000002
 30
0.0
 10
-23.8523
 20
69.078599999999994
 30
0.0
 10
-23.2209
 20
69.6036
 30
0.0
 10
-22.506699999999999
 20
70.218900000000005
 30
0.0
 10
-22.506699999999999
 20
70.218900000000005
 30
0.0
 10
-22.506699999999999
 20
70.218900000000005
 30
0.0
 10
-22.501200000000001
 20
70.224800000000002
 30
0.0
 10
-22.501200000000001
 20
70.224800000000002
 30
0.0
 10
-22.501200000000001
 20
70.224800000000002
 30
0.0
 10
-21.7912
 20
71.558999999999997
 30
0.0
 10
-21.1797
 20
72.952699999999993
 30
0.0
 10
-20.675699999999999
 20
74.397300000000001
 30
0.0
  0
SPLINE
  5
2B
100
AcDbEntity
  8
RÚteg 1
 62
     7
100
AcDbSpline
210
0.0
220
0.0
230
1.0
 70
     1
 71
     3
 72
   284
 73
   280
 74
     0
 42
0.0000000001
 43
0.0000000001
 40
0.0
 40
0.0
 40
0.0
 40
0.0
 40
0.0142857142857143
 40
0.0142857142857143
 40
0.0142857142857143
 40
0.0142857142857143
 40
0.0285714285714286
 40
0.0285714285714286
 40
0.0285714285714286
 40
0.0285714285714286
 40
0.0428571428571429
 40
0.0428571428571429
 40
0.0428571428571429
 40
0.0428571428571429
 40
0.0571428571428571
 40
0.0571428571428571
 40
0.0571428571428571
 40
0.0571428571428571
 40
0.0714285714285714
 40
0.0714285714285714
 40
0.0714285714285714
 40
0.0714285714285714
 40
0.0857142857142857
 40
0.0857142857142857
 40
0.0857142857142857
 40
0.0857142857142857
 40
0.1
 40
0.1
 40
0.1
 40
0.1
 40
0.1142857142857143
 40
0.1142857142857143
 40
0.1142857142857143
 40
0.1142857142857143
 40
0.1285714285714286
 40
0.1285714285714286
 40
0.1285714285714286
 40
0.1285714285714286
 40
0.1428571428571429
 40
0.1428571428571429
 40
0.1428571428571429
 40
0.1428571428571429
 40
0.1571428571428572
 40
0.1571428571428572
 40
0.1571428571428572
 40
0.1571428571428572
 40
0.1714285714285715
 40
0.1714285714285715
 40
0.1714285714285715
 40
0.1714285714285715
 40
0.1857142857142858
 40
0.1857142857142858
 40
0.1857142857142858
 40
0.1857142857142858
 40
0.2
 40
0.2
 40
0.2
 40
0.2
 40
0.2142857142857143
 40
0.2142857142857143
 40
0.2142857142857143
 40
0.2142857142857143
 40
0.2285714285714286
 40
0.2285714285714286
 40
0.2285714285714286
 40
0.2285714285714286
 40
0.2428571428571429
 40
0.2428571428571429
 40
0.2428571428571429
 40
0.2428571428571429
 40
0.2571428571428572
 40
0.2571428571428572
 40
0.2571428571428572
 40
0.2571428571428572
 40
0.2714285714285715
 40
0.2714285714285715
 40
0.2714285714285715
 40
0.2714285714285715
 40
0.2857142857142858
 40
0.2857142857142858
 40
0.2857142857142858
 40
0.2857142857142858
 40
0.3
 40
0.3
 40
0.3
 40
0.3
 40
0.3142857142857143
 40
0.3142857142857143
 40
0.3142857142857143
 40
0.3142857142857143
 40
0.3285714285714286
 40
0.3285714285714286
 40
0.3285714285714286
 40
0.3285714285714286
 40
0.3428571428571429
 40
0.3428571428571429
 40
0.3428571428571429
 40
0.3428571428571429
 40
0.3571428571428572
 40
0.3571428571428572
 40
0.3571428571428572
 40
0.3571428571428572
 40
0.3714285714285715
 40
0.3714285714285715
 40
0.3714285714285715
 40
0.3714285714285715
 40
0.3857142857142858
 40
0.3857142857142858
 40
0.3857142857142858
 40
0.3857142857142858
 40
0.4000000000000001
 40
0.4000000000000001
 40
0.4000000000000001
 40
0.4000000000000001
 40
0.4142857142857144
 40
0.4142857142857144
 40
0.4142857142857144
 40
0.4142857142857144
 40
0.4285714285714287
 40
0.4285714285714287
 40
0.4285714285714287
 40
0.4285714285714287
 40
0.442857142857143
 40
0.442857142857143
 40
0.442857142857143
 40
0.442857142857143
 40
0.4571428571428572
 40
0.4571428571428572
 40
0.4571428571428572
 40
0.4571428571428572
 40
0.4714285714285715
 40
0.4714285714285715
 40
0.4714285714285715
 40
0.4714285714285715
 40
0.4857142857142858
 40
0.4857142857142858
 40
0.4857142857142858
 40
0.4857142857142858
 40
0.5000000000000001
 40
0.5000000000000001
 40
0.5000000000000001
 40
0.5000000000000001
 40
0.5142857142857144
 40
0.5142857142857144
 40
0.5142857142857144
 40
0.5142857142857144
 40
0.5285714285714286
 40
0.5285714285714286
 40
0.5285714285714286
 40
0.5285714285714286
 40
0.5428571428571428
 40
0.5428571428571428
 40
0.5428571428571428
 40
0.5428571428571428
 40
0.5571428571428571
 40
0.5571428571428571
 40
0.5571428571428571
 40
0.5571428571428571
 40
0.5714285714285713
 40
0.5714285714285713
 40
0.5714285714285713
 40
0.5714285714285713
 40
0.5857142857142855
 40
0.5857142857142855
 40
0.5857142857142855
 40
0.5857142857142855
 40
0.5999999999999998
 40
0.5999999999999998
 40
0.5999999999999998
 40
0.5999999999999998
 40
0.614285714285714
 40
0.614285714285714
 40
0.614285714285714
 40
0.614285714285714
 40
0.6285714285714282
 40
0.6285714285714282
 40
0.6285714285714282
 40
0.6285714285714282
 40
0.6428571428571425
 40
0.6428571428571425
 40
0.6428571428571425
 40
0.6428571428571425
 40
0.6571428571428567
 40
0.6571428571428567
 40
0.6571428571428567
 40
0.6571428571428567
 40
0.6714285714285709
 40
0.6714285714285709
 40
0.6714285714285709
 40
0.6714285714285709
 40
0.6857142857142852
 40
0.6857142857142852
 40
0.6857142857142852
 40
0.6857142857142852
 40
0.6999999999999994
 40
0.6999999999999994
 40
0.6999999999999994
 40
0.6999999999999994
 40
0.7142857142857136
 40
0.7142857142857136
 40
0.7142857142857136
 40
0.7142857142857136
 40
0.7285714285714279
 40
0.7285714285714279
 40
0.7285714285714279
 40
0.7285714285714279
 40
0.7428571428571421
 40
0.7428571428571421
 40
0.7428571428571421
 40
0.7428571428571421
 40
0.7571428571428563
 40
0.7571428571428563
 40
0.7571428571428563
 40
0.7571428571428563
 40
0.7714285714285706
 40
0.7714285714285706
 40
0.7714285714285706
 40
0.7714285714285706
 40
0.7857142857142848
 40
0.7857142857142848
 40
0.7857142857142848
 40
0.7857142857142848
 40
0.7999999999999991
 40
0.7999999999999991
 40
0.7999999999999991
 40
0.7999999999999991
 40
0.8142857142857133
 40
0.8142857142857133
 40
0.8142857142857133
 40
0.8142857142857133
 40
0.8285714285714275
 40
0.8285714285714275
 40
0.8285714285714275
 40
0.8285714285714275
 40
0.8428571428571418
 40
0.8428571428571418
 40
0.8428571428571418
 40
0.8428571428571418
 40
0.857142857142856
 40
0.857142857142856
 40
0.857142857142856
 40
0.857142857142856
 40
0.8714285714285702
 40
0.8714285714285702
 40
0.8714285714285702
 40
0.8714285714285702
 40
0.8857142857142845
 40
0.8857142857142845
 40
0.8857142857142845
 40
0.8857142857142845
 40
0.8999999999999987
 40
0.8999999999999987
 40
0.8999999999999987
 40
0.8999999999999987
 40
0.9142857142857129
 40
0.9142857142857129
 40
0.9142857142857129
 40
0.9142857142857129
 40
0.9285714285714272
 40
0.9285714285714272
 40
0.9285714285714272
 40
0.9285714285714272
 40
0.9428571428571414
 40
0.9428571428571414
 40
0.9428571428571414
 40
0.9428571428571414
 40
0.9571428571428556
 40
0.9571428571428556
 40
0.9571428571428556
 40
0.9571428571428556
 40
0.9714285714285699
 40
0.9714285714285699
 40
0.9714285714285699
 40
0.9714285714285699
 40
0.9857142857142841
 40
0.9857142857142841
 40
0.9857142857142841
 40
0.9857142857142841
 40
1.0
 40
1.0
 40
1.0
 40
1.0
 10
-24.319600000000001
 20
67.244799999999998
 30
0.0
 10
-24.373699999999999
 20
67.205299999999994
 30
0.0
 10
-24.4283
 20
67.165300000000002
 30
0.0
 10
-24.483499999999999
 20
67.125299999999996
 30
0.0
 10
-24.483499999999999
 20
67.125299999999996
 30
0.0
 10
-25.872599999999998
 20
66.135000000000005
 30
0.0
 10
-26.910399999999999
 20
65.641599999999997
 30
0.0
 10
-27.597000000000001
 20
65.641599999999997
 30
0.0
 10
-27.597000000000001
 20
65.641599999999997
 30
0.0
 10
-28.157399999999999
 20
65.641599999999997
 30
0.0
 10
-28.607199999999999
 20
65.850700000000003
 30
0.0
 10
-28.950500000000002
 20
66.265100000000004
 30
0.0
 10
-28.950500000000002
 20
66.265100000000004
 30
0.0
 10
-29.266100000000002
 20
66.624200000000002
 30
0.0
 10
-29.3964
 20
67.003100000000003
 30
0.0
 10
-29.3371
 20
67.401499999999999
 30
0.0
 10
-29.3371
 20
67.401499999999999
 30
0.0
 10
-29.210899999999999
 20
68.392200000000003
 30
0.0
 10
-28.5519
 20
69.903400000000005
 30
0.0
 10
-27.360099999999999
 20
71.935500000000005
 30
0.0
 10
-27.360099999999999
 20
71.935500000000005
 30
0.0
 10
-27.8752
 20
71.279300000000006
 30
0.0
 10
-28.510000000000002
 20
70.513199999999998
 30
0.0
 10
-29.264800000000001
 20
69.637200000000007
 30
0.0
 10
-29.264800000000001
 20
69.637200000000007
 30
0.0
 10
-29.268999999999998
 20
69.628799999999998
 30
0.0
 10
-29.271799999999999
 20
69.621399999999994
 30
0.0
 10
-29.2743
 20
69.615200000000002
 30
0.0
 10
-29.2743
 20
69.615200000000002
 30
0.0
 10
-29.3017
 20
69.473200000000006
 30
0.0
 10
-30.031600000000001
 20
68.763000000000005
 30
0.0
 10
-31.464099999999998
 20
67.488399999999999
 30
0.0
 10
-31.464099999999998
 20
67.488399999999999
 30
0.0
 10
-31.980899999999998
 20
67.030600000000007
 30
0.0
 10
-32.561100000000003
 20
66.608400000000003
 30
0.0
 10
-33.2042
 20
66.221800000000002
 30
0.0
 10
-33.2042
 20
66.221800000000002
 30
0.0
 10
-33.906500000000001
 20
65.791600000000003
 30
0.0
 10
-34.4236
 20
65.578500000000005
 30
0.0
 10
-34.750999999999998
 20
65.578500000000005
 30
0.0
 10
-34.750999999999998
 20
65.578500000000005
 30
0.0
 10
-34.822200000000002
 20
65.578500000000005
 30
0.0
 10
-34.889200000000002
 20
65.594200000000001
 30
0.0
 10
-34.944299999999998
 20
65.621899999999997
 30
0.0
 10
-34.944299999999998
 20
65.621899999999997
 30
0.0
 10
-35.777099999999997
 20
66.079700000000003
 30
0.0
 10
-36.191099999999999
 20
66.564999999999998
 30
0.0
 10
-36.191099999999999
 20
67.081999999999994
 30
0.0
 10
-36.191099999999999
 20
67.081999999999994
 30
0.0
 10
-36.191099999999999
 20
67.441100000000006
 30
0.0
 10
-36.025700000000001
 20
67.997500000000002
 30
0.0
 10
-35.698099999999997
 20
68.759
 30
0.0
 10
-35.698099999999997
 20
68.759
 30
0.0
 10
-35.279800000000002
 20
69.686199999999999
 30
0.0
 10
-35.074599999999997
 20
70.369
 30
0.0
 10
-35.074599999999997
 20
70.799000000000007
 30
0.0
 10
-35.074599999999997
 20
70.799000000000007
 30
0.0
 10
-35.074599999999997
 20
71.000399999999999
 30
0.0
 10
-35.137900000000002
 20
71.099000000000004
 30
0.0
 10
-35.268099999999997
 20
71.099000000000004
 30
0.0
 10
-35.268099999999997
 20
71.099000000000004
 30
0.0
 10
-35.552300000000002
 20
71.099000000000004
 30
0.0
 10
-36.163800000000002
 20
70.491200000000006
 30
0.0
 10
-37.094900000000003
 20
69.272000000000006
 30
0.0
 10
-37.094900000000003
 20
69.272000000000006
 30
0.0
 10
-38.195900000000002
 20
67.823800000000006
 30
0.0
 10
-39.0839
 20
66.845100000000002
 30
0.0
 10
-39.758499999999998
 20
66.328400000000002
 30
0.0
 10
-39.758499999999998
 20
66.328400000000002
 30
0.0
 10
-39.801900000000003
 20
66.300600000000003
 30
0.0
 10
-40.188600000000001
 20
66.107299999999995
 30
0.0
 10
-40.918599999999998
 20
65.7483
 30
0.0
 10
-40.918599999999998
 20
65.7483
 30
0.0
 10
-41.033099999999997
 20
65.689099999999996
 30
0.0
 10
-41.139699999999998
 20
65.6614
 30
0.0
 10
-41.238199999999999
 20
65.6614
 30
0.0
 10
-41.238199999999999
 20
65.6614
 30
0.0
 10
-41.569800000000001
 20
65.6614
 30
0.0
 10
-41.826300000000003
 20
65.9178
 30
0.0
 10
-42.011600000000001
 20
66.434799999999996
 30
0.0
 10
-42.011600000000001
 20
66.434799999999996
 30
0.0
 10
-42.0867
 20
66.620199999999997
 30
0.0
 10
-41.648800000000001
 20
67.587100000000007
 30
0.0
 10
-40.701599999999999
 20
69.335099999999997
 30
0.0
 10
-40.701599999999999
 20
69.335099999999997
 30
0.0
 10
-39.371899999999997
 20
71.785600000000002
 30
0.0
 10
-38.626100000000001
 20
73.174599999999998
 30
0.0
 10
-38.4681
 20
73.505799999999994
 30
0.0
 10
-38.4681
 20
73.505799999999994
 30
0.0
 10
-38.740499999999997
 20
73.048400000000001
 30
0.0
 10
-39.356000000000002
 20
72.231499999999997
 30
0.0
 10
-40.314900000000002
 20
71.055499999999995
 30
0.0
 10
-40.314900000000002
 20
71.055499999999995
 30
0.0
 10
-41.131599999999999
 20
70.069000000000003
 30
0.0
 10
-41.640700000000002
 20
69.473200000000006
 30
0.0
 10
-41.841999999999999
 20
69.272000000000006
 30
0.0
 10
-41.841999999999999
 20
69.272000000000006
 30
0.0
 10
-41.892400000000002
 20
69.221699999999998
 30
0.0
 10
-41.941600000000001
 20
69.185900000000004
 30
0.0
 10
-41.9908
 20
69.165000000000006
 30
0.0
 10
-41.9908
 20
69.165000000000006
 30
0.0
 10
-41.9908
 20
69.165000000000006
 30
0.0
 10
-42.007899999999999
 20
69.145799999999994
 30
0.0
 10
-42.007899999999999
 20
69.145799999999994
 30
0.0
 10
-42.007899999999999
 20
69.145799999999994
 30
0.0
 10
-43.081099999999999
 20
67.9542
 30
0.0
 10
-44.485700000000001
 20
66.896500000000003
 30
0.0
 10
-46.218200000000003
 20
65.965199999999996
 30
0.0
 10
-46.218200000000003
 20
65.965199999999996
 30
0.0
 10
-48.021500000000003
 20
62.070599999999999
 30
0.0
 10
-49.749899999999997
 20
59.920000000000002
 30
0.0
 10
-51.395400000000002
 20
59.517600000000002
 30
0.0
 10
-51.395400000000002
 20
59.517600000000002
 30
0.0
 10
-51.998899999999999
 20
59.375300000000003
 30
0.0
 10
-52.563299999999998
 20
59.304499999999997
 30
0.0
 10
-53.091900000000003
 20
59.304499999999997
 30
0.0
 10
-53.091900000000003
 20
59.304499999999997
 30
0.0
 10
-53.952399999999997
 20
59.304499999999997
 30
0.0
 10
-54.618899999999996
 20
59.501800000000003
 30
0.0
 10
-55.092799999999997
 20
59.8964
 30
0.0
 10
-55.092799999999997
 20
59.8964
 30
0.0
 10
-55.5623
 20
60.290799999999997
 30
0.0
 10
-55.763500000000001
 20
60.859099999999998
 30
0.0
 10
-55.692500000000003
 20
61.604799999999997
 30
0.0
 10
-55.692500000000003
 20
61.604799999999997
 30
0.0
 10
-55.621499999999997
 20
62.346800000000002
 30
0.0
 10
-55.128100000000003
 20
62.997799999999998
 30
0.0
 10
-54.208799999999997
 20
63.558100000000003
 30
0.0
 10
-54.208799999999997
 20
63.558100000000003
 30
0.0
 10
-53.336799999999997
 20
63.988199999999999
 30
0.0
 10
-52.456699999999998
 20
64.426299999999998
 30
0.0
 10
-51.568899999999999
 20
64.868300000000005
 30
0.0
 10
-51.568899999999999
 20
64.868300000000005
 30
0.0
 10
-51.225700000000003
 20
65.041799999999995
 30
0.0
 10
-50.637599999999999
 20
65.282600000000002
 30
0.0
 10
-49.805100000000003
 20
65.598200000000006
 30
0.0
 10
-49.805100000000003
 20
65.598200000000006
 30
0.0
 10
-49.662999999999997
 20
65.914100000000005
 30
0.0
 10
-49.591999999999999
 20
66.0916
 30
0.0
 10
-49.591999999999999
 20
66.135000000000005
 30
0.0
 10
-49.591999999999999
 20
66.135000000000005
 30
0.0
 10
-50.306100000000001
 20
65.791600000000003
 30
0.0
 10
-50.988700000000001
 20
65.621899999999997
 30
0.0
 10
-51.632100000000001
 20
65.621899999999997
 30
0.0
 10
-51.632100000000001
 20
65.621899999999997
 30
0.0
 10
-52.492199999999997
 20
65.621899999999997
 30
0.0
 10
-53.084000000000003
 20
65.870500000000007
 30
0.0
 10
-53.415599999999998
 20
66.371499999999997
 30
0.0
 10
-53.415599999999998
 20
66.371499999999997
 30
0.0
 10
-53.5732
 20
66.616299999999995
 30
0.0
 10
-53.6524
 20
66.9833
 30
0.0
 10
-53.6524
 20
67.468599999999995
 30
0.0
 10
-53.6524
 20
67.468599999999995
 30
0.0
 10
-53.6524
 20
68.031800000000004
 30
0.0
 10
-53.581499999999998
 20
68.495500000000007
 30
0.0
 10
-53.440199999999997
 20
68.859399999999994
 30
0.0
 10
-53.440199999999997
 20
68.859399999999994
 30
0.0
 10
-53.877800000000001
 20
68.379800000000003
 30
0.0
 10
-54.487699999999997
 20
67.829899999999995
 30
0.0
 10
-55.270099999999999
 20
67.208200000000005
 30
0.0
 10
-55.270099999999999
 20
67.208200000000005
 30
0.0
 10
-56.615699999999997
 20
66.135000000000005
 30
0.0
 10
-57.610199999999999
 20
65.598200000000006
 30
0.0
 10
-58.257300000000001
 20
65.598200000000006
 30
0.0
 10
-58.257300000000001
 20
65.598200000000006
 30
0.0
 10
-58.6875
 20
65.598200000000006
 30
0.0
 10
-59.038699999999999
 20
65.771900000000002
 30
0.0
 10
-59.310899999999997
 20
66.115200000000002
 30
0.0
 10
-59.310899999999997
 20
66.115200000000002
 30
0.0
 10
-59.524099999999997
 20
66.3874
 30
0.0
 10
-59.630400000000002
 20
66.651899999999998
 30
0.0
 10
-59.630400000000002
 20
66.9084
 30
0.0
 10
-59.630400000000002
 20
66.9084
 30
0.0
 10
-59.630400000000002
 20
67.437200000000004
 30
0.0
 10
-59.496299999999998
 20
68.032799999999995
 30
0.0
 10
-59.223999999999997
 20
68.691900000000004
 30
0.0
 10
-59.223999999999997
 20
68.691900000000004
 30
0.0
 10
-59.078099999999999
 20
69.051000000000002
 30
0.0
 10
-58.584800000000001
 20
70.096800000000002
 30
0.0
 10
-57.740400000000001
 20
71.828999999999994
 30
0.0
 10
-57.740400000000001
 20
71.828999999999994
 30
0.0
 10
-58.3125
 20
71.114999999999995
 30
0.0
 10
-58.963799999999999
 20
70.341200000000001
 30
0.0
 10
-59.697600000000001
 20
69.508799999999994
 30
0.0
 10
-59.697600000000001
 20
69.508799999999994
 30
0.0
 10
-59.772300000000001
 20
69.450100000000006
 30
0.0
 10
-59.870199999999997
 20
69.406099999999995
 30
0.0
 10
-59.991999999999997
 20
69.376099999999994
 30
0.0
 10
-59.991999999999997
 20
69.376099999999994
 30
0.0
 10
-60.052
 20
69.2577
 30
0.0
 10
-60.145600000000002
 20
69.122799999999998
 30
0.0
 10
-60.273699999999998
 20
68.972099999999998
 30
0.0
 10
-60.273699999999998
 20
68.972099999999998
 30
0.0
 10
-60.948500000000003
 20
68.183000000000007
 30
0.0
 10
-61.7654
 20
67.425299999999993
 30
0.0
 10
-62.7241
 20
66.695400000000006
 30
0.0
 10
-62.7241
 20
66.695400000000006
 30
0.0
 10
-63.955199999999998
 20
65.763999999999996
 30
0.0
 10
-64.949799999999996
 20
65.298400000000001
 30
0.0
 10
-65.711399999999998
 20
65.298400000000001
 30
0.0
 10
-65.711399999999998
 20
65.298400000000001
 30
0.0
 10
-66.283600000000007
 20
65.298400000000001
 30
0.0
 10
-66.717500000000001
 20
65.519300000000001
 30
0.0
 10
-67.021299999999997
 20
65.965199999999996
 30
0.0
 10
-67.021299999999997
 20
65.965199999999996
 30
0.0
 10
-67.277900000000002
 20
66.351900000000001
 30
0.0
 10
-67.408199999999994
 20
66.837199999999996
 30
0.0
 10
-67.408199999999994
 20
67.425299999999993
 30
0.0
 10
-67.408199999999994
 20
67.425299999999993
 30
0.0
 10
-67.408199999999994
 20
67.882900000000006
 30
0.0
 10
-67.329099999999997
 20
68.293400000000005
 30
0.0
 10
-67.171199999999999
 20
68.648600000000002
 30
0.0
 10
-67.171199999999999
 20
68.648600000000002
 30
0.0
 10
-66.354299999999995
 20
70.167599999999993
 30
0.0
 10
-65.363900000000001
 20
72.136700000000005
 30
0.0
 10
-64.203900000000004
 20
74.559600000000003
 30
0.0
 10
-64.203900000000004
 20
74.559600000000003
 30
0.0
 10
-64.077699999999993
 20
74.871499999999997
 30
0.0
 10
-64.010599999999997
 20
75.139600000000002
 30
0.0
 10
-64.010599999999997
 20
75.352900000000005
 30
0.0
 10
-64.010599999999997
 20
75.352900000000005
 30
0.0
 10
-64.010599999999997
 20
75.696100000000001
 30
0.0
 10
-64.156599999999997
 20
75.869600000000005
 30
0.0
 10
-64.440600000000003
 20
75.869600000000005
 30
0.0
 10
-64.440600000000003
 20
75.869600000000005
 30
0.0
 10
-64.713099999999997
 20
75.869600000000005
 30
0.0
 10
-65.064300000000003
 20
75.688000000000002
 30
0.0
 10
-65.494299999999996
 20
75.332999999999998
 30
0.0
 10
-65.494299999999996
 20
75.332999999999998
 30
0.0
 10
-66.453299999999999
 20
74.516400000000004
 30
0.0
 10
-67.684299999999993
 20
73.032600000000002
 30
0.0
 10
-69.191599999999994
 20
70.885999999999996
 30
0.0
 10
-69.191599999999994
 20
70.885999999999996
 30
0.0
 10
-69.404700000000005
 20
70.428200000000004
 30
0.0
 10
-69.696799999999996
 20
69.812600000000003
 30
0.0
 10
-70.071600000000004
 20
69.039199999999994
 30
0.0
 10
-70.071600000000004
 20
69.039199999999994
 30
0.0
 10
-69.467799999999997
 20
69.039199999999994
 30
0.0
 10
-69.002200000000002
 20
69.145799999999994
 30
0.0
 10
-68.674800000000005
 20
69.358900000000006
 30
0.0
 10
-68.674800000000005
 20
69.358900000000006
 30
0.0
 10
-68.575900000000004
 20
69.413899999999998
 30
0.0
 10
-68.481499999999997
 20
69.445700000000002
 30
0.0
 10
-68.394599999999997
 20
69.445700000000002
 30
0.0
 10
-68.394599999999997
 20
69.445700000000002
 30
0.0
 10
-68.110399999999998
 20
69.445700000000002
 30
0.0
 10
-67.964500000000001
 20
69.295699999999997
 30
0.0
 10
-67.964500000000001
 20
68.995699999999999
 30
0.0
 10
-67.964500000000001
 20
68.995699999999999
 30
0.0
 10
-67.964500000000001
 20
68.794600000000003
 30
0.0
 10
-68.0672
 20
68.636600000000001
 30
0.0
 10
-68.264300000000006
 20
68.522300000000001
 30
0.0
 10
-68.264300000000006
 20
68.522300000000001
 30
0.0
 10
-68.726100000000002
 20
68.265699999999995
 30
0.0
 10
-69.238900000000001
 20
68.135499999999993
 30
0.0
 10
-69.811199999999999
 20
68.135499999999993
 30
0.0
 10
-69.811199999999999
 20
68.135499999999993
 30
0.0
 10
-69.898099999999999
 20
68.135499999999993
 30
0.0
 10
-70.016300000000001
 20
68.135499999999993
 30
0.0
 10
-70.166399999999996
 20
68.135499999999993
 30
0.0
 10
-70.166399999999996
 20
68.135499999999993
 30
0.0
 10
-70.316299999999998
 20
68.135499999999993
 30
0.0
 10
-70.430700000000002
 20
68.135499999999993
 30
0.0
 10
-70.5017
 20
68.135499999999993
 30
0.0
 10
-70.5017
 20
68.135499999999993
 30
0.0
 10
-71.058099999999996
 20
67.105599999999995
 30
0.0
 10
-71.555199999999999
 20
66.442800000000005
 30
0.0
 10
-71.981499999999997
 20
66.146799999999999
 30
0.0
 10
-71.981499999999997
 20
66.146799999999999
 30
0.0
 10
-72.115799999999993
 20
66.052000000000007
 30
0.0
 10
-72.254999999999995
 20
65.966999999999999
 30
0.0
 10
-72.399199999999993
 20
65.891400000000004
 30
0.0
 10
-72.399199999999993
 20
65.891400000000004
 30
0.0
 10
-66.938100000000006
 20
58.8887
 30
0.0
 10
-58.422600000000003
 20
54.384
 30
0.0
 10
-48.8566
 20
54.384
 30
0.0
 10
-48.8566
 20
54.384
 30
0.0
 10
-38.687800000000003
 20
54.384
 30
0.0
 10
-29.706499999999998
 20
59.474299999999999
 30
0.0
 10
-24.319600000000001
 20
67.244799999999998
 30
0.0
  0
SPLINE
  5
2C
100
AcDbEntity
  8
RÚteg 1
 62
     7
100
AcDbSpline
210
0.0
220
0.0
230
1.0
 70
     1
 71
     3
 72
    36
 73
    32
 74
     0
 42
0.0000000001
 43
0.0000000001
 40
0.0
 40
0.0
 40
0.0
 40
0.0
 40
0.125
 40
0.125
 40
0.125
 40
0.125
 40
0.25
 40
0.25
 40
0.25
 40
0.25
 40
0.375
 40
0.375
 40
0.375
 40
0.375
 40
0.5
 40
0.5
 40
0.5
 40
0.5
 40
0.625
 40
0.625
 40
0.625
 40
0.625
 40
0.75
 40
0.75
 40
0.75
 40
0.75
 40
0.875
 40
0.875
 40
0.875
 40
0.875
 40
1.0
 40
1.0
 40
1.0
 40
1.0
 10
-48.495100000000001
 20
71.698899999999995
 30
0.0
 10
-49.382800000000003
 20
70.266400000000004
 30
0.0
 10
-49.828699999999998
 20
69.386300000000006
 30
0.0
 10
-49.828699999999998
 20
69.058899999999994
 30
0.0
 10
-49.828699999999998
 20
69.058899999999994
 30
0.0
 10
-49.828699999999998
 20
68.928700000000006
 30
0.0
 10
-49.726300000000002
 20
68.822199999999995
 30
0.0
 10
-49.524999999999999
 20
68.735399999999998
 30
0.0
 10
-49.524999999999999
 20
68.735399999999998
 30
0.0
 10
-49.398600000000002
 20
68.691900000000004
 30
0.0
 10
-49.276299999999999
 20
68.6721
 30
0.0
 10
-49.161799999999999
 20
68.6721
 30
0.0
 10
-49.161799999999999
 20
68.6721
 30
0.0
 10
-48.558100000000003
 20
68.6721
 30
0.0
 10
-47.895200000000003
 20
69.331199999999995
 30
0.0
 10
-47.161200000000001
 20
70.649199999999993
 30
0.0
 10
-47.161200000000001
 20
70.649199999999993
 30
0.0
 10
-46.447000000000003
 20
71.9238
 30
0.0
 10
-46.087899999999998
 20
72.760199999999998
 30
0.0
 10
-46.087899999999998
 20
73.162700000000001
 30
0.0
 10
-46.087899999999998
 20
73.162700000000001
 30
0.0
 10
-46.087899999999998
 20
73.320499999999996
 30
0.0
 10
-46.158900000000003
 20
73.427099999999996
 30
0.0
 10
-46.3048
 20
73.482399999999998
 30
0.0
 10
-46.3048
 20
73.482399999999998
 30
0.0
 10
-46.375900000000001
 20
73.525800000000004
 30
0.0
 10
-46.462800000000001
 20
73.549499999999995
 30
0.0
 10
-46.561399999999999
 20
73.549499999999995
 30
0.0
 10
-46.561399999999999
 20
73.549499999999995
 30
0.0
 10
-47.090299999999999
 20
73.549499999999995
 30
0.0
 10
-47.737299999999998
 20
72.933800000000005
 30
0.0
 10
-48.495100000000001
 20
71.698899999999995
 30
0.0
  0
SPLINE
  5
2D
100
AcDbEntity
  8
RÚteg 1
 62
     7
100
AcDbSpline
210
0.0
220
0.0
230
1.0
 70
     1
 71
     3
 72
    24
 73
    20
 74
     0
 42
0.0000000001
 43
0.0000000001
 40
0.0
 40
0.0
 40
0.0
 40
0.0
 40
0.2
 40
0.2
 40
0.2
 40
0.2
 40
0.4
 40
0.4
 40
0.4
 40
0.4
 40
0.6000000000000001
 40
0.6000000000000001
 40
0.6000000000000001
 40
0.6000000000000001
 40
0.8
 40
0.8
 40
0.8
 40
0.8
 40
1.0
 40
1.0
 40
1.0
 40
1.0
 10
-51.687199999999997
 20
61.687800000000003
 30
0.0
 10
-51.276800000000001
 20
62.3902
 30
0.0
 10
-50.858699999999999
 20
63.207000000000001
 30
0.0
 10
-50.428600000000003
 20
64.138099999999994
 30
0.0
 10
-50.428600000000003
 20
64.138099999999994
 30
0.0
 10
-51.718699999999998
 20
63.6096
 30
0.0
 10
-52.563299999999998
 20
62.9544
 30
0.0
 10
-52.965899999999998
 20
62.180999999999997
 30
0.0
 10
-52.965899999999998
 20
62.180999999999997
 30
0.0
 10
-53.1631
 20
61.782499999999999
 30
0.0
 10
-53.265599999999999
 20
61.443199999999997
 30
0.0
 10
-53.265599999999999
 20
61.174799999999998
 30
0.0
 10
-53.265599999999999
 20
61.174799999999998
 30
0.0
 10
-53.265599999999999
 20
60.8157
 30
0.0
 10
-53.135300000000001
 20
60.634099999999997
 30
0.0
 10
-52.878999999999998
 20
60.634099999999997
 30
0.0
 10
-52.878999999999998
 20
60.634099999999997
 30
0.0
 10
-52.492199999999997
 20
60.634099999999997
 30
0.0
 10
-52.093899999999998
 20
60.985199999999999
 30
0.0
 10
-51.687199999999997
 20
61.687800000000003
 30
0.0
  0
SPLINE
  5
2E
100
AcDbEntity
  8
RÚteg 1
 62
     7
100
AcDbSpline
210
0.0
220
0.0
230
1.0
 70
     1
 71
     3
 72
    36
 73
    32
 74
     0
 42
0.0000000001
 43
0.0000000001
 40
0.0
 40
0.0
 40
0.0
 40
0.0
 40
0.125
 40
0.125
 40
0.125
 40
0.125
 40
0.25
 40
0.25
 40
0.25
 40
0.25
 40
0.375
 40
0.375
 40
0.375
 40
0.375
 40
0.5
 40
0.5
 40
0.5
 40
0.5
 40
0.625
 40
0.625
 40
0.625
 40
0.625
 40
0.75
 40
0.75
 40
0.75
 40
0.75
 40
0.875
 40
0.875
 40
0.875
 40
0.875
 40
1.0
 40
1.0
 40
1.0
 40
1.0
 10
-74.151700000000005
 20
73.549499999999995
 30
0.0
 10
-74.195099999999996
 20
72.389200000000002
 30
0.0
 10
-73.851799999999997
 20
71.406800000000004
 30
0.0
 10
-73.122
 20
70.605800000000002
 30
0.0
 10
-73.122
 20
70.605800000000002
 30
0.0
 10
-71.117199999999997
 20
74.599100000000007
 30
0.0
 10
-69.929699999999997
 20
77.041700000000006
 30
0.0
 10
-69.554699999999997
 20
77.929699999999997
 30
0.0
 10
-69.554699999999997
 20
77.929699999999997
 30
0.0
 10
-69.424599999999998
 20
78.233199999999997
 30
0.0
 10
-69.361400000000003
 20
78.509699999999995
 30
0.0
 10
-69.361400000000003
 20
78.770099999999999
 30
0.0
 10
-69.361400000000003
 20
78.770099999999999
 30
0.0
 10
-69.361400000000003
 20
79.511799999999994
 30
0.0
 10
-69.728499999999997
 20
79.886700000000005
 30
0.0
 10
-70.458299999999994
 20
79.886700000000005
 30
0.0
 10
-70.458299999999994
 20
79.886700000000005
 30
0.0
 10
-70.659300000000002
 20
79.886700000000005
 30
0.0
 10
-70.856999999999999
 20
79.843299999999999
 30
0.0
 10
-71.058099999999996
 20
79.756500000000003
 30
0.0
 10
-71.058099999999996
 20
79.756500000000003
 30
0.0
 10
-71.460700000000003
 20
79.499899999999997
 30
0.0
 10
-71.803899999999999
 20
79.203999999999994
 30
0.0
 10
-72.088200000000001
 20
78.876599999999996
 30
0.0
 10
-72.088200000000001
 20
78.876599999999996
 30
0.0
 10
-72.632599999999996
 20
78.261099999999999
 30
0.0
 10
-73.090199999999996
 20
77.495500000000007
 30
0.0
 10
-73.465199999999996
 20
76.576099999999997
 30
0.0
 10
-73.465199999999996
 20
76.576099999999997
 30
0.0
 10
-73.895399999999995
 20
75.546099999999996
 30
0.0
 10
-74.124200000000002
 20
74.536000000000001
 30
0.0
 10
-74.151700000000005
 20
73.549499999999995
 30
0.0
  0
SPLINE
  5
2F
100
AcDbEntity
  8
RÚteg 1
 62
     7
100
AcDbSpline
210
0.0
220
0.0
230
1.0
 70
     1
 71
     3
 72
    28
 73
    24
 74
     0
 42
0.0000000001
 43
0.0000000001
 40
0.0
 40
0.0
 40
0.0
 40
0.0
 40
0.1666666666666667
 40
0.1666666666666667
 40
0.1666666666666667
 40
0.1666666666666667
 40
0.3333333333333333
 40
0.3333333333333333
 40
0.3333333333333333
 40
0.3333333333333333
 40
0.5
 40
0.5
 40
0.5
 40
0.5
 40
0.6666666666666666
 40
0.6666666666666666
 40
0.6666666666666666
 40
0.6666666666666666
 40
0.8333333333333333
 40
0.8333333333333333
 40
0.8333333333333333
 40
0.8333333333333333
 40
1.0
 40
1.0
 40
1.0
 40
1.0
 10
-45.947600000000001
 20
94.964699999999993
 30
0.0
 10
-45.718800000000002
 20
94.964699999999993
 30
0.0
 10
-45.2333
 20
95.359499999999997
 30
0.0
 10
-44.4876
 20
96.148600000000002
 30
0.0
 10
-44.4876
 20
96.148600000000002
 30
0.0
 10
-44.0456
 20
96.622200000000007
 30
0.0
 10
-43.820799999999998
 20
97.115399999999994
 30
0.0
 10
-43.820799999999998
 20
97.632300000000001
 30
0.0
 10
-43.820799999999998
 20
97.632300000000001
 30
0.0
 10
-43.820799999999998
 20
97.861199999999997
 30
0.0
 10
-43.907400000000003
 20
97.975800000000007
 30
0.0
 10
-44.081099999999999
 20
97.975800000000007
 30
0.0
 10
-44.081099999999999
 20
97.975800000000007
 30
0.0
 10
-44.353200000000001
 20
97.975800000000007
 30
0.0
 10
-44.838700000000003
 20
97.510099999999994
 30
0.0
 10
-45.541200000000003
 20
96.578699999999998
 30
0.0
 10
-45.541200000000003
 20
96.578699999999998
 30
0.0
 10
-46.026499999999999
 20
95.990700000000004
 30
0.0
 10
-46.271099999999997
 20
95.545000000000002
 30
0.0
 10
-46.271099999999997
 20
95.245000000000005
 30
0.0
 10
-46.271099999999997
 20
95.245000000000005
 30
0.0
 10
-46.271099999999997
 20
95.059600000000003
 30
0.0
 10
-46.164700000000003
 20
94.964699999999993
 30
0.0
 10
-45.947600000000001
 20
94.964699999999993
 30
0.0
  0
SPLINE
  5
30
100
AcDbEntity
  8
RÚteg 1
 62
     7
100
AcDbSpline
210
0.0
220
0.0
230
1.0
 70
     1
 71
     3
 72
    60
 73
    56
 74
     0
 42
0.0000000001
 43
0.0000000001
 40
0.0
 40
0.0
 40
0.0
 40
0.0
 40
0.0714285714285714
 40
0.0714285714285714
 40
0.0714285714285714
 40
0.0714285714285714
 40
0.1428571428571429
 40
0.1428571428571429
 40
0.1428571428571429
 40
0.1428571428571429
 40
0.2142857142857143
 40
0.2142857142857143
 40
0.2142857142857143
 40
0.2142857142857143
 40
0.2857142857142857
 40
0.2857142857142857
 40
0.2857142857142857
 40
0.2857142857142857
 40
0.3571428571428571
 40
0.3571428571428571
 40
0.3571428571428571
 40
0.3571428571428571
 40
0.4285714285714285
 40
0.4285714285714285
 40
0.4285714285714285
 40
0.4285714285714285
 40
0.4999999999999999
 40
0.4999999999999999
 40
0.4999999999999999
 40
0.4999999999999999
 40
0.5714285714285713
 40
0.5714285714285713
 40
0.5714285714285713
 40
0.5714285714285713
 40
0.6428571428571427
 40
0.6428571428571427
 40
0.6428571428571427
 40
0.6428571428571427
 40
0.7142857142857141
 40
0.7142857142857141
 40
0.7142857142857141
 40
0.7142857142857141
 40
0.7857142857142855
 40
0.7857142857142855
 40
0.7857142857142855
 40
0.7857142857142855
 40
0.8571428571428569
 40
0.8571428571428569
 40
0.8571428571428569
 40
0.8571428571428569
 40
0.9285714285714283
 40
0.9285714285714283
 40
0.9285714285714283
 40
0.9285714285714283
 40
1.0
 40
1.0
 40
1.0
 40
1.0
 10
-76.025599999999997
 20
96.575699999999998
 30
0.0
 10
-75.955299999999994
 20
96.585899999999995
 30
0.0
 10
-75.883700000000005
 20
96.593500000000006
 30
0.0
 10
-75.810900000000004
 20
96.598399999999998
 30
0.0
 10
-75.810900000000004
 20
96.598399999999998
 30
0.0
 10
-75.210999999999999
 20
96.641800000000003
 30
0.0
 10
-74.701999999999998
 20
96.472200000000001
 30
0.0
 10
-74.287800000000004
 20
96.085499999999996
 30
0.0
 10
-74.287800000000004
 20
96.085499999999996
 30
0.0
 10
-73.9285
 20
95.726500000000001
 30
0.0
 10
-73.747100000000003
 20
95.315899999999999
 30
0.0
 10
-73.747100000000003
 20
94.8583
 30
0.0
 10
-73.747100000000003
 20
94.8583
 30
0.0
 10
-73.747100000000003
 20
94.585899999999995
 30
0.0
 10
-73.822100000000006
 20
94.357299999999995
 30
0.0
 10
-73.964200000000005
 20
94.171700000000001
 30
0.0
 10
-73.964200000000005
 20
94.171700000000001
 30
0.0
 10
-74.204800000000006
 20
93.883700000000005
 30
0.0
 10
-74.449600000000004
 20
93.599599999999995
 30
0.0
 10
-74.694199999999995
 20
93.311499999999995
 30
0.0
 10
-74.694199999999995
 20
93.311499999999995
 30
0.0
 10
-74.864000000000004
 20
93.098500000000001
 30
0.0
 10
-74.950599999999994
 20
92.837900000000005
 30
0.0
 10
-74.950599999999994
 20
92.5381
 30
0.0
 10
-74.950599999999994
 20
92.5381
 30
0.0
 10
-74.950599999999994
 20
91.563299999999998
 30
0.0
 10
-74.449600000000004
 20
91.078000000000003
 30
0.0
 10
-73.447100000000006
 20
91.078000000000003
 30
0.0
 10
-73.447100000000006
 20
91.078000000000003
 30
0.0
 10
-73.316900000000004
 20
91.078000000000003
 30
0.0
 10
-73.182699999999997
 20
91.085899999999995
 30
0.0
 10
-73.040700000000001
 20
91.097800000000007
 30
0.0
 10
-73.040700000000001
 20
91.097800000000007
 30
0.0
 10
-71.623999999999995
 20
91.255499999999998
 30
0.0
 10
-70.684899999999999
 20
91.721199999999996
 30
0.0
 10
-70.2273
 20
92.494600000000005
 30
0.0
 10
-70.2273
 20
92.494600000000005
 30
0.0
 10
-69.710400000000007
 20
93.382499999999993
 30
0.0
 10
-69.453900000000004
 20
95.174000000000007
 30
0.0
 10
-69.453900000000004
 20
97.865200000000002
 30
0.0
 10
-69.453900000000004
 20
97.865200000000002
 30
0.0
 10
-69.453900000000004
 20
97.865200000000002
 30
0.0
 10
-69.453900000000004
 20
98.468800000000002
 30
0.0
 10
-69.453900000000004
 20
98.468800000000002
 30
0.0
 10
-69.453900000000004
 20
98.468800000000002
 30
0.0
 10
-71.213700000000003
 20
98.985699999999994
 30
0.0
 10
-72.488399999999999
 20
99.849900000000005
 30
0.0
 10
-73.277299999999997
 20
101.06959999999999
 30
0.0
 10
-73.277299999999997
 20
101.06959999999999
 30
0.0
 10
-73.312299999999993
 20
101.1225
 30
0.0
 10
-73.344999999999999
 20
101.17529999999999
 30
0.0
 10
-73.376300000000001
 20
101.22750000000001
 30
0.0
 10
-73.376300000000001
 20
101.22750000000001
 30
0.0
 10
-74.391800000000003
 20
99.766300000000001
 30
0.0
 10
-75.280799999999999
 20
98.210999999999999
 30
0.0
 10
-76.025599999999997
 20
96.575699999999998
 30
0.0
  0
SPLINE
  5
31
100
AcDbEntity
  8
RÚteg 1
 62
     7
100
AcDbSpline
210
0.0
220
0.0
230
1.0
 70
     1
 71
     3
 72
    28
 73
    24
 74
     0
 42
0.0000000001
 43
0.0000000001
 40
0.0
 40
0.0
 40
0.0
 40
0.0
 40
0.1666666666666667
 40
0.1666666666666667
 40
0.1666666666666667
 40
0.1666666666666667
 40
0.3333333333333333
 40
0.3333333333333333
 40
0.3333333333333333
 40
0.3333333333333333
 40
0.5
 40
0.5
 40
0.5
 40
0.5
 40
0.6666666666666666
 40
0.6666666666666666
 40
0.6666666666666666
 40
0.6666666666666666
 40
0.8333333333333333
 40
0.8333333333333333
 40
0.8333333333333333
 40
0.8333333333333333
 40
1.0
 40
1.0
 40
1.0
 40
1.0
 10
-65.412999999999997
 20
99.372500000000002
 30
0.0
 10
-64.209800000000001
 20
99.644999999999996
 30
0.0
 10
-63.258800000000001
 20
100.2248
 30
0.0
 10
-62.556100000000001
 20
101.1126
 30
0.0
 10
-62.556100000000001
 20
101.1126
 30
0.0
 10
-62.011600000000001
 20
101.8111
 30
0.0
 10
-61.739600000000003
 20
102.4503
 30
0.0
 10
-61.739600000000003
 20
103.0226
 30
0.0
 10
-61.739600000000003
 20
103.0226
 30
0.0
 10
-61.739600000000003
 20
104.2696
 30
0.0
 10
-62.220999999999997
 20
104.8929
 30
0.0
 10
-63.179699999999997
 20
104.8929
 30
0.0
 10
-63.179699999999997
 20
104.8929
 30
0.0
 10
-63.6374
 20
104.8929
 30
0.0
 10
-64.114900000000006
 20
104.593
 30
0.0
 10
-64.616399999999999
 20
103.9892
 30
0.0
 10
-64.616399999999999
 20
103.9892
 30
0.0
 10
-65.290800000000004
 20
103.17270000000001
 30
0.0
 10
-65.582800000000006
 20
102.0637
 30
0.0
 10
-65.499799999999993
 20
100.6589
 30
0.0
 10
-65.499799999999993
 20
100.6589
 30
0.0
 10
-65.440700000000007
 20
99.759200000000007
 30
0.0
 10
-65.412999999999997
 20
99.3292
 30
0.0
 10
-65.412999999999997
 20
99.372500000000002
 30
0.0
  0
SPLINE
  5
32
100
AcDbEntity
  8
RÚteg 1
 62
     7
100
AcDbSpline
210
0.0
220
0.0
230
1.0
 70
     1
 71
     3
 72
    28
 73
    24
 74
     0
 42
0.0000000001
 43
0.0000000001
 40
0.0
 40
0.0
 40
0.0
 40
0.0
 40
0.1666666666666667
 40
0.1666666666666667
 40
0.1666666666666667
 40
0.1666666666666667
 40
0.3333333333333333
 40
0.3333333333333333
 40
0.3333333333333333
 40
0.3333333333333333
 40
0.5
 40
0.5
 40
0.5
 40
0.5
 40
0.6666666666666666
 40
0.6666666666666666
 40
0.6666666666666666
 40
0.6666666666666666
 40
0.8333333333333333
 40
0.8333333333333333
 40
0.8333333333333333
 40
0.8333333333333333
 40
1.0
 40
1.0
 40
1.0
 40
1.0
 10
22.932200000000002
 20
119.6082
 30
0.0
 10
23.9682
 20
119.6082
 30
0.0
 10
24.992999999999999
 20
119.56019999999999
 30
0.0
 10
26.005199999999999
 20
119.4689
 30
0.0
 10
26.005199999999999
 20
119.4689
 30
0.0
 10
26.329699999999999
 20
120.0081
 30
0.0
 10
26.5168
 20
120.6391
 30
0.0
 10
26.5168
 20
121.3141
 30
0.0
 10
26.5168
 20
121.3141
 30
0.0
 10
26.5168
 20
123.2933
 30
0.0
 10
24.9115
 20
124.8986
 30
0.0
 10
22.932200000000002
 20
124.8986
 30
0.0
 10
22.932200000000002
 20
124.8986
 30
0.0
 10
20.9529
 20
124.8986
 30
0.0
 10
19.3476
 20
123.2933
 30
0.0
 10
19.3476
 20
121.3141
 30
0.0
 10
19.3476
 20
121.3141
 30
0.0
 10
19.3476
 20
120.6391
 30
0.0
 10
19.534400000000002
 20
120.0081
 30
0.0
 10
19.859100000000002
 20
119.4689
 30
0.0
 10
19.859100000000002
 20
119.4689
 30
0.0
 10
20.871300000000002
 20
119.56019999999999
 30
0.0
 10
21.896000000000001
 20
119.6082
 30
0.0
 10
22.932200000000002
 20
119.6082
 30
0.0
  0
SPLINE
  5
33
100
AcDbEntity
  8
RÚteg 1
 62
     7
100
AcDbSpline
210
0.0
220
0.0
230
1.0
 70
     1
 71
     3
 72
    20
 73
    16
 74
     0
 42
0.0000000001
 43
0.0000000001
 40
0.0
 40
0.0
 40
0.0
 40
0.0
 40
0.25
 40
0.25
 40
0.25
 40
0.25
 40
0.5
 40
0.5
 40
0.5
 40
0.5
 40
0.75
 40
0.75
 40
0.75
 40
0.75
 40
1.0
 40
1.0
 40
1.0
 40
1.0
 10
10.906499999999999
 20
65.686499999999995
 30
0.0
 10
10.906499999999999
 20
65.686499999999995
 30
0.0
 10
14.005699999999999
 20
65.686499999999995
 30
0.0
 10
14.005699999999999
 20
65.686499999999995
 30
0.0
 10
14.005699999999999
 20
65.686499999999995
 30
0.0
 10
14.005699999999999
 20
65.686499999999995
 30
0.0
 10
14.005699999999999
 20
67.437399999999997
 30
0.0
 10
14.005699999999999
 20
67.437399999999997
 30
0.0
 10
14.005699999999999
 20
67.437399999999997
 30
0.0
 10
13.2264
 20
67.481200000000001
 30
0.0
 10
12.374599999999999
 20
67.358900000000006
 30
0.0
 10
11.449999999999999
 20
67.070999999999998
 30
0.0
 10
11.449999999999999
 20
67.070999999999998
 30
0.0
 10
11.1633
 20
66.631500000000003
 30
0.0
 10
10.982100000000001
 20
66.169899999999998
 30
0.0
 10
10.906499999999999
 20
65.686499999999995
 30
0.0
  0
SPLINE
  5
34
100
AcDbEntity
  8
RÚteg 1
 62
     7
100
AcDbSpline
210
0.0
220
0.0
230
1.0
 70
     1
 71
     3
 72
    48
 73
    44
 74
     0
 42
0.0000000001
 43
0.0000000001
 40
0.0
 40
0.0
 40
0.0
 40
0.0
 40
0.0909090909090909
 40
0.0909090909090909
 40
0.0909090909090909
 40
0.0909090909090909
 40
0.1818181818181818
 40
0.1818181818181818
 40
0.1818181818181818
 40
0.1818181818181818
 40
0.2727272727272727
 40
0.2727272727272727
 40
0.2727272727272727
 40
0.2727272727272727
 40
0.3636363636363637
 40
0.3636363636363637
 40
0.3636363636363637
 40
0.3636363636363637
 40
0.4545454545454546
 40
0.4545454545454546
 40
0.4545454545454546
 40
0.4545454545454546
 40
0.5454545454545455
 40
0.5454545454545455
 40
0.5454545454545455
 40
0.5454545454545455
 40
0.6363636363636365
 40
0.6363636363636365
 40
0.6363636363636365
 40
0.6363636363636365
 40
0.7272727272727274
 40
0.7272727272727274
 40
0.7272727272727274
 40
0.7272727272727274
 40
0.8181818181818183
 40
0.8181818181818183
 40
0.8181818181818183
 40
0.8181818181818183
 40
0.9090909090909093
 40
0.9090909090909093
 40
0.9090909090909093
 40
0.9090909090909093
 40
1.0
 40
1.0
 40
1.0
 40
1.0
 10
36.819600000000001
 20
111.929
 30
0.0
 10
39.252400000000002
 20
109.399
 30
0.0
 10
40.748699999999999
 20
105.96169999999999
 30
0.0
 10
40.748699999999999
 20
102.1755
 30
0.0
 10
40.748699999999999
 20
102.1755
 30
0.0
 10
40.748699999999999
 20
95.251599999999996
 30
0.0
 10
35.746000000000002
 20
89.493700000000004
 30
0.0
 10
29.158899999999999
 20
88.319400000000002
 30
0.0
 10
29.158899999999999
 20
88.319400000000002
 30
0.0
 10
29.158899999999999
 20
88.319400000000002
 30
0.0
 10
29.158899999999999
 20
67.919700000000006
 30
0.0
 10
29.158899999999999
 20
67.919700000000006
 30
0.0
 10
29.158899999999999
 20
67.919700000000006
 30
0.0
 10
29.158899999999999
 20
67.919700000000006
 30
0.0
 10
36.267000000000003
 20
67.919700000000006
 30
0.0
 10
36.267000000000003
 20
67.919700000000006
 30
0.0
 10
36.267000000000003
 20
67.919700000000006
 30
0.0
 10
36.267000000000003
 20
67.919700000000006
 30
0.0
 10
36.267000000000003
 20
65.686499999999995
 30
0.0
 10
36.267000000000003
 20
65.686499999999995
 30
0.0
 10
36.267000000000003
 20
65.686499999999995
 30
0.0
 10
36.267000000000003
 20
65.686499999999995
 30
0.0
 10
42.072400000000002
 20
65.686499999999995
 30
0.0
 10
42.072400000000002
 20
65.686499999999995
 30
0.0
 10
42.072400000000002
 20
65.686499999999995
 30
0.0
 10
41.020400000000002
 20
66.437200000000004
 30
0.0
 10
40.334699999999998
 20
67.667699999999996
 30
0.0
 10
40.334699999999998
 20
69.058099999999996
 30
0.0
 10
40.334699999999998
 20
69.058099999999996
 30
0.0
 10
40.334699999999998
 20
71.344099999999997
 30
0.0
 10
42.188499999999998
 20
73.197800000000001
 30
0.0
 10
44.474299999999999
 20
73.197800000000001
 30
0.0
 10
44.474299999999999
 20
73.197800000000001
 30
0.0
 10
46.418700000000001
 20
73.197800000000001
 30
0.0
 10
48.049799999999998
 20
71.856899999999996
 30
0.0
 10
48.494
 20
70.049400000000006
 30
0.0
 10
48.494
 20
70.049400000000006
 30
0.0
 10
51.222200000000001
 20
74.555300000000003
 30
0.0
 10
52.793300000000002
 20
79.839600000000004
 30
0.0
 10
52.793300000000002
 20
85.490399999999994
 30
0.0
 10
52.793300000000002
 20
85.490399999999994
 30
0.0
 10
52.793300000000002
 20
96.965500000000006
 30
0.0
 10
46.315600000000003
 20
106.9295
 30
0.0
 10
36.819600000000001
 20
111.929
 30
0.0
  0
SPLINE
  5
35
100
AcDbEntity
  8
RÚteg 1
 62
     7
100
AcDbSpline
210
0.0
220
0.0
230
1.0
 70
     1
 71
     3
 72
    36
 73
    32
 74
     0
 42
0.0000000001
 43
0.0000000001
 40
0.0
 40
0.0
 40
0.0
 40
0.0
 40
0.125
 40
0.125
 40
0.125
 40
0.125
 40
0.25
 40
0.25
 40
0.25
 40
0.25
 40
0.375
 40
0.375
 40
0.375
 40
0.375
 40
0.5
 40
0.5
 40
0.5
 40
0.5
 40
0.625
 40
0.625
 40
0.625
 40
0.625
 40
0.75
 40
0.75
 40
0.75
 40
0.75
 40
0.875
 40
0.875
 40
0.875
 40
0.875
 40
1.0
 40
1.0
 40
1.0
 40
1.0
 10
44.5749
 20
64.919799999999995
 30
0.0
 10
44.541400000000003
 20
64.918899999999994
 30
0.0
 10
44.508099999999999
 20
64.918400000000005
 30
0.0
 10
44.474299999999999
 20
64.918400000000005
 30
0.0
 10
44.474299999999999
 20
64.918400000000005
 30
0.0
 10
44.213099999999997
 20
64.918400000000005
 30
0.0
 10
43.957599999999999
 20
64.942800000000005
 30
0.0
 10
43.709800000000001
 20
64.989400000000003
 30
0.0
 10
43.709800000000001
 20
64.989400000000003
 30
0.0
 10
43.709800000000001
 20
64.989400000000003
 30
0.0
 10
37.190399999999997
 20
61.1327
 30
0.0
 10
37.190399999999997
 20
61.1327
 30
0.0
 10
37.190399999999997
 20
61.1327
 30
0.0
 10
37.190399999999997
 20
61.1327
 30
0.0
 10
13.0823
 20
61.1327
 30
0.0
 10
13.0823
 20
61.1327
 30
0.0
 10
13.0823
 20
61.1327
 30
0.0
 10
13.0823
 20
61.1327
 30
0.0
 10
5.9690000000000003
 20
65.340599999999995
 30
0.0
 10
5.9690000000000003
 20
65.340599999999995
 30
0.0
 10
5.9690000000000003
 20
65.340599999999995
 30
0.0
 10
4.6691000000000003
 20
65.108800000000002
 30
0.0
 10
3.4943
 20
64.557000000000002
 30
0.0
 10
2.4214000000000002
 20
63.792099999999998
 30
0.0
 10
2.4214000000000002
 20
63.792099999999998
 30
0.0
 10
7.7714999999999996
 20
58.732999999999997
 30
0.0
 10
14.989599999999999
 20
55.6295
 30
0.0
 10
22.932200000000002
 20
55.6295
 30
0.0
 10
22.932200000000002
 20
55.6295
 30
0.0
 10
31.449400000000001
 20
55.6295
 30
0.0
 10
39.134599999999999
 20
59.197499999999998
 30
0.0
 10
44.5749
 20
64.919799999999995
 30
0.0
  0
SPLINE
  5
36
100
AcDbEntity
  8
RÚteg 1
 62
     7
100
AcDbSpline
210
0.0
220
0.0
230
1.0
 70
     1
 71
     3
 72
    56
 73
    52
 74
     0
 42
0.0000000001
 43
0.0000000001
 40
0.0
 40
0.0
 40
0.0
 40
0.0
 40
0.0769230769230769
 40
0.0769230769230769
 40
0.0769230769230769
 40
0.0769230769230769
 40
0.1538461538461539
 40
0.1538461538461539
 40
0.1538461538461539
 40
0.1538461538461539
 40
0.2307692307692308
 40
0.2307692307692308
 40
0.2307692307692308
 40
0.2307692307692308
 40
0.3076923076923077
 40
0.3076923076923077
 40
0.3076923076923077
 40
0.3076923076923077
 40
0.3846153846153846
 40
0.3846153846153846
 40
0.3846153846153846
 40
0.3846153846153846
 40
0.4615384615384616
 40
0.4615384615384616
 40
0.4615384615384616
 40
0.4615384615384616
 40
0.5384615384615386
 40
0.5384615384615386
 40
0.5384615384615386
 40
0.5384615384615386
 40
0.6153846153846154
 40
0.6153846153846154
 40
0.6153846153846154
 40
0.6153846153846154
 40
0.6923076923076923
 40
0.6923076923076923
 40
0.6923076923076923
 40
0.6923076923076923
 40
0.7692307692307692
 40
0.7692307692307692
 40
0.7692307692307692
 40
0.7692307692307692
 40
0.846153846153846
 40
0.846153846153846
 40
0.846153846153846
 40
0.846153846153846
 40
0.9230769230769229
 40
0.9230769230769229
 40
0.9230769230769229
 40
0.9230769230769229
 40
1.0
 40
1.0
 40
1.0
 40
1.0
 10
-1.8872
 20
68.885599999999997
 30
0.0
 10
-0.0015
 20
69.578800000000001
 30
0.0
 10
1.476
 20
70.895799999999994
 30
0.0
 10
2.5459000000000001
 20
72.838099999999997
 30
0.0
 10
2.5459000000000001
 20
72.838099999999997
 30
0.0
 10
4.0456000000000003
 20
71.380300000000005
 30
0.0
 10
5.9103000000000003
 20
70.797899999999998
 30
0.0
 10
8.1385000000000005
 20
71.090500000000006
 30
0.0
 10
8.1385000000000005
 20
71.090500000000006
 30
0.0
 10
6.8285999999999998
 20
72.741799999999998
 30
0.0
 10
5.1749999999999998
 20
73.598600000000005
 30
0.0
 10
3.1781999999999999
 20
73.662000000000006
 30
0.0
 10
3.1781999999999999
 20
73.662000000000006
 30
0.0
 10
4.1459999999999999
 20
76.801900000000003
 30
0.0
 10
3.5055999999999998
 20
79.633200000000002
 30
0.0
 10
1.2571000000000001
 20
82.154899999999998
 30
0.0
 10
1.2571000000000001
 20
82.154899999999998
 30
0.0
 10
3.5737999999999999
 20
80.789599999999993
 30
0.0
 10
6.3124000000000002
 20
80.502700000000004
 30
0.0
 10
9.4761000000000006
 20
81.293199999999999
 30
0.0
 10
9.4761000000000006
 20
81.293199999999999
 30
0.0
 10
9.6173000000000002
 20
78.295900000000003
 30
0.0
 10
10.724
 20
75.578000000000003
 30
0.0
 10
13.8308
 20
73.783500000000004
 30
0.0
 10
13.8308
 20
73.783500000000004
 30
0.0
 10
15.6707
 20
75.256500000000003
 30
0.0
 10
16.5626
 20
77.278700000000001
 30
0.0
 10
16.921800000000001
 20
79.522499999999994
 30
0.0
 10
16.921800000000001
 20
79.522499999999994
 30
0.0
 10
19.092400000000001
 20
78.712900000000005
 30
0.0
 10
21.110900000000001
 20
78.468199999999996
 30
0.0
 10
22.978000000000002
 20
78.7881
 30
0.0
 10
22.978000000000002
 20
78.7881
 30
0.0
 10
22.978000000000002
 20
78.7881
 30
0.0
 10
22.978000000000002
 20
88.591899999999995
 30
0.0
 10
22.978000000000002
 20
88.591899999999995
 30
0.0
 10
22.978000000000002
 20
88.591899999999995
 30
0.0
 10
16.998200000000001
 20
90.215699999999998
 30
0.0
 10
12.598800000000001
 20
95.682500000000005
 30
0.0
 10
12.598800000000001
 20
102.1755
 30
0.0
 10
12.598800000000001
 20
102.1755
 30
0.0
 10
12.598800000000001
 20
108.1735
 30
0.0
 10
16.353100000000001
 20
113.29559999999999
 30
0.0
 10
21.638999999999999
 20
115.322
 30
0.0
 10
21.638999999999999
 20
115.322
 30
0.0
 10
5.7499000000000002
 20
114.64409999999999
 30
0.0
 10
-6.9287999999999998
 20
101.54600000000001
 30
0.0
 10
-6.9287999999999998
 20
85.490399999999994
 30
0.0
 10
-6.9287999999999998
 20
85.490399999999994
 30
0.0
 10
-6.9287999999999998
 20
79.345500000000001
 30
0.0
 10
-5.0709999999999997
 20
73.633899999999997
 30
0.0
 10
-1.8872
 20
68.885599999999997
 30
0.0
  0
SPLINE
  5
37
100
AcDbEntity
  8
RÚteg 1
 62
     7
100
AcDbSpline
210
0.0
220
0.0
230
1.0
 70
     1
 71
     3
 72
    76
 73
    72
 74
     0
 42
0.0000000001
 43
0.0000000001
 40
0.0
 40
0.0
 40
0.0
 40
0.0
 40
0.0555555555555556
 40
0.0555555555555556
 40
0.0555555555555556
 40
0.0555555555555556
 40
0.1111111111111111
 40
0.1111111111111111
 40
0.1111111111111111
 40
0.1111111111111111
 40
0.1666666666666667
 40
0.1666666666666667
 40
0.1666666666666667
 40
0.1666666666666667
 40
0.2222222222222222
 40
0.2222222222222222
 40
0.2222222222222222
 40
0.2222222222222222
 40
0.2777777777777778
 40
0.2777777777777778
 40
0.2777777777777778
 40
0.2777777777777778
 40
0.3333333333333334
 40
0.3333333333333334
 40
0.3333333333333334
 40
0.3333333333333334
 40
0.388888888888889
 40
0.388888888888889
 40
0.388888888888889
 40
0.388888888888889
 40
0.4444444444444445
 40
0.4444444444444445
 40
0.4444444444444445
 40
0.4444444444444445
 40
0.5000000000000001
 40
0.5000000000000001
 40
0.5000000000000001
 40
0.5000000000000001
 40
0.5555555555555557
 40
0.5555555555555557
 40
0.5555555555555557
 40
0.5555555555555557
 40
0.6111111111111113
 40
0.6111111111111113
 40
0.6111111111111113
 40
0.6111111111111113
 40
0.6666666666666669
 40
0.6666666666666669
 40
0.6666666666666669
 40
0.6666666666666669
 40
0.7222222222222224
 40
0.7222222222222224
 40
0.7222222222222224
 40
0.7222222222222224
 40
0.777777777777778
 40
0.777777777777778
 40
0.777777777777778
 40
0.777777777777778
 40
0.8333333333333336
 40
0.8333333333333336
 40
0.8333333333333336
 40
0.8333333333333336
 40
0.8888888888888892
 40
0.8888888888888892
 40
0.8888888888888892
 40
0.8888888888888892
 40
0.9444444444444448
 40
0.9444444444444448
 40
0.9444444444444448
 40
0.9444444444444448
 40
1.0
 40
1.0
 40
1.0
 40
1.0
 10
26.6738
 20
114.0338
 30
0.0
 10
33.221800000000002
 20
114.0338
 30
0.0
 10
38.531799999999997
 20
108.72369999999999
 30
0.0
 10
38.531799999999997
 20
102.1755
 30
0.0
 10
38.531799999999997
 20
102.1755
 30
0.0
 10
38.531799999999997
 20
96.480099999999993
 30
0.0
 10
34.514200000000002
 20
91.721999999999994
 30
0.0
 10
29.158899999999999
 20
90.578999999999994
 30
0.0
 10
29.158899999999999
 20
90.578999999999994
 30
0.0
 10
29.158899999999999
 20
90.578999999999994
 30
0.0
 10
29.158899999999999
 20
96.587100000000007
 30
0.0
 10
29.158899999999999
 20
96.587100000000007
 30
0.0
 10
29.158899999999999
 20
96.587100000000007
 30
0.0
 10
29.158899999999999
 20
96.587100000000007
 30
0.0
 10
26.980399999999999
 20
96.587100000000007
 30
0.0
 10
26.980399999999999
 20
96.587100000000007
 30
0.0
 10
26.980399999999999
 20
96.587100000000007
 30
0.0
 10
28.129999999999999
 20
97.065700000000007
 30
0.0
 10
28.950600000000001
 20
98.322000000000003
 30
0.0
 10
28.950600000000001
 20
99.795299999999997
 30
0.0
 10
28.950600000000001
 20
99.795299999999997
 30
0.0
 10
28.950600000000001
 20
99.874399999999994
 30
0.0
 10
28.947800000000001
 20
99.952699999999993
 30
0.0
 10
28.943200000000001
 20
100.0304
 30
0.0
 10
28.943200000000001
 20
100.0304
 30
0.0
 10
28.943200000000001
 20
100.0304
 30
0.0
 10
28.9434
 20
100.0304
 30
0.0
 10
28.9434
 20
100.0304
 30
0.0
 10
28.9434
 20
100.0304
 30
0.0
 10
29.066400000000002
 20
103.68000000000001
 30
0.0
 10
28.5808
 20
107.3295
 30
0.0
 10
27.205400000000001
 20
110.97969999999999
 30
0.0
 10
27.205400000000001
 20
110.97969999999999
 30
0.0
 10
26.7514
 20
107.90989999999999
 30
0.0
 10
25.583100000000002
 20
105.06570000000001
 30
0.0
 10
23.970199999999998
 20
102.3623
 30
0.0
 10
23.970199999999998
 20
102.3623
 30
0.0
 10
23.6233
 20
102.0155
 30
0.0
 10
23.347200000000001
 20
101.5793
 30
0.0
 10
23.169899999999998
 20
101.08540000000001
 30
0.0
 10
23.169899999999998
 20
101.08540000000001
 30
0.0
 10
23.169899999999998
 20
101.08540000000001
 30
0.0
 10
23.1692
 20
101.08450000000001
 30
0.0
 10
23.1692
 20
101.08450000000001
 30
0.0
 10
23.1692
 20
101.08450000000001
 30
0.0
 10
23.1692
 20
101.08450000000001
 30
0.0
 10
23.1694
 20
101.08450000000001
 30
0.0
 10
23.1694
 20
101.08450000000001
 30
0.0
 10
23.1694
 20
101.08450000000001
 30
0.0
 10
23.027100000000001
 20
100.6866
 30
0.0
 10
22.948
 20
100.2514
 30
0.0
 10
22.948
 20
99.795299999999997
 30
0.0
 10
22.948
 20
99.795299999999997
 30
0.0
 10
22.948
 20
98.322000000000003
 30
0.0
 10
23.7681
 20
97.065700000000007
 30
0.0
 10
24.9178
 20
96.587100000000007
 30
0.0
 10
24.9178
 20
96.587100000000007
 30
0.0
 10
24.9178
 20
96.587100000000007
 30
0.0
 10
22.978000000000002
 20
96.587100000000007
 30
0.0
 10
22.978000000000002
 20
96.587100000000007
 30
0.0
 10
22.978000000000002
 20
96.587100000000007
 30
0.0
 10
22.978000000000002
 20
96.587100000000007
 30
0.0
 10
22.978000000000002
 20
90.905600000000007
 30
0.0
 10
22.978000000000002
 20
90.905600000000007
 30
0.0
 10
22.978000000000002
 20
90.905600000000007
 30
0.0
 10
18.2393
 20
92.459100000000007
 30
0.0
 10
14.8156
 20
96.918000000000006
 30
0.0
 10
14.8156
 20
102.1755
 30
0.0
 10
14.8156
 20
102.1755
 30
0.0
 10
14.8156
 20
108.72369999999999
 30
0.0
 10
20.125800000000002
 20
114.0338
 30
0.0
 10
26.6738
 20
114.0338
 30
0.0
  0
SPLINE
  5
38
100
AcDbEntity
  8
RÚteg 1
 62
     7
100
AcDbSpline
210
0.0
220
0.0
230
1.0
 70
     1
 71
     3
 72
    20
 73
    16
 74
     0
 42
0.0000000001
 43
0.0000000001
 40
0.0
 40
0.0
 40
0.0
 40
0.0
 40
0.25
 40
0.25
 40
0.25
 40
0.25
 40
0.5
 40
0.5
 40
0.5
 40
0.5
 40
0.75
 40
0.75
 40
0.75
 40
0.75
 40
1.0
 40
1.0
 40
1.0
 40
1.0
 10
16.016100000000002
 20
67.919700000000006
 30
0.0
 10
16.016100000000002
 20
67.919700000000006
 30
0.0
 10
22.978000000000002
 20
67.919700000000006
 30
0.0
 10
22.978000000000002
 20
67.919700000000006
 30
0.0
 10
22.978000000000002
 20
67.919700000000006
 30
0.0
 10
22.978000000000002
 20
67.919700000000006
 30
0.0
 10
22.978000000000002
 20
76.645099999999999
 30
0.0
 10
22.978000000000002
 20
76.645099999999999
 30
0.0
 10
22.978000000000002
 20
76.645099999999999
 30
0.0
 10
22.168299999999999
 20
75.026300000000006
 30
0.0
 10
21.951699999999999
 20
73.223100000000002
 30
0.0
 10
22.3279
 20
71.235100000000003
 30
0.0
 10
22.3279
 20
71.235100000000003
 30
0.0
 10
19.825299999999999
 20
71.436400000000006
 30
0.0
 10
17.7212
 20
70.331599999999995
 30
0.0
 10
16.016100000000002
 20
67.919700000000006
 30
0.0
  0
SPLINE
  5
39
100
AcDbEntity
  8
RÚteg 1
 62
     7
100
AcDbSpline
210
0.0
220
0.0
230
1.0
 70
     1
 71
     3
 72
    24
 73
    20
 74
     0
 42
0.0000000001
 43
0.0000000001
 40
0.0
 40
0.0
 40
0.0
 40
0.0
 40
0.2
 40
0.2
 40
0.2
 40
0.2
 40
0.4
 40
0.4
 40
0.4
 40
0.4
 40
0.6000000000000001
 40
0.6000000000000001
 40
0.6000000000000001
 40
0.6000000000000001
 40
0.8
 40
0.8
 40
0.8
 40
0.8
 40
1.0
 40
1.0
 40
1.0
 40
1.0
 10
3.8285
 20
79.829700000000003
 30
0.0
 10
7.2046999999999999
 20
77.761499999999998
 30
0.0
 10
9.7568000000000001
 20
75.013499999999993
 30
0.0
 10
11.1053
 20
71.272499999999994
 30
0.0
 10
11.1053
 20
71.272499999999994
 30
0.0
 10
11.294
 20
71.425799999999995
 30
0.0
 10
11.4833
 20
71.578900000000004
 30
0.0
 10
11.671900000000001
 20
71.732200000000006
 30
0.0
 10
11.671900000000001
 20
71.732200000000006
 30
0.0
 10
10.0936
 20
75.302000000000007
 30
0.0
 10
7.5876999999999999
 20
77.998000000000005
 30
0.0
 10
4.3137999999999996
 20
79.970699999999994
 30
0.0
 10
4.3137999999999996
 20
79.970699999999994
 30
0.0
 10
4.1749999999999998
 20
79.969800000000006
 30
0.0
 10
4.0362
 20
79.968999999999994
 30
0.0
 10
3.8976000000000002
 20
79.968599999999995
 30
0.0
 10
3.8976000000000002
 20
79.968599999999995
 30
0.0
 10
3.8744999999999998
 20
79.922399999999996
 30
0.0
 10
3.8515999999999999
 20
79.875900000000001
 30
0.0
 10
3.8285
 20
79.829700000000003
 30
0.0
  0
SPLINE
  5
3A
100
AcDbEntity
  8
RÚteg 1
 62
     7
100
AcDbSpline
210
0.0
220
0.0
230
1.0
 70
     1
 71
     3
 72
    20
 73
    16
 74
     0
 42
0.0000000001
 43
0.0000000001
 40
0.0
 40
0.0
 40
0.0
 40
0.0
 40
0.25
 40
0.25
 40
0.25
 40
0.25
 40
0.5
 40
0.5
 40
0.5
 40
0.5
 40
0.75
 40
0.75
 40
0.75
 40
0.75
 40
1.0
 40
1.0
 40
1.0
 40
1.0
 10
15.651300000000001
 20
71.649900000000002
 30
0.0
 10
15.824
 20
71.611699999999999
 30
0.0
 10
15.9962
 20
71.574100000000001
 30
0.0
 10
16.168500000000002
 20
71.536100000000005
 30
0.0
 10
16.168500000000002
 20
71.536100000000005
 30
0.0
 10
17.4313
 20
73.5
 30
0.0
 10
19.440000000000001
 20
75.512699999999995
 30
0.0
 10
22.5383
 20
77.594099999999997
 30
0.0
 10
22.5383
 20
77.594099999999997
 30
0.0
 10
22.4725
 20
77.635800000000003
 30
0.0
 10
22.405999999999999
 20
77.677999999999997
 30
0.0
 10
22.340299999999999
 20
77.719700000000003
 30
0.0
 10
22.340299999999999
 20
77.719700000000003
 30
0.0
 10
19.284099999999999
 20
76.077500000000001
 30
0.0
 10
17.258299999999998
 20
73.960099999999997
 30
0.0
 10
15.651300000000001
 20
71.649900000000002
 30
0.0
  0
SPLINE
  5
3B
100
AcDbEntity
  8
RÚteg 1
 62
     7
100
AcDbSpline
210
0.0
220
0.0
230
1.0
 70
     1
 71
     3
 72
    20
 73
    16
 74
     0
 42
0.0000000001
 43
0.0000000001
 40
0.0
 40
0.0
 40
0.0
 40
0.0
 40
0.25
 40
0.25
 40
0.25
 40
0.25
 40
0.5
 40
0.5
 40
0.5
 40
0.5
 40
0.75
 40
0.75
 40
0.75
 40
0.75
 40
1.0
 40
1.0
 40
1.0
 40
1.0
 10
-0.8664
 20
67.658600000000007
 30
0.0
 10
-0.77
 20
67.834199999999996
 30
0.0
 10
-0.6735
 20
68.010099999999994
 30
0.0
 10
-0.5772000000000001
 20
68.186499999999995
 30
0.0
 10
-0.5772000000000001
 20
68.186499999999995
 30
0.0
 10
2.0506000000000002
 20
67.799400000000006
 30
0.0
 10
5.2774999999999999
 20
68.015699999999995
 30
0.0
 10
9.3796999999999997
 20
69.115099999999998
 30
0.0
 10
9.3796999999999997
 20
69.115099999999998
 30
0.0
 10
9.3660999999999994
 20
69.026600000000002
 30
0.0
 10
9.3524999999999991
 20
68.938900000000004
 30
0.0
 10
9.3391999999999999
 20
68.851299999999995
 30
0.0
 10
9.3391999999999999
 20
68.851299999999995
 30
0.0
 10
5.6462000000000003
 20
67.459999999999994
 30
0.0
 10
2.3159999999999998
 20
67.307400000000001
 30
0.0
 10
-0.8664
 20
67.658600000000007
 30
0.0
  0
SPLINE
  5
3C
100
AcDbEntity
  8
RÚteg 1
 62
     7
100
AcDbSpline
210
0.0
220
0.0
230
1.0
 70
     1
 71
     3
 72
    20
 73
    16
 74
     0
 42
0.0000000001
 43
0.0000000001
 40
0.0
 40
0.0
 40
0.0
 40
0.0
 40
0.25
 40
0.25
 40
0.25
 40
0.25
 40
0.5
 40
0.5
 40
0.5
 40
0.5
 40
0.75
 40
0.75
 40
0.75
 40
0.75
 40
1.0
 40
1.0
 40
1.0
 40
1.0
 10
44.474299999999999
 20
70.981300000000005
 30
0.0
 10
45.536099999999998
 20
70.981300000000005
 30
0.0
 10
46.397199999999998
 20
70.119900000000001
 30
0.0
 10
46.397199999999998
 20
69.058099999999996
 30
0.0
 10
46.397199999999998
 20
69.058099999999996
 30
0.0
 10
46.397199999999998
 20
67.996399999999994
 30
0.0
 10
45.536099999999998
 20
67.135199999999998
 30
0.0
 10
44.474299999999999
 20
67.135199999999998
 30
0.0
 10
44.474299999999999
 20
67.135199999999998
 30
0.0
 10
43.412599999999998
 20
67.135199999999998
 30
0.0
 10
42.551499999999997
 20
67.996399999999994
 30
0.0
 10
42.551499999999997
 20
69.058099999999996
 30
0.0
 10
42.551499999999997
 20
69.058099999999996
 30
0.0
 10
42.551499999999997
 20
70.119900000000001
 30
0.0
 10
43.412599999999998
 20
70.981300000000005
 30
0.0
 10
44.474299999999999
 20
70.981300000000005
 30
0.0
  0
SPLINE
  5
3D
100
AcDbEntity
  8
RÚteg 1
 62
     7
100
AcDbSpline
210
0.0
220
0.0
230
1.0
 70
     1
 71
     3
 72
    36
 73
    32
 74
     0
 42
0.0000000001
 43
0.0000000001
 40
0.0
 40
0.0
 40
0.0
 40
0.0
 40
0.125
 40
0.125
 40
0.125
 40
0.125
 40
0.25
 40
0.25
 40
0.25
 40
0.25
 40
0.375
 40
0.375
 40
0.375
 40
0.375
 40
0.5
 40
0.5
 40
0.5
 40
0.5
 40
0.625
 40
0.625
 40
0.625
 40
0.625
 40
0.75
 40
0.75
 40
0.75
 40
0.75
 40
0.875
 40
0.875
 40
0.875
 40
0.875
 40
1.0
 40
1.0
 40
1.0
 40
1.0
 10
27.8002
 20
119.26090000000001
 30
0.0
 10
44.334200000000003
 20
116.8972
 30
0.0
 10
57.049999999999997
 20
102.6769
 30
0.0
 10
57.049999999999997
 20
85.490399999999994
 30
0.0
 10
57.049999999999997
 20
85.490399999999994
 30
0.0
 10
57.049999999999997
 20
66.650899999999993
 30
0.0
 10
41.771799999999999
 20
51.372599999999998
 30
0.0
 10
22.932200000000002
 20
51.372599999999998
 30
0.0
 10
22.932200000000002
 20
51.372599999999998
 30
0.0
 10
4.0926
 20
51.372599999999998
 30
0.0
 10
-11.185600000000001
 20
66.650899999999993
 30
0.0
 10
-11.185600000000001
 20
85.490399999999994
 30
0.0
 10
-11.185600000000001
 20
85.490399999999994
 30
0.0
 10
-11.185600000000001
 20
102.6769
 30
0.0
 10
1.5301
 20
116.8972
 30
0.0
 10
18.0641
 20
119.26090000000001
 30
0.0
 10
18.0641
 20
119.26090000000001
 30
0.0
 10
17.797599999999999
 20
119.8921
 30
0.0
 10
17.649699999999999
 20
120.586
 30
0.0
 10
17.649699999999999
 20
121.3141
 30
0.0
 10
17.649699999999999
 20
121.3141
 30
0.0
 10
17.649699999999999
 20
124.23099999999999
 30
0.0
 10
20.0154
 20
126.5963
 30
0.0
 10
22.932200000000002
 20
126.5963
 30
0.0
 10
22.932200000000002
 20
126.5963
 30
0.0
 10
25.849
 20
126.5963
 30
0.0
 10
28.214300000000001
 20
124.23099999999999
 30
0.0
 10
28.214300000000001
 20
121.3141
 30
0.0
 10
28.214300000000001
 20
121.3141
 30
0.0
 10
28.214300000000001
 20
120.586
 30
0.0
 10
28.066700000000001
 20
119.8921
 30
0.0
 10
27.8002
 20
119.26090000000001
 30
0.0
  0
ENDSEC
  0
SECTION
  2
OBJECTS
  0
DICTIONARY
  5
19
100
AcDbDictionary
280
     0
281
     1
  3
ACAD_GROUP
350
1A
  3
ACAD_MLINESTYLE
350
1B
  3
ACAD_LAYOUT
350
1E
  3
ACAD_PLOTSETTINGS
350
22
  3
ACAD_PLOTSTYLENAME
350
1F
  3
ACAD_WIPEOUT_VARS
350
23
  0
DICTIONARY
  5
1A
102
{ACAD_REACTORS
330
19
102
}
100
AcDbDictionary
280
     0
281
     1
  0
DICTIONARY
  5
1B
102
{ACAD_REACTORS
330
19
102
}
100
AcDbDictionary
280
     0
281
     1
  3
Standard
350
1C
  0
MLINESTYLE
  5
1C
102
{ACAD_REACTORS
330
1B
102
}
100
AcDbMlineStyle
  2
Standard
 70
     0
  3

 62
     0
 51
90.0
 52
90.0
 71
     2
 49
0.5
 62
   256
  6
BYLAYER
 49
-0.5
 62
   256
  6
BYLAYER
  0
ACDBDICTIONARYWDFLT
  5
1F
102
{ACAD_REACTORS
330
19
102
}
100
AcDbDictionary
281
     1
  3
Normal
350
1D
100
AcDbDictionaryWithDefault
340
1D
  0
ACDBPLACEHOLDER
  5
1D
102
{ACAD_REACTORS
330
1F
102
}
  0
LAYOUT
  5
20
102
{ACAD_REACTORS
330
1E
102
}
100
AcDbPlotSettings
  1

  2

  4

  6

 40
0.0
 41
0.0
 42
0.0
 43
0.0
 44
0.0
 45
0.0
 46
0.0
 47
0.0
 48
0.0
 49
0.0
140
0.0
141
0.0
142
1.0
143
1.0
 70
  1024
 72
     0
 73
     0
 74
     0
  7

 75
     0
147
1.0
148
0.0
149
0.0
100
AcDbLayout
  1
Model
 70
     0
 71
     0
 10
0.0
 20
0.0
 11
0.0
 21
0.0
 12
0.0
 22
0.0
 32
0.0
 14
0.0
 24
0.0
 34
0.0
 15
0.0
 25
0.0
 35
0.0
146
0.0
 13
0.0
 23
0.0
 33
0.0
 16
0.0
 26
0.0
 36
0.0
 17
0.0
 27
0.0
 37
0.0
 76
     0
330
A
331
0
345
0
346
0
  0
LAYOUT
  5
21
102
{ACAD_REACTORS
330
1E
102
}
100
AcDbPlotSettings
  1

  2

  4

  6

 40
0.0
 41
0.0
 42
0.0
 43
0.0
 44
0.0
 45
0.0
 46
0.0
 47
0.0
 48
0.0
 49
0.0
140
0.0
141
0.0
142
1.0
143
1.0
 70
     0
 72
     0
 73
     0
 74
     0
  7

 75
     0
147
1.0
148
0.0
149
0.0
100
AcDbLayout
  1
Layout1
 70
     0
 71
     0
 10
0.0
 20
0.0
 11
0.0
 21
0.0
 12
0.0
 22
0.0
 32
0.0
 14
0.0
 24
0.0
 34
0.0
 15
0.0
 25
0.0
 35
0.0
146
0.0
 13
0.0
 23
0.0
 33
0.0
 16
0.0
 26
0.0
 36
0.0
 17
0.0
 27
0.0
 37
0.0
 76
     0
330
B
331
0
345
0
346
0
  0
DICTIONARY
  5
1E
102
{ACAD_REACTORS
330
19
102
}
100
AcDbDictionary
280
     0
281
     1
  3
Layout1
350
21
  3
Model
350
20
  0
DICTIONARY
  5
22
102
{ACAD_REACTORS
330
19
102
}
100
AcDbDictionary
280
     0
281
     1
  0
WIPEOUTVARIABLES
  5
23
100
AcDbWipeoutVariables
 70
     1
  0
ENDSEC
  0
EOF
