  0
SECTION
  2
HEADER
  9
$ACADVER
  1
AC1015
  9
$ACADMAINTVER
 70
     6
  9
$DWGCODEPAGE
  3
DOS850
  9
$INSBASE
 10
0.0
 20
0.0
 30
0.0
  9
$EXTMIN
 10
-96.1972
 20
44.4578
 30
1.000000E+20
  9
$EXTMAX
 10
47.1382
 20
121.7582
 30
-1.000000E+20
  9
$LIMMIN
 10
0.0
 20
0.0
  9
$LIMMAX
 10
0.0
 20
0.0
  9
$ORTHOMODE
 70
     0
  9
$REGENMODE
 70
     1
  9
$FILLMODE
 70
     1
  9
$QTEXTMODE
 70
     0
  9
$MIRRTEXT
 70
     1
  9
$LTSCALE
 40
1.0
  9
$ATTMODE
 70
     1
  9
$TEXTSIZE
 40
0.2
  9
$TRACEWID
 40
0.05
  9
$TEXTSTYLE
  7
Standard
  9
$CLAYER
  8
0
  9
$CELTYPE
  6
Continuous
  9
$CECOLOR
 62
   256
  9
$CELTSCALE
 40
1.0
  9
$DISPSILH
 70
     0
  9
$DIMSCALE
 40
1.0
  9
$DIMASZ
 40
0.18
  9
$DIMEXO
 40
0.0625
  9
$DIMDLI
 40
0.38
  9
$DIMRND
 40
0.0
  9
$DIMDLE
 40
0.0
  9
$DIMEXE
 40
0.18
  9
$DIMTP
 40
0.0
  9
$DIMTM
 40
0.0
  9
$DIMTXT
 40
0.18
  9
$DIMCEN
 40
0.09
  9
$DIMTSZ
 40
0.0
  9
$DIMTOL
 70
     0
  9
$DIMLIM
 70
     0
  9
$DIMTIH
 70
     1
  9
$DIMTOH
 70
     1
  9
$DIMSE1
 70
     0
  9
$DIMSE2
 70
     0
  9
$DIMTAD
 70
     0
  9
$DIMZIN
 70
     0
  9
$DIMBLK
  1

  9
$DIMASO
 70
     1
  9
$DIMSHO
 70
     1
  9
$DIMPOST
  1

  9
$DIMAPOST
  1

  9
$DIMALT
 70
     0
  9
$DIMALTD
 70
     2
  9
$DIMALTF
 40
25.4
  9
$DIMLFAC
 40
1.0
  9
$DIMTOFL
 70
     0
  9
$DIMTVP
 40
0.0
  9
$DIMTIX
 70
     0
  9
$DIMSOXD
 70
     0
  9
$DIMSAH
 70
     0
  9
$DIMBLK1
  1

  9
$DIMBLK2
  1

  9
$DIMSTYLE
  2
Standard
  9
$DIMCLRD
 70
     0
  9
$DIMCLRE
 70
     0
  9
$DIMCLRT
 70
     0
  9
$DIMTFAC
 40
1.0
  9
$DIMGAP
 40
0.09
  9
$DIMJUST
 70
     0
  9
$DIMSD1
 70
     0
  9
$DIMSD2
 70
     0
  9
$DIMTOLJ
 70
     1
  9
$DIMTZIN
 70
     0
  9
$DIMALTZ
 70
     0
  9
$DIMALTTZ
 70
     0
  9
$DIMUPT
 70
     0
  9
$DIMDEC
 70
     4
  9
$DIMTDEC
 70
     4
  9
$DIMALTU
 70
     2
  9
$DIMALTTD
 70
     2
  9
$DIMTXSTY
  7
Standard
  9
$DIMAUNIT
 70
     0
  9
$DIMADEC
 70
     0
  9
$DIMALTRND
 40
0.0
  9
$DIMAZIN
 70
     0
  9
$DIMDSEP
 70
     0
  9
$DIMATFIT
 70
     3
  9
$DIMFRAC
 70
     0
  9
$DIMLDRBLK
  1

  9
$DIMLUNIT
 70
     2
  9
$DIMLWD
 70
     0
  9
$DIMLWE
 70
     0
  9
$DIMTMOVE
 70
     0
  9
$LUNITS
 70
     2
  9
$LUPREC
 70
     4
  9
$SKETCHINC
 40
0.1
  9
$FILLETRAD
 40
0.0
  9
$AUNITS
 70
     0
  9
$AUPREC
 70
     0
  9
$MENU
  1
acad
  9
$ELEVATION
 40
0.0
  9
$PELEVATION
 40
0.0
  9
$THICKNESS
 40
0.0
  9
$LIMCHECK
 70
     0
  9
$CHAMFERA
 40
0.0
  9
$CHAMFERB
 40
0.0
  9
$CHAMFERC
 40
0.0
  9
$CHAMFERD
 40
0.0
  9
$SKPOLY
 70
     0
  9
$TDCREATE
 40
0.000000000
  9
$TDUCREATE
 40
0.000000000
  9
$TDUPDATE
 40
0.000000000
  9
$TDUUPDATE
 40
0.000000000
  9
$TDINDWG
 40
0.0000000000
  9
$TDUSRTIMER
 40
0.0000000000
  9
$USRTIMER
 70
     1
  9
$ANGBASE
 50
0.0
  9
$ANGDIR
 70
     0
  9
$PDMODE
 70
     0
  9
$PDSIZE
 40
0.0
  9
$PLINEWID
 40
0.0
  9
$SPLFRAME
 70
     0
  9
$SPLINETYPE
 70
     6
  9
$SPLINESEGS
 70
     8
  9
$HANDSEED
  5
30
  9
$SURFTAB1
 70
     6
  9
$SURFTAB2
 70
     6
  9
$SURFTYPE
 70
     6
  9
$SURFU
 70
     6
  9
$SURFV
 70
     6
  9
$UCSBASE
  2

  9
$UCSNAME
  2

  9
$UCSORG
 10
0.0
 20
0.0
 30
0.0
  9
$UCSXDIR
 10
1.0
 20
0.0
 30
0.0
  9
$UCSYDIR
 10
0.0
 20
1.0
 30
0.0
  9
$UCSORTHOREF
  2

  9
$UCSORTHOVIEW
 70
     0
  9
$UCSORGTOP
 10
0.0
 20
0.0
 30
0.0
  9
$UCSORGBOTTOM
 10
0.0
 20
0.0
 30
0.0
  9
$UCSORGLEFT
 10
0.0
 20
0.0
 30
0.0
  9
$UCSORGRIGHT
 10
0.0
 20
0.0
 30
0.0
  9
$UCSORGFRONT
 10
0.0
 20
0.0
 30
0.0
  9
$UCSORGBACK
 10
0.0
 20
0.0
 30
0.0
  9
$PUCSBASE
  2

  9
$PUCSNAME
  2

  9
$PUCSORG
 10
0.0
 20
0.0
 30
0.0
  9
$PUCSXDIR
 10
1.0
 20
0.0
 30
0.0
  9
$PUCSYDIR
 10
0.0
 20
1.0
 30
0.0
  9
$PUCSORTHOREF
  2

  9
$PUCSORTHOVIEW
 70
     0
  9
$PUCSORGTOP
 10
0.0
 20
0.0
 30
0.0
  9
$PUCSORGBOTTOM
 10
0.0
 20
0.0
 30
0.0
  9
$PUCSORGLEFT
 10
0.0
 20
0.0
 30
0.0
  9
$PUCSORGRIGHT
 10
0.0
 20
0.0
 30
0.0
  9
$PUCSORGFRONT
 10
0.0
 20
0.0
 30
0.0
  9
$PUCSORGBACK
 10
0.0
 20
0.0
 30
0.0
  9
$USERI1
 70
     0
  9
$USERI2
 70
     0
  9
$USERI3
 70
     0
  9
$USERI4
 70
     0
  9
$USERI5
 70
     0
  9
$USERR1
 40
0.0
  9
$USERR2
 40
0.0
  9
$USERR3
 40
0.0
  9
$USERR4
 40
0.0
  9
$USERR5
 40
0.0
  9
$WORLDVIEW
 70
     1
  9
$SHADEDGE
 70
     3
  9
$SHADEDIF
 70
    70
  9
$TILEMODE
 70
     1
  9
$MAXACTVP
 70
    16
  9
$PINSBASE
 10
0.0
 20
0.0
 30
0.0
  9
$PLIMCHECK
 70
     0
  9
$PEXTMIN
 10
1.000000E+20
 20
1.000000E+20
 30
1.000000E+20
  9
$PEXTMAX
 10
-1.000000E+20
 20
-1.000000E+20
 30
-1.000000E+20
  9
$PLIMMIN
 10
0.0
 20
0.0
  9
$PLIMMAX
 10
12.0
 20
9.0
  9
$UNITMODE
 70
     0
  9
$VISRETAIN
 70
     0
  9
$PLINEGEN
 70
     1
  9
$PSLTSCALE
 70
     0
  9
$TREEDEPTH
 70
  3020
  9
$CMLSTYLE
  2
Standard
  9
$CMLJUST
 70
     0
  9
$CMLSCALE
 40
1.0
  9
$PROXYGRAPHICS
 70
     0
  9
$MEASUREMENT
 70
     0
  9
$CELWEIGHT
370
     0
  9
$ENDCAPS
280
     0
  9
$JOINSTYLE
280
     0
  9
$LWDISPLAY
290
     0
  9
$INSUNITS
 70
     4
  9
$HYPERLINKBASE
  1

  9
$XEDIT
290
     1
  9
$CEPSNTYPE
380
     0
  9
$PSTYLEMODE
290
     1
  9
$FINGERPRINTGUID
  2

  9
$VERSIONGUID
  2

  9
$EXTNAMES
290
     1
  9
$PSVPSCALE
 40
0.0
  0
ENDSEC
  0
SECTION
  2
CLASSES
  0
CLASS
  1
LWPOLYLINE
  2
AcDbPolyline
  3
AutoCAD 2000
 90
    32768
280
     0
281
     1
  0
CLASS
  1
IMAGE
  2
AcDbRasterImage
  3
ISM
 90
    32895
280
     0
281
     1
  0
CLASS
  1
OLE2FRAME
  2
AcDbOle2Frame
  3
AutoCAD 2000
 90
    32768
280
     0
281
     1
  0
CLASS
  1
HATCH
  2
AcDbHatch
  3
AutoCAD 2000
 90
    32768
280
     0
281
     1
  0
CLASS
  1
DICTIONARYVAR
  2
AcDbDictionaryVar
  3
AutoCAD 2000
 90
    32768
280
     0
281
     0
  0
CLASS
  1
RASTERVARIABLES
  2
AcDbRasterVariables
  3
ISM
 90
    32768
280
     0
281
     0
  0
CLASS
  1
IMAGEDEF
  2
AcDbRasterImageDef
  3
ISM
 90
    32768
280
     0
281
     0
  0
CLASS
  1
IMAGEDEF_REACTOR
  2
AcDbRasterImageDefReactor
  3
ISM
 90
    32769
280
     0
281
     0
  0
CLASS
  1
IDBUFFER
  2
AcDbIdBuffer
  3
AutoCAD 2000
 90
    32768
280
     0
281
     0
  0
CLASS
  1
SPATIAL_FILTER
  2
AcDbSpatialFilter
  3
AutoCAD 2000
 90
    32768
280
     0
281
     0
  0
CLASS
  1
XRECORD
  2
AcDbXrecord
  3
AutoCAD 2000
 90
    32768
280
     0
281
     0
  0
CLASS
  1
SORTENTSTABLE
  2
AcDbSortentsTable
  3
AutoCAD 2000
 90
    32768
280
     0
281
     0
  0
CLASS
  1
LAYER_INDEX
  2
AcDbLayerIndex
  3
AutoCAD 2000
 90
    32768
280
     0
281
     0
  0
CLASS
  1
SPATIAL_INDEX
  2
AcDbSpatialIndex
  3
AutoCAD 2000
 90
    32768
280
     0
281
     0
  0
CLASS
  1
OBJECT_PTR
  2
CAseDLPNTableRecord
  3
"ASE-LPNTableRecord"
 90
    32769
280
     0
281
     0
  0
CLASS
  1
LAYOUT
  2
AcDbLayout
  3
AutoCAD 2000
 90
        0
280
     0
281
     0
  0
CLASS
  1
PLOTSETTINGS
  2
AcDbPlotSettings
  3
AutoCAD 2000
 90
    32768
280
     0
281
     0
  0
CLASS
  1
ACDBDICTIONARYWDFLT
  2
AcDbDictionaryWithDefault
  3
AutoCAD 2000
 90
        0
280
     0
281
     0
  0
CLASS
  1
ACDBPLACEHOLDER
  2
AcDbPlaceHolder
  3
AutoCAD 2000
 90
        0
280
     0
281
     0
  0
CLASS
  1
VBA_PROJECT
  2
AcDbVbaProject
  3
acadvba
 90
    32768
280
     0
281
     0
  0
CLASS
  1
WIPEOUT
  2
AcDbWipeout
  3
WipeOut|AutoCAD Express Tool|expresstools@autodesk.com
 90
    32895
280
     0
281
     1
  0
CLASS
  1
WIPEOUTVARIABLES
  2
AcDbWipeoutVariables
  3
WipeOut|AutoCAD Express Tool|expresstools@autodesk.com
 90
        0
280
     0
281
     0
  0
CLASS
  1
RTEXT
  2
RText
  3
RText|AutoCAD Express Tool|expresstools@autodesk.com
 90
    32768
280
     0
281
     1
  0
CLASS
  1
ARCALIGNEDTEXT
  2
AcDbArcAlignedText
  3
ATEXT|AutoCAD Express Tool|expresstools@autodesk.com
 90
    32768
280
     0
281
     1
  0
ENDSEC
  0
SECTION
  2
TABLES
  0
TABLE
  2
VPORT
  5
7
100
AcDbSymbolTable
 70
     1
  0
VPORT
  5
15
100
AcDbSymbolTableRecord
100
AcDbViewportTableRecord
  2
*ACTIVE
 70
     0
 10
0.0
 20
0.0
 11
1.0
 21
1.0
 12
6.591288
 22
4.579184
 13
0.0
 23
0.0
 14
1.0
 24
1.0
 15
0.0
 25
0.0
 16
0.0
 26
0.0
 36
1.0
 17
0.0
 27
0.0
 37
0.0
 40
9.158369
 41
0.688564
 42
50.0
 43
0.0
 44
0.0
 50
0.0
 51
0.0
 71
     0
 72
   100
 73
     1
 74
     1
 75
     0
 76
     0
 77
     0
 78
     0
281
     0
 65
     0
110
0.0
120
0.0
130
0.0
111
1.0
121
0.0
131
0.0
112
0.0
122
1.0
132
0.0
345
0
346
0
 79
     0
146
0.0
  0
ENDTAB
  0
TABLE
  2
LTYPE
  5
4
100
AcDbSymbolTable
 70
     3
  0
LTYPE
  5
11
100
AcDbSymbolTableRecord
100
AcDbLinetypeTableRecord
  2
ByBlock
 70
    64
  3

 72
    65
 73
     0
 40
0.0
  0
LTYPE
  5
12
100
AcDbSymbolTableRecord
100
AcDbLinetypeTableRecord
  2
ByLayer
 70
    64
  3

 72
    65
 73
     0
 40
0.0
  0
LTYPE
  5
13
100
AcDbSymbolTableRecord
100
AcDbLinetypeTableRecord
  2
Continuous
 70
    64
  3
Solid line
 72
    65
 73
     0
 40
0.0
  0
ENDTAB
  0
TABLE
  2
LAYER
  5
2
100
AcDbSymbolTable
 70
     2
  0
LAYER
  5
14
100
AcDbSymbolTableRecord
100
AcDbLayerTableRecord
  2
0
 70
     0
 62
     7
  6
Continuous
290
     1
370
    -3
390
1D
  0
LAYER
  5
24
100
AcDbSymbolTableRecord
100
AcDbLayerTableRecord
  2
RÚteg 1
 70
     0
 62
     7
  6
Continuous
290
     1
370
    -3
390
1F
  0
ENDTAB
  0
TABLE
  2
STYLE
  5
3
100
AcDbSymbolTable
 70
     1
  0
STYLE
  5
17
100
AcDbSymbolTableRecord
100
AcDbTextStyleTableRecord
  2
Standard
 70
     0
 40
0.0
 41
1.0
 50
0.0
 71
     0
 42
0.0
  3
txt
  4

  0
ENDTAB
  0
TABLE
  2
VIEW
  5
5
100
AcDbSymbolTable
 70
     0
  0
ENDTAB
  0
TABLE
  2
UCS
  5
6
100
AcDbSymbolTable
 70
     0
  0
ENDTAB
  0
TABLE
  2
APPID
  5
8
100
AcDbSymbolTable
 70
     1
  0
APPID
  5
16
100
AcDbSymbolTableRecord
100
AcDbRegAppTableRecord
  2
ACAD
 70
     0
  0
ENDTAB
  0
TABLE
  2
DIMSTYLE
  5
9
100
AcDbSymbolTable
 70
     1
100
AcDbDimStyleTable
 71
     0
  0
DIMSTYLE
105
18
100
AcDbSymbolTableRecord
100
AcDbDimStyleTableRecord
  2
Standard
 70
     0
  3

  4

 40
1.0
 41
0.18
 42
0.0625
 43
0.38
 44
0.18
 45
0.0
 46
0.0
 47
0.0
 48
0.0
 71
     0
 72
     0
 73
     1
 74
     1
 75
     0
 76
     0
 77
     0
 78
     0
 79
     0
140
0.18
141
0.09
142
0.0
143
25.4
144
1.0
145
0.0
146
1.0
147
0.09
148
0.0
170
     0
171
     2
172
     0
173
     0
174
     0
175
     0
176
     0
177
     0
178
     0
179
     0
271
     4
272
     4
273
     2
274
     2
275
     0
276
     0
277
     2
278
    46
279
     0
280
     0
281
     0
282
     0
283
     1
284
     0
285
     0
286
     0
288
     0
340
17
341
0
342
0
343
0
344
0
371
    -2
372
    -2
  0
ENDTAB
  0
TABLE
  2
BLOCK_RECORD
  5
1
100
AcDbSymbolTable
 70
     0
  0
BLOCK_RECORD
  5
A
100
AcDbSymbolTableRecord
100
AcDbBlockTableRecord
  2
*MODEL_SPACE
340
20
  0
BLOCK_RECORD
  5
B
100
AcDbSymbolTableRecord
100
AcDbBlockTableRecord
  2
*PAPER_SPACE
340
21
  0
ENDTAB
  0
ENDSEC
  0
SECTION
  2
BLOCKS
  0
BLOCK
  5
D
100
AcDbEntity
  8
0
100
AcDbBlockBegin
  2
*MODEL_SPACE
 70
     0
 10
0.0
 20
0.0
 30
0.0
  3
*MODEL_SPACE
  1

  0
ENDBLK
  5
E
100
AcDbEntity
  8
0
100
AcDbBlockEnd
  0
BLOCK
  5
F
100
AcDbEntity
 67
     1
  8
0
100
AcDbBlockBegin
  2
*PAPER_SPACE
 70
     0
 10
0.0
 20
0.0
 30
0.0
  3
*PAPER_SPACE
  1

  0
ENDBLK
  5
10
100
AcDbEntity
 67
     1
  8
0
100
AcDbBlockEnd
  0
ENDSEC
  0
SECTION
  2
ENTITIES
  0
SPLINE
  5
25
100
AcDbEntity
  8
RÚteg 1
 62
     7
100
AcDbSpline
210
0.0
220
0.0
230
1.0
 70
     1
 71
     3
 72
    36
 73
    32
 74
     0
 42
0.0000000001
 43
0.0000000001
 40
0.0
 40
0.0
 40
0.0
 40
0.0
 40
0.125
 40
0.125
 40
0.125
 40
0.125
 40
0.25
 40
0.25
 40
0.25
 40
0.25
 40
0.375
 40
0.375
 40
0.375
 40
0.375
 40
0.5
 40
0.5
 40
0.5
 40
0.5
 40
0.625
 40
0.625
 40
0.625
 40
0.625
 40
0.75
 40
0.75
 40
0.75
 40
0.75
 40
0.875
 40
0.875
 40
0.875
 40
0.875
 40
1.0
 40
1.0
 40
1.0
 40
1.0
 10
16.845199999999998
 20
112.48439999999999
 30
0.0
 10
33.839500000000001
 20
110.5599
 30
0.0
 10
47.049999999999997
 20
96.133600000000001
 30
0.0
 10
47.049999999999997
 20
78.625500000000002
 30
0.0
 10
47.049999999999997
 20
78.625500000000002
 30
0.0
 10
47.049999999999997
 20
59.807200000000002
 30
0.0
 10
31.788900000000002
 20
44.545999999999999
 30
0.0
 10
12.970499999999999
 20
44.545999999999999
 30
0.0
 10
12.970499999999999
 20
44.545999999999999
 30
0.0
 10
-5.8479000000000001
 20
44.545999999999999
 30
0.0
 10
-21.109000000000002
 20
59.807200000000002
 30
0.0
 10
-21.109000000000002
 20
78.625500000000002
 30
0.0
 10
-21.109000000000002
 20
78.625500000000002
 30
0.0
 10
-21.109000000000002
 20
96.133600000000001
 30
0.0
 10
-7.8985000000000003
 20
110.5599
 30
0.0
 10
9.0958000000000006
 20
112.48439999999999
 30
0.0
 10
9.0958000000000006
 20
112.48439999999999
 30
0.0
 10
8.4723000000000006
 20
113.3028
 30
0.0
 10
8.1021000000000001
 20
114.32380000000001
 30
0.0
 10
8.1021000000000001
 20
115.4314
 30
0.0
 10
8.1021000000000001
 20
115.4314
 30
0.0
 10
8.1021000000000001
 20
118.1198
 30
0.0
 10
10.2821
 20
120.3
 30
0.0
 10
12.970499999999999
 20
120.3
 30
0.0
 10
12.970499999999999
 20
120.3
 30
0.0
 10
15.658899999999999
 20
120.3
 30
0.0
 10
17.838899999999999
 20
118.1198
 30
0.0
 10
17.838899999999999
 20
115.4314
 30
0.0
 10
17.838899999999999
 20
115.4314
 30
0.0
 10
17.838899999999999
 20
114.32380000000001
 30
0.0
 10
17.468699999999998
 20
113.3028
 30
0.0
 10
16.845199999999998
 20
112.48439999999999
 30
0.0
  0
SPLINE
  5
26
100
AcDbEntity
  8
RÚteg 1
 62
     7
100
AcDbSpline
210
0.0
220
0.0
230
1.0
 70
     1
 71
     3
 72
   192
 73
   188
 74
     0
 42
0.0000000001
 43
0.0000000001
 40
0.0
 40
0.0
 40
0.0
 40
0.0
 40
0.0212765957446809
 40
0.0212765957446809
 40
0.0212765957446809
 40
0.0212765957446809
 40
0.0425531914893617
 40
0.0425531914893617
 40
0.0425531914893617
 40
0.0425531914893617
 40
0.0638297872340425
 40
0.0638297872340425
 40
0.0638297872340425
 40
0.0638297872340425
 40
0.0851063829787234
 40
0.0851063829787234
 40
0.0851063829787234
 40
0.0851063829787234
 40
0.1063829787234043
 40
0.1063829787234043
 40
0.1063829787234043
 40
0.1063829787234043
 40
0.1276595744680851
 40
0.1276595744680851
 40
0.1276595744680851
 40
0.1276595744680851
 40
0.148936170212766
 40
0.148936170212766
 40
0.148936170212766
 40
0.148936170212766
 40
0.1702127659574468
 40
0.1702127659574468
 40
0.1702127659574468
 40
0.1702127659574468
 40
0.1914893617021277
 40
0.1914893617021277
 40
0.1914893617021277
 40
0.1914893617021277
 40
0.2127659574468085
 40
0.2127659574468085
 40
0.2127659574468085
 40
0.2127659574468085
 40
0.2340425531914894
 40
0.2340425531914894
 40
0.2340425531914894
 40
0.2340425531914894
 40
0.2553191489361702
 40
0.2553191489361702
 40
0.2553191489361702
 40
0.2553191489361702
 40
0.276595744680851
 40
0.276595744680851
 40
0.276595744680851
 40
0.276595744680851
 40
0.2978723404255319
 40
0.2978723404255319
 40
0.2978723404255319
 40
0.2978723404255319
 40
0.3191489361702127
 40
0.3191489361702127
 40
0.3191489361702127
 40
0.3191489361702127
 40
0.3404255319148935
 40
0.3404255319148935
 40
0.3404255319148935
 40
0.3404255319148935
 40
0.3617021276595743
 40
0.3617021276595743
 40
0.3617021276595743
 40
0.3617021276595743
 40
0.3829787234042552
 40
0.3829787234042552
 40
0.3829787234042552
 40
0.3829787234042552
 40
0.404255319148936
 40
0.404255319148936
 40
0.404255319148936
 40
0.404255319148936
 40
0.4255319148936168
 40
0.4255319148936168
 40
0.4255319148936168
 40
0.4255319148936168
 40
0.4468085106382976
 40
0.4468085106382976
 40
0.4468085106382976
 40
0.4468085106382976
 40
0.4680851063829785
 40
0.4680851063829785
 40
0.4680851063829785
 40
0.4680851063829785
 40
0.4893617021276593
 40
0.4893617021276593
 40
0.4893617021276593
 40
0.4893617021276593
 40
0.5106382978723402
 40
0.5106382978723402
 40
0.5106382978723402
 40
0.5106382978723402
 40
0.5319148936170211
 40
0.5319148936170211
 40
0.5319148936170211
 40
0.5319148936170211
 40
0.5531914893617019
 40
0.5531914893617019
 40
0.5531914893617019
 40
0.5531914893617019
 40
0.5744680851063828
 40
0.5744680851063828
 40
0.5744680851063828
 40
0.5744680851063828
 40
0.5957446808510637
 40
0.5957446808510637
 40
0.5957446808510637
 40
0.5957446808510637
 40
0.6170212765957446
 40
0.6170212765957446
 40
0.6170212765957446
 40
0.6170212765957446
 40
0.6382978723404255
 40
0.6382978723404255
 40
0.6382978723404255
 40
0.6382978723404255
 40
0.6595744680851063
 40
0.6595744680851063
 40
0.6595744680851063
 40
0.6595744680851063
 40
0.6808510638297872
 40
0.6808510638297872
 40
0.6808510638297872
 40
0.6808510638297872
 40
0.7021276595744681
 40
0.7021276595744681
 40
0.7021276595744681
 40
0.7021276595744681
 40
0.723404255319149
 40
0.723404255319149
 40
0.723404255319149
 40
0.723404255319149
 40
0.7446808510638299
 40
0.7446808510638299
 40
0.7446808510638299
 40
0.7446808510638299
 40
0.7659574468085107
 40
0.7659574468085107
 40
0.7659574468085107
 40
0.7659574468085107
 40
0.7872340425531916
 40
0.7872340425531916
 40
0.7872340425531916
 40
0.7872340425531916
 40
0.8085106382978725
 40
0.8085106382978725
 40
0.8085106382978725
 40
0.8085106382978725
 40
0.8297872340425534
 40
0.8297872340425534
 40
0.8297872340425534
 40
0.8297872340425534
 40
0.8510638297872343
 40
0.8510638297872343
 40
0.8510638297872343
 40
0.8510638297872343
 40
0.8723404255319152
 40
0.8723404255319152
 40
0.8723404255319152
 40
0.8723404255319152
 40
0.893617021276596
 40
0.893617021276596
 40
0.893617021276596
 40
0.893617021276596
 40
0.9148936170212769
 40
0.9148936170212769
 40
0.9148936170212769
 40
0.9148936170212769
 40
0.9361702127659578
 40
0.9361702127659578
 40
0.9361702127659578
 40
0.9361702127659578
 40
0.9574468085106387
 40
0.9574468085106387
 40
0.9574468085106387
 40
0.9574468085106387
 40
0.9787234042553196
 40
0.9787234042553196
 40
0.9787234042553196
 40
0.9787234042553196
 40
1.0
 40
1.0
 40
1.0
 40
1.0
 10
6.3949999999999996
 20
107.093
 30
0.0
 10
6.3949999999999996
 20
107.093
 30
0.0
 10
7.3609
 20
103.33280000000001
 30
0.0
 10
7.3609
 20
103.33280000000001
 30
0.0
 10
7.3609
 20
103.33280000000001
 30
0.0
 10
7.3609
 20
103.33280000000001
 30
0.0
 10
12.686400000000001
 20
101.3768
 30
0.0
 10
12.686400000000001
 20
101.3768
 30
0.0
 10
12.686400000000001
 20
101.3768
 30
0.0
 10
12.686400000000001
 20
101.3768
 30
0.0
 10
7.3609
 20
99.4208
 30
0.0
 10
7.3609
 20
99.4208
 30
0.0
 10
7.3609
 20
99.4208
 30
0.0
 10
7.3609
 20
99.4208
 30
0.0
 10
5.7249999999999996
 20
93.0535
 30
0.0
 10
5.7249999999999996
 20
93.0535
 30
0.0
 10
5.7249999999999996
 20
93.0535
 30
0.0
 10
5.7249999999999996
 20
93.0535
 30
0.0
 10
4.0891000000000002
 20
99.4208
 30
0.0
 10
4.0891000000000002
 20
99.4208
 30
0.0
 10
4.0891000000000002
 20
99.4208
 30
0.0
 10
4.0891000000000002
 20
99.4208
 30
0.0
 10
-1.2362
 20
101.3768
 30
0.0
 10
-1.2362
 20
101.3768
 30
0.0
 10
-1.2362
 20
101.3768
 30
0.0
 10
-1.2362
 20
101.3768
 30
0.0
 10
4.0891000000000002
 20
103.33280000000001
 30
0.0
 10
4.0891000000000002
 20
103.33280000000001
 30
0.0
 10
4.0891000000000002
 20
103.33280000000001
 30
0.0
 10
4.0891000000000002
 20
103.33280000000001
 30
0.0
 10
4.9603999999999999
 20
106.72410000000001
 30
0.0
 10
4.9603999999999999
 20
106.72410000000001
 30
0.0
 10
4.9603999999999999
 20
106.72410000000001
 30
0.0
 10
-7.2766000000000002
 20
103.2411
 30
0.0
 10
-16.240600000000001
 20
91.978200000000001
 30
0.0
 10
-16.240600000000001
 20
78.625500000000002
 30
0.0
 10
-16.240600000000001
 20
78.625500000000002
 30
0.0
 10
-16.240600000000001
 20
77.739400000000003
 30
0.0
 10
-16.198799999999999
 20
76.862799999999993
 30
0.0
 10
-16.121500000000001
 20
75.996799999999993
 30
0.0
 10
-16.121500000000001
 20
75.996799999999993
 30
0.0
 10
-14.565799999999999
 20
75.787400000000005
 30
0.0
 10
-12.8736
 20
75.802000000000007
 30
0.0
 10
-11.044700000000001
 20
76.040800000000004
 30
0.0
 10
-11.044700000000001
 20
76.040800000000004
 30
0.0
 10
-8.9571000000000005
 20
76.606899999999996
 30
0.0
 10
-7.7224000000000004
 20
76.9572
 30
0.0
 10
-7.3411999999999997
 20
77.091999999999999
 30
0.0
 10
-7.3411999999999997
 20
77.091999999999999
 30
0.0
 10
-5.5614999999999997
 20
77.720699999999994
 30
0.0
 10
-4.2598000000000003
 20
78.609499999999997
 30
0.0
 10
-3.4363000000000001
 20
79.758399999999995
 30
0.0
 10
-3.4363000000000001
 20
79.758399999999995
 30
0.0
 10
-2.6920000000000002
 20
81.050899999999999
 30
0.0
 10
-2.2736999999999998
 20
82.6999
 30
0.0
 10
-2.1817000000000002
 20
84.705500000000001
 30
0.0
 10
-2.1817000000000002
 20
84.705500000000001
 30
0.0
 10
-2.0739000000000001
 20
84.886399999999995
 30
0.0
 10
-2.0425
 20
85.040899999999993
 30
0.0
 10
-2.0876999999999999
 20
85.1678
 30
0.0
 10
-2.0876999999999999
 20
85.1678
 30
0.0
 10
-2.1234999999999999
 20
85.269400000000005
 30
0.0
 10
-2.3043999999999998
 20
85.376999999999995
 30
0.0
 10
-2.6307
 20
85.490799999999993
 30
0.0
 10
-2.6307
 20
85.490799999999993
 30
0.0
 10
-2.9565000000000001
 20
85.604200000000006
 30
0.0
 10
-3.1549
 20
85.720200000000006
 30
0.0
 10
-3.2252000000000001
 20
85.838200000000001
 30
0.0
 10
-3.2252000000000001
 20
85.838200000000001
 30
0.0
 10
-3.9148000000000001
 20
86.252200000000002
 30
0.0
 10
-4.4080000000000004
 20
86.878799999999998
 30
0.0
 10
-4.7041000000000004
 20
87.717600000000004
 30
0.0
 10
-4.7041000000000004
 20
87.717600000000004
 30
0.0
 10
-5.0456000000000003
 20
88.683700000000002
 30
0.0
 10
-5.0743
 20
89.695899999999995
 30
0.0
 10
-4.7904999999999998
 20
90.754000000000005
 30
0.0
 10
-4.7904999999999998
 20
90.754000000000005
 30
0.0
 10
-4.5067000000000004
 20
91.812299999999993
 30
0.0
 10
-3.6492
 20
92.622900000000001
 30
0.0
 10
-2.2181999999999999
 20
93.1858
 30
0.0
 10
-2.2181999999999999
 20
93.1858
 30
0.0
 10
-1.7904
 20
93.107799999999997
 30
0.0
 10
-1.3581000000000001
 20
93.017700000000005
 30
0.0
 10
-0.9214
 20
92.914699999999996
 30
0.0
 10
-0.9214
 20
92.914699999999996
 30
0.0
 10
-0.4845
 20
92.811599999999999
 30
0.0
 10
-0.1317
 20
92.621600000000001
 30
0.0
 10
0.1377
 20
92.345299999999995
 30
0.0
 10
0.1377
 20
92.345299999999995
 30
0.0
 10
0.5895
 20
91.875600000000006
 30
0.0
 10
0.9188
 20
91.348500000000001
 30
0.0
 10
1.1254
 20
90.763999999999996
 30
0.0
 10
1.1254
 20
90.763999999999996
 30
0.0
 10
1.3049999999999999
 20
90.255600000000001
 30
0.0
 10
1.3515999999999999
 20
89.799999999999997
 30
0.0
 10
1.2648999999999999
 20
89.3977
 30
0.0
 10
1.2648999999999999
 20
89.3977
 30
0.0
 10
2.0127999999999999
 20
89.547600000000003
 30
0.0
 10
2.7296
 20
89.743799999999993
 30
0.0
 10
3.4161000000000001
 20
89.986199999999997
 30
0.0
 10
3.4161000000000001
 20
89.986199999999997
 30
0.0
 10
7.1025
 20
91.288799999999995
 30
0.0
 10
9.4451999999999998
 20
93.560400000000001
 30
0.0
 10
10.444699999999999
 20
96.8018
 30
0.0
 10
10.444699999999999
 20
96.8018
 30
0.0
 10
10.444699999999999
 20
96.8018
 30
0.0
 10
12.970499999999999
 20
89.653099999999995
 30
0.0
 10
12.970499999999999
 20
89.653099999999995
 30
0.0
 10
12.970499999999999
 20
89.653099999999995
 30
0.0
 10
12.970499999999999
 20
89.653099999999995
 30
0.0
 10
15.4963
 20
96.8018
 30
0.0
 10
15.4963
 20
96.8018
 30
0.0
 10
15.4963
 20
96.8018
 30
0.0
 10
16.495799999999999
 20
93.560400000000001
 30
0.0
 10
18.8385
 20
91.288799999999995
 30
0.0
 10
22.524899999999999
 20
89.986199999999997
 30
0.0
 10
22.524899999999999
 20
89.986199999999997
 30
0.0
 10
23.211400000000001
 20
89.743799999999993
 30
0.0
 10
23.9282
 20
89.547600000000003
 30
0.0
 10
24.676100000000002
 20
89.3977
 30
0.0
 10
24.676100000000002
 20
89.3977
 30
0.0
 10
24.589400000000001
 20
89.799999999999997
 30
0.0
 10
24.635999999999999
 20
90.255600000000001
 30
0.0
 10
24.8156
 20
90.763999999999996
 30
0.0
 10
24.8156
 20
90.763999999999996
 30
0.0
 10
25.022099999999998
 20
91.348500000000001
 30
0.0
 10
25.351400000000002
 20
91.875600000000006
 30
0.0
 10
25.8033
 20
92.345299999999995
 30
0.0
 10
25.8033
 20
92.345299999999995
 30
0.0
 10
26.072700000000001
 20
92.621600000000001
 30
0.0
 10
26.4255
 20
92.811599999999999
 30
0.0
 10
26.862400000000001
 20
92.914699999999996
 30
0.0
 10
26.862400000000001
 20
92.914699999999996
 30
0.0
 10
27.299099999999999
 20
93.017700000000005
 30
0.0
 10
27.731400000000001
 20
93.107799999999997
 30
0.0
 10
28.159199999999998
 20
93.1858
 30
0.0
 10
28.159199999999998
 20
93.1858
 30
0.0
 10
29.590299999999999
 20
92.622900000000001
 30
0.0
 10
30.447700000000001
 20
91.812299999999993
 30
0.0
 10
30.7315
 20
90.754000000000005
 30
0.0
 10
30.7315
 20
90.754000000000005
 30
0.0
 10
31.0153
 20
89.695899999999995
 30
0.0
 10
30.986599999999999
 20
88.683700000000002
 30
0.0
 10
30.645099999999999
 20
87.717600000000004
 30
0.0
 10
30.645099999999999
 20
87.717600000000004
 30
0.0
 10
30.349
 20
86.878799999999998
 30
0.0
 10
29.855799999999999
 20
86.252200000000002
 30
0.0
 10
29.1662
 20
85.838200000000001
 30
0.0
 10
29.1662
 20
85.838200000000001
 30
0.0
 10
29.0959
 20
85.720200000000006
 30
0.0
 10
28.897500000000001
 20
85.604200000000006
 30
0.0
 10
28.5715
 20
85.490799999999993
 30
0.0
 10
28.5715
 20
85.490799999999993
 30
0.0
 10
28.2454
 20
85.376999999999995
 30
0.0
 10
28.064499999999999
 20
85.269400000000005
 30
0.0
 10
28.028700000000001
 20
85.1678
 30
0.0
 10
28.028700000000001
 20
85.1678
 30
0.0
 10
27.983499999999999
 20
85.040899999999993
 30
0.0
 10
28.014900000000001
 20
84.886399999999995
 30
0.0
 10
28.122499999999999
 20
84.705500000000001
 30
0.0
 10
28.122499999999999
 20
84.705500000000001
 30
0.0
 10
28.214700000000001
 20
82.6999
 30
0.0
 10
28.632999999999999
 20
81.050899999999999
 30
0.0
 10
29.377300000000002
 20
79.758399999999995
 30
0.0
 10
29.377300000000002
 20
79.758399999999995
 30
0.0
 10
30.200800000000001
 20
78.609499999999997
 30
0.0
 10
31.502500000000001
 20
77.720699999999994
 30
0.0
 10
33.282200000000003
 20
77.091999999999999
 30
0.0
 10
33.282200000000003
 20
77.091999999999999
 30
0.0
 10
33.663400000000003
 20
76.9572
 30
0.0
 10
34.898099999999999
 20
76.606899999999996
 30
0.0
 10
36.985700000000001
 20
76.040800000000004
 30
0.0
 10
36.985700000000001
 20
76.040800000000004
 30
0.0
 10
38.814599999999999
 20
75.802000000000007
 30
0.0
 10
40.506799999999998
 20
75.787400000000005
 30
0.0
 10
42.0625
 20
75.996799999999993
 30
0.0
 10
42.0625
 20
75.996799999999993
 30
0.0
 10
42.139699999999998
 20
76.862799999999993
 30
0.0
 10
42.181600000000003
 20
77.739500000000007
 30
0.0
 10
42.181600000000003
 20
78.625500000000002
 30
0.0
 10
42.181600000000003
 20
78.625500000000002
 30
0.0
 10
42.181600000000003
 20
94.755700000000004
 30
0.0
 10
29.1006
 20
107.8366
 30
0.0
 10
12.970499999999999
 20
107.8366
 30
0.0
 10
12.970499999999999
 20
107.8366
 30
0.0
 10
10.709300000000001
 20
107.8366
 30
0.0
 10
8.5084999999999997
 20
107.5793
 30
0.0
 10
6.3949999999999996
 20
107.093
 30
0.0
  0
SPLINE
  5
27
100
AcDbEntity
  8
RÚteg 1
 62
     7
100
AcDbSpline
210
0.0
220
0.0
230
1.0
 70
     1
 71
     3
 72
    20
 73
    16
 74
     0
 42
0.0000000001
 43
0.0000000001
 40
0.0
 40
0.0
 40
0.0
 40
0.0
 40
0.25
 40
0.25
 40
0.25
 40
0.25
 40
0.5
 40
0.5
 40
0.5
 40
0.5
 40
0.75
 40
0.75
 40
0.75
 40
0.75
 40
1.0
 40
1.0
 40
1.0
 40
1.0
 10
41.272500000000001
 20
71.370999999999995
 30
0.0
 10
41.272500000000001
 20
71.370999999999995
 30
0.0
 10
41.172499999999999
 20
71.258700000000005
 30
0.0
 10
41.172499999999999
 20
71.258700000000005
 30
0.0
 10
41.172499999999999
 20
71.258700000000005
 30
0.0
 10
38.619599999999998
 20
67.270799999999994
 30
0.0
 10
36.979399999999998
 20
64.247100000000003
 30
0.0
 10
36.252099999999999
 20
62.187899999999999
 30
0.0
 10
36.252099999999999
 20
62.187899999999999
 30
0.0
 10
36.022199999999998
 20
61.538600000000002
 30
0.0
 10
35.832999999999998
 20
60.896099999999997
 30
0.0
 10
35.683
 20
60.260399999999997
 30
0.0
 10
35.683
 20
60.260399999999997
 30
0.0
 10
38.283499999999997
 20
63.472299999999997
 30
0.0
 10
40.218000000000004
 20
67.245500000000007
 30
0.0
 10
41.272500000000001
 20
71.370999999999995
 30
0.0
  0
SPLINE
  5
28
100
AcDbEntity
  8
RÚteg 1
 62
     7
100
AcDbSpline
210
0.0
220
0.0
230
1.0
 70
     1
 71
     3
 72
   236
 73
   232
 74
     0
 42
0.0000000001
 43
0.0000000001
 40
0.0
 40
0.0
 40
0.0
 40
0.0
 40
0.0172413793103448
 40
0.0172413793103448
 40
0.0172413793103448
 40
0.0172413793103448
 40
0.0344827586206897
 40
0.0344827586206897
 40
0.0344827586206897
 40
0.0344827586206897
 40
0.0517241379310345
 40
0.0517241379310345
 40
0.0517241379310345
 40
0.0517241379310345
 40
0.0689655172413793
 40
0.0689655172413793
 40
0.0689655172413793
 40
0.0689655172413793
 40
0.0862068965517241
 40
0.0862068965517241
 40
0.0862068965517241
 40
0.0862068965517241
 40
0.103448275862069
 40
0.103448275862069
 40
0.103448275862069
 40
0.103448275862069
 40
0.1206896551724138
 40
0.1206896551724138
 40
0.1206896551724138
 40
0.1206896551724138
 40
0.1379310344827587
 40
0.1379310344827587
 40
0.1379310344827587
 40
0.1379310344827587
 40
0.1551724137931035
 40
0.1551724137931035
 40
0.1551724137931035
 40
0.1551724137931035
 40
0.1724137931034483
 40
0.1724137931034483
 40
0.1724137931034483
 40
0.1724137931034483
 40
0.1896551724137932
 40
0.1896551724137932
 40
0.1896551724137932
 40
0.1896551724137932
 40
0.206896551724138
 40
0.206896551724138
 40
0.206896551724138
 40
0.206896551724138
 40
0.2241379310344828
 40
0.2241379310344828
 40
0.2241379310344828
 40
0.2241379310344828
 40
0.2413793103448277
 40
0.2413793103448277
 40
0.2413793103448277
 40
0.2413793103448277
 40
0.2586206896551725
 40
0.2586206896551725
 40
0.2586206896551725
 40
0.2586206896551725
 40
0.2758620689655173
 40
0.2758620689655173
 40
0.2758620689655173
 40
0.2758620689655173
 40
0.2931034482758621
 40
0.2931034482758621
 40
0.2931034482758621
 40
0.2931034482758621
 40
0.3103448275862069
 40
0.3103448275862069
 40
0.3103448275862069
 40
0.3103448275862069
 40
0.3275862068965517
 40
0.3275862068965517
 40
0.3275862068965517
 40
0.3275862068965517
 40
0.3448275862068965
 40
0.3448275862068965
 40
0.3448275862068965
 40
0.3448275862068965
 40
0.3620689655172413
 40
0.3620689655172413
 40
0.3620689655172413
 40
0.3620689655172413
 40
0.3793103448275861
 40
0.3793103448275861
 40
0.3793103448275861
 40
0.3793103448275861
 40
0.3965517241379309
 40
0.3965517241379309
 40
0.3965517241379309
 40
0.3965517241379309
 40
0.4137931034482758
 40
0.4137931034482758
 40
0.4137931034482758
 40
0.4137931034482758
 40
0.4310344827586206
 40
0.4310344827586206
 40
0.4310344827586206
 40
0.4310344827586206
 40
0.4482758620689654
 40
0.4482758620689654
 40
0.4482758620689654
 40
0.4482758620689654
 40
0.4655172413793102
 40
0.4655172413793102
 40
0.4655172413793102
 40
0.4655172413793102
 40
0.482758620689655
 40
0.482758620689655
 40
0.482758620689655
 40
0.482758620689655
 40
0.4999999999999998
 40
0.4999999999999998
 40
0.4999999999999998
 40
0.4999999999999998
 40
0.5172413793103446
 40
0.5172413793103446
 40
0.5172413793103446
 40
0.5172413793103446
 40
0.5344827586206895
 40
0.5344827586206895
 40
0.5344827586206895
 40
0.5344827586206895
 40
0.5517241379310344
 40
0.5517241379310344
 40
0.5517241379310344
 40
0.5517241379310344
 40
0.5689655172413792
 40
0.5689655172413792
 40
0.5689655172413792
 40
0.5689655172413792
 40
0.5862068965517241
 40
0.5862068965517241
 40
0.5862068965517241
 40
0.5862068965517241
 40
0.603448275862069
 40
0.603448275862069
 40
0.603448275862069
 40
0.603448275862069
 40
0.6206896551724138
 40
0.6206896551724138
 40
0.6206896551724138
 40
0.6206896551724138
 40
0.6379310344827587
 40
0.6379310344827587
 40
0.6379310344827587
 40
0.6379310344827587
 40
0.6551724137931035
 40
0.6551724137931035
 40
0.6551724137931035
 40
0.6551724137931035
 40
0.6724137931034484
 40
0.6724137931034484
 40
0.6724137931034484
 40
0.6724137931034484
 40
0.6896551724137933
 40
0.6896551724137933
 40
0.6896551724137933
 40
0.6896551724137933
 40
0.7068965517241381
 40
0.7068965517241381
 40
0.7068965517241381
 40
0.7068965517241381
 40
0.724137931034483
 40
0.724137931034483
 40
0.724137931034483
 40
0.724137931034483
 40
0.7413793103448279
 40
0.7413793103448279
 40
0.7413793103448279
 40
0.7413793103448279
 40
0.7586206896551727
 40
0.7586206896551727
 40
0.7586206896551727
 40
0.7586206896551727
 40
0.7758620689655176
 40
0.7758620689655176
 40
0.7758620689655176
 40
0.7758620689655176
 40
0.7931034482758624
 40
0.7931034482758624
 40
0.7931034482758624
 40
0.7931034482758624
 40
0.8103448275862073
 40
0.8103448275862073
 40
0.8103448275862073
 40
0.8103448275862073
 40
0.8275862068965522
 40
0.8275862068965522
 40
0.8275862068965522
 40
0.8275862068965522
 40
0.844827586206897
 40
0.844827586206897
 40
0.844827586206897
 40
0.844827586206897
 40
0.8620689655172419
 40
0.8620689655172419
 40
0.8620689655172419
 40
0.8620689655172419
 40
0.8793103448275867
 40
0.8793103448275867
 40
0.8793103448275867
 40
0.8793103448275867
 40
0.8965517241379316
 40
0.8965517241379316
 40
0.8965517241379316
 40
0.8965517241379316
 40
0.9137931034482765
 40
0.9137931034482765
 40
0.9137931034482765
 40
0.9137931034482765
 40
0.9310344827586213
 40
0.9310344827586213
 40
0.9310344827586213
 40
0.9310344827586213
 40
0.9482758620689662
 40
0.9482758620689662
 40
0.9482758620689662
 40
0.9482758620689662
 40
0.9655172413793111
 40
0.9655172413793111
 40
0.9655172413793111
 40
0.9655172413793111
 40
0.9827586206896559
 40
0.9827586206896559
 40
0.9827586206896559
 40
0.9827586206896559
 40
1.0
 40
1.0
 40
1.0
 40
1.0
 10
33.186399999999999
 20
57.543399999999998
 30
0.0
 10
31.3736
 20
58.658099999999997
 30
0.0
 10
29.872900000000001
 20
59.825000000000003
 30
0.0
 10
28.6846
 20
61.0441
 30
0.0
 10
28.6846
 20
61.0441
 30
0.0
 10
26.607800000000001
 20
63.179000000000002
 30
0.0
 10
25.035900000000002
 20
65.650300000000001
 30
0.0
 10
23.969200000000001
 20
68.457899999999995
 30
0.0
 10
23.969200000000001
 20
68.457899999999995
 30
0.0
 10
22.837800000000001
 20
71.488500000000002
 30
0.0
 10
22.476199999999999
 20
74.390100000000004
 30
0.0
 10
22.8841
 20
77.162700000000001
 30
0.0
 10
22.8841
 20
77.162700000000001
 30
0.0
 10
22.848299999999998
 20
77.5471
 30
0.0
 10
22.9239
 20
78.085099999999997
 30
0.0
 10
23.1111
 20
78.776700000000005
 30
0.0
 10
23.1111
 20
78.776700000000005
 30
0.0
 10
23.298300000000001
 20
79.468500000000006
 30
0.0
 10
23.382000000000001
 20
79.989099999999993
 30
0.0
 10
23.3629
 20
80.339200000000005
 30
0.0
 10
23.3629
 20
80.339200000000005
 30
0.0
 10
22.701499999999999
 20
79.600800000000007
 30
0.0
 10
22.057400000000001
 20
78.870099999999994
 30
0.0
 10
21.430599999999998
 20
78.148099999999999
 30
0.0
 10
21.430599999999998
 20
78.148099999999999
 30
0.0
 10
20.622599999999998
 20
77.318200000000004
 30
0.0
 10
19.823
 20
76.714399999999998
 30
0.0
 10
19.031700000000001
 20
76.336100000000002
 30
0.0
 10
19.031700000000001
 20
76.336100000000002
 30
0.0
 10
18.184999999999999
 20
75.720299999999995
 30
0.0
 10
17.081099999999999
 20
75.266800000000003
 30
0.0
 10
15.719900000000001
 20
74.975700000000003
 30
0.0
 10
15.719900000000001
 20
74.975700000000003
 30
0.0
 10
16.3246
 20
75.877200000000002
 30
0.0
 10
16.8155
 20
76.861900000000006
 30
0.0
 10
17.192599999999999
 20
77.929599999999994
 30
0.0
 10
17.192599999999999
 20
77.929599999999994
 30
0.0
 10
17.938400000000001
 20
80.039699999999996
 30
0.0
 10
18.316800000000001
 20
82.851399999999998
 30
0.0
 10
18.328299999999999
 20
86.364599999999996
 30
0.0
 10
18.328299999999999
 20
86.364599999999996
 30
0.0
 10
18.340599999999998
 20
87.046499999999995
 30
0.0
 10
18.109000000000002
 20
88.171899999999994
 30
0.0
 10
17.6342
 20
89.740899999999996
 30
0.0
 10
17.6342
 20
89.740899999999996
 30
0.0
 10
18.342700000000001
 20
88.832899999999995
 30
0.0
 10
18.768000000000001
 20
88.296700000000001
 30
0.0
 10
18.9101
 20
88.132099999999994
 30
0.0
 10
18.9101
 20
88.132099999999994
 30
0.0
 10
19.420000000000002
 20
87.551500000000004
 30
0.0
 10
19.931999999999999
 20
87.099100000000007
 30
0.0
 10
20.446300000000001
 20
86.7744
 30
0.0
 10
20.446300000000001
 20
86.7744
 30
0.0
 10
20.700500000000002
 20
86.684700000000007
 30
0.0
 10
21.072700000000001
 20
86.503100000000003
 30
0.0
 10
21.5623
 20
86.229900000000001
 30
0.0
 10
21.5623
 20
86.229900000000001
 30
0.0
 10
22.052
 20
85.956800000000001
 30
0.0
 10
22.436599999999999
 20
85.770899999999997
 30
0.0
 10
22.7165
 20
85.671999999999997
 30
0.0
 10
22.7165
 20
85.671999999999997
 30
0.0
 10
23.046900000000001
 20
85.555199999999999
 30
0.0
 10
23.365100000000002
 20
85.485699999999994
 30
0.0
 10
23.6721
 20
85.463099999999997
 30
0.0
 10
23.6721
 20
85.463099999999997
 30
0.0
 10
24.180499999999999
 20
85.283500000000004
 30
0.0
 10
25.2288
 20
85.256200000000007
 30
0.0
 10
26.8171
 20
85.381299999999996
 30
0.0
 10
26.8171
 20
85.381299999999996
 30
0.0
 10
26.8171
 20
85.381299999999996
 30
0.0
 10
26.509899999999998
 20
85.604200000000006
 30
0.0
 10
25.895299999999999
 20
86.049999999999997
 30
0.0
 10
25.895299999999999
 20
86.049999999999997
 30
0.0
 10
25.5246
 20
86.295599999999993
 30
0.0
 10
25.269600000000001
 20
86.585899999999995
 30
0.0
 10
25.130600000000001
 20
86.920900000000003
 30
0.0
 10
25.130600000000001
 20
86.920900000000003
 30
0.0
 10
24.988499999999998
 20
87.085300000000004
 30
0.0
 10
24.897099999999998
 20
87.332099999999997
 30
0.0
 10
24.856100000000001
 20
87.661199999999994
 30
0.0
 10
24.856100000000001
 20
87.661199999999994
 30
0.0
 10
24.815000000000001
 20
87.990300000000005
 30
0.0
 10
24.748999999999999
 20
88.227999999999994
 30
0.0
 10
24.657900000000001
 20
88.374799999999993
 30
0.0
 10
24.657900000000001
 20
88.374799999999993
 30
0.0
 10
24.330400000000001
 20
88.661900000000003
 30
0.0
 10
24.005600000000001
 20
88.876499999999993
 30
0.0
 10
23.6843
 20
89.018900000000002
 30
0.0
 10
23.6843
 20
89.018900000000002
 30
0.0
 10
22.5852
 20
89.550299999999993
 30
0.0
 10
21.110800000000001
 20
90.071299999999994
 30
0.0
 10
19.260999999999999
 20
90.581900000000005
 30
0.0
 10
19.260999999999999
 20
90.581900000000005
 30
0.0
 10
18.571300000000001
 20
90.653800000000004
 30
0.0
 10
18.098800000000001
 20
90.6922
 30
0.0
 10
17.8431
 20
90.696600000000004
 30
0.0
 10
17.8431
 20
90.696600000000004
 30
0.0
 10
17.306100000000001
 20
90.7149
 30
0.0
 10
16.857399999999998
 20
90.658900000000003
 30
0.0
 10
16.497
 20
90.528899999999993
 30
0.0
 10
16.497
 20
90.528899999999993
 30
0.0
 10
15.456300000000001
 20
90.523600000000002
 30
0.0
 10
14.3161
 20
90.131600000000006
 30
0.0
 10
13.076599999999999
 20
89.353099999999998
 30
0.0
 10
13.076599999999999
 20
89.353099999999998
 30
0.0
 10
13.076599999999999
 20
89.353099999999998
 30
0.0
 10
13.1394
 20
89.1751
 30
0.0
 10
13.1394
 20
89.1751
 30
0.0
 10
13.1394
 20
89.1751
 30
0.0
 10
13.082800000000001
 20
89.212699999999998
 30
0.0
 10
13.0267
 20
89.249499999999998
 30
0.0
 10
12.970499999999999
 20
89.285499999999999
 30
0.0
 10
12.970499999999999
 20
89.285499999999999
 30
0.0
 10
12.914300000000001
 20
89.249499999999998
 30
0.0
 10
12.8582
 20
89.212699999999998
 30
0.0
 10
12.801600000000001
 20
89.1751
 30
0.0
 10
12.801600000000001
 20
89.1751
 30
0.0
 10
12.801600000000001
 20
89.1751
 30
0.0
 10
12.8644
 20
89.353099999999998
 30
0.0
 10
12.8644
 20
89.353099999999998
 30
0.0
 10
12.8644
 20
89.353099999999998
 30
0.0
 10
11.6249
 20
90.131600000000006
 30
0.0
 10
10.4847
 20
90.523600000000002
 30
0.0
 10
9.4440000000000008
 20
90.528899999999993
 30
0.0
 10
9.4440000000000008
 20
90.528899999999993
 30
0.0
 10
9.0836000000000006
 20
90.658900000000003
 30
0.0
 10
8.6349
 20
90.7149
 30
0.0
 10
8.0978999999999992
 20
90.696600000000004
 30
0.0
 10
8.0978999999999992
 20
90.696600000000004
 30
0.0
 10
7.8422000000000001
 20
90.6922
 30
0.0
 10
7.3696999999999999
 20
90.653800000000004
 30
0.0
 10
6.6799999999999997
 20
90.581900000000005
 30
0.0
 10
6.6799999999999997
 20
90.581900000000005
 30
0.0
 10
4.8301999999999996
 20
90.071299999999994
 30
0.0
 10
3.3557999999999999
 20
89.550299999999993
 30
0.0
 10
2.2566999999999999
 20
89.018900000000002
 30
0.0
 10
2.2566999999999999
 20
89.018900000000002
 30
0.0
 10
1.9354
 20
88.876499999999993
 30
0.0
 10
1.6106
 20
88.661900000000003
 30
0.0
 10
1.2830999999999999
 20
88.374799999999993
 30
0.0
 10
1.2830999999999999
 20
88.374799999999993
 30
0.0
 10
1.1919999999999999
 20
88.227999999999994
 30
0.0
 10
1.1259999999999999
 20
87.990300000000005
 30
0.0
 10
1.0849
 20
87.661199999999994
 30
0.0
 10
1.0849
 20
87.661199999999994
 30
0.0
 10
1.044
 20
87.332099999999997
 30
0.0
 10
0.9525
 20
87.085300000000004
 30
0.0
 10
0.8104
 20
86.920900000000003
 30
0.0
 10
0.8104
 20
86.920900000000003
 30
0.0
 10
0.6714
 20
86.585899999999995
 30
0.0
 10
0.4164
 20
86.295599999999993
 30
0.0
 10
0.0457
 20
86.049999999999997
 30
0.0
 10
0.0457
 20
86.049999999999997
 30
0.0
 10
-0.5689
 20
85.604200000000006
 30
0.0
 10
-0.8761
 20
85.381299999999996
 30
0.0
 10
-0.8761
 20
85.381299999999996
 30
0.0
 10
-0.8761
 20
85.381299999999996
 30
0.0
 10
0.7122000000000001
 20
85.256200000000007
 30
0.0
 10
1.7605
 20
85.283500000000004
 30
0.0
 10
2.2688999999999999
 20
85.463099999999997
 30
0.0
 10
2.2688999999999999
 20
85.463099999999997
 30
0.0
 10
2.5758999999999999
 20
85.485699999999994
 30
0.0
 10
2.8940999999999999
 20
85.555199999999999
 30
0.0
 10
3.2244999999999999
 20
85.671999999999997
 30
0.0
 10
3.2244999999999999
 20
85.671999999999997
 30
0.0
 10
3.5041000000000002
 20
85.770899999999997
 30
0.0
 10
3.8889999999999998
 20
85.956800000000001
 30
0.0
 10
4.3787000000000003
 20
86.229900000000001
 30
0.0
 10
4.3787000000000003
 20
86.229900000000001
 30
0.0
 10
4.8682999999999996
 20
86.503100000000003
 30
0.0
 10
5.2404999999999999
 20
86.684700000000007
 30
0.0
 10
5.4947999999999997
 20
86.7744
 30
0.0
 10
5.4947999999999997
 20
86.7744
 30
0.0
 10
6.0090000000000003
 20
87.099100000000007
 30
0.0
 10
6.5209999999999999
 20
87.551500000000004
 30
0.0
 10
7.0308999999999999
 20
88.132099999999994
 30
0.0
 10
7.0308999999999999
 20
88.132099999999994
 30
0.0
 10
7.173
 20
88.296700000000001
 30
0.0
 10
7.5983000000000001
 20
88.832899999999995
 30
0.0
 10
8.3068000000000008
 20
89.740899999999996
 30
0.0
 10
8.3068000000000008
 20
89.740899999999996
 30
0.0
 10
7.8319999999999999
 20
88.171899999999994
 30
0.0
 10
7.6003999999999996
 20
87.046499999999995
 30
0.0
 10
7.6127000000000002
 20
86.364599999999996
 30
0.0
 10
7.6127000000000002
 20
86.364599999999996
 30
0.0
 10
7.6242000000000001
 20
82.851399999999998
 30
0.0
 10
8.0025999999999993
 20
80.039699999999996
 30
0.0
 10
8.7484000000000002
 20
77.929599999999994
 30
0.0
 10
8.7484000000000002
 20
77.929599999999994
 30
0.0
 10
9.1255000000000006
 20
76.861900000000006
 30
0.0
 10
9.6164000000000005
 20
75.877200000000002
 30
0.0
 10
10.2211
 20
74.975700000000003
 30
0.0
 10
10.2211
 20
74.975700000000003
 30
0.0
 10
8.8598999999999997
 20
75.266800000000003
 30
0.0
 10
7.7560000000000002
 20
75.720299999999995
 30
0.0
 10
6.9093
 20
76.336100000000002
 30
0.0
 10
6.9093
 20
76.336100000000002
 30
0.0
 10
6.1180000000000003
 20
76.714399999999998
 30
0.0
 10
5.3183999999999996
 20
77.318200000000004
 30
0.0
 10
4.5103999999999997
 20
78.148099999999999
 30
0.0
 10
4.5103999999999997
 20
78.148099999999999
 30
0.0
 10
3.8835999999999999
 20
78.870099999999994
 30
0.0
 10
3.2395
 20
79.600800000000007
 30
0.0
 10
2.5781000000000001
 20
80.339200000000005
 30
0.0
 10
2.5781000000000001
 20
80.339200000000005
 30
0.0
 10
2.5590000000000002
 20
79.989099999999993
 30
0.0
 10
2.6427
 20
79.468500000000006
 30
0.0
 10
2.8298999999999999
 20
78.776700000000005
 30
0.0
 10
2.8298999999999999
 20
78.776700000000005
 30
0.0
 10
3.0171000000000001
 20
78.085099999999997
 30
0.0
 10
3.0926999999999998
 20
77.5471
 30
0.0
 10
3.0569000000000002
 20
77.162700000000001
 30
0.0
 10
3.0569000000000002
 20
77.162700000000001
 30
0.0
 10
3.4647999999999999
 20
74.390100000000004
 30
0.0
 10
3.1032000000000002
 20
71.488500000000002
 30
0.0
 10
1.9718
 20
68.457899999999995
 30
0.0
 10
1.9718
 20
68.457899999999995
 30
0.0
 10
0.9051
 20
65.650300000000001
 30
0.0
 10
-0.6668
 20
63.179000000000002
 30
0.0
 10
-2.7435999999999998
 20
61.0441
 30
0.0
 10
-2.7435999999999998
 20
61.0441
 30
0.0
 10
-3.9319000000000002
 20
59.825000000000003
 30
0.0
 10
-5.4325999999999999
 20
58.658099999999997
 30
0.0
 10
-7.2454000000000001
 20
57.543399999999998
 30
0.0
 10
-7.2454000000000001
 20
57.543399999999998
 30
0.0
 10
-1.9975000000000001
 20
52.509099999999997
 30
0.0
 10
5.1257000000000001
 20
49.4146
 30
0.0
 10
12.970499999999999
 20
49.4146
 30
0.0
 10
12.970499999999999
 20
49.4146
 30
0.0
 10
20.815300000000001
 20
49.4146
 30
0.0
 10
27.938500000000001
 20
52.508899999999997
 30
0.0
 10
33.186399999999999
 20
57.543399999999998
 30
0.0
  0
SPLINE
  5
29
100
AcDbEntity
  8
RÚteg 1
 62
     7
100
AcDbSpline
210
0.0
220
0.0
230
1.0
 70
     1
 71
     3
 72
    20
 73
    16
 74
     0
 42
0.0000000001
 43
0.0000000001
 40
0.0
 40
0.0
 40
0.0
 40
0.0
 40
0.25
 40
0.25
 40
0.25
 40
0.25
 40
0.5
 40
0.5
 40
0.5
 40
0.5
 40
0.75
 40
0.75
 40
0.75
 40
0.75
 40
1.0
 40
1.0
 40
1.0
 40
1.0
 10
-15.3315
 20
71.370999999999995
 30
0.0
 10
-15.3315
 20
71.370999999999995
 30
0.0
 10
-15.2315
 20
71.258700000000005
 30
0.0
 10
-15.2315
 20
71.258700000000005
 30
0.0
 10
-15.2315
 20
71.258700000000005
 30
0.0
 10
-12.678599999999999
 20
67.270799999999994
 30
0.0
 10
-11.038399999999999
 20
64.247100000000003
 30
0.0
 10
-10.3109
 20
62.187899999999999
 30
0.0
 10
-10.3109
 20
62.187899999999999
 30
0.0
 10
-10.081200000000001
 20
61.538600000000002
 30
0.0
 10
-9.8919999999999995
 20
60.896099999999997
 30
0.0
 10
-9.7420000000000009
 20
60.260399999999997
 30
0.0
 10
-9.7420000000000009
 20
60.260399999999997
 30
0.0
 10
-12.342599999999999
 20
63.472299999999997
 30
0.0
 10
-14.276999999999999
 20
67.245400000000004
 30
0.0
 10
-15.3315
 20
71.370999999999995
 30
0.0
  0
SPLINE
  5
2A
100
AcDbEntity
  8
RÚteg 1
 62
     7
100
AcDbSpline
210
0.0
220
0.0
230
1.0
 70
     1
 71
     3
 72
    20
 73
    16
 74
     0
 42
0.0000000001
 43
0.0000000001
 40
0.0
 40
0.0
 40
0.0
 40
0.0
 40
0.25
 40
0.25
 40
0.25
 40
0.25
 40
0.5
 40
0.5
 40
0.5
 40
0.5
 40
0.75
 40
0.75
 40
0.75
 40
0.75
 40
1.0
 40
1.0
 40
1.0
 40
1.0
 10
12.970499999999999
 20
118.1579
 30
0.0
 10
14.476100000000001
 20
118.1579
 30
0.0
 10
15.696899999999999
 20
116.937
 30
0.0
 10
15.696899999999999
 20
115.4314
 30
0.0
 10
15.696899999999999
 20
115.4314
 30
0.0
 10
15.696899999999999
 20
113.926
 30
0.0
 10
14.476100000000001
 20
112.705
 30
0.0
 10
12.970499999999999
 20
112.705
 30
0.0
 10
12.970499999999999
 20
112.705
 30
0.0
 10
11.4649
 20
112.705
 30
0.0
 10
10.2441
 20
113.926
 30
0.0
 10
10.2441
 20
115.4314
 30
0.0
 10
10.2441
 20
115.4314
 30
0.0
 10
10.2441
 20
116.937
 30
0.0
 10
11.4649
 20
118.1579
 30
0.0
 10
12.970499999999999
 20
118.1579
 30
0.0
  0
SPLINE
  5
2B
100
AcDbEntity
  8
RÚteg 1
 62
     7
100
AcDbSpline
210
0.0
220
0.0
230
1.0
 70
     1
 71
     3
 72
    44
 73
    40
 74
     0
 42
0.0000000001
 43
0.0000000001
 40
0.0
 40
0.0
 40
0.0
 40
0.0
 40
0.1
 40
0.1
 40
0.1
 40
0.1
 40
0.2
 40
0.2
 40
0.2
 40
0.2
 40
0.3
 40
0.3
 40
0.3
 40
0.3
 40
0.4
 40
0.4
 40
0.4
 40
0.4
 40
0.5
 40
0.5
 40
0.5
 40
0.5
 40
0.6
 40
0.6
 40
0.6
 40
0.6
 40
0.7
 40
0.7
 40
0.7
 40
0.7
 40
0.7999999999999999
 40
0.7999999999999999
 40
0.7999999999999999
 40
0.7999999999999999
 40
0.8999999999999999
 40
0.8999999999999999
 40
0.8999999999999999
 40
0.8999999999999999
 40
1.0
 40
1.0
 40
1.0
 40
1.0
 10
-58.154800000000002
 20
113.8546
 30
0.0
 10
-49.201300000000003
 20
112.8404
 30
0.0
 10
-41.299199999999999
 20
108.3552
 30
0.0
 10
-35.8249
 20
101.7784
 30
0.0
 10
-35.8249
 20
101.7784
 30
0.0
 10
-35.475099999999998
 20
101.6626
 30
0.0
 10
-35.271500000000003
 20
101.3489
 30
0.0
 10
-35.159100000000002
 20
100.9543
 30
0.0
 10
-35.159100000000002
 20
100.9543
 30
0.0
 10
-30.642499999999998
 20
95.173599999999993
 30
0.0
 10
-27.949999999999999
 20
87.898799999999994
 30
0.0
 10
-27.949999999999999
 20
79.995800000000003
 30
0.0
 10
-27.949999999999999
 20
79.995800000000003
 30
0.0
 10
-27.949999999999999
 20
61.177199999999999
 30
0.0
 10
-43.211100000000002
 20
45.9163
 30
0.0
 10
-62.029499999999999
 20
45.9163
 30
0.0
 10
-62.029499999999999
 20
45.9163
 30
0.0
 10
-80.847899999999996
 20
45.9163
 30
0.0
 10
-96.108999999999995
 20
61.177199999999999
 30
0.0
 10
-96.108999999999995
 20
79.995800000000003
 30
0.0
 10
-96.108999999999995
 20
79.995800000000003
 30
0.0
 10
-96.108999999999995
 20
97.503600000000006
 30
0.0
 10
-82.898499999999999
 20
111.9299
 30
0.0
 10
-65.904200000000003
 20
113.8546
 30
0.0
 10
-65.904200000000003
 20
113.8546
 30
0.0
 10
-66.527699999999996
 20
114.67270000000001
 30
0.0
 10
-66.897900000000007
 20
115.6939
 30
0.0
 10
-66.897900000000007
 20
116.80159999999999
 30
0.0
 10
-66.897900000000007
 20
116.80159999999999
 30
0.0
 10
-66.897900000000007
 20
119.4898
 30
0.0
 10
-64.7179
 20
121.67
 30
0.0
 10
-62.029499999999999
 20
121.67
 30
0.0
 10
-62.029499999999999
 20
121.67
 30
0.0
 10
-59.341099999999997
 20
121.67
 30
0.0
 10
-57.161099999999998
 20
119.4898
 30
0.0
 10
-57.161099999999998
 20
116.80159999999999
 30
0.0
 10
-57.161099999999998
 20
116.80159999999999
 30
0.0
 10
-57.161099999999998
 20
115.6939
 30
0.0
 10
-57.531300000000002
 20
114.67270000000001
 30
0.0
 10
-58.154800000000002
 20
113.8546
 30
0.0
  0
SPLINE
  5
2C
100
AcDbEntity
  8
RÚteg 1
 62
     7
100
AcDbSpline
210
0.0
220
0.0
230
1.0
 70
     1
 71
     3
 72
   240
 73
   236
 74
     0
 42
0.0000000001
 43
0.0000000001
 40
0.0
 40
0.0
 40
0.0
 40
0.0
 40
0.0169491525423729
 40
0.0169491525423729
 40
0.0169491525423729
 40
0.0169491525423729
 40
0.0338983050847458
 40
0.0338983050847458
 40
0.0338983050847458
 40
0.0338983050847458
 40
0.0508474576271186
 40
0.0508474576271186
 40
0.0508474576271186
 40
0.0508474576271186
 40
0.0677966101694915
 40
0.0677966101694915
 40
0.0677966101694915
 40
0.0677966101694915
 40
0.0847457627118644
 40
0.0847457627118644
 40
0.0847457627118644
 40
0.0847457627118644
 40
0.1016949152542373
 40
0.1016949152542373
 40
0.1016949152542373
 40
0.1016949152542373
 40
0.1186440677966102
 40
0.1186440677966102
 40
0.1186440677966102
 40
0.1186440677966102
 40
0.1355932203389831
 40
0.1355932203389831
 40
0.1355932203389831
 40
0.1355932203389831
 40
0.1525423728813559
 40
0.1525423728813559
 40
0.1525423728813559
 40
0.1525423728813559
 40
0.1694915254237288
 40
0.1694915254237288
 40
0.1694915254237288
 40
0.1694915254237288
 40
0.1864406779661017
 40
0.1864406779661017
 40
0.1864406779661017
 40
0.1864406779661017
 40
0.2033898305084746
 40
0.2033898305084746
 40
0.2033898305084746
 40
0.2033898305084746
 40
0.2203389830508475
 40
0.2203389830508475
 40
0.2203389830508475
 40
0.2203389830508475
 40
0.2372881355932204
 40
0.2372881355932204
 40
0.2372881355932204
 40
0.2372881355932204
 40
0.2542372881355933
 40
0.2542372881355933
 40
0.2542372881355933
 40
0.2542372881355933
 40
0.2711864406779662
 40
0.2711864406779662
 40
0.2711864406779662
 40
0.2711864406779662
 40
0.2881355932203391
 40
0.2881355932203391
 40
0.2881355932203391
 40
0.2881355932203391
 40
0.3050847457627119
 40
0.3050847457627119
 40
0.3050847457627119
 40
0.3050847457627119
 40
0.3220338983050848
 40
0.3220338983050848
 40
0.3220338983050848
 40
0.3220338983050848
 40
0.3389830508474577
 40
0.3389830508474577
 40
0.3389830508474577
 40
0.3389830508474577
 40
0.3559322033898306
 40
0.3559322033898306
 40
0.3559322033898306
 40
0.3559322033898306
 40
0.3728813559322035
 40
0.3728813559322035
 40
0.3728813559322035
 40
0.3728813559322035
 40
0.3898305084745764
 40
0.3898305084745764
 40
0.3898305084745764
 40
0.3898305084745764
 40
0.4067796610169493
 40
0.4067796610169493
 40
0.4067796610169493
 40
0.4067796610169493
 40
0.4237288135593222
 40
0.4237288135593222
 40
0.4237288135593222
 40
0.4237288135593222
 40
0.4406779661016951
 40
0.4406779661016951
 40
0.4406779661016951
 40
0.4406779661016951
 40
0.457627118644068
 40
0.457627118644068
 40
0.457627118644068
 40
0.457627118644068
 40
0.4745762711864409
 40
0.4745762711864409
 40
0.4745762711864409
 40
0.4745762711864409
 40
0.4915254237288138
 40
0.4915254237288138
 40
0.4915254237288138
 40
0.4915254237288138
 40
0.5084745762711866
 40
0.5084745762711866
 40
0.5084745762711866
 40
0.5084745762711866
 40
0.5254237288135595
 40
0.5254237288135595
 40
0.5254237288135595
 40
0.5254237288135595
 40
0.5423728813559323
 40
0.5423728813559323
 40
0.5423728813559323
 40
0.5423728813559323
 40
0.5593220338983052
 40
0.5593220338983052
 40
0.5593220338983052
 40
0.5593220338983052
 40
0.576271186440678
 40
0.576271186440678
 40
0.576271186440678
 40
0.576271186440678
 40
0.5932203389830508
 40
0.5932203389830508
 40
0.5932203389830508
 40
0.5932203389830508
 40
0.6101694915254237
 40
0.6101694915254237
 40
0.6101694915254237
 40
0.6101694915254237
 40
0.6271186440677965
 40
0.6271186440677965
 40
0.6271186440677965
 40
0.6271186440677965
 40
0.6440677966101693
 40
0.6440677966101693
 40
0.6440677966101693
 40
0.6440677966101693
 40
0.6610169491525422
 40
0.6610169491525422
 40
0.6610169491525422
 40
0.6610169491525422
 40
0.677966101694915
 40
0.677966101694915
 40
0.677966101694915
 40
0.677966101694915
 40
0.6949152542372878
 40
0.6949152542372878
 40
0.6949152542372878
 40
0.6949152542372878
 40
0.7118644067796607
 40
0.7118644067796607
 40
0.7118644067796607
 40
0.7118644067796607
 40
0.7288135593220335
 40
0.7288135593220335
 40
0.7288135593220335
 40
0.7288135593220335
 40
0.7457627118644064
 40
0.7457627118644064
 40
0.7457627118644064
 40
0.7457627118644064
 40
0.7627118644067792
 40
0.7627118644067792
 40
0.7627118644067792
 40
0.7627118644067792
 40
0.779661016949152
 40
0.779661016949152
 40
0.779661016949152
 40
0.779661016949152
 40
0.7966101694915249
 40
0.7966101694915249
 40
0.7966101694915249
 40
0.7966101694915249
 40
0.8135593220338977
 40
0.8135593220338977
 40
0.8135593220338977
 40
0.8135593220338977
 40
0.8305084745762705
 40
0.8305084745762705
 40
0.8305084745762705
 40
0.8305084745762705
 40
0.8474576271186434
 40
0.8474576271186434
 40
0.8474576271186434
 40
0.8474576271186434
 40
0.8644067796610162
 40
0.8644067796610162
 40
0.8644067796610162
 40
0.8644067796610162
 40
0.881355932203389
 40
0.881355932203389
 40
0.881355932203389
 40
0.881355932203389
 40
0.8983050847457619
 40
0.8983050847457619
 40
0.8983050847457619
 40
0.8983050847457619
 40
0.9152542372881347
 40
0.9152542372881347
 40
0.9152542372881347
 40
0.9152542372881347
 40
0.9322033898305075
 40
0.9322033898305075
 40
0.9322033898305075
 40
0.9322033898305075
 40
0.9491525423728804
 40
0.9491525423728804
 40
0.9491525423728804
 40
0.9491525423728804
 40
0.9661016949152532
 40
0.9661016949152532
 40
0.9661016949152532
 40
0.9661016949152532
 40
0.9830508474576261
 40
0.9830508474576261
 40
0.9830508474576261
 40
0.9830508474576261
 40
1.0
 40
1.0
 40
1.0
 40
1.0
 10
-58.378999999999998
 20
85.930800000000005
 30
0.0
 10
-58.604999999999997
 20
85.75
 30
0.0
 10
-58.673099999999998
 20
85.568799999999996
 30
0.0
 10
-58.583399999999997
 20
85.387699999999995
 30
0.0
 10
-58.583399999999997
 20
85.387699999999995
 30
0.0
 10
-58.434600000000003
 20
85.084100000000007
 30
0.0
 10
-58.205199999999998
 20
84.807599999999994
 30
0.0
 10
-57.798200000000001
 20
84.590199999999996
 30
0.0
 10
-57.798200000000001
 20
84.590199999999996
 30
0.0
 10
-57.711300000000001
 20
84.366699999999994
 30
0.0
 10
-58.032200000000003
 20
84.224800000000002
 30
0.0
 10
-58.949199999999998
 20
84.202299999999994
 30
0.0
 10
-58.949199999999998
 20
84.202299999999994
 30
0.0
 10
-59.442799999999998
 20
84.214200000000005
 30
0.0
 10
-59.783099999999997
 20
84.465000000000003
 30
0.0
 10
-60.018500000000003
 20
84.879099999999994
 30
0.0
 10
-60.018500000000003
 20
84.879099999999994
 30
0.0
 10
-60.018500000000003
 20
84.879099999999994
 30
0.0
 10
-60.177100000000003
 20
83.520200000000003
 30
0.0
 10
-60.177100000000003
 20
83.520200000000003
 30
0.0
 10
-60.177100000000003
 20
83.520200000000003
 30
0.0
 10
-60.177100000000003
 20
83.520200000000003
 30
0.0
 10
-60.105499999999999
 20
83.511799999999994
 30
0.0
 10
-60.105499999999999
 20
83.511799999999994
 30
0.0
 10
-60.105499999999999
 20
83.511799999999994
 30
0.0
 10
-59.733699999999999
 20
83.542900000000003
 30
0.0
 10
-59.903300000000002
 20
83.650000000000006
 30
0.0
 10
-59.760100000000001
 20
83.650000000000006
 30
0.0
 10
-59.760100000000001
 20
83.650000000000006
 30
0.0
 10
-59.3932
 20
83.650000000000006
 30
0.0
 10
-59.2821
 20
83.198800000000006
 30
0.0
 10
-58.442599999999999
 20
83.033500000000004
 30
0.0
 10
-58.442599999999999
 20
83.033500000000004
 30
0.0
 10
-57.765599999999999
 20
82.900400000000005
 30
0.0
 10
-57.503700000000002
 20
82.874600000000001
 30
0.0
 10
-56.8596
 20
82.820800000000006
 30
0.0
 10
-56.8596
 20
82.820800000000006
 30
0.0
 10
-56.823300000000003
 20
82.956900000000005
 30
0.0
 10
-56.392899999999997
 20
83.587400000000002
 30
0.0
 10
-56.211500000000001
 20
84.037999999999997
 30
0.0
 10
-56.211500000000001
 20
84.037999999999997
 30
0.0
 10
-55.858199999999997
 20
84.915800000000004
 30
0.0
 10
-56.168900000000001
 20
84.772400000000005
 30
0.0
 10
-56.168900000000001
 20
85.654300000000006
 30
0.0
 10
-56.168900000000001
 20
85.654300000000006
 30
0.0
 10
-56.168900000000001
 20
88.351200000000006
 30
0.0
 10
-54.355200000000004
 20
90.119500000000002
 30
0.0
 10
-52.939500000000002
 20
91.475800000000007
 30
0.0
 10
-52.939500000000002
 20
91.475800000000007
 30
0.0
 10
-52.299399999999999
 20
92.089100000000002
 30
0.0
 10
-51.186199999999999
 20
92.971699999999998
 30
0.0
 10
-50.392600000000002
 20
93.419700000000006
 30
0.0
 10
-50.392600000000002
 20
93.419700000000006
 30
0.0
 10
-49.516100000000002
 20
93.914500000000004
 30
0.0
 10
-48.3264
 20
94.636899999999997
 30
0.0
 10
-47.407600000000002
 20
94.993899999999996
 30
0.0
 10
-47.407600000000002
 20
94.993899999999996
 30
0.0
 10
-47.211199999999998
 20
95.069999999999993
 30
0.0
 10
-46.018099999999997
 20
95.564300000000003
 30
0.0
 10
-45.863999999999997
 20
95.660600000000002
 30
0.0
 10
-45.863999999999997
 20
95.660600000000002
 30
0.0
 10
-45.322200000000002
 20
95.999399999999994
 30
0.0
 10
-44.8581
 20
96.084699999999998
 30
0.0
 10
-44.279299999999999
 20
96.355400000000003
 30
0.0
 10
-44.279299999999999
 20
96.355400000000003
 30
0.0
 10
-42.862299999999998
 20
97.018199999999993
 30
0.0
 10
-42.612699999999997
 20
97.201099999999997
 30
0.0
 10
-41.4724
 20
98.108099999999993
 30
0.0
 10
-41.4724
 20
98.108099999999993
 30
0.0
 10
-41.126600000000003
 20
98.383200000000002
 30
0.0
 10
-40.658200000000001
 20
98.829099999999997
 30
0.0
 10
-40.1265
 20
99.318200000000004
 30
0.0
 10
-40.1265
 20
99.318200000000004
 30
0.0
 10
-45.479399999999998
 20
105.3811
 30
0.0
 10
-53.308
 20
109.2067
 30
0.0
 10
-62.029499999999999
 20
109.2067
 30
0.0
 10
-62.029499999999999
 20
109.2067
 30
0.0
 10
-69.224299999999999
 20
109.2067
 30
0.0
 10
-75.811300000000003
 20
106.6026
 30
0.0
 10
-80.902299999999997
 20
102.2876
 30
0.0
 10
-80.902299999999997
 20
102.2876
 30
0.0
 10
-80.873599999999996
 20
102.277
 30
0.0
 10
-80.843900000000005
 20
102.2654
 30
0.0
 10
-80.813000000000002
 20
102.2518
 30
0.0
 10
-80.813000000000002
 20
102.2518
 30
0.0
 10
-80.502399999999994
 20
102.116
 30
0.0
 10
-80.437899999999999
 20
102.0
 30
0.0
 10
-80.202500000000001
 20
101.8262
 30
0.0
 10
-80.202500000000001
 20
101.8262
 30
0.0
 10
-79.756100000000004
 20
101.49639999999999
 30
0.0
 10
-79.491399999999999
 20
101.2222
 30
0.0
 10
-79.079400000000007
 20
100.8768
 30
0.0
 10
-79.079400000000007
 20
100.8768
 30
0.0
 10
-78.542000000000002
 20
100.4265
 30
0.0
 10
-77.599999999999994
 20
99.248099999999994
 30
0.0
 10
-77.232500000000002
 20
98.647599999999997
 30
0.0
 10
-77.232500000000002
 20
98.647599999999997
 30
0.0
 10
-76.758499999999998
 20
97.872900000000001
 30
0.0
 10
-76.359499999999997
 20
96.6892
 30
0.0
 10
-76.0672
 20
95.736099999999993
 30
0.0
 10
-76.0672
 20
95.736099999999993
 30
0.0
 10
-75.827399999999997
 20
94.953900000000004
 30
0.0
 10
-75.974999999999994
 20
94.930400000000006
 30
0.0
 10
-75.520600000000002
 20
94.278800000000004
 30
0.0
 10
-75.520600000000002
 20
94.278800000000004
 30
0.0
 10
-75.260499999999993
 20
93.906000000000006
 30
0.0
 10
-74.866900000000001
 20
93.501099999999994
 30
0.0
 10
-74.5214
 20
93.205399999999997
 30
0.0
 10
-74.5214
 20
93.205399999999997
 30
0.0
 10
-73.913200000000003
 20
92.684700000000007
 30
0.0
 10
-72.832999999999998
 20
92.0398
 30
0.0
 10
-72.133399999999995
 20
91.517600000000002
 30
0.0
 10
-72.133399999999995
 20
91.517600000000002
 30
0.0
 10
-71.389799999999994
 20
90.962299999999999
 30
0.0
 10
-70.6554
 20
90.204300000000003
 30
0.0
 10
-69.912199999999999
 20
89.662800000000004
 30
0.0
 10
-69.912199999999999
 20
89.662800000000004
 30
0.0
 10
-69.013999999999996
 20
89.008700000000005
 30
0.0
 10
-66.044700000000006
 20
86.581100000000006
 30
0.0
 10
-66.044700000000006
 20
85.308700000000002
 30
0.0
 10
-66.044700000000006
 20
85.308700000000002
 30
0.0
 10
-66.044700000000006
 20
85.308700000000002
 30
0.0
 10
-66.044700000000006
 20
84.963200000000001
 30
0.0
 10
-66.044700000000006
 20
84.963200000000001
 30
0.0
 10
-66.044700000000006
 20
84.963200000000001
 30
0.0
 10
-66.044700000000006
 20
84.358000000000004
 30
0.0
 10
-66.597099999999998
 20
84.432599999999994
 30
0.0
 10
-66.597099999999998
 20
84.203000000000003
 30
0.0
 10
-66.597099999999998
 20
84.203000000000003
 30
0.0
 10
-66.597099999999998
 20
83.475999999999999
 30
0.0
 10
-65.213300000000004
 20
83.245000000000005
 30
0.0
 10
-64.462800000000001
 20
83.159999999999997
 30
0.0
 10
-64.462800000000001
 20
83.159999999999997
 30
0.0
 10
-63.363900000000001
 20
83.034899999999993
 30
0.0
 10
-62.798999999999999
 20
82.555499999999995
 30
0.0
 10
-62.798999999999999
 20
84.203000000000003
 30
0.0
 10
-62.798999999999999
 20
84.203000000000003
 30
0.0
 10
-63.353900000000003
 20
84.332400000000007
 30
0.0
 10
-63.903799999999997
 20
85.137799999999999
 30
0.0
 10
-63.903799999999997
 20
85.861699999999999
 30
0.0
 10
-63.903799999999997
 20
85.861699999999999
 30
0.0
 10
-64.1708
 20
86.040599999999998
 30
0.0
 10
-64.318100000000001
 20
86.317599999999999
 30
0.0
 10
-64.318100000000001
 20
86.760099999999994
 30
0.0
 10
-64.318100000000001
 20
86.760099999999994
 30
0.0
 10
-64.318100000000001
 20
86.887299999999996
 30
0.0
 10
-64.283699999999996
 20
87.013900000000007
 30
0.0
 10
-64.249200000000002
 20
87.140299999999996
 30
0.0
 10
-64.249200000000002
 20
87.140299999999996
 30
0.0
 10
-64.249200000000002
 20
87.140299999999996
 30
0.0
 10
-64.249200000000002
 20
87.140299999999996
 30
0.0
 10
-64.249200000000002
 20
87.140299999999996
 30
0.0
 10
-64.249200000000002
 20
87.140299999999996
 30
0.0
 10
-64.555300000000003
 20
86.732799999999997
 30
0.0
 10
-64.876199999999997
 20
86.503600000000006
 30
0.0
 10
-65.218800000000002
 20
86.535799999999995
 30
0.0
 10
-65.218800000000002
 20
86.535799999999995
 30
0.0
 10
-65.798599999999993
 20
86.624499999999998
 30
0.0
 10
-66.026499999999999
 20
86.877600000000001
 30
0.0
 10
-66.056899999999999
 20
87.222700000000003
 30
0.0
 10
-66.056899999999999
 20
87.222700000000003
 30
0.0
 10
-65.767600000000002
 20
87.290000000000006
 30
0.0
 10
-65.5334
 20
87.412099999999995
 30
0.0
 10
-65.354100000000003
 20
87.589500000000001
 30
0.0
 10
-65.354100000000003
 20
87.589500000000001
 30
0.0
 10
-65.744
 20
87.611500000000007
 30
0.0
 10
-66.133899999999997
 20
87.658600000000007
 30
0.0
 10
-66.523799999999994
 20
87.717200000000005
 30
0.0
 10
-66.523799999999994
 20
87.717200000000005
 30
0.0
 10
-66.999899999999997
 20
87.813400000000001
 30
0.0
 10
-67.274900000000002
 20
88.111199999999997
 30
0.0
 10
-67.457999999999998
 20
88.500299999999996
 30
0.0
 10
-67.457999999999998
 20
88.500299999999996
 30
0.0
 10
-67.132800000000003
 20
88.495800000000003
 30
0.0
 10
-66.844300000000004
 20
88.619399999999999
 30
0.0
 10
-66.592399999999998
 20
88.871099999999998
 30
0.0
 10
-66.592399999999998
 20
88.871099999999998
 30
0.0
 10
-66.4452
 20
89.126900000000006
 30
0.0
 10
-66.297600000000003
 20
89.382599999999996
 30
0.0
 10
-66.149900000000002
 20
89.638199999999998
 30
0.0
 10
-66.149900000000002
 20
89.638199999999998
 30
0.0
 10
-66.149900000000002
 20
89.638199999999998
 30
0.0
 10
-66.149900000000002
 20
89.638300000000001
 30
0.0
 10
-66.149900000000002
 20
89.638300000000001
 30
0.0
 10
-66.149900000000002
 20
89.638300000000001
 30
0.0
 10
-66.005600000000001
 20
89.910499999999999
 30
0.0
 10
-65.724299999999999
 20
90.127499999999998
 30
0.0
 10
-65.4131
 20
90.194400000000002
 30
0.0
 10
-65.4131
 20
90.194400000000002
 30
0.0
 10
-65.4131
 20
90.194400000000002
 30
0.0
 10
-65.4131
 20
90.194500000000005
 30
0.0
 10
-65.4131
 20
90.194500000000005
 30
0.0
 10
-65.4131
 20
90.194500000000005
 30
0.0
 10
-65.4131
 20
90.194500000000005
 30
0.0
 10
-65.411100000000005
 20
90.194699999999997
 30
0.0
 10
-65.411100000000005
 20
90.194699999999997
 30
0.0
 10
-65.411100000000005
 20
90.194699999999997
 30
0.0
 10
-65.370900000000006
 20
90.203400000000002
 30
0.0
 10
-65.330299999999994
 20
90.209400000000002
 30
0.0
 10
-65.289599999999993
 20
90.212699999999998
 30
0.0
 10
-65.289599999999993
 20
90.212699999999998
 30
0.0
 10
-64.206400000000002
 20
90.386899999999997
 30
0.0
 10
-63.568600000000004
 20
90.7881
 30
0.0
 10
-62.773099999999999
 20
91.414900000000003
 30
0.0
 10
-62.773099999999999
 20
91.414900000000003
 30
0.0
 10
-62.509
 20
91.531700000000001
 30
0.0
 10
-61.943100000000001
 20
91.695800000000006
 30
0.0
 10
-61.587699999999998
 20
91.7453
 30
0.0
 10
-61.587699999999998
 20
91.7453
 30
0.0
 10
-61.1967
 20
91.752499999999998
 30
0.0
 10
-60.651800000000001
 20
91.619699999999995
 30
0.0
 10
-60.522599999999997
 20
91.369500000000002
 30
0.0
 10
-60.522599999999997
 20
91.369500000000002
 30
0.0
 10
-60.264699999999998
 20
91.102400000000003
 30
0.0
 10
-60.207799999999999
 20
91.040400000000005
 30
0.0
 10
-60.033000000000001
 20
90.772999999999996
 30
0.0
 10
-60.033000000000001
 20
90.772999999999996
 30
0.0
 10
-59.854500000000002
 20
90.5535
 30
0.0
 10
-59.9101
 20
90.544499999999999
 30
0.0
 10
-59.573799999999999
 20
90.219300000000004
 30
0.0
 10
-59.573799999999999
 20
90.219300000000004
 30
0.0
 10
-59.259
 20
89.914599999999993
 30
0.0
 10
-58.623199999999997
 20
89.396299999999997
 30
0.0
 10
-58.674999999999997
 20
88.688299999999998
 30
0.0
 10
-58.674999999999997
 20
88.688299999999998
 30
0.0
 10
-58.674999999999997
 20
88.688299999999998
 30
0.0
 10
-59.000500000000002
 20
86.898399999999995
 30
0.0
 10
-59.000500000000002
 20
86.898399999999995
 30
0.0
 10
-59.000500000000002
 20
86.898399999999995
 30
0.0
 10
-59.021799999999999
 20
86.751000000000005
 30
0.0
 10
-58.310000000000002
 20
86.646500000000003
 30
0.0
 10
-58.310000000000002
 20
86.276300000000006
 30
0.0
 10
-58.310000000000002
 20
86.276300000000006
 30
0.0
 10
-58.310000000000002
 20
86.089699999999993
 30
0.0
 10
-58.3429
 20
86.085800000000006
 30
0.0
 10
-58.378999999999998
 20
85.930800000000005
 30
0.0
  0
SPLINE
  5
2D
100
AcDbEntity
  8
RÚteg 1
 62
     7
100
AcDbSpline
210
0.0
220
0.0
230
1.0
 70
     1
 71
     3
 72
   156
 73
   152
 74
     0
 42
0.0000000001
 43
0.0000000001
 40
0.0
 40
0.0
 40
0.0
 40
0.0
 40
0.0263157894736842
 40
0.0263157894736842
 40
0.0263157894736842
 40
0.0263157894736842
 40
0.0526315789473684
 40
0.0526315789473684
 40
0.0526315789473684
 40
0.0526315789473684
 40
0.0789473684210526
 40
0.0789473684210526
 40
0.0789473684210526
 40
0.0789473684210526
 40
0.1052631578947368
 40
0.1052631578947368
 40
0.1052631578947368
 40
0.1052631578947368
 40
0.1315789473684211
 40
0.1315789473684211
 40
0.1315789473684211
 40
0.1315789473684211
 40
0.1578947368421053
 40
0.1578947368421053
 40
0.1578947368421053
 40
0.1578947368421053
 40
0.1842105263157895
 40
0.1842105263157895
 40
0.1842105263157895
 40
0.1842105263157895
 40
0.2105263157894737
 40
0.2105263157894737
 40
0.2105263157894737
 40
0.2105263157894737
 40
0.2368421052631579
 40
0.2368421052631579
 40
0.2368421052631579
 40
0.2368421052631579
 40
0.2631578947368421
 40
0.2631578947368421
 40
0.2631578947368421
 40
0.2631578947368421
 40
0.2894736842105263
 40
0.2894736842105263
 40
0.2894736842105263
 40
0.2894736842105263
 40
0.3157894736842105
 40
0.3157894736842105
 40
0.3157894736842105
 40
0.3157894736842105
 40
0.3421052631578947
 40
0.3421052631578947
 40
0.3421052631578947
 40
0.3421052631578947
 40
0.3684210526315789
 40
0.3684210526315789
 40
0.3684210526315789
 40
0.3684210526315789
 40
0.3947368421052631
 40
0.3947368421052631
 40
0.3947368421052631
 40
0.3947368421052631
 40
0.4210526315789472
 40
0.4210526315789472
 40
0.4210526315789472
 40
0.4210526315789472
 40
0.4473684210526314
 40
0.4473684210526314
 40
0.4473684210526314
 40
0.4473684210526314
 40
0.4736842105263156
 40
0.4736842105263156
 40
0.4736842105263156
 40
0.4736842105263156
 40
0.4999999999999998
 40
0.4999999999999998
 40
0.4999999999999998
 40
0.4999999999999998
 40
0.526315789473684
 40
0.526315789473684
 40
0.526315789473684
 40
0.526315789473684
 40
0.5526315789473681
 40
0.5526315789473681
 40
0.5526315789473681
 40
0.5526315789473681
 40
0.5789473684210523
 40
0.5789473684210523
 40
0.5789473684210523
 40
0.5789473684210523
 40
0.6052631578947365
 40
0.6052631578947365
 40
0.6052631578947365
 40
0.6052631578947365
 40
0.6315789473684207
 40
0.6315789473684207
 40
0.6315789473684207
 40
0.6315789473684207
 40
0.6578947368421049
 40
0.6578947368421049
 40
0.6578947368421049
 40
0.6578947368421049
 40
0.6842105263157891
 40
0.6842105263157891
 40
0.6842105263157891
 40
0.6842105263157891
 40
0.7105263157894732
 40
0.7105263157894732
 40
0.7105263157894732
 40
0.7105263157894732
 40
0.7368421052631574
 40
0.7368421052631574
 40
0.7368421052631574
 40
0.7368421052631574
 40
0.7631578947368416
 40
0.7631578947368416
 40
0.7631578947368416
 40
0.7631578947368416
 40
0.7894736842105258
 40
0.7894736842105258
 40
0.7894736842105258
 40
0.7894736842105258
 40
0.81578947368421
 40
0.81578947368421
 40
0.81578947368421
 40
0.81578947368421
 40
0.8421052631578941
 40
0.8421052631578941
 40
0.8421052631578941
 40
0.8421052631578941
 40
0.8684210526315783
 40
0.8684210526315783
 40
0.8684210526315783
 40
0.8684210526315783
 40
0.8947368421052625
 40
0.8947368421052625
 40
0.8947368421052625
 40
0.8947368421052625
 40
0.9210526315789467
 40
0.9210526315789467
 40
0.9210526315789467
 40
0.9210526315789467
 40
0.9473684210526309
 40
0.9473684210526309
 40
0.9473684210526309
 40
0.9473684210526309
 40
0.973684210526315
 40
0.973684210526315
 40
0.973684210526315
 40
0.973684210526315
 40
1.0
 40
1.0
 40
1.0
 40
1.0
 10
-36.753900000000002
 20
94.643799999999999
 30
0.0
 10
-37.114100000000001
 20
94.081199999999995
 30
0.0
 10
-37.471299999999999
 20
93.573300000000003
 30
0.0
 10
-37.7575
 20
93.146199999999993
 30
0.0
 10
-37.7575
 20
93.146199999999993
 30
0.0
 10
-39.344099999999997
 20
90.777600000000007
 30
0.0
 10
-39.387300000000003
 20
89.575000000000003
 30
0.0
 10
-39.387300000000003
 20
86.2072
 30
0.0
 10
-39.387300000000003
 20
86.2072
 30
0.0
 10
-39.387300000000003
 20
86.2072
 30
0.0
 10
-39.387300000000003
 20
85.516099999999994
 30
0.0
 10
-39.387300000000003
 20
85.516099999999994
 30
0.0
 10
-39.387300000000003
 20
85.516099999999994
 30
0.0
 10
-39.387300000000003
 20
84.354500000000002
 30
0.0
 10
-40.328099999999999
 20
82.157899999999998
 30
0.0
 10
-40.795900000000003
 20
81.396799999999999
 30
0.0
 10
-40.795900000000003
 20
81.396799999999999
 30
0.0
 10
-41.178400000000003
 20
80.7744
 30
0.0
 10
-41.500500000000002
 20
80.344399999999993
 30
0.0
 10
-42.172800000000002
 20
80.010199999999998
 30
0.0
 10
-42.172800000000002
 20
80.010199999999998
 30
0.0
 10
-42.464799999999997
 20
79.865099999999998
 30
0.0
 10
-44.014400000000002
 20
79.237700000000004
 30
0.0
 10
-44.014400000000002
 20
79.019599999999997
 30
0.0
 10
-44.014400000000002
 20
79.019599999999997
 30
0.0
 10
-44.014400000000002
 20
78.648799999999994
 30
0.0
 10
-43.807299999999998
 20
78.692599999999999
 30
0.0
 10
-43.807299999999998
 20
78.4666
 30
0.0
 10
-43.807299999999998
 20
78.4666
 30
0.0
 10
-43.807299999999998
 20
78.4666
 30
0.0
 10
-43.807299999999998
 20
78.259299999999996
 30
0.0
 10
-43.807299999999998
 20
78.259299999999996
 30
0.0
 10
-43.807299999999998
 20
78.259299999999996
 30
0.0
 10
-43.807299999999998
 20
77.855599999999995
 30
0.0
 10
-44.078200000000002
 20
77.855500000000006
 30
0.0
 10
-44.3581
 20
77.719399999999993
 30
0.0
 10
-44.3581
 20
77.719399999999993
 30
0.0
 10
-44.3581
 20
77.719399999999993
 30
0.0
 10
-44.912199999999999
 20
77.775499999999994
 30
0.0
 10
-44.912199999999999
 20
77.775499999999994
 30
0.0
 10
-44.912199999999999
 20
77.775499999999994
 30
0.0
 10
-44.960799999999999
 20
77.188599999999994
 30
0.0
 10
-45.893799999999999
 20
75.486000000000004
 30
0.0
 10
-46.293399999999998
 20
75.218400000000003
 30
0.0
 10
-46.293399999999998
 20
75.218400000000003
 30
0.0
 10
-47.8628
 20
75.218400000000003
 30
0.0
 10
-47.790999999999997
 20
75.262500000000003
 30
0.0
 10
-48.268700000000003
 20
74.084999999999994
 30
0.0
 10
-48.268700000000003
 20
74.084999999999994
 30
0.0
 10
-48.557600000000001
 20
73.372500000000002
 30
0.0
 10
-48.954500000000003
 20
72.522800000000004
 30
0.0
 10
-49.884500000000003
 20
72.522800000000004
 30
0.0
 10
-49.884500000000003
 20
72.522800000000004
 30
0.0
 10
-50.929400000000001
 20
72.522800000000004
 30
0.0
 10
-50.944299999999998
 20
73.096500000000006
 30
0.0
 10
-51.265700000000002
 20
73.766999999999996
 30
0.0
 10
-51.265700000000002
 20
73.766999999999996
 30
0.0
 10
-51.468499999999999
 20
73.719800000000006
 30
0.0
 10
-51.879899999999999
 20
73.559600000000003
 30
0.0
 10
-52.025399999999998
 20
73.559600000000003
 30
0.0
 10
-52.025399999999998
 20
73.559600000000003
 30
0.0
 10
-52.202500000000001
 20
73.559600000000003
 30
0.0
 10
-52.192399999999999
 20
73.576300000000003
 30
0.0
 10
-52.301699999999997
 20
73.628699999999995
 30
0.0
 10
-52.301699999999997
 20
73.628699999999995
 30
0.0
 10
-52.3476
 20
73.604399999999998
 30
0.0
 10
-52.851999999999997
 20
73.3523
 30
0.0
 10
-52.854100000000003
 20
73.3523
 30
0.0
 10
-52.854100000000003
 20
73.3523
 30
0.0
 10
-53.340499999999999
 20
73.3523
 30
0.0
 10
-53.4253
 20
73.597200000000001
 30
0.0
 10
-53.337699999999998
 20
73.974299999999999
 30
0.0
 10
-53.337699999999998
 20
73.974299999999999
 30
0.0
 10
-54.840499999999999
 20
74.981399999999994
 30
0.0
 10
-54.477499999999999
 20
77.807199999999995
 30
0.0
 10
-55.754600000000003
 20
77.913600000000002
 30
0.0
 10
-55.754600000000003
 20
77.913600000000002
 30
0.0
 10
-55.8339
 20
76.962000000000003
 30
0.0
 10
-55.954300000000003
 20
76.332800000000006
 30
0.0
 10
-56.358699999999999
 20
75.6999
 30
0.0
 10
-56.358699999999999
 20
75.6999
 30
0.0
 10
-56.358699999999999
 20
75.6999
 30
0.0
 10
-56.4452
 20
75.011099999999999
 30
0.0
 10
-56.4452
 20
75.011099999999999
 30
0.0
 10
-56.4452
 20
75.011099999999999
 30
0.0
 10
-56.455500000000001
 20
74.933400000000006
 30
0.0
 10
-56.337299999999999
 20
74.216700000000003
 30
0.0
 10
-56.3215
 20
74.167199999999994
 30
0.0
 10
-56.3215
 20
74.167199999999994
 30
0.0
 10
-56.213900000000002
 20
73.829800000000006
 30
0.0
 10
-56.058300000000003
 20
73.863699999999994
 30
0.0
 10
-55.7684
 20
73.684100000000001
 30
0.0
 10
-55.7684
 20
73.684100000000001
 30
0.0
 10
-55.301200000000001
 20
73.394499999999994
 30
0.0
 10
-55.053699999999999
 20
73.1477
 30
0.0
 10
-54.729900000000001
 20
72.718999999999994
 30
0.0
 10
-54.729900000000001
 20
72.718999999999994
 30
0.0
 10
-54.157299999999999
 20
71.961200000000005
 30
0.0
 10
-53.890099999999997
 20
70.855999999999995
 30
0.0
 10
-53.890099999999997
 20
69.551100000000005
 30
0.0
 10
-53.890099999999997
 20
69.551100000000005
 30
0.0
 10
-53.890099999999997
 20
66.650099999999995
 30
0.0
 10
-56.146999999999998
 20
61.383699999999997
 30
0.0
 10
-57.762900000000002
 20
59.742600000000003
 30
0.0
 10
-57.762900000000002
 20
59.742600000000003
 30
0.0
 10
-58.025799999999997
 20
59.4754
 30
0.0
 10
-58.2348
 20
58.991799999999998
 30
0.0
 10
-58.464599999999997
 20
58.716999999999999
 30
0.0
 10
-58.464599999999997
 20
58.716999999999999
 30
0.0
 10
-58.741300000000003
 20
58.386299999999999
 30
0.0
 10
-58.985500000000002
 20
58.145299999999999
 30
0.0
 10
-59.2639
 20
57.789000000000001
 30
0.0
 10
-59.2639
 20
57.789000000000001
 30
0.0
 10
-59.728499999999997
 20
57.194400000000002
 30
0.0
 10
-60.390900000000002
 20
56.472900000000003
 30
0.0
 10
-60.918599999999998
 20
55.920299999999997
 30
0.0
 10
-60.918599999999998
 20
55.920299999999997
 30
0.0
 10
-62.022100000000002
 20
54.764499999999998
 30
0.0
 10
-62.601900000000001
 20
52.756900000000002
 30
0.0
 10
-64.801599999999993
 20
52.756900000000002
 30
0.0
 10
-64.801599999999993
 20
52.756900000000002
 30
0.0
 10
-64.801599999999993
 20
52.756900000000002
 30
0.0
 10
-64.870699999999999
 20
52.756900000000002
 30
0.0
 10
-64.870699999999999
 20
52.756900000000002
 30
0.0
 10
-64.870699999999999
 20
52.756900000000002
 30
0.0
 10
-65.2804
 20
52.756900000000002
 30
0.0
 10
-65.809100000000001
 20
52.864699999999999
 30
0.0
 10
-66.101600000000005
 20
52.814399999999999
 30
0.0
 10
-66.101600000000005
 20
52.814399999999999
 30
0.0
 10
-66.568399999999997
 20
52.734200000000001
 30
0.0
 10
-66.521900000000002
 20
52.4803
 30
0.0
 10
-67.149699999999996
 20
52.4803
 30
0.0
 10
-67.149699999999996
 20
52.4803
 30
0.0
 10
-67.242699999999999
 20
52.341200000000001
 30
0.0
 10
-67.425899999999999
 20
52.201300000000003
 30
0.0
 10
-67.425899999999999
 20
51.996600000000001
 30
0.0
 10
-67.425899999999999
 20
51.996600000000001
 30
0.0
 10
-67.425899999999999
 20
51.651299999999999
 30
0.0
 10
-67.356399999999994
 20
51.4343
 30
0.0
 10
-67.269800000000004
 20
51.2545
 30
0.0
 10
-67.269800000000004
 20
51.2545
 30
0.0
 10
-65.569599999999994
 20
50.946300000000001
 30
0.0
 10
-63.818600000000004
 20
50.784599999999998
 30
0.0
 10
-62.029499999999999
 20
50.784599999999998
 30
0.0
 10
-62.029499999999999
 20
50.784599999999998
 30
0.0
 10
-45.8994
 20
50.784599999999998
 30
0.0
 10
-32.818399999999997
 20
63.865499999999997
 30
0.0
 10
-32.818399999999997
 20
79.995800000000003
 30
0.0
 10
-32.818399999999997
 20
79.995800000000003
 30
0.0
 10
-32.818399999999997
 20
85.333699999999993
 30
0.0
 10
-34.251800000000003
 20
90.337599999999995
 30
0.0
 10
-36.753900000000002
 20
94.643799999999999
 30
0.0
  0
SPLINE
  5
2E
100
AcDbEntity
  8
RÚteg 1
 62
     7
100
AcDbSpline
210
0.0
220
0.0
230
1.0
 70
     1
 71
     3
 72
   208
 73
   204
 74
     0
 42
0.0000000001
 43
0.0000000001
 40
0.0
 40
0.0
 40
0.0
 40
0.0
 40
0.0196078431372549
 40
0.0196078431372549
 40
0.0196078431372549
 40
0.0196078431372549
 40
0.0392156862745098
 40
0.0392156862745098
 40
0.0392156862745098
 40
0.0392156862745098
 40
0.0588235294117647
 40
0.0588235294117647
 40
0.0588235294117647
 40
0.0588235294117647
 40
0.0784313725490196
 40
0.0784313725490196
 40
0.0784313725490196
 40
0.0784313725490196
 40
0.0980392156862745
 40
0.0980392156862745
 40
0.0980392156862745
 40
0.0980392156862745
 40
0.1176470588235294
 40
0.1176470588235294
 40
0.1176470588235294
 40
0.1176470588235294
 40
0.1372549019607843
 40
0.1372549019607843
 40
0.1372549019607843
 40
0.1372549019607843
 40
0.1568627450980392
 40
0.1568627450980392
 40
0.1568627450980392
 40
0.1568627450980392
 40
0.1764705882352941
 40
0.1764705882352941
 40
0.1764705882352941
 40
0.1764705882352941
 40
0.196078431372549
 40
0.196078431372549
 40
0.196078431372549
 40
0.196078431372549
 40
0.2156862745098039
 40
0.2156862745098039
 40
0.2156862745098039
 40
0.2156862745098039
 40
0.2352941176470588
 40
0.2352941176470588
 40
0.2352941176470588
 40
0.2352941176470588
 40
0.2549019607843137
 40
0.2549019607843137
 40
0.2549019607843137
 40
0.2549019607843137
 40
0.2745098039215685
 40
0.2745098039215685
 40
0.2745098039215685
 40
0.2745098039215685
 40
0.2941176470588234
 40
0.2941176470588234
 40
0.2941176470588234
 40
0.2941176470588234
 40
0.3137254901960783
 40
0.3137254901960783
 40
0.3137254901960783
 40
0.3137254901960783
 40
0.3333333333333332
 40
0.3333333333333332
 40
0.3333333333333332
 40
0.3333333333333332
 40
0.3529411764705881
 40
0.3529411764705881
 40
0.3529411764705881
 40
0.3529411764705881
 40
0.372549019607843
 40
0.372549019607843
 40
0.372549019607843
 40
0.372549019607843
 40
0.3921568627450979
 40
0.3921568627450979
 40
0.3921568627450979
 40
0.3921568627450979
 40
0.4117647058823528
 40
0.4117647058823528
 40
0.4117647058823528
 40
0.4117647058823528
 40
0.4313725490196076
 40
0.4313725490196076
 40
0.4313725490196076
 40
0.4313725490196076
 40
0.4509803921568625
 40
0.4509803921568625
 40
0.4509803921568625
 40
0.4509803921568625
 40
0.4705882352941174
 40
0.4705882352941174
 40
0.4705882352941174
 40
0.4705882352941174
 40
0.4901960784313723
 40
0.4901960784313723
 40
0.4901960784313723
 40
0.4901960784313723
 40
0.5098039215686272
 40
0.5098039215686272
 40
0.5098039215686272
 40
0.5098039215686272
 40
0.5294117647058821
 40
0.5294117647058821
 40
0.5294117647058821
 40
0.5294117647058821
 40
0.5490196078431371
 40
0.5490196078431371
 40
0.5490196078431371
 40
0.5490196078431371
 40
0.568627450980392
 40
0.568627450980392
 40
0.568627450980392
 40
0.568627450980392
 40
0.588235294117647
 40
0.588235294117647
 40
0.588235294117647
 40
0.588235294117647
 40
0.6078431372549019
 40
0.6078431372549019
 40
0.6078431372549019
 40
0.6078431372549019
 40
0.6274509803921569
 40
0.6274509803921569
 40
0.6274509803921569
 40
0.6274509803921569
 40
0.6470588235294118
 40
0.6470588235294118
 40
0.6470588235294118
 40
0.6470588235294118
 40
0.6666666666666667
 40
0.6666666666666667
 40
0.6666666666666667
 40
0.6666666666666667
 40
0.6862745098039217
 40
0.6862745098039217
 40
0.6862745098039217
 40
0.6862745098039217
 40
0.7058823529411766
 40
0.7058823529411766
 40
0.7058823529411766
 40
0.7058823529411766
 40
0.7254901960784316
 40
0.7254901960784316
 40
0.7254901960784316
 40
0.7254901960784316
 40
0.7450980392156865
 40
0.7450980392156865
 40
0.7450980392156865
 40
0.7450980392156865
 40
0.7647058823529415
 40
0.7647058823529415
 40
0.7647058823529415
 40
0.7647058823529415
 40
0.7843137254901964
 40
0.7843137254901964
 40
0.7843137254901964
 40
0.7843137254901964
 40
0.8039215686274513
 40
0.8039215686274513
 40
0.8039215686274513
 40
0.8039215686274513
 40
0.8235294117647063
 40
0.8235294117647063
 40
0.8235294117647063
 40
0.8235294117647063
 40
0.8431372549019612
 40
0.8431372549019612
 40
0.8431372549019612
 40
0.8431372549019612
 40
0.8627450980392162
 40
0.8627450980392162
 40
0.8627450980392162
 40
0.8627450980392162
 40
0.8823529411764711
 40
0.8823529411764711
 40
0.8823529411764711
 40
0.8823529411764711
 40
0.9019607843137261
 40
0.9019607843137261
 40
0.9019607843137261
 40
0.9019607843137261
 40
0.921568627450981
 40
0.921568627450981
 40
0.921568627450981
 40
0.921568627450981
 40
0.941176470588236
 40
0.941176470588236
 40
0.941176470588236
 40
0.941176470588236
 40
0.9607843137254909
 40
0.9607843137254909
 40
0.9607843137254909
 40
0.9607843137254909
 40
0.9803921568627458
 40
0.9803921568627458
 40
0.9803921568627458
 40
0.9803921568627458
 40
1.0
 40
1.0
 40
1.0
 40
1.0
 10
-69.144900000000007
 20
51.659500000000001
 30
0.0
 10
-69.034000000000006
 20
52.034700000000001
 30
0.0
 10
-68.876300000000001
 20
52.351100000000002
 30
0.0
 10
-68.876300000000001
 20
52.549500000000002
 30
0.0
 10
-68.876300000000001
 20
52.549500000000002
 30
0.0
 10
-68.876300000000001
 20
52.549500000000002
 30
0.0
 10
-68.876300000000001
 20
52.618499999999997
 30
0.0
 10
-68.876300000000001
 20
52.618499999999997
 30
0.0
 10
-68.876300000000001
 20
52.618499999999997
 30
0.0
 10
-68.876300000000001
 20
52.942
 30
0.0
 10
-71.046099999999996
 20
53.6357
 30
0.0
 10
-71.478399999999993
 20
53.884599999999999
 30
0.0
 10
-71.478399999999993
 20
53.884599999999999
 30
0.0
 10
-72.093999999999994
 20
54.239400000000003
 30
0.0
 10
-73.099500000000006
 20
55.261499999999998
 30
0.0
 10
-73.088899999999995
 20
56.212400000000002
 30
0.0
 10
-73.088899999999995
 20
56.212400000000002
 30
0.0
 10
-73.074600000000004
 20
57.485399999999998
 30
0.0
 10
-73.598100000000002
 20
58.270499999999998
 30
0.0
 10
-74.153300000000002
 20
59.017499999999998
 30
0.0
 10
-74.153300000000002
 20
59.017499999999998
 30
0.0
 10
-74.853099999999998
 20
59.959400000000002
 30
0.0
 10
-75.554500000000004
 20
60.082700000000003
 30
0.0
 10
-76.887100000000004
 20
60.082700000000003
 30
0.0
 10
-76.887100000000004
 20
60.082700000000003
 30
0.0
 10
-77.313100000000006
 20
60.082700000000003
 30
0.0
 10
-78.011899999999997
 20
60.661299999999997
 30
0.0
 10
-78.180599999999998
 20
60.999899999999997
 30
0.0
 10
-78.180599999999998
 20
60.999899999999997
 30
0.0
 10
-78.370900000000006
 20
61.381900000000002
 30
0.0
 10
-78.139099999999999
 20
61.5383
 30
0.0
 10
-78.422499999999999
 20
61.863700000000001
 30
0.0
 10
-78.422499999999999
 20
61.863700000000001
 30
0.0
 10
-78.494799999999998
 20
61.9465
 30
0.0
 10
-78.9589
 20
62.453699999999998
 30
0.0
 10
-78.9589
 20
62.501800000000003
 30
0.0
 10
-78.9589
 20
62.501800000000003
 30
0.0
 10
-78.9589
 20
63.039499999999997
 30
0.0
 10
-77.584900000000005
 20
63.509399999999999
 30
0.0
 10
-77.232500000000002
 20
63.745600000000003
 30
0.0
 10
-77.232500000000002
 20
63.745600000000003
 30
0.0
 10
-77.112300000000005
 20
63.745600000000003
 30
0.0
 10
-75.925899999999999
 20
63.9499
 30
0.0
 10
-75.878
 20
63.979700000000001
 30
0.0
 10
-75.878
 20
63.979700000000001
 30
0.0
 10
-75.7239
 20
64.075699999999998
 30
0.0
 10
-75.627399999999994
 20
65.150099999999995
 30
0.0
 10
-75.710099999999997
 20
65.337800000000001
 30
0.0
 10
-75.710099999999997
 20
65.337800000000001
 30
0.0
 10
-75.8292
 20
65.608599999999996
 30
0.0
 10
-76.016000000000005
 20
66.342799999999997
 30
0.0
 10
-76.1434
 20
66.494299999999996
 30
0.0
 10
-76.1434
 20
66.494299999999996
 30
0.0
 10
-76.316400000000002
 20
66.700400000000002
 30
0.0
 10
-76.900000000000006
 20
67.063100000000006
 30
0.0
 10
-77.232500000000002
 20
67.063100000000006
 30
0.0
 10
-77.232500000000002
 20
67.063100000000006
 30
0.0
 10
-77.232500000000002
 20
67.063100000000006
 30
0.0
 10
-77.370599999999996
 20
67.063100000000006
 30
0.0
 10
-77.370599999999996
 20
67.063100000000006
 30
0.0
 10
-77.370599999999996
 20
67.063100000000006
 30
0.0
 10
-77.648200000000003
 20
67.063100000000006
 30
0.0
 10
-77.827200000000005
 20
66.855599999999995
 30
0.0
 10
-78.061099999999996
 20
66.855599999999995
 30
0.0
 10
-78.061099999999996
 20
66.855599999999995
 30
0.0
 10
-78.219399999999993
 20
66.855599999999995
 30
0.0
 10
-78.141599999999997
 20
66.879099999999994
 30
0.0
 10
-78.324700000000007
 20
66.929699999999997
 30
0.0
 10
-78.324700000000007
 20
66.929699999999997
 30
0.0
 10
-78.324700000000007
 20
66.929699999999997
 30
0.0
 10
-78.406400000000005
 20
67.132099999999994
 30
0.0
 10
-78.406400000000005
 20
67.132099999999994
 30
0.0
 10
-78.406400000000005
 20
67.132099999999994
 30
0.0
 10
-77.751599999999996
 20
68.026499999999999
 30
0.0
 10
-75.914100000000005
 20
68.849199999999996
 30
0.0
 10
-74.662499999999994
 20
69.121600000000001
 30
0.0
 10
-74.662499999999994
 20
69.121600000000001
 30
0.0
 10
-73.962800000000001
 20
69.273899999999998
 30
0.0
 10
-72.903199999999998
 20
69.405100000000004
 30
0.0
 10
-72.232299999999995
 20
69.592399999999998
 30
0.0
 10
-72.232299999999995
 20
69.592399999999998
 30
0.0
 10
-71.379099999999994
 20
69.830600000000004
 30
0.0
 10
-70.755200000000002
 20
69.775000000000006
 30
0.0
 10
-69.814700000000002
 20
69.9375
 30
0.0
 10
-69.814700000000002
 20
69.9375
 30
0.0
 10
-68.885599999999997
 20
70.098100000000002
 30
0.0
 10
-68.168000000000006
 20
70.140100000000004
 30
0.0
 10
-67.451099999999997
 20
70.336699999999993
 30
0.0
 10
-67.451099999999997
 20
70.336699999999993
 30
0.0
 10
-67.163700000000006
 20
70.415499999999994
 30
0.0
 10
-66.378600000000006
 20
71.638599999999997
 30
0.0
 10
-66.155799999999999
 20
71.943100000000001
 30
0.0
 10
-66.155799999999999
 20
71.943100000000001
 30
0.0
 10
-65.9512
 20
72.222499999999997
 30
0.0
 10
-64.846299999999999
 20
72.930000000000007
 30
0.0
 10
-64.484499999999997
 20
73.173100000000005
 30
0.0
 10
-64.484499999999997
 20
73.173100000000005
 30
0.0
 10
-63.999299999999998
 20
73.498800000000003
 30
0.0
 10
-63.006799999999998
 20
73.819199999999995
 30
0.0
 10
-62.246400000000001
 20
73.836100000000002
 30
0.0
 10
-62.246400000000001
 20
73.836100000000002
 30
0.0
 10
-62.188699999999997
 20
74.083600000000004
 30
0.0
 10
-62.108199999999997
 20
74.160799999999995
 30
0.0
 10
-62.108199999999997
 20
74.458100000000002
 30
0.0
 10
-62.108199999999997
 20
74.458100000000002
 30
0.0
 10
-62.108199999999997
 20
74.458100000000002
 30
0.0
 10
-62.108199999999997
 20
74.527199999999993
 30
0.0
 10
-62.108199999999997
 20
74.527199999999993
 30
0.0
 10
-62.108199999999997
 20
74.527199999999993
 30
0.0
 10
-62.108199999999997
 20
75.273200000000003
 30
0.0
 10
-62.695900000000002
 20
75.7911
 30
0.0
 10
-63.212699999999998
 20
76.048100000000005
 30
0.0
 10
-63.212699999999998
 20
76.048100000000005
 30
0.0
 10
-63.462000000000003
 20
76.1721
 30
0.0
 10
-63.868600000000001
 20
76.328100000000006
 30
0.0
 10
-64.052800000000005
 20
76.520600000000002
 30
0.0
 10
-64.052800000000005
 20
76.520600000000002
 30
0.0
 10
-64.207099999999997
 20
76.682100000000005
 30
0.0
 10
-64.3322
 20
77.222700000000003
 30
0.0
 10
-64.663600000000002
 20
77.222700000000003
 30
0.0
 10
-64.663600000000002
 20
77.222700000000003
 30
0.0
 10
-64.663600000000002
 20
77.222700000000003
 30
0.0
 10
-64.801599999999993
 20
77.222700000000003
 30
0.0
 10
-64.801599999999993
 20
77.222700000000003
 30
0.0
 10
-64.801599999999993
 20
77.222700000000003
 30
0.0
 10
-64.993300000000005
 20
77.222700000000003
 30
0.0
 10
-65.574200000000005
 20
76.462299999999999
 30
0.0
 10
-66.1828
 20
76.462299999999999
 30
0.0
 10
-66.1828
 20
76.462299999999999
 30
0.0
 10
-66.407899999999998
 20
76.462299999999999
 30
0.0
 10
-66.597700000000003
 20
76.500399999999999
 30
0.0
 10
-66.666399999999996
 20
76.669799999999995
 30
0.0
 10
-66.666399999999996
 20
76.669799999999995
 30
0.0
 10
-67.075000000000003
 20
76.560500000000005
 30
0.0
 10
-69.377099999999999
 20
73.628699999999995
 30
0.0
 10
-71.155199999999994
 20
73.628699999999995
 30
0.0
 10
-71.155199999999994
 20
73.628699999999995
 30
0.0
 10
-71.878900000000002
 20
73.628699999999995
 30
0.0
 10
-72.398300000000006
 20
74.118099999999998
 30
0.0
 10
-72.398300000000006
 20
74.803700000000006
 30
0.0
 10
-72.398300000000006
 20
74.803700000000006
 30
0.0
 10
-72.398300000000006
 20
75.174300000000002
 30
0.0
 10
-72.260099999999994
 20
75.279799999999994
 30
0.0
 10
-72.260099999999994
 20
75.702100000000002
 30
0.0
 10
-72.260099999999994
 20
75.702100000000002
 30
0.0
 10
-72.260099999999994
 20
76.2958
 30
0.0
 10
-73.845299999999995
 20
76.138300000000001
 30
0.0
 10
-74.541499999999999
 20
76.186899999999994
 30
0.0
 10
-74.541499999999999
 20
76.186899999999994
 30
0.0
 10
-75.298299999999998
 20
76.239900000000006
 30
0.0
 10
-76.165999999999997
 20
76.330500000000001
 30
0.0
 10
-76.887500000000003
 20
76.389700000000005
 30
0.0
 10
-76.887500000000003
 20
76.389700000000005
 30
0.0
 10
-77.909400000000005
 20
76.4739
 30
0.0
 10
-78.330600000000004
 20
76.744900000000001
 30
0.0
 10
-78.946200000000005
 20
77.235500000000002
 30
0.0
 10
-78.946200000000005
 20
77.235500000000002
 30
0.0
 10
-79.553299999999993
 20
77.719399999999993
 30
0.0
 10
-80.171000000000006
 20
77.944599999999994
 30
0.0
 10
-80.773799999999994
 20
78.378299999999996
 30
0.0
 10
-80.773799999999994
 20
78.378299999999996
 30
0.0
 10
-81.330200000000005
 20
78.778400000000005
 30
0.0
 10
-82.071600000000004
 20
79.048900000000003
 30
0.0
 10
-82.532799999999995
 20
79.520600000000002
 30
0.0
 10
-82.532799999999995
 20
79.520600000000002
 30
0.0
 10
-83.041399999999996
 20
80.040999999999997
 30
0.0
 10
-83.620599999999996
 20
80.283600000000007
 30
0.0
 10
-84.096999999999994
 20
80.927099999999996
 30
0.0
 10
-84.096999999999994
 20
80.927099999999996
 30
0.0
 10
-84.700400000000002
 20
81.742400000000004
 30
0.0
 10
-84.734300000000005
 20
81.677599999999998
 30
0.0
 10
-85.221199999999996
 20
82.704599999999999
 30
0.0
 10
-85.221199999999996
 20
82.704599999999999
 30
0.0
 10
-85.512500000000003
 20
83.318899999999999
 30
0.0
 10
-85.418199999999999
 20
83.063999999999993
 30
0.0
 10
-85.534700000000001
 20
83.842500000000001
 30
0.0
 10
-85.534700000000001
 20
83.842500000000001
 30
0.0
 10
-85.565600000000003
 20
84.049099999999996
 30
0.0
 10
-85.726900000000001
 20
85.034400000000005
 30
0.0
 10
-85.726900000000001
 20
85.170400000000001
 30
0.0
 10
-85.726900000000001
 20
85.170400000000001
 30
0.0
 10
-85.726900000000001
 20
85.170400000000001
 30
0.0
 10
-85.726900000000001
 20
87.451300000000003
 30
0.0
 10
-85.726900000000001
 20
87.451300000000003
 30
0.0
 10
-85.726900000000001
 20
87.451300000000003
 30
0.0
 10
-85.726900000000001
 20
90.8018
 30
0.0
 10
-83.790599999999998
 20
92.271799999999999
 30
0.0
 10
-82.756900000000002
 20
94.569500000000005
 30
0.0
 10
-82.756900000000002
 20
94.569500000000005
 30
0.0
 10
-82.156599999999997
 20
95.903300000000002
 30
0.0
 10
-81.854900000000001
 20
96.920400000000001
 30
0.0
 10
-82.315200000000004
 20
98.537300000000002
 30
0.0
 10
-82.315200000000004
 20
98.537300000000002
 30
0.0
 10
-82.552199999999999
 20
99.369699999999995
 30
0.0
 10
-82.623900000000006
 20
99.600800000000007
 30
0.0
 10
-82.770899999999997
 20
100.56059999999999
 30
0.0
 10
-82.770899999999997
 20
100.56059999999999
 30
0.0
 10
-88.005700000000004
 20
95.281199999999998
 30
0.0
 10
-91.240600000000001
 20
88.015799999999999
 30
0.0
 10
-91.240600000000001
 20
79.995800000000003
 30
0.0
 10
-91.240600000000001
 20
79.995800000000003
 30
0.0
 10
-91.240600000000001
 20
66.319800000000001
 30
0.0
 10
-81.8369
 20
54.837800000000001
 30
0.0
 10
-69.144900000000007
 20
51.659500000000001
 30
0.0
  0
SPLINE
  5
2F
100
AcDbEntity
  8
RÚteg 1
 62
     7
100
AcDbSpline
210
0.0
220
0.0
230
1.0
 70
     1
 71
     3
 72
    20
 73
    16
 74
     0
 42
0.0000000001
 43
0.0000000001
 40
0.0
 40
0.0
 40
0.0
 40
0.0
 40
0.25
 40
0.25
 40
0.25
 40
0.25
 40
0.5
 40
0.5
 40
0.5
 40
0.5
 40
0.75
 40
0.75
 40
0.75
 40
0.75
 40
1.0
 40
1.0
 40
1.0
 40
1.0
 10
-62.029499999999999
 20
119.5279
 30
0.0
 10
-60.523899999999998
 20
119.5279
 30
0.0
 10
-59.303100000000001
 20
118.307
 30
0.0
 10
-59.303100000000001
 20
116.80159999999999
 30
0.0
 10
-59.303100000000001
 20
116.80159999999999
 30
0.0
 10
-59.303100000000001
 20
115.29600000000001
 30
0.0
 10
-60.523899999999998
 20
114.0753
 30
0.0
 10
-62.029499999999999
 20
114.0753
 30
0.0
 10
-62.029499999999999
 20
114.0753
 30
0.0
 10
-63.5351
 20
114.0753
 30
0.0
 10
-64.755899999999997
 20
115.29600000000001
 30
0.0
 10
-64.755899999999997
 20
116.80159999999999
 30
0.0
 10
-64.755899999999997
 20
116.80159999999999
 30
0.0
 10
-64.755899999999997
 20
118.307
 30
0.0
 10
-63.5351
 20
119.5279
 30
0.0
 10
-62.029499999999999
 20
119.5279
 30
0.0
  0
ENDSEC
  0
SECTION
  2
OBJECTS
  0
DICTIONARY
  5
19
100
AcDbDictionary
280
     0
281
     1
  3
ACAD_GROUP
350
1A
  3
ACAD_MLINESTYLE
350
1B
  3
ACAD_LAYOUT
350
1E
  3
ACAD_PLOTSETTINGS
350
22
  3
ACAD_PLOTSTYLENAME
350
1F
  3
ACAD_WIPEOUT_VARS
350
23
  0
DICTIONARY
  5
1A
102
{ACAD_REACTORS
330
19
102
}
100
AcDbDictionary
280
     0
281
     1
  0
DICTIONARY
  5
1B
102
{ACAD_REACTORS
330
19
102
}
100
AcDbDictionary
280
     0
281
     1
  3
Standard
350
1C
  0
MLINESTYLE
  5
1C
102
{ACAD_REACTORS
330
1B
102
}
100
AcDbMlineStyle
  2
Standard
 70
     0
  3

 62
     0
 51
90.0
 52
90.0
 71
     2
 49
0.5
 62
   256
  6
BYLAYER
 49
-0.5
 62
   256
  6
BYLAYER
  0
ACDBDICTIONARYWDFLT
  5
1F
102
{ACAD_REACTORS
330
19
102
}
100
AcDbDictionary
281
     1
  3
Normal
350
1D
100
AcDbDictionaryWithDefault
340
1D
  0
ACDBPLACEHOLDER
  5
1D
102
{ACAD_REACTORS
330
1F
102
}
  0
LAYOUT
  5
20
102
{ACAD_REACTORS
330
1E
102
}
100
AcDbPlotSettings
  1

  2

  4

  6

 40
0.0
 41
0.0
 42
0.0
 43
0.0
 44
0.0
 45
0.0
 46
0.0
 47
0.0
 48
0.0
 49
0.0
140
0.0
141
0.0
142
1.0
143
1.0
 70
  1024
 72
     0
 73
     0
 74
     0
  7

 75
     0
147
1.0
148
0.0
149
0.0
100
AcDbLayout
  1
Model
 70
     0
 71
     0
 10
0.0
 20
0.0
 11
0.0
 21
0.0
 12
0.0
 22
0.0
 32
0.0
 14
0.0
 24
0.0
 34
0.0
 15
0.0
 25
0.0
 35
0.0
146
0.0
 13
0.0
 23
0.0
 33
0.0
 16
0.0
 26
0.0
 36
0.0
 17
0.0
 27
0.0
 37
0.0
 76
     0
330
A
331
0
345
0
346
0
  0
LAYOUT
  5
21
102
{ACAD_REACTORS
330
1E
102
}
100
AcDbPlotSettings
  1

  2

  4

  6

 40
0.0
 41
0.0
 42
0.0
 43
0.0
 44
0.0
 45
0.0
 46
0.0
 47
0.0
 48
0.0
 49
0.0
140
0.0
141
0.0
142
1.0
143
1.0
 70
     0
 72
     0
 73
     0
 74
     0
  7

 75
     0
147
1.0
148
0.0
149
0.0
100
AcDbLayout
  1
Layout1
 70
     0
 71
     0
 10
0.0
 20
0.0
 11
0.0
 21
0.0
 12
0.0
 22
0.0
 32
0.0
 14
0.0
 24
0.0
 34
0.0
 15
0.0
 25
0.0
 35
0.0
146
0.0
 13
0.0
 23
0.0
 33
0.0
 16
0.0
 26
0.0
 36
0.0
 17
0.0
 27
0.0
 37
0.0
 76
     0
330
B
331
0
345
0
346
0
  0
DICTIONARY
  5
1E
102
{ACAD_REACTORS
330
19
102
}
100
AcDbDictionary
280
     0
281
     1
  3
Layout1
350
21
  3
Model
350
20
  0
DICTIONARY
  5
22
102
{ACAD_REACTORS
330
19
102
}
100
AcDbDictionary
280
     0
281
     1
  0
WIPEOUTVARIABLES
  5
23
100
AcDbWipeoutVariables
 70
     1
  0
ENDSEC
  0
EOF
