  0
SECTION
  2
HEADER
  9
$ACADVER
  1
AC1015
  9
$ACADMAINTVER
 70
     6
  9
$DWGCODEPAGE
  3
DOS850
  9
$INSBASE
 10
0.0
 20
0.0
 30
0.0
  9
$EXTMIN
 10
-132.1014
 20
2.9855
 30
1.000000E+20
  9
$EXTMAX
 10
86.9442
 20
80.3882
 30
-1.000000E+20
  9
$LIMMIN
 10
0.0
 20
0.0
  9
$LIMMAX
 10
0.0
 20
0.0
  9
$ORTHOMODE
 70
     0
  9
$REGENMODE
 70
     1
  9
$FILLMODE
 70
     1
  9
$QTEXTMODE
 70
     0
  9
$MIRRTEXT
 70
     1
  9
$LTSCALE
 40
1.0
  9
$ATTMODE
 70
     1
  9
$TEXTSIZE
 40
0.2
  9
$TRACEWID
 40
0.05
  9
$TEXTSTYLE
  7
Standard
  9
$CLAYER
  8
0
  9
$CELTYPE
  6
Continuous
  9
$CECOLOR
 62
   256
  9
$CELTSCALE
 40
1.0
  9
$DISPSILH
 70
     0
  9
$DIMSCALE
 40
1.0
  9
$DIMASZ
 40
0.18
  9
$DIMEXO
 40
0.0625
  9
$DIMDLI
 40
0.38
  9
$DIMRND
 40
0.0
  9
$DIMDLE
 40
0.0
  9
$DIMEXE
 40
0.18
  9
$DIMTP
 40
0.0
  9
$DIMTM
 40
0.0
  9
$DIMTXT
 40
0.18
  9
$DIMCEN
 40
0.09
  9
$DIMTSZ
 40
0.0
  9
$DIMTOL
 70
     0
  9
$DIMLIM
 70
     0
  9
$DIMTIH
 70
     1
  9
$DIMTOH
 70
     1
  9
$DIMSE1
 70
     0
  9
$DIMSE2
 70
     0
  9
$DIMTAD
 70
     0
  9
$DIMZIN
 70
     0
  9
$DIMBLK
  1

  9
$DIMASO
 70
     1
  9
$DIMSHO
 70
     1
  9
$DIMPOST
  1

  9
$DIMAPOST
  1

  9
$DIMALT
 70
     0
  9
$DIMALTD
 70
     2
  9
$DIMALTF
 40
25.4
  9
$DIMLFAC
 40
1.0
  9
$DIMTOFL
 70
     0
  9
$DIMTVP
 40
0.0
  9
$DIMTIX
 70
     0
  9
$DIMSOXD
 70
     0
  9
$DIMSAH
 70
     0
  9
$DIMBLK1
  1

  9
$DIMBLK2
  1

  9
$DIMSTYLE
  2
Standard
  9
$DIMCLRD
 70
     0
  9
$DIMCLRE
 70
     0
  9
$DIMCLRT
 70
     0
  9
$DIMTFAC
 40
1.0
  9
$DIMGAP
 40
0.09
  9
$DIMJUST
 70
     0
  9
$DIMSD1
 70
     0
  9
$DIMSD2
 70
     0
  9
$DIMTOLJ
 70
     1
  9
$DIMTZIN
 70
     0
  9
$DIMALTZ
 70
     0
  9
$DIMALTTZ
 70
     0
  9
$DIMUPT
 70
     0
  9
$DIMDEC
 70
     4
  9
$DIMTDEC
 70
     4
  9
$DIMALTU
 70
     2
  9
$DIMALTTD
 70
     2
  9
$DIMTXSTY
  7
Standard
  9
$DIMAUNIT
 70
     0
  9
$DIMADEC
 70
     0
  9
$DIMALTRND
 40
0.0
  9
$DIMAZIN
 70
     0
  9
$DIMDSEP
 70
     0
  9
$DIMATFIT
 70
     3
  9
$DIMFRAC
 70
     0
  9
$DIMLDRBLK
  1

  9
$DIMLUNIT
 70
     2
  9
$DIMLWD
 70
     0
  9
$DIMLWE
 70
     0
  9
$DIMTMOVE
 70
     0
  9
$LUNITS
 70
     2
  9
$LUPREC
 70
     4
  9
$SKETCHINC
 40
0.1
  9
$FILLETRAD
 40
0.0
  9
$AUNITS
 70
     0
  9
$AUPREC
 70
     0
  9
$MENU
  1
acad
  9
$ELEVATION
 40
0.0
  9
$PELEVATION
 40
0.0
  9
$THICKNESS
 40
0.0
  9
$LIMCHECK
 70
     0
  9
$CHAMFERA
 40
0.0
  9
$CHAMFERB
 40
0.0
  9
$CHAMFERC
 40
0.0
  9
$CHAMFERD
 40
0.0
  9
$SKPOLY
 70
     0
  9
$TDCREATE
 40
0.000000000
  9
$TDUCREATE
 40
0.000000000
  9
$TDUPDATE
 40
0.000000000
  9
$TDUUPDATE
 40
0.000000000
  9
$TDINDWG
 40
0.0000000000
  9
$TDUSRTIMER
 40
0.0000000000
  9
$USRTIMER
 70
     1
  9
$ANGBASE
 50
0.0
  9
$ANGDIR
 70
     0
  9
$PDMODE
 70
     0
  9
$PDSIZE
 40
0.0
  9
$PLINEWID
 40
0.0
  9
$SPLFRAME
 70
     0
  9
$SPLINETYPE
 70
     6
  9
$SPLINESEGS
 70
     8
  9
$HANDSEED
  5
31
  9
$SURFTAB1
 70
     6
  9
$SURFTAB2
 70
     6
  9
$SURFTYPE
 70
     6
  9
$SURFU
 70
     6
  9
$SURFV
 70
     6
  9
$UCSBASE
  2

  9
$UCSNAME
  2

  9
$UCSORG
 10
0.0
 20
0.0
 30
0.0
  9
$UCSXDIR
 10
1.0
 20
0.0
 30
0.0
  9
$UCSYDIR
 10
0.0
 20
1.0
 30
0.0
  9
$UCSORTHOREF
  2

  9
$UCSORTHOVIEW
 70
     0
  9
$UCSORGTOP
 10
0.0
 20
0.0
 30
0.0
  9
$UCSORGBOTTOM
 10
0.0
 20
0.0
 30
0.0
  9
$UCSORGLEFT
 10
0.0
 20
0.0
 30
0.0
  9
$UCSORGRIGHT
 10
0.0
 20
0.0
 30
0.0
  9
$UCSORGFRONT
 10
0.0
 20
0.0
 30
0.0
  9
$UCSORGBACK
 10
0.0
 20
0.0
 30
0.0
  9
$PUCSBASE
  2

  9
$PUCSNAME
  2

  9
$PUCSORG
 10
0.0
 20
0.0
 30
0.0
  9
$PUCSXDIR
 10
1.0
 20
0.0
 30
0.0
  9
$PUCSYDIR
 10
0.0
 20
1.0
 30
0.0
  9
$PUCSORTHOREF
  2

  9
$PUCSORTHOVIEW
 70
     0
  9
$PUCSORGTOP
 10
0.0
 20
0.0
 30
0.0
  9
$PUCSORGBOTTOM
 10
0.0
 20
0.0
 30
0.0
  9
$PUCSORGLEFT
 10
0.0
 20
0.0
 30
0.0
  9
$PUCSORGRIGHT
 10
0.0
 20
0.0
 30
0.0
  9
$PUCSORGFRONT
 10
0.0
 20
0.0
 30
0.0
  9
$PUCSORGBACK
 10
0.0
 20
0.0
 30
0.0
  9
$USERI1
 70
     0
  9
$USERI2
 70
     0
  9
$USERI3
 70
     0
  9
$USERI4
 70
     0
  9
$USERI5
 70
     0
  9
$USERR1
 40
0.0
  9
$USERR2
 40
0.0
  9
$USERR3
 40
0.0
  9
$USERR4
 40
0.0
  9
$USERR5
 40
0.0
  9
$WORLDVIEW
 70
     1
  9
$SHADEDGE
 70
     3
  9
$SHADEDIF
 70
    70
  9
$TILEMODE
 70
     1
  9
$MAXACTVP
 70
    16
  9
$PINSBASE
 10
0.0
 20
0.0
 30
0.0
  9
$PLIMCHECK
 70
     0
  9
$PEXTMIN
 10
1.000000E+20
 20
1.000000E+20
 30
1.000000E+20
  9
$PEXTMAX
 10
-1.000000E+20
 20
-1.000000E+20
 30
-1.000000E+20
  9
$PLIMMIN
 10
0.0
 20
0.0
  9
$PLIMMAX
 10
12.0
 20
9.0
  9
$UNITMODE
 70
     0
  9
$VISRETAIN
 70
     0
  9
$PLINEGEN
 70
     1
  9
$PSLTSCALE
 70
     0
  9
$TREEDEPTH
 70
  3020
  9
$CMLSTYLE
  2
Standard
  9
$CMLJUST
 70
     0
  9
$CMLSCALE
 40
1.0
  9
$PROXYGRAPHICS
 70
     0
  9
$MEASUREMENT
 70
     0
  9
$CELWEIGHT
370
     0
  9
$ENDCAPS
280
     0
  9
$JOINSTYLE
280
     0
  9
$LWDISPLAY
290
     0
  9
$INSUNITS
 70
     4
  9
$HYPERLINKBASE
  1

  9
$XEDIT
290
     1
  9
$CEPSNTYPE
380
     0
  9
$PSTYLEMODE
290
     1
  9
$FINGERPRINTGUID
  2

  9
$VERSIONGUID
  2

  9
$EXTNAMES
290
     1
  9
$PSVPSCALE
 40
0.0
  0
ENDSEC
  0
SECTION
  2
CLASSES
  0
CLASS
  1
LWPOLYLINE
  2
AcDbPolyline
  3
AutoCAD 2000
 90
    32768
280
     0
281
     1
  0
CLASS
  1
IMAGE
  2
AcDbRasterImage
  3
ISM
 90
    32895
280
     0
281
     1
  0
CLASS
  1
OLE2FRAME
  2
AcDbOle2Frame
  3
AutoCAD 2000
 90
    32768
280
     0
281
     1
  0
CLASS
  1
HATCH
  2
AcDbHatch
  3
AutoCAD 2000
 90
    32768
280
     0
281
     1
  0
CLASS
  1
DICTIONARYVAR
  2
AcDbDictionaryVar
  3
AutoCAD 2000
 90
    32768
280
     0
281
     0
  0
CLASS
  1
RASTERVARIABLES
  2
AcDbRasterVariables
  3
ISM
 90
    32768
280
     0
281
     0
  0
CLASS
  1
IMAGEDEF
  2
AcDbRasterImageDef
  3
ISM
 90
    32768
280
     0
281
     0
  0
CLASS
  1
IMAGEDEF_REACTOR
  2
AcDbRasterImageDefReactor
  3
ISM
 90
    32769
280
     0
281
     0
  0
CLASS
  1
IDBUFFER
  2
AcDbIdBuffer
  3
AutoCAD 2000
 90
    32768
280
     0
281
     0
  0
CLASS
  1
SPATIAL_FILTER
  2
AcDbSpatialFilter
  3
AutoCAD 2000
 90
    32768
280
     0
281
     0
  0
CLASS
  1
XRECORD
  2
AcDbXrecord
  3
AutoCAD 2000
 90
    32768
280
     0
281
     0
  0
CLASS
  1
SORTENTSTABLE
  2
AcDbSortentsTable
  3
AutoCAD 2000
 90
    32768
280
     0
281
     0
  0
CLASS
  1
LAYER_INDEX
  2
AcDbLayerIndex
  3
AutoCAD 2000
 90
    32768
280
     0
281
     0
  0
CLASS
  1
SPATIAL_INDEX
  2
AcDbSpatialIndex
  3
AutoCAD 2000
 90
    32768
280
     0
281
     0
  0
CLASS
  1
OBJECT_PTR
  2
CAseDLPNTableRecord
  3
"ASE-LPNTableRecord"
 90
    32769
280
     0
281
     0
  0
CLASS
  1
LAYOUT
  2
AcDbLayout
  3
AutoCAD 2000
 90
        0
280
     0
281
     0
  0
CLASS
  1
PLOTSETTINGS
  2
AcDbPlotSettings
  3
AutoCAD 2000
 90
    32768
280
     0
281
     0
  0
CLASS
  1
ACDBDICTIONARYWDFLT
  2
AcDbDictionaryWithDefault
  3
AutoCAD 2000
 90
        0
280
     0
281
     0
  0
CLASS
  1
ACDBPLACEHOLDER
  2
AcDbPlaceHolder
  3
AutoCAD 2000
 90
        0
280
     0
281
     0
  0
CLASS
  1
VBA_PROJECT
  2
AcDbVbaProject
  3
acadvba
 90
    32768
280
     0
281
     0
  0
CLASS
  1
WIPEOUT
  2
AcDbWipeout
  3
WipeOut|AutoCAD Express Tool|expresstools@autodesk.com
 90
    32895
280
     0
281
     1
  0
CLASS
  1
WIPEOUTVARIABLES
  2
AcDbWipeoutVariables
  3
WipeOut|AutoCAD Express Tool|expresstools@autodesk.com
 90
        0
280
     0
281
     0
  0
CLASS
  1
RTEXT
  2
RText
  3
RText|AutoCAD Express Tool|expresstools@autodesk.com
 90
    32768
280
     0
281
     1
  0
CLASS
  1
ARCALIGNEDTEXT
  2
AcDbArcAlignedText
  3
ATEXT|AutoCAD Express Tool|expresstools@autodesk.com
 90
    32768
280
     0
281
     1
  0
ENDSEC
  0
SECTION
  2
TABLES
  0
TABLE
  2
VPORT
  5
7
100
AcDbSymbolTable
 70
     1
  0
VPORT
  5
15
100
AcDbSymbolTableRecord
100
AcDbViewportTableRecord
  2
*ACTIVE
 70
     0
 10
0.0
 20
0.0
 11
1.0
 21
1.0
 12
6.591288
 22
4.579184
 13
0.0
 23
0.0
 14
1.0
 24
1.0
 15
0.0
 25
0.0
 16
0.0
 26
0.0
 36
1.0
 17
0.0
 27
0.0
 37
0.0
 40
9.158369
 41
0.688564
 42
50.0
 43
0.0
 44
0.0
 50
0.0
 51
0.0
 71
     0
 72
   100
 73
     1
 74
     1
 75
     0
 76
     0
 77
     0
 78
     0
281
     0
 65
     0
110
0.0
120
0.0
130
0.0
111
1.0
121
0.0
131
0.0
112
0.0
122
1.0
132
0.0
345
0
346
0
 79
     0
146
0.0
  0
ENDTAB
  0
TABLE
  2
LTYPE
  5
4
100
AcDbSymbolTable
 70
     3
  0
LTYPE
  5
11
100
AcDbSymbolTableRecord
100
AcDbLinetypeTableRecord
  2
ByBlock
 70
    64
  3

 72
    65
 73
     0
 40
0.0
  0
LTYPE
  5
12
100
AcDbSymbolTableRecord
100
AcDbLinetypeTableRecord
  2
ByLayer
 70
    64
  3

 72
    65
 73
     0
 40
0.0
  0
LTYPE
  5
13
100
AcDbSymbolTableRecord
100
AcDbLinetypeTableRecord
  2
Continuous
 70
    64
  3
Solid line
 72
    65
 73
     0
 40
0.0
  0
ENDTAB
  0
TABLE
  2
LAYER
  5
2
100
AcDbSymbolTable
 70
     2
  0
LAYER
  5
14
100
AcDbSymbolTableRecord
100
AcDbLayerTableRecord
  2
0
 70
     0
 62
     7
  6
Continuous
290
     1
370
    -3
390
1D
  0
LAYER
  5
24
100
AcDbSymbolTableRecord
100
AcDbLayerTableRecord
  2
RÚteg 1
 70
     0
 62
     7
  6
Continuous
290
     1
370
    -3
390
1F
  0
ENDTAB
  0
TABLE
  2
STYLE
  5
3
100
AcDbSymbolTable
 70
     1
  0
STYLE
  5
17
100
AcDbSymbolTableRecord
100
AcDbTextStyleTableRecord
  2
Standard
 70
     0
 40
0.0
 41
1.0
 50
0.0
 71
     0
 42
0.0
  3
txt
  4

  0
ENDTAB
  0
TABLE
  2
VIEW
  5
5
100
AcDbSymbolTable
 70
     0
  0
ENDTAB
  0
TABLE
  2
UCS
  5
6
100
AcDbSymbolTable
 70
     0
  0
ENDTAB
  0
TABLE
  2
APPID
  5
8
100
AcDbSymbolTable
 70
     1
  0
APPID
  5
16
100
AcDbSymbolTableRecord
100
AcDbRegAppTableRecord
  2
ACAD
 70
     0
  0
ENDTAB
  0
TABLE
  2
DIMSTYLE
  5
9
100
AcDbSymbolTable
 70
     1
100
AcDbDimStyleTable
 71
     0
  0
DIMSTYLE
105
18
100
AcDbSymbolTableRecord
100
AcDbDimStyleTableRecord
  2
Standard
 70
     0
  3

  4

 40
1.0
 41
0.18
 42
0.0625
 43
0.38
 44
0.18
 45
0.0
 46
0.0
 47
0.0
 48
0.0
 71
     0
 72
     0
 73
     1
 74
     1
 75
     0
 76
     0
 77
     0
 78
     0
 79
     0
140
0.18
141
0.09
142
0.0
143
25.4
144
1.0
145
0.0
146
1.0
147
0.09
148
0.0
170
     0
171
     2
172
     0
173
     0
174
     0
175
     0
176
     0
177
     0
178
     0
179
     0
271
     4
272
     4
273
     2
274
     2
275
     0
276
     0
277
     2
278
    46
279
     0
280
     0
281
     0
282
     0
283
     1
284
     0
285
     0
286
     0
288
     0
340
17
341
0
342
0
343
0
344
0
371
    -2
372
    -2
  0
ENDTAB
  0
TABLE
  2
BLOCK_RECORD
  5
1
100
AcDbSymbolTable
 70
     0
  0
BLOCK_RECORD
  5
A
100
AcDbSymbolTableRecord
100
AcDbBlockTableRecord
  2
*MODEL_SPACE
340
20
  0
BLOCK_RECORD
  5
B
100
AcDbSymbolTableRecord
100
AcDbBlockTableRecord
  2
*PAPER_SPACE
340
21
  0
ENDTAB
  0
ENDSEC
  0
SECTION
  2
BLOCKS
  0
BLOCK
  5
D
100
AcDbEntity
  8
0
100
AcDbBlockBegin
  2
*MODEL_SPACE
 70
     0
 10
0.0
 20
0.0
 30
0.0
  3
*MODEL_SPACE
  1

  0
ENDBLK
  5
E
100
AcDbEntity
  8
0
100
AcDbBlockEnd
  0
BLOCK
  5
F
100
AcDbEntity
 67
     1
  8
0
100
AcDbBlockBegin
  2
*PAPER_SPACE
 70
     0
 10
0.0
 20
0.0
 30
0.0
  3
*PAPER_SPACE
  1

  0
ENDBLK
  5
10
100
AcDbEntity
 67
     1
  8
0
100
AcDbBlockEnd
  0
ENDSEC
  0
SECTION
  2
ENTITIES
  0
SPLINE
  5
25
100
AcDbEntity
  8
RÚteg 1
 62
     7
100
AcDbSpline
210
0.0
220
0.0
230
1.0
 70
     1
 71
     3
 72
    48
 73
    44
 74
     0
 42
0.0000000001
 43
0.0000000001
 40
0.0
 40
0.0
 40
0.0
 40
0.0
 40
0.0909090909090909
 40
0.0909090909090909
 40
0.0909090909090909
 40
0.0909090909090909
 40
0.1818181818181818
 40
0.1818181818181818
 40
0.1818181818181818
 40
0.1818181818181818
 40
0.2727272727272727
 40
0.2727272727272727
 40
0.2727272727272727
 40
0.2727272727272727
 40
0.3636363636363637
 40
0.3636363636363637
 40
0.3636363636363637
 40
0.3636363636363637
 40
0.4545454545454546
 40
0.4545454545454546
 40
0.4545454545454546
 40
0.4545454545454546
 40
0.5454545454545455
 40
0.5454545454545455
 40
0.5454545454545455
 40
0.5454545454545455
 40
0.6363636363636365
 40
0.6363636363636365
 40
0.6363636363636365
 40
0.6363636363636365
 40
0.7272727272727274
 40
0.7272727272727274
 40
0.7272727272727274
 40
0.7272727272727274
 40
0.8181818181818183
 40
0.8181818181818183
 40
0.8181818181818183
 40
0.8181818181818183
 40
0.9090909090909093
 40
0.9090909090909093
 40
0.9090909090909093
 40
0.9090909090909093
 40
1.0
 40
1.0
 40
1.0
 40
1.0
 10
56.306699999999999
 20
72.144300000000001
 30
0.0
 10
73.494799999999998
 20
70.197900000000004
 30
0.0
 10
86.855999999999995
 20
55.606999999999999
 30
0.0
 10
86.855999999999995
 20
37.8992
 30
0.0
 10
86.855999999999995
 20
37.8992
 30
0.0
 10
86.855999999999995
 20
18.8659
 30
0.0
 10
71.420699999999997
 20
3.4308000000000001
 30
0.0
 10
52.387599999999999
 20
3.4308000000000001
 30
0.0
 10
52.387599999999999
 20
3.4308000000000001
 30
0.0
 10
44.020499999999998
 20
3.4308000000000001
 30
0.0
 10
36.349699999999999
 20
6.4145000000000003
 30
0.0
 10
30.378900000000002
 20
11.374599999999999
 30
0.0
 10
30.378900000000002
 20
11.374599999999999
 30
0.0
 10
30.378900000000002
 20
11.374599999999999
 30
0.0
 10
30.185600000000001
 20
11.382400000000001
 30
0.0
 10
30.185600000000001
 20
11.382400000000001
 30
0.0
 10
30.185600000000001
 20
11.382400000000001
 30
0.0
 10
30.185600000000001
 20
11.382400000000001
 30
0.0
 10
30.185600000000001
 20
11.5381
 30
0.0
 10
30.185600000000001
 20
11.5381
 30
0.0
 10
30.185600000000001
 20
11.5381
 30
0.0
 10
22.685700000000001
 20
17.861599999999999
 30
0.0
 10
17.9192
 20
27.324000000000002
 30
0.0
 10
17.9192
 20
37.8992
 30
0.0
 10
17.9192
 20
37.8992
 30
0.0
 10
17.9192
 20
55.606999999999999
 30
0.0
 10
31.2804
 20
70.197900000000004
 30
0.0
 10
48.468499999999999
 20
72.144300000000001
 30
0.0
 10
48.468499999999999
 20
72.144300000000001
 30
0.0
 10
47.838200000000001
 20
72.971999999999994
 30
0.0
 10
47.463500000000003
 20
74.004800000000003
 30
0.0
 10
47.463500000000003
 20
75.125100000000003
 30
0.0
 10
47.463500000000003
 20
75.125100000000003
 30
0.0
 10
47.463500000000003
 20
77.844099999999997
 30
0.0
 10
49.668599999999998
 20
80.049099999999996
 30
0.0
 10
52.387599999999999
 20
80.049099999999996
 30
0.0
 10
52.387599999999999
 20
80.049099999999996
 30
0.0
 10
55.1066
 20
80.049099999999996
 30
0.0
 10
57.311700000000002
 20
77.844099999999997
 30
0.0
 10
57.311700000000002
 20
75.125100000000003
 30
0.0
 10
57.311700000000002
 20
75.125100000000003
 30
0.0
 10
57.311700000000002
 20
74.004800000000003
 30
0.0
 10
56.936999999999998
 20
72.971999999999994
 30
0.0
 10
56.306699999999999
 20
72.144300000000001
 30
0.0
  0
SPLINE
  5
26
100
AcDbEntity
  8
RÚteg 1
 62
     7
100
AcDbSpline
210
0.0
220
0.0
230
1.0
 70
     1
 71
     3
 72
   124
 73
   120
 74
     0
 42
0.0000000001
 43
0.0000000001
 40
0.0
 40
0.0
 40
0.0
 40
0.0
 40
0.0333333333333333
 40
0.0333333333333333
 40
0.0333333333333333
 40
0.0333333333333333
 40
0.0666666666666667
 40
0.0666666666666667
 40
0.0666666666666667
 40
0.0666666666666667
 40
0.1
 40
0.1
 40
0.1
 40
0.1
 40
0.1333333333333333
 40
0.1333333333333333
 40
0.1333333333333333
 40
0.1333333333333333
 40
0.1666666666666667
 40
0.1666666666666667
 40
0.1666666666666667
 40
0.1666666666666667
 40
0.2
 40
0.2
 40
0.2
 40
0.2
 40
0.2333333333333333
 40
0.2333333333333333
 40
0.2333333333333333
 40
0.2333333333333333
 40
0.2666666666666667
 40
0.2666666666666667
 40
0.2666666666666667
 40
0.2666666666666667
 40
0.3
 40
0.3
 40
0.3
 40
0.3
 40
0.3333333333333333
 40
0.3333333333333333
 40
0.3333333333333333
 40
0.3333333333333333
 40
0.3666666666666666
 40
0.3666666666666666
 40
0.3666666666666666
 40
0.3666666666666666
 40
0.4
 40
0.4
 40
0.4
 40
0.4
 40
0.4333333333333333
 40
0.4333333333333333
 40
0.4333333333333333
 40
0.4333333333333333
 40
0.4666666666666666
 40
0.4666666666666666
 40
0.4666666666666666
 40
0.4666666666666666
 40
0.4999999999999999
 40
0.4999999999999999
 40
0.4999999999999999
 40
0.4999999999999999
 40
0.5333333333333333
 40
0.5333333333333333
 40
0.5333333333333333
 40
0.5333333333333333
 40
0.5666666666666667
 40
0.5666666666666667
 40
0.5666666666666667
 40
0.5666666666666667
 40
0.6
 40
0.6
 40
0.6
 40
0.6
 40
0.6333333333333333
 40
0.6333333333333333
 40
0.6333333333333333
 40
0.6333333333333333
 40
0.6666666666666666
 40
0.6666666666666666
 40
0.6666666666666666
 40
0.6666666666666666
 40
0.7
 40
0.7
 40
0.7
 40
0.7
 40
0.7333333333333333
 40
0.7333333333333333
 40
0.7333333333333333
 40
0.7333333333333333
 40
0.7666666666666666
 40
0.7666666666666666
 40
0.7666666666666666
 40
0.7666666666666666
 40
0.7999999999999999
 40
0.7999999999999999
 40
0.7999999999999999
 40
0.7999999999999999
 40
0.8333333333333333
 40
0.8333333333333333
 40
0.8333333333333333
 40
0.8333333333333333
 40
0.8666666666666666
 40
0.8666666666666666
 40
0.8666666666666666
 40
0.8666666666666666
 40
0.8999999999999999
 40
0.8999999999999999
 40
0.8999999999999999
 40
0.8999999999999999
 40
0.9333333333333332
 40
0.9333333333333332
 40
0.9333333333333332
 40
0.9333333333333332
 40
0.9666666666666666
 40
0.9666666666666666
 40
0.9666666666666666
 40
0.9666666666666666
 40
1.0
 40
1.0
 40
1.0
 40
1.0
 10
30.6084
 20
37.835799999999999
 30
0.0
 10
30.6084
 20
37.835799999999999
 30
0.0
 10
24.2028
 20
29.018899999999999
 30
0.0
 10
24.2028
 20
29.018899999999999
 30
0.0
 10
24.2028
 20
29.018899999999999
 30
0.0
 10
23.319900000000001
 20
31.8218
 30
0.0
 10
22.843299999999999
 20
34.804900000000004
 30
0.0
 10
22.843299999999999
 20
37.8992
 30
0.0
 10
22.843299999999999
 20
37.8992
 30
0.0
 10
22.843299999999999
 20
54.2134
 30
0.0
 10
36.073500000000003
 20
67.4435
 30
0.0
 10
52.387599999999999
 20
67.4435
 30
0.0
 10
52.387599999999999
 20
67.4435
 30
0.0
 10
68.701700000000002
 20
67.4435
 30
0.0
 10
81.931899999999999
 20
54.2134
 30
0.0
 10
81.931899999999999
 20
37.8992
 30
0.0
 10
81.931899999999999
 20
37.8992
 30
0.0
 10
81.931899999999999
 20
30.702400000000001
 30
0.0
 10
79.356499999999997
 20
24.106400000000001
 30
0.0
 10
75.078100000000006
 20
18.981400000000001
 30
0.0
 10
75.078100000000006
 20
18.981400000000001
 30
0.0
 10
75.085999999999999
 20
19.098700000000001
 30
0.0
 10
75.090500000000006
 20
19.215599999999998
 30
0.0
 10
75.090500000000006
 20
19.331900000000001
 30
0.0
 10
75.090500000000006
 20
19.331900000000001
 30
0.0
 10
75.090500000000006
 20
24.401399999999999
 30
0.0
 10
69.805300000000003
 20
30.243400000000001
 30
0.0
 10
65.018299999999996
 20
30.243400000000001
 30
0.0
 10
65.018299999999996
 20
30.243400000000001
 30
0.0
 10
65.018299999999996
 20
30.243400000000001
 30
0.0
 10
62.500100000000003
 20
30.243400000000001
 30
0.0
 10
62.500100000000003
 20
30.243400000000001
 30
0.0
 10
62.500100000000003
 20
30.243400000000001
 30
0.0
 10
58.863900000000001
 20
30.243400000000001
 30
0.0
 10
59.840499999999999
 20
27.305800000000001
 30
0.0
 10
55.3658
 20
27.305800000000001
 30
0.0
 10
55.3658
 20
27.305800000000001
 30
0.0
 10
53.184199999999997
 20
23.182600000000001
 30
0.0
 10
51.548000000000002
 20
24.866299999999999
 30
0.0
 10
52.008400000000002
 20
19.331900000000001
 30
0.0
 10
52.008400000000002
 20
19.331900000000001
 30
0.0
 10
52.008400000000002
 20
19.331900000000001
 30
0.0
 10
49.596699999999998
 20
17.102
 30
0.0
 10
49.596699999999998
 20
17.102
 30
0.0
 10
49.596699999999998
 20
17.102
 30
0.0
 10
48.121099999999998
 20
18.150400000000001
 30
0.0
 10
46.133000000000003
 20
20.516200000000001
 30
0.0
 10
46.133000000000003
 20
22.689399999999999
 30
0.0
 10
46.133000000000003
 20
22.689399999999999
 30
0.0
 10
46.133000000000003
 20
22.689399999999999
 30
0.0
 10
46.133000000000003
 20
23.108899999999998
 30
0.0
 10
46.133000000000003
 20
23.108899999999998
 30
0.0
 10
46.133000000000003
 20
23.108899999999998
 30
0.0
 10
46.133000000000003
 20
26.377400000000002
 30
0.0
 10
48.5777
 20
33.181199999999997
 30
0.0
 10
51.1691
 20
33.181199999999997
 30
0.0
 10
51.1691
 20
33.181199999999997
 30
0.0
 10
51.1691
 20
33.181199999999997
 30
0.0
 10
51.588700000000003
 20
33.181199999999997
 30
0.0
 10
51.588700000000003
 20
33.181199999999997
 30
0.0
 10
51.588700000000003
 20
33.181199999999997
 30
0.0
 10
53.759900000000002
 20
33.181199999999997
 30
0.0
 10
54.131
 20
29.404299999999999
 30
0.0
 10
56.205100000000002
 20
29.404299999999999
 30
0.0
 10
56.205100000000002
 20
29.404299999999999
 30
0.0
 10
57.962299999999999
 20
29.404299999999999
 30
0.0
 10
57.261299999999999
 20
30.602499999999999
 30
0.0
 10
59.982199999999999
 20
30.6631
 30
0.0
 10
59.982199999999999
 20
30.6631
 30
0.0
 10
59.982199999999999
 20
30.6631
 30
0.0
 10
60.4803
 20
31.892099999999999
 30
0.0
 10
60.4803
 20
31.892099999999999
 30
0.0
 10
60.4803
 20
31.892099999999999
 30
0.0
 10
63.575400000000002
 20
31.992999999999999
 30
0.0
 10
61.8919
 20
33.181199999999997
 30
0.0
 10
63.759300000000003
 20
33.181199999999997
 30
0.0
 10
63.759300000000003
 20
33.181199999999997
 30
0.0
 10
64.646900000000002
 20
33.181199999999997
 30
0.0
 10
64.312700000000007
 20
33.030999999999999
 30
0.0
 10
65.438000000000002
 20
32.761499999999998
 30
0.0
 10
65.438000000000002
 20
32.761499999999998
 30
0.0
 10
67.484099999999998
 20
35.817
 30
0.0
 10
66.089299999999994
 20
37.657200000000003
 30
0.0
 10
69.4602
 20
38.811500000000002
 30
0.0
 10
69.4602
 20
38.811500000000002
 30
0.0
 10
70.993200000000002
 20
39.336500000000001
 30
0.0
 10
73.831699999999998
 20
42.688699999999997
 30
0.0
 10
73.831699999999998
 20
44.092599999999997
 30
0.0
 10
73.831699999999998
 20
44.092599999999997
 30
0.0
 10
73.831699999999998
 20
44.092599999999997
 30
0.0
 10
73.831699999999998
 20
48.7089
 30
0.0
 10
73.831699999999998
 20
48.7089
 30
0.0
 10
73.831699999999998
 20
48.7089
 30
0.0
 10
73.831699999999998
 20
55.271500000000003
 30
0.0
 10
64.403000000000006
 20
61.257399999999997
 30
0.0
 10
58.810899999999997
 20
61.257399999999997
 30
0.0
 10
58.810899999999997
 20
61.257399999999997
 30
0.0
 10
54.125
 20
61.257399999999997
 30
0.0
 10
48.059100000000001
 20
57.341500000000003
 30
0.0
 10
45.5974
 20
55.119900000000001
 30
0.0
 10
45.5974
 20
55.119900000000001
 30
0.0
 10
43.8566
 20
53.548699999999997
 30
0.0
 10
43.1616
 20
51.6417
 30
0.0
 10
41.093200000000003
 20
50.391300000000001
 30
0.0
 10
41.093200000000003
 20
50.391300000000001
 30
0.0
 10
37.409100000000002
 20
48.164299999999997
 30
0.0
 10
39.118499999999997
 20
48.502299999999998
 30
0.0
 10
36.996200000000002
 20
45.6753
 30
0.0
 10
36.996200000000002
 20
45.6753
 30
0.0
 10
35.072699999999998
 20
43.1126
 30
0.0
 10
34.383000000000003
 20
45.595100000000002
 30
0.0
 10
32.146000000000001
 20
41.2928
 30
0.0
 10
32.146000000000001
 20
41.2928
 30
0.0
 10
31.021799999999999
 20
39.130400000000002
 30
0.0
 10
30.692399999999999
 20
38.868600000000001
 30
0.0
 10
30.608499999999999
 20
37.835700000000003
 30
0.0
 10
30.608499999999999
 20
37.835700000000003
 30
0.0
 10
30.608499999999999
 20
37.835700000000003
 30
0.0
 10
30.6084
 20
37.835799999999999
 30
0.0
 10
30.6084
 20
37.835799999999999
 30
0.0
  0
SPLINE
  5
27
100
AcDbEntity
  8
RÚteg 1
 62
     7
100
AcDbSpline
210
0.0
220
0.0
230
1.0
 70
     1
 71
     3
 72
    20
 73
    16
 74
     0
 42
0.0000000001
 43
0.0000000001
 40
0.0
 40
0.0
 40
0.0
 40
0.0
 40
0.25
 40
0.25
 40
0.25
 40
0.25
 40
0.5
 40
0.5
 40
0.5
 40
0.5
 40
0.75
 40
0.75
 40
0.75
 40
0.75
 40
1.0
 40
1.0
 40
1.0
 40
1.0
 10
52.387599999999999
 20
77.882499999999993
 30
0.0
 10
53.910299999999999
 20
77.882499999999993
 30
0.0
 10
55.145099999999999
 20
76.6477
 30
0.0
 10
55.145099999999999
 20
75.125100000000003
 30
0.0
 10
55.145099999999999
 20
75.125100000000003
 30
0.0
 10
55.145099999999999
 20
73.6023
 30
0.0
 10
53.910299999999999
 20
72.367599999999996
 30
0.0
 10
52.387599999999999
 20
72.367599999999996
 30
0.0
 10
52.387599999999999
 20
72.367599999999996
 30
0.0
 10
50.864899999999999
 20
72.367599999999996
 30
0.0
 10
49.630099999999999
 20
73.6023
 30
0.0
 10
49.630099999999999
 20
75.125100000000003
 30
0.0
 10
49.630099999999999
 20
75.125100000000003
 30
0.0
 10
49.630099999999999
 20
76.6477
 30
0.0
 10
50.864899999999999
 20
77.882499999999993
 30
0.0
 10
52.387599999999999
 20
77.882499999999993
 30
0.0
  0
SPLINE
  5
28
100
AcDbEntity
  8
RÚteg 1
 62
     7
100
AcDbSpline
210
0.0
220
0.0
230
1.0
 70
     1
 71
     3
 72
    36
 73
    32
 74
     0
 42
0.0000000001
 43
0.0000000001
 40
0.0
 40
0.0
 40
0.0
 40
0.0
 40
0.125
 40
0.125
 40
0.125
 40
0.125
 40
0.25
 40
0.25
 40
0.25
 40
0.25
 40
0.375
 40
0.375
 40
0.375
 40
0.375
 40
0.5
 40
0.5
 40
0.5
 40
0.5
 40
0.625
 40
0.625
 40
0.625
 40
0.625
 40
0.75
 40
0.75
 40
0.75
 40
0.75
 40
0.875
 40
0.875
 40
0.875
 40
0.875
 40
1.0
 40
1.0
 40
1.0
 40
1.0
 10
-19.212199999999999
 20
71.913399999999996
 30
0.0
 10
-1.9923999999999999
 20
69.963099999999997
 30
0.0
 10
11.3933
 20
55.345599999999997
 30
0.0
 10
11.3933
 20
37.6053
 30
0.0
 10
11.3933
 20
37.6053
 30
0.0
 10
11.3933
 20
18.537400000000002
 30
0.0
 10
-4.0702999999999996
 20
3.0737000000000001
 30
0.0
 10
-23.138300000000001
 20
3.0737000000000001
 30
0.0
 10
-23.138300000000001
 20
3.0737000000000001
 30
0.0
 10
-42.206299999999999
 20
3.0737000000000001
 30
0.0
 10
-57.669899999999998
 20
18.537400000000002
 30
0.0
 10
-57.669899999999998
 20
37.6053
 30
0.0
 10
-57.669899999999998
 20
37.6053
 30
0.0
 10
-57.669899999999998
 20
55.345599999999997
 30
0.0
 10
-44.284199999999998
 20
69.963099999999997
 30
0.0
 10
-27.064399999999999
 20
71.913399999999996
 30
0.0
 10
-27.064399999999999
 20
71.913399999999996
 30
0.0
 10
-27.696300000000001
 20
72.742400000000004
 30
0.0
 10
-28.071300000000001
 20
73.777100000000004
 30
0.0
 10
-28.071300000000001
 20
74.899500000000003
 30
0.0
 10
-28.071300000000001
 20
74.899500000000003
 30
0.0
 10
-28.071300000000001
 20
77.623500000000007
 30
0.0
 10
-25.862300000000001
 20
79.832499999999996
 30
0.0
 10
-23.138300000000001
 20
79.832499999999996
 30
0.0
 10
-23.138300000000001
 20
79.832499999999996
 30
0.0
 10
-20.414300000000001
 20
79.832499999999996
 30
0.0
 10
-18.205300000000001
 20
77.623500000000007
 30
0.0
 10
-18.205300000000001
 20
74.899500000000003
 30
0.0
 10
-18.205300000000001
 20
74.899500000000003
 30
0.0
 10
-18.205300000000001
 20
73.777100000000004
 30
0.0
 10
-18.580300000000001
 20
72.742400000000004
 30
0.0
 10
-19.212199999999999
 20
71.913399999999996
 30
0.0
  0
SPLINE
  5
29
100
AcDbEntity
  8
RÚteg 1
 62
     7
100
AcDbSpline
210
0.0
220
0.0
230
1.0
 70
     1
 71
     3
 72
   300
 73
   296
 74
     0
 42
0.0000000001
 43
0.0000000001
 40
0.0
 40
0.0
 40
0.0
 40
0.0
 40
0.0135135135135135
 40
0.0135135135135135
 40
0.0135135135135135
 40
0.0135135135135135
 40
0.027027027027027
 40
0.027027027027027
 40
0.027027027027027
 40
0.027027027027027
 40
0.0405405405405405
 40
0.0405405405405405
 40
0.0405405405405405
 40
0.0405405405405405
 40
0.0540540540540541
 40
0.0540540540540541
 40
0.0540540540540541
 40
0.0540540540540541
 40
0.0675675675675676
 40
0.0675675675675676
 40
0.0675675675675676
 40
0.0675675675675676
 40
0.0810810810810811
 40
0.0810810810810811
 40
0.0810810810810811
 40
0.0810810810810811
 40
0.0945945945945946
 40
0.0945945945945946
 40
0.0945945945945946
 40
0.0945945945945946
 40
0.1081081081081081
 40
0.1081081081081081
 40
0.1081081081081081
 40
0.1081081081081081
 40
0.1216216216216216
 40
0.1216216216216216
 40
0.1216216216216216
 40
0.1216216216216216
 40
0.1351351351351351
 40
0.1351351351351351
 40
0.1351351351351351
 40
0.1351351351351351
 40
0.1486486486486487
 40
0.1486486486486487
 40
0.1486486486486487
 40
0.1486486486486487
 40
0.1621621621621622
 40
0.1621621621621622
 40
0.1621621621621622
 40
0.1621621621621622
 40
0.1756756756756757
 40
0.1756756756756757
 40
0.1756756756756757
 40
0.1756756756756757
 40
0.1891891891891892
 40
0.1891891891891892
 40
0.1891891891891892
 40
0.1891891891891892
 40
0.2027027027027027
 40
0.2027027027027027
 40
0.2027027027027027
 40
0.2027027027027027
 40
0.2162162162162162
 40
0.2162162162162162
 40
0.2162162162162162
 40
0.2162162162162162
 40
0.2297297297297297
 40
0.2297297297297297
 40
0.2297297297297297
 40
0.2297297297297297
 40
0.2432432432432433
 40
0.2432432432432433
 40
0.2432432432432433
 40
0.2432432432432433
 40
0.2567567567567568
 40
0.2567567567567568
 40
0.2567567567567568
 40
0.2567567567567568
 40
0.2702702702702703
 40
0.2702702702702703
 40
0.2702702702702703
 40
0.2702702702702703
 40
0.2837837837837838
 40
0.2837837837837838
 40
0.2837837837837838
 40
0.2837837837837838
 40
0.2972972972972973
 40
0.2972972972972973
 40
0.2972972972972973
 40
0.2972972972972973
 40
0.3108108108108107
 40
0.3108108108108107
 40
0.3108108108108107
 40
0.3108108108108107
 40
0.3243243243243242
 40
0.3243243243243242
 40
0.3243243243243242
 40
0.3243243243243242
 40
0.3378378378378377
 40
0.3378378378378377
 40
0.3378378378378377
 40
0.3378378378378377
 40
0.3513513513513512
 40
0.3513513513513512
 40
0.3513513513513512
 40
0.3513513513513512
 40
0.3648648648648647
 40
0.3648648648648647
 40
0.3648648648648647
 40
0.3648648648648647
 40
0.3783783783783782
 40
0.3783783783783782
 40
0.3783783783783782
 40
0.3783783783783782
 40
0.3918918918918917
 40
0.3918918918918917
 40
0.3918918918918917
 40
0.3918918918918917
 40
0.4054054054054052
 40
0.4054054054054052
 40
0.4054054054054052
 40
0.4054054054054052
 40
0.4189189189189186
 40
0.4189189189189186
 40
0.4189189189189186
 40
0.4189189189189186
 40
0.4324324324324321
 40
0.4324324324324321
 40
0.4324324324324321
 40
0.4324324324324321
 40
0.4459459459459456
 40
0.4459459459459456
 40
0.4459459459459456
 40
0.4459459459459456
 40
0.4594594594594591
 40
0.4594594594594591
 40
0.4594594594594591
 40
0.4594594594594591
 40
0.4729729729729726
 40
0.4729729729729726
 40
0.4729729729729726
 40
0.4729729729729726
 40
0.4864864864864861
 40
0.4864864864864861
 40
0.4864864864864861
 40
0.4864864864864861
 40
0.4999999999999996
 40
0.4999999999999996
 40
0.4999999999999996
 40
0.4999999999999996
 40
0.513513513513513
 40
0.513513513513513
 40
0.513513513513513
 40
0.513513513513513
 40
0.5270270270270265
 40
0.5270270270270265
 40
0.5270270270270265
 40
0.5270270270270265
 40
0.54054054054054
 40
0.54054054054054
 40
0.54054054054054
 40
0.54054054054054
 40
0.5540540540540535
 40
0.5540540540540535
 40
0.5540540540540535
 40
0.5540540540540535
 40
0.567567567567567
 40
0.567567567567567
 40
0.567567567567567
 40
0.567567567567567
 40
0.5810810810810805
 40
0.5810810810810805
 40
0.5810810810810805
 40
0.5810810810810805
 40
0.594594594594594
 40
0.594594594594594
 40
0.594594594594594
 40
0.594594594594594
 40
0.6081081081081075
 40
0.6081081081081075
 40
0.6081081081081075
 40
0.6081081081081075
 40
0.6216216216216209
 40
0.6216216216216209
 40
0.6216216216216209
 40
0.6216216216216209
 40
0.6351351351351344
 40
0.6351351351351344
 40
0.6351351351351344
 40
0.6351351351351344
 40
0.6486486486486479
 40
0.6486486486486479
 40
0.6486486486486479
 40
0.6486486486486479
 40
0.6621621621621614
 40
0.6621621621621614
 40
0.6621621621621614
 40
0.6621621621621614
 40
0.6756756756756749
 40
0.6756756756756749
 40
0.6756756756756749
 40
0.6756756756756749
 40
0.6891891891891884
 40
0.6891891891891884
 40
0.6891891891891884
 40
0.6891891891891884
 40
0.7027027027027019
 40
0.7027027027027019
 40
0.7027027027027019
 40
0.7027027027027019
 40
0.7162162162162153
 40
0.7162162162162153
 40
0.7162162162162153
 40
0.7162162162162153
 40
0.7297297297297288
 40
0.7297297297297288
 40
0.7297297297297288
 40
0.7297297297297288
 40
0.7432432432432423
 40
0.7432432432432423
 40
0.7432432432432423
 40
0.7432432432432423
 40
0.7567567567567558
 40
0.7567567567567558
 40
0.7567567567567558
 40
0.7567567567567558
 40
0.7702702702702693
 40
0.7702702702702693
 40
0.7702702702702693
 40
0.7702702702702693
 40
0.7837837837837828
 40
0.7837837837837828
 40
0.7837837837837828
 40
0.7837837837837828
 40
0.7972972972972963
 40
0.7972972972972963
 40
0.7972972972972963
 40
0.7972972972972963
 40
0.8108108108108098
 40
0.8108108108108098
 40
0.8108108108108098
 40
0.8108108108108098
 40
0.8243243243243232
 40
0.8243243243243232
 40
0.8243243243243232
 40
0.8243243243243232
 40
0.8378378378378367
 40
0.8378378378378367
 40
0.8378378378378367
 40
0.8378378378378367
 40
0.8513513513513502
 40
0.8513513513513502
 40
0.8513513513513502
 40
0.8513513513513502
 40
0.8648648648648637
 40
0.8648648648648637
 40
0.8648648648648637
 40
0.8648648648648637
 40
0.8783783783783772
 40
0.8783783783783772
 40
0.8783783783783772
 40
0.8783783783783772
 40
0.8918918918918907
 40
0.8918918918918907
 40
0.8918918918918907
 40
0.8918918918918907
 40
0.9054054054054042
 40
0.9054054054054042
 40
0.9054054054054042
 40
0.9054054054054042
 40
0.9189189189189176
 40
0.9189189189189176
 40
0.9189189189189176
 40
0.9189189189189176
 40
0.9324324324324311
 40
0.9324324324324311
 40
0.9324324324324311
 40
0.9324324324324311
 40
0.9459459459459446
 40
0.9459459459459446
 40
0.9459459459459446
 40
0.9459459459459446
 40
0.9594594594594581
 40
0.9594594594594581
 40
0.9594594594594581
 40
0.9594594594594581
 40
0.9729729729729716
 40
0.9729729729729716
 40
0.9729729729729716
 40
0.9729729729729716
 40
0.9864864864864851
 40
0.9864864864864851
 40
0.9864864864864851
 40
0.9864864864864851
 40
1.0
 40
1.0
 40
1.0
 40
1.0
 10
-26.2193
 20
67.044700000000006
 30
0.0
 10
-26.2193
 20
67.044700000000006
 30
0.0
 10
-25.299800000000001
 20
64.051599999999993
 30
0.0
 10
-25.299800000000001
 20
64.051599999999993
 30
0.0
 10
-25.299800000000001
 20
64.051599999999993
 30
0.0
 10
-25.299800000000001
 20
64.051599999999993
 30
0.0
 10
-19.683499999999999
 20
62.3262
 30
0.0
 10
-19.683499999999999
 20
62.3262
 30
0.0
 10
-19.683499999999999
 20
62.3262
 30
0.0
 10
-19.683499999999999
 20
62.3262
 30
0.0
 10
-25.299800000000001
 20
60.601100000000002
 30
0.0
 10
-25.299800000000001
 20
60.601100000000002
 30
0.0
 10
-25.299800000000001
 20
60.601100000000002
 30
0.0
 10
-25.299800000000001
 20
60.601100000000002
 30
0.0
 10
-27.024999999999999
 20
54.984699999999997
 30
0.0
 10
-27.024999999999999
 20
54.984699999999997
 30
0.0
 10
-27.024999999999999
 20
54.984699999999997
 30
0.0
 10
-27.024999999999999
 20
54.984699999999997
 30
0.0
 10
-28.750299999999999
 20
60.601100000000002
 30
0.0
 10
-28.750299999999999
 20
60.601100000000002
 30
0.0
 10
-28.750299999999999
 20
60.601100000000002
 30
0.0
 10
-28.750299999999999
 20
60.601100000000002
 30
0.0
 10
-34.366599999999998
 20
62.3262
 30
0.0
 10
-34.366599999999998
 20
62.3262
 30
0.0
 10
-34.366599999999998
 20
62.3262
 30
0.0
 10
-34.366599999999998
 20
62.3262
 30
0.0
 10
-28.750299999999999
 20
64.051599999999993
 30
0.0
 10
-28.750299999999999
 20
64.051599999999993
 30
0.0
 10
-28.750299999999999
 20
64.051599999999993
 30
0.0
 10
-28.750299999999999
 20
64.051599999999993
 30
0.0
 10
-27.899699999999999
 20
66.820599999999999
 30
0.0
 10
-27.899699999999999
 20
66.820599999999999
 30
0.0
 10
-27.899699999999999
 20
66.820599999999999
 30
0.0
 10
-41.980499999999999
 20
64.542199999999994
 30
0.0
 10
-52.736899999999999
 20
52.328299999999999
 30
0.0
 10
-52.736899999999999
 20
37.6053
 30
0.0
 10
-52.736899999999999
 20
37.6053
 30
0.0
 10
-52.736899999999999
 20
32.061100000000003
 30
0.0
 10
-51.210999999999999
 20
26.872800000000002
 30
0.0
 10
-48.557099999999998
 20
22.436399999999999
 30
0.0
 10
-48.557099999999998
 20
22.436399999999999
 30
0.0
 10
-47.0687
 20
24.654900000000001
 30
0.0
 10
-45.353999999999999
 20
26.278099999999998
 30
0.0
 10
-43.4129
 20
27.305599999999998
 30
0.0
 10
-43.4129
 20
27.305599999999998
 30
0.0
 10
-43.4129
 20
28.5031
 30
0.0
 10
-43.4129
 20
29.631799999999998
 30
0.0
 10
-43.4129
 20
30.6922
 30
0.0
 10
-43.4129
 20
30.6922
 30
0.0
 10
-43.4129
 20
36.0627
 30
0.0
 10
-42.814399999999999
 20
40.595199999999998
 30
0.0
 10
-41.608499999999999
 20
44.289499999999997
 30
0.0
 10
-41.608499999999999
 20
44.289499999999997
 30
0.0
 10
-41.104199999999999
 20
45.521099999999997
 30
0.0
 10
-40.223199999999999
 20
47.282600000000002
 30
0.0
 10
-38.948999999999998
 20
49.574599999999997
 30
0.0
 10
-38.948999999999998
 20
49.574599999999997
 30
0.0
 10
-38.948999999999998
 20
49.574599999999997
 30
0.0
 10
-38.7438
 20
50.036200000000001
 30
0.0
 10
-38.7438
 20
50.036200000000001
 30
0.0
 10
-38.7438
 20
50.036200000000001
 30
0.0
 10
-37.409799999999997
 20
51.609900000000003
 30
0.0
 10
-36.400700000000001
 20
52.670099999999998
 30
0.0
 10
-35.716299999999997
 20
53.217500000000001
 30
0.0
 10
-35.716299999999997
 20
53.217500000000001
 30
0.0
 10
-34.3825
 20
54.3123
 30
0.0
 10
-33.0655
 20
54.808100000000003
 30
0.0
 10
-31.765499999999999
 20
54.705599999999997
 30
0.0
 10
-31.765499999999999
 20
54.705599999999997
 30
0.0
 10
-31.491800000000001
 20
54.534700000000001
 30
0.0
 10
-31.3551
 20
54.226700000000001
 30
0.0
 10
-31.3551
 20
53.781999999999996
 30
0.0
 10
-31.3551
 20
53.781999999999996
 30
0.0
 10
-31.389199999999999
 20
52.9953
 30
0.0
 10
-31.406300000000002
 20
52.601799999999997
 30
0.0
 10
-31.406300000000002
 20
52.601799999999997
 30
0.0
 10
-31.406300000000002
 20
52.601799999999997
 30
0.0
 10
-31.509
 20
51.0627
 30
0.0
 10
-32.689100000000003
 20
49.591700000000003
 30
0.0
 10
-34.946800000000003
 20
48.1892
 30
0.0
 10
-34.946800000000003
 20
48.1892
 30
0.0
 10
-34.898299999999999
 20
48.184600000000003
 30
0.0
 10
-34.850000000000001
 20
48.180700000000002
 30
0.0
 10
-34.801900000000003
 20
48.177199999999999
 30
0.0
 10
-34.801900000000003
 20
48.177199999999999
 30
0.0
 10
-34.801900000000003
 20
48.177199999999999
 30
0.0
 10
-34.802100000000003
 20
48.177
 30
0.0
 10
-34.802100000000003
 20
48.177
 30
0.0
 10
-34.802100000000003
 20
48.177
 30
0.0
 10
-34.802100000000003
 20
48.177
 30
0.0
 10
-35.152000000000001
 20
47.676000000000002
 30
0.0
 10
-35.152000000000001
 20
47.676000000000002
 30
0.0
 10
-35.152000000000001
 20
47.676000000000002
 30
0.0
 10
-35.117899999999999
 20
47.436500000000002
 30
0.0
 10
-35.1008
 20
47.068899999999999
 30
0.0
 10
-35.1008
 20
46.564399999999999
 30
0.0
 10
-35.1008
 20
46.564399999999999
 30
0.0
 10
-35.032299999999999
 20
46.153799999999997
 30
0.0
 10
-35.066499999999998
 20
45.6494
 30
0.0
 10
-35.203299999999999
 20
45.042099999999998
 30
0.0
 10
-35.203299999999999
 20
45.042099999999998
 30
0.0
 10
-35.3401
 20
44.298000000000002
 30
0.0
 10
-35.425600000000003
 20
43.8277
 30
0.0
 10
-35.459800000000001
 20
43.622500000000002
 30
0.0
 10
-35.459800000000001
 20
43.622500000000002
 30
0.0
 10
-35.459800000000001
 20
43.622500000000002
 30
0.0
 10
-33.305
 20
44.905200000000001
 30
0.0
 10
-33.305
 20
44.905200000000001
 30
0.0
 10
-33.305
 20
44.905200000000001
 30
0.0
 10
-33.305
 20
44.939399999999999
 30
0.0
 10
-33.048299999999998
 20
45.811700000000002
 30
0.0
 10
-32.535200000000003
 20
47.522100000000002
 30
0.0
 10
-32.535200000000003
 20
47.522100000000002
 30
0.0
 10
-32.535200000000003
 20
47.522100000000002
 30
0.0
 10
-32.535200000000003
 20
47.617199999999997
 30
0.0
 10
-32.535200000000003
 20
47.617199999999997
 30
0.0
 10
-32.535200000000003
 20
47.617199999999997
 30
0.0
 10
-32.535200000000003
 20
47.617199999999997
 30
0.0
 10
-32.534199999999998
 20
47.617199999999997
 30
0.0
 10
-32.534199999999998
 20
47.617199999999997
 30
0.0
 10
-32.534199999999998
 20
47.617199999999997
 30
0.0
 10
-32.534199999999998
 20
47.617199999999997
 30
0.0
 10
-32.124699999999997
 20
44.853999999999999
 30
0.0
 10
-32.124699999999997
 20
44.853999999999999
 30
0.0
 10
-32.124699999999997
 20
44.853999999999999
 30
0.0
 10
-32.124699999999997
 20
44.853999999999999
 30
0.0
 10
-36.434899999999999
 20
36.900799999999997
 30
0.0
 10
-36.434899999999999
 20
36.900799999999997
 30
0.0
 10
-36.434899999999999
 20
36.900799999999997
 30
0.0
 10
-36.434899999999999
 20
36.900799999999997
 30
0.0
 10
-35.790399999999998
 20
21.587599999999998
 30
0.0
 10
-35.790399999999998
 20
21.587599999999998
 30
0.0
 10
-35.790399999999998
 20
21.587599999999998
 30
0.0
 10
-35.790399999999998
 20
21.587599999999998
 30
0.0
 10
-26.818100000000001
 20
21.587599999999998
 30
0.0
 10
-26.818100000000001
 20
21.587599999999998
 30
0.0
 10
-26.818100000000001
 20
21.587599999999998
 30
0.0
 10
-26.818100000000001
 20
21.587599999999998
 30
0.0
 10
-30.284600000000001
 20
28.4709
 30
0.0
 10
-30.284600000000001
 20
28.4709
 30
0.0
 10
-30.284600000000001
 20
28.4709
 30
0.0
 10
-29.8431
 20
28.4709
 30
0.0
 10
-29.237100000000002
 20
28.483599999999999
 30
0.0
 10
-28.4663
 20
28.509
 30
0.0
 10
-28.4663
 20
28.509
 30
0.0
 10
-28.876300000000001
 20
29.240100000000002
 30
0.0
 10
-29.110399999999998
 20
30.082999999999998
 30
0.0
 10
-29.110399999999998
 20
30.980599999999999
 30
0.0
 10
-29.110399999999998
 20
30.980599999999999
 30
0.0
 10
-29.110399999999998
 20
33.775300000000001
 30
0.0
 10
-26.844200000000001
 20
36.041499999999999
 30
0.0
 10
-24.049600000000002
 20
36.041499999999999
 30
0.0
 10
-24.049600000000002
 20
36.041499999999999
 30
0.0
 10
-21.254999999999999
 20
36.041499999999999
 30
0.0
 10
-18.988700000000001
 20
33.775300000000001
 30
0.0
 10
-18.988700000000001
 20
30.980599999999999
 30
0.0
 10
-18.988700000000001
 20
30.980599999999999
 30
0.0
 10
-18.988700000000001
 20
30.086500000000001
 30
0.0
 10
-19.221
 20
29.246400000000001
 30
0.0
 10
-19.628
 20
28.517299999999999
 30
0.0
 10
-19.628
 20
28.517299999999999
 30
0.0
 10
-19.628
 20
28.517299999999999
 30
0.0
 10
-17.816199999999998
 20
28.4709
 30
0.0
 10
-17.816199999999998
 20
28.4709
 30
0.0
 10
-17.816199999999998
 20
28.4709
 30
0.0
 10
-17.816199999999998
 20
28.4709
 30
0.0
 10
-21.331900000000001
 20
21.587599999999998
 30
0.0
 10
-21.331900000000001
 20
21.587599999999998
 30
0.0
 10
-21.331900000000001
 20
21.587599999999998
 30
0.0
 10
-21.331900000000001
 20
21.587599999999998
 30
0.0
 10
-13.7616
 20
21.587599999999998
 30
0.0
 10
-13.7616
 20
21.587599999999998
 30
0.0
 10
-13.7616
 20
21.587599999999998
 30
0.0
 10
-13.7616
 20
21.587599999999998
 30
0.0
 10
-13.6114
 20
38.769599999999997
 30
0.0
 10
-13.6114
 20
38.769599999999997
 30
0.0
 10
-13.6114
 20
38.769599999999997
 30
0.0
 10
-14.2615
 20
39.7958
 30
0.0
 10
-15.2704
 20
41.335099999999997
 30
0.0
 10
-16.6387
 20
43.387599999999999
 30
0.0
 10
-16.6387
 20
43.387599999999999
 30
0.0
 10
-16.6387
 20
43.4559
 30
0.0
 10
-16.758500000000002
 20
44.601900000000001
 30
0.0
 10
-16.997800000000002
 20
46.825400000000002
 30
0.0
 10
-16.997800000000002
 20
46.825400000000002
 30
0.0
 10
-16.826899999999998
 20
47.543799999999997
 30
0.0
 10
-16.536100000000001
 20
48.5869
 30
0.0
 10
-16.125599999999999
 20
49.955300000000001
 30
0.0
 10
-16.125599999999999
 20
49.955300000000001
 30
0.0
 10
-16.125599999999999
 20
49.955300000000001
 30
0.0
 10
-14.945600000000001
 20
47.287199999999999
 30
0.0
 10
-14.945600000000001
 20
47.287199999999999
 30
0.0
 10
-14.945600000000001
 20
47.287199999999999
 30
0.0
 10
-14.945600000000001
 20
47.253
 30
0.0
 10
-15.065200000000001
 20
46.7057
 30
0.0
 10
-15.3048
 20
45.645099999999999
 30
0.0
 10
-15.3048
 20
45.645099999999999
 30
0.0
 10
-15.3048
 20
45.645099999999999
 30
0.0
 10
-13.662599999999999
 20
43.387599999999999
 30
0.0
 10
-13.662599999999999
 20
43.387599999999999
 30
0.0
 10
-13.662599999999999
 20
43.387599999999999
 30
0.0
 10
-13.6286
 20
43.5929
 30
0.0
 10
-13.6114
 20
43.814999999999998
 30
0.0
 10
-13.6114
 20
44.054699999999997
 30
0.0
 10
-13.6114
 20
44.054699999999997
 30
0.0
 10
-13.6114
 20
44.2941
 30
0.0
 10
-13.662599999999999
 20
44.516300000000001
 30
0.0
 10
-13.7653
 20
44.721699999999998
 30
0.0
 10
-13.7653
 20
44.721699999999998
 30
0.0
 10
-13.4232
 20
46.192500000000003
 30
0.0
 10
-13.081200000000001
 20
47.287199999999999
 30
0.0
 10
-12.739000000000001
 20
48.005499999999998
 30
0.0
 10
-12.739000000000001
 20
48.005499999999998
 30
0.0
 10
-12.9787
 20
48.484499999999997
 30
0.0
 10
-13.3551
 20
49.185600000000001
 30
0.0
 10
-13.868
 20
50.109299999999998
 30
0.0
 10
-13.868
 20
50.109299999999998
 30
0.0
 10
-13.868
 20
50.109299999999998
 30
0.0
 10
-14.124700000000001
 20
50.622399999999999
 30
0.0
 10
-14.124700000000001
 20
50.622399999999999
 30
0.0
 10
-14.124700000000001
 20
50.622399999999999
 30
0.0
 10
-14.124700000000001
 20
50.622399999999999
 30
0.0
 10
-14.2271
 20
50.724899999999998
 30
0.0
 10
-14.2271
 20
50.724899999999998
 30
0.0
 10
-14.2271
 20
50.724899999999998
 30
0.0
 10
-14.329800000000001
 20
51.101199999999999
 30
0.0
 10
-14.5863
 20
51.468899999999998
 30
0.0
 10
-14.988200000000001
 20
51.828099999999999
 30
0.0
 10
-14.988200000000001
 20
51.828099999999999
 30
0.0
 10
-15.381399999999999
 20
52.1873
 30
0.0
 10
-15.775
 20
52.520899999999997
 30
0.0
 10
-16.159800000000001
 20
52.828600000000002
 30
0.0
 10
-16.159800000000001
 20
52.828600000000002
 30
0.0
 10
-16.159800000000001
 20
52.828600000000002
 30
0.0
 10
-17.4085
 20
55.086399999999998
 30
0.0
 10
-17.4085
 20
55.086399999999998
 30
0.0
 10
-17.4085
 20
55.086399999999998
 30
0.0
 10
-17.237300000000001
 20
56.112699999999997
 30
0.0
 10
-16.707100000000001
 20
57.070399999999999
 30
0.0
 10
-15.809200000000001
 20
57.959699999999998
 30
0.0
 10
-15.809200000000001
 20
57.959699999999998
 30
0.0
 10
-15.013999999999999
 20
58.438600000000001
 30
0.0
 10
-14.2615
 20
58.678199999999997
 30
0.0
 10
-13.5344
 20
58.678199999999997
 30
0.0
 10
-13.5344
 20
58.678199999999997
 30
0.0
 10
-13.226599999999999
 20
58.678199999999997
 30
0.0
 10
-12.918699999999999
 20
58.626800000000003
 30
0.0
 10
-12.610900000000001
 20
58.524299999999997
 30
0.0
 10
-12.610900000000001
 20
58.524299999999997
 30
0.0
 10
-12.020799999999999
 20
57.634700000000002
 30
0.0
 10
-11.4221
 20
56.728200000000001
 30
0.0
 10
-10.8064
 20
55.8048
 30
0.0
 10
-10.8064
 20
55.8048
 30
0.0
 10
-10.113799999999999
 20
54.778500000000001
 30
0.0
 10
-9.6006
 20
53.837800000000001
 30
0.0
 10
-9.2584999999999997
 20
52.982700000000001
 30
0.0
 10
-9.2584999999999997
 20
52.982700000000001
 30
0.0
 10
-9.2584999999999997
 20
52.982700000000001
 30
0.0
 10
-9.0960999999999999
 20
52.4696
 30
0.0
 10
-9.0960999999999999
 20
52.4696
 30
0.0
 10
-9.0960999999999999
 20
52.4696
 30
0.0
 10
-8.2750000000000004
 20
50.793500000000002
 30
0.0
 10
-7.2145000000000001
 20
47.595100000000002
 30
0.0
 10
-5.9147999999999996
 20
42.874499999999998
 30
0.0
 10
-5.9147999999999996
 20
42.874499999999998
 30
0.0
 10
-5.9147999999999996
 20
42.874499999999998
 30
0.0
 10
-5.5556999999999999
 20
40.514099999999999
 30
0.0
 10
-5.5556999999999999
 20
40.514099999999999
 30
0.0
 10
-5.5556999999999999
 20
40.514099999999999
 30
0.0
 10
-5.5556999999999999
 20
40.514099999999999
 30
0.0
 10
-4.9912000000000001
 20
35.4345
 30
0.0
 10
-4.9912000000000001
 20
35.4345
 30
0.0
 10
-4.9912000000000001
 20
35.4345
 30
0.0
 10
-4.9912000000000001
 20
35.297699999999999
 30
0.0
 10
-5.0080999999999998
 20
33.1768
 30
0.0
 10
-5.0425000000000004
 20
29.071899999999999
 30
0.0
 10
-5.0425000000000004
 20
29.071899999999999
 30
0.0
 10
-5.0766999999999998
 20
28.3536
 30
0.0
 10
-5.1795
 20
27.549600000000002
 30
0.0
 10
-5.3503999999999996
 20
26.660299999999999
 30
0.0
 10
-5.3503999999999996
 20
26.660299999999999
 30
0.0
 10
-2.4698000000000002
 20
26.195699999999999
 30
0.0
 10
0.1583
 20
24.931799999999999
 30
0.0
 10
2.5339999999999998
 20
22.868400000000001
 30
0.0
 10
2.5339999999999998
 20
22.868400000000001
 30
0.0
 10
5.0311000000000003
 20
27.208300000000001
 30
0.0
 10
6.4603000000000002
 20
32.240000000000002
 30
0.0
 10
6.4603000000000002
 20
37.6053
 30
0.0
 10
6.4603000000000002
 20
37.6053
 30
0.0
 10
6.4603000000000002
 20
53.949599999999997
 30
0.0
 10
-6.7941000000000003
 20
67.203800000000001
 30
0.0
 10
-23.138300000000001
 20
67.203800000000001
 30
0.0
 10
-23.138300000000001
 20
67.203800000000001
 30
0.0
 10
-24.178799999999999
 20
67.203800000000001
 30
0.0
 10
-25.206399999999999
 20
67.1494
 30
0.0
 10
-26.2193
 20
67.044700000000006
 30
0.0
  0
SPLINE
  5
2A
100
AcDbEntity
  8
RÚteg 1
 62
     7
100
AcDbSpline
210
0.0
220
0.0
230
1.0
 70
     1
 71
     3
 72
    40
 73
    36
 74
     0
 42
0.0000000001
 43
0.0000000001
 40
0.0
 40
0.0
 40
0.0
 40
0.0
 40
0.1111111111111111
 40
0.1111111111111111
 40
0.1111111111111111
 40
0.1111111111111111
 40
0.2222222222222222
 40
0.2222222222222222
 40
0.2222222222222222
 40
0.2222222222222222
 40
0.3333333333333333
 40
0.3333333333333333
 40
0.3333333333333333
 40
0.3333333333333333
 40
0.4444444444444444
 40
0.4444444444444444
 40
0.4444444444444444
 40
0.4444444444444444
 40
0.5555555555555556
 40
0.5555555555555556
 40
0.5555555555555556
 40
0.5555555555555556
 40
0.6666666666666667
 40
0.6666666666666667
 40
0.6666666666666667
 40
0.6666666666666667
 40
0.7777777777777779
 40
0.7777777777777779
 40
0.7777777777777779
 40
0.7777777777777779
 40
0.8888888888888891
 40
0.8888888888888891
 40
0.8888888888888891
 40
0.8888888888888891
 40
1.0
 40
1.0
 40
1.0
 40
1.0
 10
-24.049600000000002
 20
34.6601
 30
0.0
 10
-22.017600000000002
 20
34.6601
 30
0.0
 10
-20.369900000000001
 20
33.012500000000003
 30
0.0
 10
-20.369900000000001
 20
30.980599999999999
 30
0.0
 10
-20.369900000000001
 20
30.980599999999999
 30
0.0
 10
-20.369900000000001
 20
30.045000000000002
 30
0.0
 10
-20.7195
 20
29.191299999999998
 30
0.0
 10
-21.294799999999999
 20
28.541699999999999
 30
0.0
 10
-21.294799999999999
 20
28.541699999999999
 30
0.0
 10
-21.6646
 20
28.528700000000001
 30
0.0
 10
-21.975999999999999
 20
28.522300000000001
 30
0.0
 10
-22.2288
 20
28.522300000000001
 30
0.0
 10
-22.2288
 20
28.522300000000001
 30
0.0
 10
-22.263000000000002
 20
29.309000000000001
 30
0.0
 10
-22.639199999999999
 20
29.890599999999999
 30
0.0
 10
-23.357600000000001
 20
30.2668
 30
0.0
 10
-23.357600000000001
 20
30.2668
 30
0.0
 10
-24.3156
 20
30.5063
 30
0.0
 10
-24.982500000000002
 20
30.369299999999999
 30
0.0
 10
-25.358699999999999
 20
29.856300000000001
 30
0.0
 10
-25.358699999999999
 20
29.856300000000001
 30
0.0
 10
-25.666499999999999
 20
29.240600000000001
 30
0.0
 10
-25.820499999999999
 20
28.812899999999999
 30
0.0
 10
-25.820499999999999
 20
28.573499999999999
 30
0.0
 10
-25.820499999999999
 20
28.573499999999999
 30
0.0
 10
-26.192399999999999
 20
28.5566
 30
0.0
 10
-26.518599999999999
 20
28.543900000000001
 30
0.0
 10
-26.7986
 20
28.535399999999999
 30
0.0
 10
-26.7986
 20
28.535399999999999
 30
0.0
 10
-27.377300000000002
 20
29.185400000000001
 30
0.0
 10
-27.728999999999999
 20
30.042200000000001
 30
0.0
 10
-27.728999999999999
 20
30.980599999999999
 30
0.0
 10
-27.728999999999999
 20
30.980599999999999
 30
0.0
 10
-27.728999999999999
 20
33.012500000000003
 30
0.0
 10
-26.081399999999999
 20
34.6601
 30
0.0
 10
-24.049600000000002
 20
34.6601
 30
0.0
  0
SPLINE
  5
2B
100
AcDbEntity
  8
RÚteg 1
 62
     7
100
AcDbSpline
210
0.0
220
0.0
230
1.0
 70
     1
 71
     3
 72
    20
 73
    16
 74
     0
 42
0.0000000001
 43
0.0000000001
 40
0.0
 40
0.0
 40
0.0
 40
0.0
 40
0.25
 40
0.25
 40
0.25
 40
0.25
 40
0.5
 40
0.5
 40
0.5
 40
0.5
 40
0.75
 40
0.75
 40
0.75
 40
0.75
 40
1.0
 40
1.0
 40
1.0
 40
1.0
 10
-23.138300000000001
 20
77.662000000000006
 30
0.0
 10
-21.613
 20
77.662000000000006
 30
0.0
 10
-20.375800000000002
 20
76.424899999999994
 30
0.0
 10
-20.375800000000002
 20
74.899500000000003
 30
0.0
 10
-20.375800000000002
 20
74.899500000000003
 30
0.0
 10
-20.375800000000002
 20
73.373900000000006
 30
0.0
 10
-21.613
 20
72.136899999999997
 30
0.0
 10
-23.138300000000001
 20
72.136899999999997
 30
0.0
 10
-23.138300000000001
 20
72.136899999999997
 30
0.0
 10
-24.663599999999999
 20
72.136899999999997
 30
0.0
 10
-25.9008
 20
73.373900000000006
 30
0.0
 10
-25.9008
 20
74.899500000000003
 30
0.0
 10
-25.9008
 20
74.899500000000003
 30
0.0
 10
-25.9008
 20
76.424899999999994
 30
0.0
 10
-24.663599999999999
 20
77.662000000000006
 30
0.0
 10
-23.138300000000001
 20
77.662000000000006
 30
0.0
  0
SPLINE
  5
2C
100
AcDbEntity
  8
RÚteg 1
 62
     7
100
AcDbSpline
210
0.0
220
0.0
230
1.0
 70
     1
 71
     3
 72
    36
 73
    32
 74
     0
 42
0.0000000001
 43
0.0000000001
 40
0.0
 40
0.0
 40
0.0
 40
0.0
 40
0.125
 40
0.125
 40
0.125
 40
0.125
 40
0.25
 40
0.25
 40
0.25
 40
0.25
 40
0.375
 40
0.375
 40
0.375
 40
0.375
 40
0.5
 40
0.5
 40
0.5
 40
0.5
 40
0.625
 40
0.625
 40
0.625
 40
0.625
 40
0.75
 40
0.75
 40
0.75
 40
0.75
 40
0.875
 40
0.875
 40
0.875
 40
0.875
 40
1.0
 40
1.0
 40
1.0
 40
1.0
 10
-93.555499999999995
 20
72.380799999999994
 30
0.0
 10
-76.335700000000003
 20
70.430599999999998
 30
0.0
 10
-62.950000000000003
 20
55.813000000000002
 30
0.0
 10
-62.950000000000003
 20
38.072800000000001
 30
0.0
 10
-62.950000000000003
 20
38.072800000000001
 30
0.0
 10
-62.950000000000003
 20
19.0047
 30
0.0
 10
-78.413600000000002
 20
3.5411999999999999
 30
0.0
 10
-97.4816
 20
3.5411999999999999
 30
0.0
 10
-97.4816
 20
3.5411999999999999
 30
0.0
 10
-116.5496
 20
3.5411999999999999
 30
0.0
 10
-132.01320000000001
 20
19.0047
 30
0.0
 10
-132.01320000000001
 20
38.072800000000001
 30
0.0
 10
-132.01320000000001
 20
38.072800000000001
 30
0.0
 10
-132.01320000000001
 20
55.813000000000002
 30
0.0
 10
-118.6275
 20
70.430599999999998
 30
0.0
 10
-101.40770000000001
 20
72.380799999999994
 30
0.0
 10
-101.40770000000001
 20
72.380799999999994
 30
0.0
 10
-102.03959999999999
 20
73.209900000000005
 30
0.0
 10
-102.41459999999999
 20
74.244600000000005
 30
0.0
 10
-102.41459999999999
 20
75.367000000000004
 30
0.0
 10
-102.41459999999999
 20
75.367000000000004
 30
0.0
 10
-102.41459999999999
 20
78.090800000000002
 30
0.0
 10
-100.2056
 20
80.299999999999997
 30
0.0
 10
-97.4816
 20
80.299999999999997
 30
0.0
 10
-97.4816
 20
80.299999999999997
 30
0.0
 10
-94.757599999999996
 20
80.299999999999997
 30
0.0
 10
-92.548599999999993
 20
78.090800000000002
 30
0.0
 10
-92.548599999999993
 20
75.367000000000004
 30
0.0
 10
-92.548599999999993
 20
75.367000000000004
 30
0.0
 10
-92.548599999999993
 20
74.244600000000005
 30
0.0
 10
-92.923599999999993
 20
73.209900000000005
 30
0.0
 10
-93.555499999999995
 20
72.380799999999994
 30
0.0
  0
SPLINE
  5
2D
100
AcDbEntity
  8
RÚteg 1
 62
     7
100
AcDbSpline
210
0.0
220
0.0
230
1.0
 70
     1
 71
     3
 72
    92
 73
    88
 74
     0
 42
0.0000000001
 43
0.0000000001
 40
0.0
 40
0.0
 40
0.0
 40
0.0
 40
0.0454545454545455
 40
0.0454545454545455
 40
0.0454545454545455
 40
0.0454545454545455
 40
0.0909090909090909
 40
0.0909090909090909
 40
0.0909090909090909
 40
0.0909090909090909
 40
0.1363636363636364
 40
0.1363636363636364
 40
0.1363636363636364
 40
0.1363636363636364
 40
0.1818181818181818
 40
0.1818181818181818
 40
0.1818181818181818
 40
0.1818181818181818
 40
0.2272727272727273
 40
0.2272727272727273
 40
0.2272727272727273
 40
0.2272727272727273
 40
0.2727272727272728
 40
0.2727272727272728
 40
0.2727272727272728
 40
0.2727272727272728
 40
0.3181818181818182
 40
0.3181818181818182
 40
0.3181818181818182
 40
0.3181818181818182
 40
0.3636363636363637
 40
0.3636363636363637
 40
0.3636363636363637
 40
0.3636363636363637
 40
0.4090909090909092
 40
0.4090909090909092
 40
0.4090909090909092
 40
0.4090909090909092
 40
0.4545454545454546
 40
0.4545454545454546
 40
0.4545454545454546
 40
0.4545454545454546
 40
0.5000000000000001
 40
0.5000000000000001
 40
0.5000000000000001
 40
0.5000000000000001
 40
0.5454545454545455
 40
0.5454545454545455
 40
0.5454545454545455
 40
0.5454545454545455
 40
0.5909090909090909
 40
0.5909090909090909
 40
0.5909090909090909
 40
0.5909090909090909
 40
0.6363636363636364
 40
0.6363636363636364
 40
0.6363636363636364
 40
0.6363636363636364
 40
0.6818181818181818
 40
0.6818181818181818
 40
0.6818181818181818
 40
0.6818181818181818
 40
0.7272727272727272
 40
0.7272727272727272
 40
0.7272727272727272
 40
0.7272727272727272
 40
0.7727272727272726
 40
0.7727272727272726
 40
0.7727272727272726
 40
0.7727272727272726
 40
0.818181818181818
 40
0.818181818181818
 40
0.818181818181818
 40
0.818181818181818
 40
0.8636363636363634
 40
0.8636363636363634
 40
0.8636363636363634
 40
0.8636363636363634
 40
0.9090909090909088
 40
0.9090909090909088
 40
0.9090909090909088
 40
0.9090909090909088
 40
0.9545454545454543
 40
0.9545454545454543
 40
0.9545454545454543
 40
0.9545454545454543
 40
1.0
 40
1.0
 40
1.0
 40
1.0
 10
-105.79949999999999
 20
9.6616
 30
0.0
 10
-108.6134
 20
16.177700000000002
 30
0.0
 10
-111.5476
 20
19.210100000000001
 30
0.0
 10
-114.53959999999999
 20
20.5718
 30
0.0
 10
-114.53959999999999
 20
20.5718
 30
0.0
 10
-112.6917
 20
22.907599999999999
 30
0.0
 10
-110.801
 20
25.243400000000001
 30
0.0
 10
-109.6425
 20
27.579599999999999
 30
0.0
 10
-109.6425
 20
27.579599999999999
 30
0.0
 10
-110.89490000000001
 20
28.177600000000002
 30
0.0
 10
-111.96429999999999
 20
29.964700000000001
 30
0.0
 10
-112.76649999999999
 20
33.489800000000002
 30
0.0
 10
-112.76649999999999
 20
33.489800000000002
 30
0.0
 10
-112.5698
 20
31.266400000000001
 30
0.0
 10
-113.3856
 20
30.056100000000001
 30
0.0
 10
-115.21510000000001
 20
29.859300000000001
 30
0.0
 10
-115.21510000000001
 20
29.859300000000001
 30
0.0
 10
-114.2992
 20
31.990400000000001
 30
0.0
 10
-114.4402
 20
34.650300000000001
 30
0.0
 10
-114.87739999999999
 20
37.458100000000002
 30
0.0
 10
-114.87739999999999
 20
37.458100000000002
 30
0.0
 10
-114.7085
 20
37.655099999999997
 30
0.0
 10
-114.53959999999999
 20
37.852200000000003
 30
0.0
 10
-114.3707
 20
38.049199999999999
 30
0.0
 10
-114.3707
 20
38.049199999999999
 30
0.0
 10
-113.4975
 20
38.530200000000001
 30
0.0
 10
-112.8223
 20
38.022500000000001
 30
0.0
 10
-112.1755
 20
37.373600000000003
 30
0.0
 10
-112.1755
 20
37.373600000000003
 30
0.0
 10
-111.1628
 20
41.229799999999997
 30
0.0
 10
-107.9823
 20
42.608499999999999
 30
0.0
 10
-103.8168
 20
42.861800000000002
 30
0.0
 10
-103.8168
 20
42.861800000000002
 30
0.0
 10
-100.1722
 20
42.073500000000003
 30
0.0
 10
-96.597999999999999
 20
41.566899999999997
 30
0.0
 10
-93.178299999999993
 20
41.6798
 30
0.0
 10
-93.178299999999993
 20
41.6798
 30
0.0
 10
-91.039599999999993
 20
42.749099999999999
 30
0.0
 10
-90.251499999999993
 20
44.494
 30
0.0
 10
-90.8142
 20
46.914499999999997
 30
0.0
 10
-90.8142
 20
46.914499999999997
 30
0.0
 10
-91.272099999999995
 20
47.6462
 30
0.0
 10
-91.850099999999998
 20
48.377899999999997
 30
0.0
 10
-91.827399999999997
 20
49.109699999999997
 30
0.0
 10
-91.827399999999997
 20
49.109699999999997
 30
0.0
 10
-92.418499999999995
 20
49.503500000000003
 30
0.0
 10
-93.009500000000003
 20
49.8977
 30
0.0
 10
-93.600399999999993
 20
50.291699999999999
 30
0.0
 10
-93.600399999999993
 20
50.291699999999999
 30
0.0
 10
-94.726299999999995
 20
49.3628
 30
0.0
 10
-96.077299999999994
 20
48.546799999999998
 30
0.0
 10
-97.653199999999998
 20
47.843200000000003
 30
0.0
 10
-97.653199999999998
 20
47.843200000000003
 30
0.0
 10
-98.1601
 20
49.278300000000002
 30
0.0
 10
-98.385199999999998
 20
50.854500000000002
 30
0.0
 10
-97.990799999999993
 20
52.740200000000002
 30
0.0
 10
-97.990799999999993
 20
52.740200000000002
 30
0.0
 10
-97.653400000000005
 20
52.993400000000001
 30
0.0
 10
-97.3155
 20
53.2468
 30
0.0
 10
-96.977800000000002
 20
53.500300000000003
 30
0.0
 10
-96.977800000000002
 20
53.500300000000003
 30
0.0
 10
-96.977800000000002
 20
53.500300000000003
 30
0.0
 10
-96.866699999999994
 20
54.212699999999998
 30
0.0
 10
-96.866699999999994
 20
54.212699999999998
 30
0.0
 10
-96.866699999999994
 20
54.212699999999998
 30
0.0
 10
-99.2881
 20
53.578000000000003
 30
0.0
 10
-101.70950000000001
 20
53.442
 30
0.0
 10
-104.13120000000001
 20
53.803699999999999
 30
0.0
 10
-104.13120000000001
 20
53.803699999999999
 30
0.0
 10
-106.8683
 20
54.581099999999999
 30
0.0
 10
-109.1078
 20
55.980699999999999
 30
0.0
 10
-110.8497
 20
58.002600000000001
 30
0.0
 10
-110.8497
 20
58.002600000000001
 30
0.0
 10
-112.00060000000001
 20
59.993200000000002
 30
0.0
 10
-111.78270000000001
 20
61.983699999999999
 30
0.0
 10
-110.94289999999999
 20
63.974400000000003
 30
0.0
 10
-110.94289999999999
 20
63.974400000000003
 30
0.0
 10
-110.7855
 20
64.242199999999997
 30
0.0
 10
-110.5963
 20
64.488799999999998
 30
0.0
 10
-110.3811
 20
64.718199999999996
 30
0.0
 10
-110.3811
 20
64.718199999999996
 30
0.0
 10
-120.2641
 20
59.9236
 30
0.0
 10
-127.0802
 20
49.792900000000003
 30
0.0
 10
-127.0802
 20
38.072800000000001
 30
0.0
 10
-127.0802
 20
38.072800000000001
 30
0.0
 10
-127.0802
 20
24.616800000000001
 30
0.0
 10
-118.0951
 20
13.2567
 30
0.0
 10
-105.79949999999999
 20
9.6616
 30
0.0
  0
SPLINE
  5
2E
100
AcDbEntity
  8
RÚteg 1
 62
     7
100
AcDbSpline
210
0.0
220
0.0
230
1.0
 70
     1
 71
     3
 72
   124
 73
   120
 74
     0
 42
0.0000000001
 43
0.0000000001
 40
0.0
 40
0.0
 40
0.0
 40
0.0
 40
0.0333333333333333
 40
0.0333333333333333
 40
0.0333333333333333
 40
0.0333333333333333
 40
0.0666666666666667
 40
0.0666666666666667
 40
0.0666666666666667
 40
0.0666666666666667
 40
0.1
 40
0.1
 40
0.1
 40
0.1
 40
0.1333333333333333
 40
0.1333333333333333
 40
0.1333333333333333
 40
0.1333333333333333
 40
0.1666666666666667
 40
0.1666666666666667
 40
0.1666666666666667
 40
0.1666666666666667
 40
0.2
 40
0.2
 40
0.2
 40
0.2
 40
0.2333333333333333
 40
0.2333333333333333
 40
0.2333333333333333
 40
0.2333333333333333
 40
0.2666666666666667
 40
0.2666666666666667
 40
0.2666666666666667
 40
0.2666666666666667
 40
0.3
 40
0.3
 40
0.3
 40
0.3
 40
0.3333333333333333
 40
0.3333333333333333
 40
0.3333333333333333
 40
0.3333333333333333
 40
0.3666666666666666
 40
0.3666666666666666
 40
0.3666666666666666
 40
0.3666666666666666
 40
0.4
 40
0.4
 40
0.4
 40
0.4
 40
0.4333333333333333
 40
0.4333333333333333
 40
0.4333333333333333
 40
0.4333333333333333
 40
0.4666666666666666
 40
0.4666666666666666
 40
0.4666666666666666
 40
0.4666666666666666
 40
0.4999999999999999
 40
0.4999999999999999
 40
0.4999999999999999
 40
0.4999999999999999
 40
0.5333333333333333
 40
0.5333333333333333
 40
0.5333333333333333
 40
0.5333333333333333
 40
0.5666666666666667
 40
0.5666666666666667
 40
0.5666666666666667
 40
0.5666666666666667
 40
0.6
 40
0.6
 40
0.6
 40
0.6
 40
0.6333333333333333
 40
0.6333333333333333
 40
0.6333333333333333
 40
0.6333333333333333
 40
0.6666666666666666
 40
0.6666666666666666
 40
0.6666666666666666
 40
0.6666666666666666
 40
0.7
 40
0.7
 40
0.7
 40
0.7
 40
0.7333333333333333
 40
0.7333333333333333
 40
0.7333333333333333
 40
0.7333333333333333
 40
0.7666666666666666
 40
0.7666666666666666
 40
0.7666666666666666
 40
0.7666666666666666
 40
0.7999999999999999
 40
0.7999999999999999
 40
0.7999999999999999
 40
0.7999999999999999
 40
0.8333333333333333
 40
0.8333333333333333
 40
0.8333333333333333
 40
0.8333333333333333
 40
0.8666666666666666
 40
0.8666666666666666
 40
0.8666666666666666
 40
0.8666666666666666
 40
0.8999999999999999
 40
0.8999999999999999
 40
0.8999999999999999
 40
0.8999999999999999
 40
0.9333333333333332
 40
0.9333333333333332
 40
0.9333333333333332
 40
0.9333333333333332
 40
0.9666666666666666
 40
0.9666666666666666
 40
0.9666666666666666
 40
0.9666666666666666
 40
1.0
 40
1.0
 40
1.0
 40
1.0
 10
-108.2719
 20
65.641300000000001
 30
0.0
 10
-108.8506
 20
64.899100000000004
 30
0.0
 10
-109.3027
 20
64.156800000000004
 30
0.0
 10
-109.4499
 20
63.4146
 30
0.0
 10
-109.4499
 20
63.4146
 30
0.0
 10
-110.2205
 20
61.650599999999997
 30
0.0
 10
-109.9589
 20
60.229999999999997
 30
0.0
 10
-109.1373
 20
59.093499999999999
 30
0.0
 10
-109.1373
 20
59.093499999999999
 30
0.0
 10
-109.0093
 20
61.064900000000002
 30
0.0
 10
-108.0908
 20
62.196399999999997
 30
0.0
 10
-106.248
 20
62.347299999999997
 30
0.0
 10
-106.248
 20
62.347299999999997
 30
0.0
 10
-107.5912
 20
61.325400000000002
 30
0.0
 10
-108.20480000000001
 20
59.860799999999998
 30
0.0
 10
-107.79989999999999
 20
57.778199999999998
 30
0.0
 10
-107.79989999999999
 20
57.778199999999998
 30
0.0
 10
-107.28789999999999
 20
57.398699999999998
 30
0.0
 10
-106.712
 20
57.064900000000002
 30
0.0
 10
-106.1083
 20
56.7727
 30
0.0
 10
-106.1083
 20
56.7727
 30
0.0
 10
-106.2585
 20
58.429900000000004
 30
0.0
 10
-105.59950000000001
 20
59.564100000000003
 30
0.0
 10
-104.0095
 20
60.096499999999999
 30
0.0
 10
-104.0095
 20
60.096499999999999
 30
0.0
 10
-104.89619999999999
 20
58.997500000000002
 30
0.0
 10
-105.2128
 20
57.719299999999997
 30
0.0
 10
-104.77070000000001
 20
56.203800000000001
 30
0.0
 10
-104.77070000000001
 20
56.203800000000001
 30
0.0
 10
-104.43210000000001
 20
56.076999999999998
 30
0.0
 10
-104.0929
 20
55.961500000000001
 30
0.0
 10
-103.758
 20
55.856400000000001
 30
0.0
 10
-103.758
 20
55.856400000000001
 30
0.0
 10
-101.36020000000001
 20
55.771599999999999
 30
0.0
 10
-98.962599999999995
 20
56.0381
 30
0.0
 10
-96.564899999999994
 20
56.386000000000003
 30
0.0
 10
-96.564899999999994
 20
56.386000000000003
 30
0.0
 10
-96.5839
 20
57.633200000000002
 30
0.0
 10
-95.680199999999999
 20
58.162799999999997
 30
0.0
 10
-93.853899999999996
 20
57.975099999999998
 30
0.0
 10
-93.853899999999996
 20
57.975099999999998
 30
0.0
 10
-91.883799999999994
 20
58.481499999999997
 30
0.0
 10
-90.251499999999993
 20
59.551099999999998
 30
0.0
 10
-88.956699999999998
 20
61.183500000000002
 30
0.0
 10
-88.956699999999998
 20
61.183500000000002
 30
0.0
 10
-87.829499999999996
 20
61.947800000000001
 30
0.0
 10
-86.843500000000006
 20
62.316800000000001
 30
0.0
 10
-86.846000000000004
 20
59.917000000000002
 30
0.0
 10
-86.846000000000004
 20
59.917000000000002
 30
0.0
 10
-88.563000000000002
 20
56.848999999999997
 30
0.0
 10
-89.4358
 20
54.0627
 30
0.0
 10
-88.450199999999995
 20
51.895800000000001
 30
0.0
 10
-88.450199999999995
 20
51.895800000000001
 30
0.0
 10
-87.097200000000001
 20
50.881999999999998
 30
0.0
 10
-86.5351
 20
50.066000000000003
 30
0.0
 10
-86.086100000000002
 20
49.278700000000001
 30
0.0
 10
-86.086100000000002
 20
49.278700000000001
 30
0.0
 10
-84.341399999999993
 20
48.166699999999999
 30
0.0
 10
-83.131299999999996
 20
46.787599999999998
 30
0.0
 10
-82.286799999999999
 20
45.225900000000003
 30
0.0
 10
-82.286799999999999
 20
45.225900000000003
 30
0.0
 10
-81.414299999999997
 20
43.002499999999998
 30
0.0
 10
-81.555199999999999
 20
41.003999999999998
 30
0.0
 10
-82.708799999999997
 20
39.231099999999998
 30
0.0
 10
-82.708799999999997
 20
39.231099999999998
 30
0.0
 10
-82.736999999999995
 20
38.077100000000002
 30
0.0
 10
-82.765299999999996
 20
36.923299999999998
 30
0.0
 10
-82.793199999999999
 20
35.769500000000001
 30
0.0
 10
-82.793199999999999
 20
35.769500000000001
 30
0.0
 10
-81.132900000000006
 20
35.550199999999997
 30
0.0
 10
-79.472300000000004
 20
34.747300000000003
 30
0.0
 10
-77.811700000000002
 20
34.0809
 30
0.0
 10
-77.811700000000002
 20
34.0809
 30
0.0
 10
-77.474100000000007
 20
33.574199999999998
 30
0.0
 10
-77.136399999999995
 20
33.067500000000003
 30
0.0
 10
-76.798500000000004
 20
32.561100000000003
 30
0.0
 10
-76.798500000000004
 20
32.561100000000003
 30
0.0
 10
-76.629800000000003
 20
31.8855
 30
0.0
 10
-76.460999999999999
 20
31.210000000000001
 30
0.0
 10
-76.291899999999998
 20
30.534700000000001
 30
0.0
 10
-76.291899999999998
 20
30.534700000000001
 30
0.0
 10
-76.179400000000001
 20
29.831099999999999
 30
0.0
 10
-76.517200000000003
 20
29.127400000000002
 30
0.0
 10
-77.305000000000007
 20
28.4239
 30
0.0
 10
-77.305000000000007
 20
28.4239
 30
0.0
 10
-79.768000000000001
 20
25.609300000000001
 30
0.0
 10
-82.807599999999994
 20
23.948899999999998
 30
0.0
 10
-86.170599999999993
 20
22.935700000000001
 30
0.0
 10
-86.170599999999993
 20
22.935700000000001
 30
0.0
 10
-86.226799999999997
 20
23.8645
 30
0.0
 10
-86.283000000000001
 20
24.793199999999999
 30
0.0
 10
-86.339399999999998
 20
25.722000000000001
 30
0.0
 10
-86.339399999999998
 20
25.722000000000001
 30
0.0
 10
-83.324399999999997
 20
25.813300000000002
 30
0.0
 10
-80.742400000000004
 20
27.347200000000001
 30
0.0
 10
-78.402799999999999
 20
29.690300000000001
 30
0.0
 10
-78.402799999999999
 20
29.690300000000001
 30
0.0
 10
-78.754800000000003
 20
31.013300000000001
 30
0.0
 10
-79.570899999999995
 20
31.7166
 30
0.0
 10
-80.597899999999996
 20
32.1389
 30
0.0
 10
-80.597899999999996
 20
32.1389
 30
0.0
 10
-82.682900000000004
 20
33.125999999999998
 30
0.0
 10
-83.976799999999997
 20
33.322000000000003
 30
0.0
 10
-85.157399999999996
 20
33.405299999999997
 30
0.0
 10
-85.157399999999996
 20
33.405299999999997
 30
0.0
 10
-89.224199999999996
 20
21.833200000000001
 30
0.0
 10
-91.558400000000006
 20
13.076700000000001
 30
0.0
 10
-90.880499999999998
 20
9.2143999999999995
 30
0.0
 10
-90.880499999999998
 20
9.2143999999999995
 30
0.0
 10
-77.713099999999997
 20
12.2149
 30
0.0
 10
-67.882999999999996
 20
23.997800000000002
 30
0.0
 10
-67.882999999999996
 20
38.072800000000001
 30
0.0
 10
-67.882999999999996
 20
38.072800000000001
 30
0.0
 10
-67.882999999999996
 20
54.416800000000002
 30
0.0
 10
-81.1374
 20
67.671300000000002
 30
0.0
 10
-97.4816
 20
67.671300000000002
 30
0.0
 10
-97.4816
 20
67.671300000000002
 30
0.0
 10
-101.2891
 20
67.671300000000002
 30
0.0
 10
-104.9285
 20
66.951499999999996
 30
0.0
 10
-108.2719
 20
65.641300000000001
 30
0.0
  0
SPLINE
  5
2F
100
AcDbEntity
  8
RÚteg 1
 62
     7
100
AcDbSpline
210
0.0
220
0.0
230
1.0
 70
     1
 71
     3
 72
    32
 73
    28
 74
     0
 42
0.0000000001
 43
0.0000000001
 40
0.0
 40
0.0
 40
0.0
 40
0.0
 40
0.1428571428571429
 40
0.1428571428571429
 40
0.1428571428571429
 40
0.1428571428571429
 40
0.2857142857142857
 40
0.2857142857142857
 40
0.2857142857142857
 40
0.2857142857142857
 40
0.4285714285714286
 40
0.4285714285714286
 40
0.4285714285714286
 40
0.4285714285714286
 40
0.5714285714285714
 40
0.5714285714285714
 40
0.5714285714285714
 40
0.5714285714285714
 40
0.7142857142857142
 40
0.7142857142857142
 40
0.7142857142857142
 40
0.7142857142857142
 40
0.857142857142857
 40
0.857142857142857
 40
0.857142857142857
 40
0.857142857142857
 40
1.0
 40
1.0
 40
1.0
 40
1.0
 10
-94.230900000000005
 20
8.6526999999999994
 30
0.0
 10
-92.745800000000003
 20
13.751300000000001
 30
0.0
 10
-91.521600000000007
 20
18.850000000000001
 30
0.0
 10
-90.476500000000001
 20
23.948899999999998
 30
0.0
 10
-90.476500000000001
 20
23.948899999999998
 30
0.0
 10
-90.448400000000007
 20
26.031600000000001
 30
0.0
 10
-90.420400000000001
 20
28.1142
 30
0.0
 10
-90.392200000000003
 20
30.196899999999999
 30
0.0
 10
-90.392200000000003
 20
30.196899999999999
 30
0.0
 10
-94.079099999999997
 20
29.436699999999998
 30
0.0
 10
-97.906700000000001
 20
29.239699999999999
 30
0.0
 10
-102.0437
 20
30.281400000000001
 30
0.0
 10
-102.0437
 20
30.281400000000001
 30
0.0
 10
-105.3626
 20
24.289000000000001
 30
0.0
 10
-110.09869999999999
 20
22.175000000000001
 30
0.0
 10
-110.5714
 20
20.9939
 30
0.0
 10
-110.5714
 20
20.9939
 30
0.0
 10
-110.9635
 20
20.0137
 30
0.0
 10
-103.73260000000001
 20
11.553800000000001
 30
0.0
 10
-102.077
 20
8.8300999999999998
 30
0.0
 10
-102.077
 20
8.8300999999999998
 30
0.0
 10
-100.5793
 20
8.5960000000000001
 30
0.0
 10
-99.044799999999995
 20
8.4742999999999995
 30
0.0
 10
-97.4816
 20
8.4742999999999995
 30
0.0
 10
-97.4816
 20
8.4742999999999995
 30
0.0
 10
-96.382900000000006
 20
8.4742999999999995
 30
0.0
 10
-95.298500000000004
 20
8.5358999999999998
 30
0.0
 10
-94.230900000000005
 20
8.6526999999999994
 30
0.0
  0
SPLINE
  5
30
100
AcDbEntity
  8
RÚteg 1
 62
     7
100
AcDbSpline
210
0.0
220
0.0
230
1.0
 70
     1
 71
     3
 72
    20
 73
    16
 74
     0
 42
0.0000000001
 43
0.0000000001
 40
0.0
 40
0.0
 40
0.0
 40
0.0
 40
0.25
 40
0.25
 40
0.25
 40
0.25
 40
0.5
 40
0.5
 40
0.5
 40
0.5
 40
0.75
 40
0.75
 40
0.75
 40
0.75
 40
1.0
 40
1.0
 40
1.0
 40
1.0
 10
-97.4816
 20
78.129400000000004
 30
0.0
 10
-95.956299999999999
 20
78.129400000000004
 30
0.0
 10
-94.719099999999997
 20
76.892399999999995
 30
0.0
 10
-94.719099999999997
 20
75.367000000000004
 30
0.0
 10
-94.719099999999997
 20
75.367000000000004
 30
0.0
 10
-94.719099999999997
 20
73.841399999999993
 30
0.0
 10
-95.956299999999999
 20
72.604399999999998
 30
0.0
 10
-97.4816
 20
72.604399999999998
 30
0.0
 10
-97.4816
 20
72.604399999999998
 30
0.0
 10
-99.006900000000002
 20
72.604399999999998
 30
0.0
 10
-100.2441
 20
73.841399999999993
 30
0.0
 10
-100.2441
 20
75.367000000000004
 30
0.0
 10
-100.2441
 20
75.367000000000004
 30
0.0
 10
-100.2441
 20
76.892399999999995
 30
0.0
 10
-99.006900000000002
 20
78.129400000000004
 30
0.0
 10
-97.4816
 20
78.129400000000004
 30
0.0
  0
ENDSEC
  0
SECTION
  2
OBJECTS
  0
DICTIONARY
  5
19
100
AcDbDictionary
280
     0
281
     1
  3
ACAD_GROUP
350
1A
  3
ACAD_MLINESTYLE
350
1B
  3
ACAD_LAYOUT
350
1E
  3
ACAD_PLOTSETTINGS
350
22
  3
ACAD_PLOTSTYLENAME
350
1F
  3
ACAD_WIPEOUT_VARS
350
23
  0
DICTIONARY
  5
1A
102
{ACAD_REACTORS
330
19
102
}
100
AcDbDictionary
280
     0
281
     1
  0
DICTIONARY
  5
1B
102
{ACAD_REACTORS
330
19
102
}
100
AcDbDictionary
280
     0
281
     1
  3
Standard
350
1C
  0
MLINESTYLE
  5
1C
102
{ACAD_REACTORS
330
1B
102
}
100
AcDbMlineStyle
  2
Standard
 70
     0
  3

 62
     0
 51
90.0
 52
90.0
 71
     2
 49
0.5
 62
   256
  6
BYLAYER
 49
-0.5
 62
   256
  6
BYLAYER
  0
ACDBDICTIONARYWDFLT
  5
1F
102
{ACAD_REACTORS
330
19
102
}
100
AcDbDictionary
281
     1
  3
Normal
350
1D
100
AcDbDictionaryWithDefault
340
1D
  0
ACDBPLACEHOLDER
  5
1D
102
{ACAD_REACTORS
330
1F
102
}
  0
LAYOUT
  5
20
102
{ACAD_REACTORS
330
1E
102
}
100
AcDbPlotSettings
  1

  2

  4

  6

 40
0.0
 41
0.0
 42
0.0
 43
0.0
 44
0.0
 45
0.0
 46
0.0
 47
0.0
 48
0.0
 49
0.0
140
0.0
141
0.0
142
1.0
143
1.0
 70
  1024
 72
     0
 73
     0
 74
     0
  7

 75
     0
147
1.0
148
0.0
149
0.0
100
AcDbLayout
  1
Model
 70
     0
 71
     0
 10
0.0
 20
0.0
 11
0.0
 21
0.0
 12
0.0
 22
0.0
 32
0.0
 14
0.0
 24
0.0
 34
0.0
 15
0.0
 25
0.0
 35
0.0
146
0.0
 13
0.0
 23
0.0
 33
0.0
 16
0.0
 26
0.0
 36
0.0
 17
0.0
 27
0.0
 37
0.0
 76
     0
330
A
331
0
345
0
346
0
  0
LAYOUT
  5
21
102
{ACAD_REACTORS
330
1E
102
}
100
AcDbPlotSettings
  1

  2

  4

  6

 40
0.0
 41
0.0
 42
0.0
 43
0.0
 44
0.0
 45
0.0
 46
0.0
 47
0.0
 48
0.0
 49
0.0
140
0.0
141
0.0
142
1.0
143
1.0
 70
     0
 72
     0
 73
     0
 74
     0
  7

 75
     0
147
1.0
148
0.0
149
0.0
100
AcDbLayout
  1
Layout1
 70
     0
 71
     0
 10
0.0
 20
0.0
 11
0.0
 21
0.0
 12
0.0
 22
0.0
 32
0.0
 14
0.0
 24
0.0
 34
0.0
 15
0.0
 25
0.0
 35
0.0
146
0.0
 13
0.0
 23
0.0
 33
0.0
 16
0.0
 26
0.0
 36
0.0
 17
0.0
 27
0.0
 37
0.0
 76
     0
330
B
331
0
345
0
346
0
  0
DICTIONARY
  5
1E
102
{ACAD_REACTORS
330
19
102
}
100
AcDbDictionary
280
     0
281
     1
  3
Layout1
350
21
  3
Model
350
20
  0
DICTIONARY
  5
22
102
{ACAD_REACTORS
330
19
102
}
100
AcDbDictionary
280
     0
281
     1
  0
WIPEOUTVARIABLES
  5
23
100
AcDbWipeoutVariables
 70
     1
  0
ENDSEC
  0
EOF
